 0
SECTION
 2
HEADER
 9
$ACADVER
 1
AC1009
 0
ENDSEC
 0
SECTION
 2
TABLES
 0
TABLE
 2
LTYPE
 70
1
 0
LTYPE
 2
CONTINUOUS
 70
64
 3
solid line
 72
65
 73
0
 40
0.0
 0
ENDTAB
 0
TABLE
 2
LAYER
 70
6
 0
LAYER
 2
0
 70
0
 62
7
 6
CONTINUOUS
 0
LAYER
 2
100_1490
 70
64
 62
7
 6
CONTINUOUS
 0
LAYER
 2
K_RPER_1
 70
64
 62
250
 6
CONTINUOUS
 0
LAYER
 2
K_RPER_2_1
 70
64
 62
250
 6
CONTINUOUS
 0
LAYER
 2
R_HRE
 70
64
 62
250
 6
CONTINUOUS
 0
LAYER
 2
PELATOR_2
 70
64
 62
250
 6
CONTINUOUS
 0
LAYER
 2
K_RPER_1_1
 70
64
 62
250
 6
CONTINUOUS
 0
LAYER
 2
K_RPER
 70
64
 62
250
 6
CONTINUOUS
 0
LAYER
 2
K_RPER33
 70
64
 62
250
 6
CONTINUOUS
 0
LAYER
 2
K_RPER_2_2
 70
64
 62
250
 6
CONTINUOUS
 0
LAYER
 2
K_RPER_1_2
 70
64
 62
250
 6
CONTINUOUS
 0
LAYER
 2
K_RPER_2_3
 70
64
 62
250
 6
CONTINUOUS
 0
LAYER
 2
K_RPER_1_3
 70
64
 62
250
 6
CONTINUOUS
 0
LAYER
 2
K_RPER_2
 70
64
 62
250
 6
CONTINUOUS
 0
LAYER
 2
K_RPER_3
 70
64
 62
250
 6
CONTINUOUS
 0
LAYER
 2
KARTUSCHE
 70
64
 62
250
 6
CONTINUOUS
 0
LAYER
 2
ROSETTE
 70
64
 62
250
 6
CONTINUOUS
 0
LAYER
 2
GRIFFHEBEL
 70
64
 62
250
 6
CONTINUOUS
 0
LAYER
 2
GRIFF_2
 70
64
 62
250
 6
CONTINUOUS
 0
LAYER
 2
W_RFEL
 70
64
 62
250
 6
CONTINUOUS
 0
ENDTAB
 0
ENDSEC
 0
SECTION
 2
BLOCKS
 0
ENDSEC
 0
SECTION
 2
ENTITIES
 0
POLYLINE
 8
K_RPER_1
 66
1
 10
0.0
 20
0.0
 30
0.0
 70
64
 71
81
 72
80
 0
VERTEX
 8
K_RPER_1
 10
-4.7841
 20
-21.8522
 30
20.5624
 70
192
 0
VERTEX
 8
K_RPER_1
 10
-5.0932
 20
-23.2689
 30
20.5624
 70
192
 0
VERTEX
 8
K_RPER_1
 10
-5.1039
 20
-23.3177
 30
20.6124
 70
192
 0
VERTEX
 8
K_RPER_1
 10
-5.1039
 20
-23.3177
 30
24.9257
 70
192
 0
VERTEX
 8
K_RPER_1
 10
-5.0932
 20
-23.2689
 30
24.9757
 70
192
 0
VERTEX
 8
K_RPER_1
 10
-4.6403
 20
-23.2951
 30
20.5624
 70
192
 0
VERTEX
 8
K_RPER_1
 10
-4.6354
 20
-23.3448
 30
20.6124
 70
192
 0
VERTEX
 8
K_RPER_1
 10
-4.6354
 20
-23.3448
 30
24.9257
 70
192
 0
VERTEX
 8
K_RPER_1
 10
-4.6403
 20
-23.2951
 30
24.9757
 70
192
 0
VERTEX
 8
K_RPER_1
 10
-4.2015
 20
-23.18
 30
20.5624
 70
192
 0
VERTEX
 8
K_RPER_1
 10
-4.1814
 20
-23.2258
 30
20.6124
 70
192
 0
VERTEX
 8
K_RPER_1
 10
-4.1814
 20
-23.2258
 30
24.9257
 70
192
 0
VERTEX
 8
K_RPER_1
 10
-4.2015
 20
-23.18
 30
24.9757
 70
192
 0
VERTEX
 8
K_RPER_1
 10
-3.8197
 20
-22.935
 30
20.5624
 70
192
 0
VERTEX
 8
K_RPER_1
 10
-3.7864
 20
-22.9724
 30
20.6124
 70
192
 0
VERTEX
 8
K_RPER_1
 10
-3.7864
 20
-22.9724
 30
24.9257
 70
192
 0
VERTEX
 8
K_RPER_1
 10
-3.8197
 20
-22.935
 30
24.9757
 70
192
 0
VERTEX
 8
K_RPER_1
 10
-3.5323
 20
-22.584
 30
20.5624
 70
192
 0
VERTEX
 8
K_RPER_1
 10
-3.4891
 20
-22.6093
 30
20.6124
 70
192
 0
VERTEX
 8
K_RPER_1
 10
-3.4891
 20
-22.6093
 30
24.9257
 70
192
 0
VERTEX
 8
K_RPER_1
 10
-3.5323
 20
-22.584
 30
24.9757
 70
192
 0
VERTEX
 8
K_RPER_1
 10
-3.3674
 20
-22.1614
 30
20.5624
 70
192
 0
VERTEX
 8
K_RPER_1
 10
-3.3186
 20
-22.1721
 30
20.6124
 70
192
 0
VERTEX
 8
K_RPER_1
 10
-3.3186
 20
-22.1721
 30
24.9257
 70
192
 0
VERTEX
 8
K_RPER_1
 10
-3.3674
 20
-22.1614
 30
24.9757
 70
192
 0
VERTEX
 8
K_RPER_1
 10
-3.3412
 20
-21.7085
 30
20.5624
 70
192
 0
VERTEX
 8
K_RPER_1
 10
-3.2914
 20
-21.7035
 30
20.6124
 70
192
 0
VERTEX
 8
K_RPER_1
 10
-3.2914
 20
-21.7035
 30
24.9257
 70
192
 0
VERTEX
 8
K_RPER_1
 10
-3.3412
 20
-21.7085
 30
24.9757
 70
192
 0
VERTEX
 8
K_RPER_1
 10
-3.4562
 20
-21.2697
 30
20.5624
 70
192
 0
VERTEX
 8
K_RPER_1
 10
-3.4104
 20
-21.2496
 30
20.6124
 70
192
 0
VERTEX
 8
K_RPER_1
 10
-3.4104
 20
-21.2496
 30
24.9257
 70
192
 0
VERTEX
 8
K_RPER_1
 10
-3.4562
 20
-21.2697
 30
24.9757
 70
192
 0
VERTEX
 8
K_RPER_1
 10
-3.7012
 20
-20.8879
 30
20.5624
 70
192
 0
VERTEX
 8
K_RPER_1
 10
-3.6639
 20
-20.8546
 30
20.6124
 70
192
 0
VERTEX
 8
K_RPER_1
 10
-3.6639
 20
-20.8546
 30
24.9257
 70
192
 0
VERTEX
 8
K_RPER_1
 10
-3.7012
 20
-20.8879
 30
24.9757
 70
192
 0
VERTEX
 8
K_RPER_1
 10
-4.0522
 20
-20.6004
 30
20.5624
 70
192
 0
VERTEX
 8
K_RPER_1
 10
-4.027
 20
-20.5573
 30
20.6124
 70
192
 0
VERTEX
 8
K_RPER_1
 10
-4.027
 20
-20.5573
 30
24.9257
 70
192
 0
VERTEX
 8
K_RPER_1
 10
-4.0522
 20
-20.6004
 30
24.9757
 70
192
 0
VERTEX
 8
K_RPER_1
 10
-4.4749
 20
-20.4356
 30
20.5624
 70
192
 0
VERTEX
 8
K_RPER_1
 10
-4.4642
 20
-20.3867
 30
20.6124
 70
192
 0
VERTEX
 8
K_RPER_1
 10
-4.4642
 20
-20.3867
 30
24.9257
 70
192
 0
VERTEX
 8
K_RPER_1
 10
-4.4749
 20
-20.4356
 30
24.9757
 70
192
 0
VERTEX
 8
K_RPER_1
 10
-4.9278
 20
-20.4094
 30
20.5624
 70
192
 0
VERTEX
 8
K_RPER_1
 10
-4.9327
 20
-20.3596
 30
20.6124
 70
192
 0
VERTEX
 8
K_RPER_1
 10
-4.9327
 20
-20.3596
 30
24.9257
 70
192
 0
VERTEX
 8
K_RPER_1
 10
-4.9278
 20
-20.4094
 30
24.9757
 70
192
 0
VERTEX
 8
K_RPER_1
 10
-5.3666
 20
-20.5244
 30
20.5624
 70
192
 0
VERTEX
 8
K_RPER_1
 10
-5.3867
 20
-20.4786
 30
20.6124
 70
192
 0
VERTEX
 8
K_RPER_1
 10
-5.3867
 20
-20.4786
 30
24.9257
 70
192
 0
VERTEX
 8
K_RPER_1
 10
-5.3666
 20
-20.5244
 30
24.9757
 70
192
 0
VERTEX
 8
K_RPER_1
 10
-5.7484
 20
-20.7694
 30
20.5624
 70
192
 0
VERTEX
 8
K_RPER_1
 10
-5.7817
 20
-20.732
 30
20.6124
 70
192
 0
VERTEX
 8
K_RPER_1
 10
-5.7817
 20
-20.732
 30
24.9257
 70
192
 0
VERTEX
 8
K_RPER_1
 10
-5.7484
 20
-20.7694
 30
24.9757
 70
192
 0
VERTEX
 8
K_RPER_1
 10
-6.0358
 20
-21.1204
 30
20.5624
 70
192
 0
VERTEX
 8
K_RPER_1
 10
-6.079
 20
-21.0951
 30
20.6124
 70
192
 0
VERTEX
 8
K_RPER_1
 10
-6.079
 20
-21.0951
 30
24.9257
 70
192
 0
VERTEX
 8
K_RPER_1
 10
-6.0358
 20
-21.1204
 30
24.9757
 70
192
 0
VERTEX
 8
K_RPER_1
 10
-6.2007
 20
-21.543
 30
20.5624
 70
192
 0
VERTEX
 8
K_RPER_1
 10
-6.2496
 20
-21.5324
 30
20.6124
 70
192
 0
VERTEX
 8
K_RPER_1
 10
-6.2496
 20
-21.5324
 30
24.9257
 70
192
 0
VERTEX
 8
K_RPER_1
 10
-6.2007
 20
-21.543
 30
24.9757
 70
192
 0
VERTEX
 8
K_RPER_1
 10
-6.2269
 20
-21.9959
 30
20.5624
 70
192
 0
VERTEX
 8
K_RPER_1
 10
-6.2767
 20
-22.0009
 30
20.6124
 70
192
 0
VERTEX
 8
K_RPER_1
 10
-6.2767
 20
-22.0009
 30
24.9257
 70
192
 0
VERTEX
 8
K_RPER_1
 10
-6.2269
 20
-21.9959
 30
24.9757
 70
192
 0
VERTEX
 8
K_RPER_1
 10
-6.1119
 20
-22.4348
 30
20.5624
 70
192
 0
VERTEX
 8
K_RPER_1
 10
-6.1577
 20
-22.4548
 30
20.6124
 70
192
 0
VERTEX
 8
K_RPER_1
 10
-6.1577
 20
-22.4548
 30
24.9257
 70
192
 0
VERTEX
 8
K_RPER_1
 10
-6.1119
 20
-22.4348
 30
24.9757
 70
192
 0
VERTEX
 8
K_RPER_1
 10
-5.8669
 20
-22.8166
 30
20.5624
 70
192
 0
VERTEX
 8
K_RPER_1
 10
-5.9042
 20
-22.8498
 30
20.6124
 70
192
 0
VERTEX
 8
K_RPER_1
 10
-5.9042
 20
-22.8498
 30
24.9257
 70
192
 0
VERTEX
 8
K_RPER_1
 10
-5.8669
 20
-22.8166
 30
24.9757
 70
192
 0
VERTEX
 8
K_RPER_1
 10
-5.5159
 20
-23.104
 30
20.5624
 70
192
 0
VERTEX
 8
K_RPER_1
 10
-5.5411
 20
-23.1471
 30
20.6124
 70
192
 0
VERTEX
 8
K_RPER_1
 10
-5.5411
 20
-23.1471
 30
24.9257
 70
192
 0
VERTEX
 8
K_RPER_1
 10
-5.5159
 20
-23.104
 30
24.9757
 70
192
 0
VERTEX
 8
K_RPER_1
 10
0
 20
0
 30
0
 70
128
 71
1
 72
2
 73
6
 74
6
 0
VERTEX
 8
K_RPER_1
 10
0
 20
0
 30
0
 70
128
 71
2
 72
3
 73
7
 74
6
 0
VERTEX
 8
K_RPER_1
 10
0
 20
0
 30
0
 70
128
 71
3
 72
4
 73
8
 74
7
 0
VERTEX
 8
K_RPER_1
 10
0
 20
0
 30
0
 70
128
 71
4
 72
5
 73
9
 74
8
 0
VERTEX
 8
K_RPER_1
 10
0
 20
0
 30
0
 70
128
 71
1
 72
66
 73
70
 74
70
 0
VERTEX
 8
K_RPER_1
 10
0
 20
0
 30
0
 70
128
 71
1
 72
6
 73
10
 74
10
 0
VERTEX
 8
K_RPER_1
 10
0
 20
0
 30
0
 70
128
 71
6
 72
7
 73
11
 74
10
 0
VERTEX
 8
K_RPER_1
 10
0
 20
0
 30
0
 70
128
 71
7
 72
8
 73
12
 74
11
 0
VERTEX
 8
K_RPER_1
 10
0
 20
0
 30
0
 70
128
 71
8
 72
9
 73
13
 74
12
 0
VERTEX
 8
K_RPER_1
 10
0
 20
0
 30
0
 70
128
 71
66
 72
67
 73
71
 74
70
 0
VERTEX
 8
K_RPER_1
 10
0
 20
0
 30
0
 70
128
 71
1
 72
10
 73
14
 74
14
 0
VERTEX
 8
K_RPER_1
 10
0
 20
0
 30
0
 70
128
 71
10
 72
11
 73
15
 74
14
 0
VERTEX
 8
K_RPER_1
 10
0
 20
0
 30
0
 70
128
 71
11
 72
12
 73
16
 74
15
 0
VERTEX
 8
K_RPER_1
 10
0
 20
0
 30
0
 70
128
 71
12
 72
13
 73
17
 74
16
 0
VERTEX
 8
K_RPER_1
 10
0
 20
0
 30
0
 70
128
 71
67
 72
68
 73
72
 74
71
 0
VERTEX
 8
K_RPER_1
 10
0
 20
0
 30
0
 70
128
 71
1
 72
14
 73
18
 74
18
 0
VERTEX
 8
K_RPER_1
 10
0
 20
0
 30
0
 70
128
 71
14
 72
15
 73
19
 74
18
 0
VERTEX
 8
K_RPER_1
 10
0
 20
0
 30
0
 70
128
 71
15
 72
16
 73
20
 74
19
 0
VERTEX
 8
K_RPER_1
 10
0
 20
0
 30
0
 70
128
 71
16
 72
17
 73
21
 74
20
 0
VERTEX
 8
K_RPER_1
 10
0
 20
0
 30
0
 70
128
 71
68
 72
69
 73
73
 74
72
 0
VERTEX
 8
K_RPER_1
 10
0
 20
0
 30
0
 70
128
 71
1
 72
18
 73
22
 74
22
 0
VERTEX
 8
K_RPER_1
 10
0
 20
0
 30
0
 70
128
 71
18
 72
19
 73
23
 74
22
 0
VERTEX
 8
K_RPER_1
 10
0
 20
0
 30
0
 70
128
 71
19
 72
20
 73
24
 74
23
 0
VERTEX
 8
K_RPER_1
 10
0
 20
0
 30
0
 70
128
 71
20
 72
21
 73
25
 74
24
 0
VERTEX
 8
K_RPER_1
 10
0
 20
0
 30
0
 70
128
 71
1
 72
70
 73
74
 74
74
 0
VERTEX
 8
K_RPER_1
 10
0
 20
0
 30
0
 70
128
 71
1
 72
22
 73
26
 74
26
 0
VERTEX
 8
K_RPER_1
 10
0
 20
0
 30
0
 70
128
 71
22
 72
23
 73
27
 74
26
 0
VERTEX
 8
K_RPER_1
 10
0
 20
0
 30
0
 70
128
 71
23
 72
24
 73
28
 74
27
 0
VERTEX
 8
K_RPER_1
 10
0
 20
0
 30
0
 70
128
 71
24
 72
25
 73
29
 74
28
 0
VERTEX
 8
K_RPER_1
 10
0
 20
0
 30
0
 70
128
 71
70
 72
71
 73
75
 74
74
 0
VERTEX
 8
K_RPER_1
 10
0
 20
0
 30
0
 70
128
 71
1
 72
26
 73
30
 74
30
 0
VERTEX
 8
K_RPER_1
 10
0
 20
0
 30
0
 70
128
 71
26
 72
27
 73
31
 74
30
 0
VERTEX
 8
K_RPER_1
 10
0
 20
0
 30
0
 70
128
 71
27
 72
28
 73
32
 74
31
 0
VERTEX
 8
K_RPER_1
 10
0
 20
0
 30
0
 70
128
 71
28
 72
29
 73
33
 74
32
 0
VERTEX
 8
K_RPER_1
 10
0
 20
0
 30
0
 70
128
 71
71
 72
72
 73
76
 74
75
 0
VERTEX
 8
K_RPER_1
 10
0
 20
0
 30
0
 70
128
 71
1
 72
30
 73
34
 74
34
 0
VERTEX
 8
K_RPER_1
 10
0
 20
0
 30
0
 70
128
 71
30
 72
31
 73
35
 74
34
 0
VERTEX
 8
K_RPER_1
 10
0
 20
0
 30
0
 70
128
 71
31
 72
32
 73
36
 74
35
 0
VERTEX
 8
K_RPER_1
 10
0
 20
0
 30
0
 70
128
 71
32
 72
33
 73
37
 74
36
 0
VERTEX
 8
K_RPER_1
 10
0
 20
0
 30
0
 70
128
 71
72
 72
73
 73
77
 74
76
 0
VERTEX
 8
K_RPER_1
 10
0
 20
0
 30
0
 70
128
 71
1
 72
34
 73
38
 74
38
 0
VERTEX
 8
K_RPER_1
 10
0
 20
0
 30
0
 70
128
 71
34
 72
35
 73
39
 74
38
 0
VERTEX
 8
K_RPER_1
 10
0
 20
0
 30
0
 70
128
 71
35
 72
36
 73
40
 74
39
 0
VERTEX
 8
K_RPER_1
 10
0
 20
0
 30
0
 70
128
 71
36
 72
37
 73
41
 74
40
 0
VERTEX
 8
K_RPER_1
 10
0
 20
0
 30
0
 70
128
 71
1
 72
74
 73
78
 74
78
 0
VERTEX
 8
K_RPER_1
 10
0
 20
0
 30
0
 70
128
 71
1
 72
38
 73
42
 74
42
 0
VERTEX
 8
K_RPER_1
 10
0
 20
0
 30
0
 70
128
 71
38
 72
39
 73
43
 74
42
 0
VERTEX
 8
K_RPER_1
 10
0
 20
0
 30
0
 70
128
 71
39
 72
40
 73
44
 74
43
 0
VERTEX
 8
K_RPER_1
 10
0
 20
0
 30
0
 70
128
 71
40
 72
41
 73
45
 74
44
 0
VERTEX
 8
K_RPER_1
 10
0
 20
0
 30
0
 70
128
 71
74
 72
75
 73
79
 74
78
 0
VERTEX
 8
K_RPER_1
 10
0
 20
0
 30
0
 70
128
 71
1
 72
42
 73
46
 74
46
 0
VERTEX
 8
K_RPER_1
 10
0
 20
0
 30
0
 70
128
 71
42
 72
43
 73
47
 74
46
 0
VERTEX
 8
K_RPER_1
 10
0
 20
0
 30
0
 70
128
 71
43
 72
44
 73
48
 74
47
 0
VERTEX
 8
K_RPER_1
 10
0
 20
0
 30
0
 70
128
 71
44
 72
45
 73
49
 74
48
 0
VERTEX
 8
K_RPER_1
 10
0
 20
0
 30
0
 70
128
 71
75
 72
76
 73
80
 74
79
 0
VERTEX
 8
K_RPER_1
 10
0
 20
0
 30
0
 70
128
 71
1
 72
46
 73
50
 74
50
 0
VERTEX
 8
K_RPER_1
 10
0
 20
0
 30
0
 70
128
 71
46
 72
47
 73
51
 74
50
 0
VERTEX
 8
K_RPER_1
 10
0
 20
0
 30
0
 70
128
 71
47
 72
48
 73
52
 74
51
 0
VERTEX
 8
K_RPER_1
 10
0
 20
0
 30
0
 70
128
 71
48
 72
49
 73
53
 74
52
 0
VERTEX
 8
K_RPER_1
 10
0
 20
0
 30
0
 70
128
 71
76
 72
77
 73
81
 74
80
 0
VERTEX
 8
K_RPER_1
 10
0
 20
0
 30
0
 70
128
 71
1
 72
50
 73
54
 74
54
 0
VERTEX
 8
K_RPER_1
 10
0
 20
0
 30
0
 70
128
 71
50
 72
51
 73
55
 74
54
 0
VERTEX
 8
K_RPER_1
 10
0
 20
0
 30
0
 70
128
 71
51
 72
52
 73
56
 74
55
 0
VERTEX
 8
K_RPER_1
 10
0
 20
0
 30
0
 70
128
 71
52
 72
53
 73
57
 74
56
 0
VERTEX
 8
K_RPER_1
 10
0
 20
0
 30
0
 70
128
 71
1
 72
78
 73
2
 74
2
 0
VERTEX
 8
K_RPER_1
 10
0
 20
0
 30
0
 70
128
 71
1
 72
54
 73
58
 74
58
 0
VERTEX
 8
K_RPER_1
 10
0
 20
0
 30
0
 70
128
 71
54
 72
55
 73
59
 74
58
 0
VERTEX
 8
K_RPER_1
 10
0
 20
0
 30
0
 70
128
 71
55
 72
56
 73
60
 74
59
 0
VERTEX
 8
K_RPER_1
 10
0
 20
0
 30
0
 70
128
 71
56
 72
57
 73
61
 74
60
 0
VERTEX
 8
K_RPER_1
 10
0
 20
0
 30
0
 70
128
 71
78
 72
79
 73
3
 74
2
 0
VERTEX
 8
K_RPER_1
 10
0
 20
0
 30
0
 70
128
 71
1
 72
58
 73
62
 74
62
 0
VERTEX
 8
K_RPER_1
 10
0
 20
0
 30
0
 70
128
 71
58
 72
59
 73
63
 74
62
 0
VERTEX
 8
K_RPER_1
 10
0
 20
0
 30
0
 70
128
 71
59
 72
60
 73
64
 74
63
 0
VERTEX
 8
K_RPER_1
 10
0
 20
0
 30
0
 70
128
 71
60
 72
61
 73
65
 74
64
 0
VERTEX
 8
K_RPER_1
 10
0
 20
0
 30
0
 70
128
 71
79
 72
80
 73
4
 74
3
 0
VERTEX
 8
K_RPER_1
 10
0
 20
0
 30
0
 70
128
 71
1
 72
62
 73
66
 74
66
 0
VERTEX
 8
K_RPER_1
 10
0
 20
0
 30
0
 70
128
 71
62
 72
63
 73
67
 74
66
 0
VERTEX
 8
K_RPER_1
 10
0
 20
0
 30
0
 70
128
 71
63
 72
64
 73
68
 74
67
 0
VERTEX
 8
K_RPER_1
 10
0
 20
0
 30
0
 70
128
 71
64
 72
65
 73
69
 74
68
 0
VERTEX
 8
K_RPER_1
 10
0
 20
0
 30
0
 70
128
 71
80
 72
81
 73
5
 74
4
 0
SEQEND
 0
POLYLINE
 8
K_RPER_2_1
 66
1
 10
0.0
 20
0.0
 30
0.0
 70
64
 71
40
 72
20
 0
VERTEX
 8
K_RPER_2_1
 10
1.3714
 20
-0.2236
 30
22.1401
 70
192
 0
VERTEX
 8
K_RPER_2_1
 10
-3.4264
 20
-22.2061
 30
22.1401
 70
192
 0
VERTEX
 8
K_RPER_2_1
 10
1.3045
 20
-0.209
 30
22.5727
 70
192
 0
VERTEX
 8
K_RPER_2_1
 10
-3.4934
 20
-22.1915
 30
22.5727
 70
192
 0
VERTEX
 8
K_RPER_2_1
 10
1.1102
 20
-0.1666
 30
22.9629
 70
192
 0
VERTEX
 8
K_RPER_2_1
 10
-3.6876
 20
-22.1491
 30
22.9629
 70
192
 0
VERTEX
 8
K_RPER_2_1
 10
0.8076
 20
-0.1005
 30
23.2727
 70
192
 0
VERTEX
 8
K_RPER_2_1
 10
-3.9902
 20
-22.0831
 30
23.2727
 70
192
 0
VERTEX
 8
K_RPER_2_1
 10
0.4263
 20
-0.0173
 30
23.4715
 70
192
 0
VERTEX
 8
K_RPER_2_1
 10
-4.3715
 20
-21.9998
 30
23.4715
 70
192
 0
VERTEX
 8
K_RPER_2_1
 10
0.0036
 20
0.0749
 30
23.5401
 70
192
 0
VERTEX
 8
K_RPER_2_1
 10
-4.7942
 20
-21.9076
 30
23.5401
 70
192
 0
VERTEX
 8
K_RPER_2_1
 10
-0.4191
 20
0.1672
 30
23.4715
 70
192
 0
VERTEX
 8
K_RPER_2_1
 10
-5.2169
 20
-21.8153
 30
23.4715
 70
192
 0
VERTEX
 8
K_RPER_2_1
 10
-0.8004
 20
0.2504
 30
23.2727
 70
192
 0
VERTEX
 8
K_RPER_2_1
 10
-5.5982
 20
-21.7321
 30
23.2727
 70
192
 0
VERTEX
 8
K_RPER_2_1
 10
-1.103
 20
0.3165
 30
22.9629
 70
192
 0
VERTEX
 8
K_RPER_2_1
 10
-5.9008
 20
-21.6661
 30
22.9629
 70
192
 0
VERTEX
 8
K_RPER_2_1
 10
-1.2972
 20
0.3589
 30
22.5727
 70
192
 0
VERTEX
 8
K_RPER_2_1
 10
-6.0951
 20
-21.6237
 30
22.5727
 70
192
 0
VERTEX
 8
K_RPER_2_1
 10
-1.3642
 20
0.3735
 30
22.1401
 70
192
 0
VERTEX
 8
K_RPER_2_1
 10
-6.162
 20
-21.609
 30
22.1401
 70
192
 0
VERTEX
 8
K_RPER_2_1
 10
-1.2972
 20
0.3589
 30
21.7074
 70
192
 0
VERTEX
 8
K_RPER_2_1
 10
-6.0951
 20
-21.6237
 30
21.7074
 70
192
 0
VERTEX
 8
K_RPER_2_1
 10
-1.103
 20
0.3165
 30
21.3172
 70
192
 0
VERTEX
 8
K_RPER_2_1
 10
-5.9008
 20
-21.6661
 30
21.3172
 70
192
 0
VERTEX
 8
K_RPER_2_1
 10
-0.8004
 20
0.2504
 30
21.0074
 70
192
 0
VERTEX
 8
K_RPER_2_1
 10
-5.5982
 20
-21.7321
 30
21.0074
 70
192
 0
VERTEX
 8
K_RPER_2_1
 10
-0.4191
 20
0.1672
 30
20.8086
 70
192
 0
VERTEX
 8
K_RPER_2_1
 10
-5.2169
 20
-21.8153
 30
20.8086
 70
192
 0
VERTEX
 8
K_RPER_2_1
 10
0.0036
 20
0.0749
 30
20.7401
 70
192
 0
VERTEX
 8
K_RPER_2_1
 10
-4.7942
 20
-21.9076
 30
20.7401
 70
192
 0
VERTEX
 8
K_RPER_2_1
 10
0.4263
 20
-0.0173
 30
20.8086
 70
192
 0
VERTEX
 8
K_RPER_2_1
 10
-4.3715
 20
-21.9998
 30
20.8086
 70
192
 0
VERTEX
 8
K_RPER_2_1
 10
0.8076
 20
-0.1005
 30
21.0074
 70
192
 0
VERTEX
 8
K_RPER_2_1
 10
-3.9902
 20
-22.0831
 30
21.0074
 70
192
 0
VERTEX
 8
K_RPER_2_1
 10
1.1102
 20
-0.1666
 30
21.3172
 70
192
 0
VERTEX
 8
K_RPER_2_1
 10
-3.6876
 20
-22.1491
 30
21.3172
 70
192
 0
VERTEX
 8
K_RPER_2_1
 10
1.3045
 20
-0.209
 30
21.7074
 70
192
 0
VERTEX
 8
K_RPER_2_1
 10
-3.4934
 20
-22.1915
 30
21.7074
 70
192
 0
VERTEX
 8
K_RPER_2_1
 10
0
 20
0
 30
0
 70
128
 71
1
 72
2
 73
4
 74
3
 0
VERTEX
 8
K_RPER_2_1
 10
0
 20
0
 30
0
 70
128
 71
3
 72
4
 73
6
 74
5
 0
VERTEX
 8
K_RPER_2_1
 10
0
 20
0
 30
0
 70
128
 71
5
 72
6
 73
8
 74
7
 0
VERTEX
 8
K_RPER_2_1
 10
0
 20
0
 30
0
 70
128
 71
7
 72
8
 73
10
 74
9
 0
VERTEX
 8
K_RPER_2_1
 10
0
 20
0
 30
0
 70
128
 71
9
 72
10
 73
12
 74
11
 0
VERTEX
 8
K_RPER_2_1
 10
0
 20
0
 30
0
 70
128
 71
11
 72
12
 73
14
 74
13
 0
VERTEX
 8
K_RPER_2_1
 10
0
 20
0
 30
0
 70
128
 71
13
 72
14
 73
16
 74
15
 0
VERTEX
 8
K_RPER_2_1
 10
0
 20
0
 30
0
 70
128
 71
15
 72
16
 73
18
 74
17
 0
VERTEX
 8
K_RPER_2_1
 10
0
 20
0
 30
0
 70
128
 71
17
 72
18
 73
20
 74
19
 0
VERTEX
 8
K_RPER_2_1
 10
0
 20
0
 30
0
 70
128
 71
19
 72
20
 73
22
 74
21
 0
VERTEX
 8
K_RPER_2_1
 10
0
 20
0
 30
0
 70
128
 71
21
 72
22
 73
24
 74
23
 0
VERTEX
 8
K_RPER_2_1
 10
0
 20
0
 30
0
 70
128
 71
23
 72
24
 73
26
 74
25
 0
VERTEX
 8
K_RPER_2_1
 10
0
 20
0
 30
0
 70
128
 71
25
 72
26
 73
28
 74
27
 0
VERTEX
 8
K_RPER_2_1
 10
0
 20
0
 30
0
 70
128
 71
27
 72
28
 73
30
 74
29
 0
VERTEX
 8
K_RPER_2_1
 10
0
 20
0
 30
0
 70
128
 71
29
 72
30
 73
32
 74
31
 0
VERTEX
 8
K_RPER_2_1
 10
0
 20
0
 30
0
 70
128
 71
31
 72
32
 73
34
 74
33
 0
VERTEX
 8
K_RPER_2_1
 10
0
 20
0
 30
0
 70
128
 71
33
 72
34
 73
36
 74
35
 0
VERTEX
 8
K_RPER_2_1
 10
0
 20
0
 30
0
 70
128
 71
35
 72
36
 73
38
 74
37
 0
VERTEX
 8
K_RPER_2_1
 10
0
 20
0
 30
0
 70
128
 71
37
 72
38
 73
40
 74
39
 0
VERTEX
 8
K_RPER_2_1
 10
0
 20
0
 30
0
 70
128
 71
39
 72
40
 73
2
 74
1
 0
SEQEND
 0
POLYLINE
 8
R_HRE
 66
1
 10
0.0
 20
0.0
 30
0.0
 70
64
 71
25
 72
24
 0
VERTEX
 8
R_HRE
 10
10.9936
 20
-12.7203
 30
23.5845
 70
192
 0
VERTEX
 8
R_HRE
 10
11.3207
 20
-11.4936
 30
23.5845
 70
192
 0
VERTEX
 8
R_HRE
 10
11.3207
 20
-11.4936
 30
23.112
 70
192
 0
VERTEX
 8
R_HRE
 10
10.9936
 20
-12.7203
 30
23.112
 70
192
 0
VERTEX
 8
R_HRE
 10
11.7694
 20
-11.3728
 30
23.5845
 70
192
 0
VERTEX
 8
R_HRE
 10
11.7694
 20
-11.3728
 30
23.112
 70
192
 0
VERTEX
 8
R_HRE
 10
12.2185
 20
-11.4925
 30
23.5845
 70
192
 0
VERTEX
 8
R_HRE
 10
12.2185
 20
-11.4925
 30
23.112
 70
192
 0
VERTEX
 8
R_HRE
 10
12.5474
 20
-11.8207
 30
23.5845
 70
192
 0
VERTEX
 8
R_HRE
 10
12.5474
 20
-11.8207
 30
23.112
 70
192
 0
VERTEX
 8
R_HRE
 10
10.8728
 20
-12.2716
 30
23.5845
 70
192
 0
VERTEX
 8
R_HRE
 10
10.8728
 20
-12.2716
 30
23.112
 70
192
 0
VERTEX
 8
R_HRE
 10
12.6683
 20
-12.2694
 30
23.5845
 70
192
 0
VERTEX
 8
R_HRE
 10
12.6683
 20
-12.2694
 30
23.112
 70
192
 0
VERTEX
 8
R_HRE
 10
11.7705
 20
-12.2705
 30
23.112
 70
192
 0
VERTEX
 8
R_HRE
 10
12.5485
 20
-12.7185
 30
23.5845
 70
192
 0
VERTEX
 8
R_HRE
 10
12.5485
 20
-12.7185
 30
23.112
 70
192
 0
VERTEX
 8
R_HRE
 10
12.2203
 20
-13.0474
 30
23.5845
 70
192
 0
VERTEX
 8
R_HRE
 10
12.2203
 20
-13.0474
 30
23.112
 70
192
 0
VERTEX
 8
R_HRE
 10
10.9925
 20
-11.8226
 30
23.5845
 70
192
 0
VERTEX
 8
R_HRE
 10
11.7716
 20
-13.1683
 30
23.5845
 70
192
 0
VERTEX
 8
R_HRE
 10
11.7716
 20
-13.1683
 30
23.112
 70
192
 0
VERTEX
 8
R_HRE
 10
10.9925
 20
-11.8226
 30
23.112
 70
192
 0
VERTEX
 8
R_HRE
 10
11.3226
 20
-13.0485
 30
23.5845
 70
192
 0
VERTEX
 8
R_HRE
 10
11.3226
 20
-13.0485
 30
23.112
 70
192
 0
VERTEX
 8
R_HRE
 10
0
 20
0
 30
0
 70
128
 71
24
 72
25
 73
4
 74
1
 0
VERTEX
 8
R_HRE
 10
0
 20
0
 30
0
 70
128
 71
2
 72
3
 73
6
 74
5
 0
VERTEX
 8
R_HRE
 10
0
 20
0
 30
0
 70
128
 71
3
 72
15
 73
6
 74
6
 0
VERTEX
 8
R_HRE
 10
0
 20
0
 30
0
 70
128
 71
25
 72
15
 73
4
 74
4
 0
VERTEX
 8
R_HRE
 10
0
 20
0
 30
0
 70
128
 71
5
 72
6
 73
8
 74
7
 0
VERTEX
 8
R_HRE
 10
0
 20
0
 30
0
 70
128
 71
6
 72
15
 73
8
 74
8
 0
VERTEX
 8
R_HRE
 10
0
 20
0
 30
0
 70
128
 71
1
 72
4
 73
12
 74
11
 0
VERTEX
 8
R_HRE
 10
0
 20
0
 30
0
 70
128
 71
7
 72
8
 73
10
 74
9
 0
VERTEX
 8
R_HRE
 10
0
 20
0
 30
0
 70
128
 71
8
 72
15
 73
10
 74
10
 0
VERTEX
 8
R_HRE
 10
0
 20
0
 30
0
 70
128
 71
4
 72
15
 73
12
 74
12
 0
VERTEX
 8
R_HRE
 10
0
 20
0
 30
0
 70
128
 71
9
 72
10
 73
14
 74
13
 0
VERTEX
 8
R_HRE
 10
0
 20
0
 30
0
 70
128
 71
10
 72
15
 73
14
 74
14
 0
VERTEX
 8
R_HRE
 10
0
 20
0
 30
0
 70
128
 71
11
 72
12
 73
23
 74
20
 0
VERTEX
 8
R_HRE
 10
0
 20
0
 30
0
 70
128
 71
13
 72
14
 73
17
 74
16
 0
VERTEX
 8
R_HRE
 10
0
 20
0
 30
0
 70
128
 71
14
 72
15
 73
17
 74
17
 0
VERTEX
 8
R_HRE
 10
0
 20
0
 30
0
 70
128
 71
12
 72
15
 73
23
 74
23
 0
VERTEX
 8
R_HRE
 10
0
 20
0
 30
0
 70
128
 71
16
 72
17
 73
19
 74
18
 0
VERTEX
 8
R_HRE
 10
0
 20
0
 30
0
 70
128
 71
17
 72
15
 73
19
 74
19
 0
VERTEX
 8
R_HRE
 10
0
 20
0
 30
0
 70
128
 71
20
 72
23
 73
3
 74
2
 0
VERTEX
 8
R_HRE
 10
0
 20
0
 30
0
 70
128
 71
18
 72
19
 73
22
 74
21
 0
VERTEX
 8
R_HRE
 10
0
 20
0
 30
0
 70
128
 71
19
 72
15
 73
22
 74
22
 0
VERTEX
 8
R_HRE
 10
0
 20
0
 30
0
 70
128
 71
23
 72
15
 73
3
 74
3
 0
VERTEX
 8
R_HRE
 10
0
 20
0
 30
0
 70
128
 71
21
 72
22
 73
25
 74
24
 0
VERTEX
 8
R_HRE
 10
0
 20
0
 30
0
 70
128
 71
22
 72
15
 73
25
 74
25
 0
SEQEND
 0
POLYLINE
 8
PELATOR_2
 66
1
 10
0.0
 20
0.0
 30
0.0
 70
64
 71
72
 72
60
 0
VERTEX
 8
PELATOR_2
 10
12.7009
 20
-11.7223
 30
23.1
 70
192
 0
VERTEX
 8
PELATOR_2
 10
12.7399
 20
-11.6998
 30
23.145
 70
192
 0
VERTEX
 8
PELATOR_2
 10
12.7399
 20
-11.6998
 30
25.305
 70
192
 0
VERTEX
 8
PELATOR_2
 10
12.5451
 20
-11.8125
 30
25.305
 70
192
 0
VERTEX
 8
PELATOR_2
 10
12.5451
 20
-11.8125
 30
23.145
 70
192
 0
VERTEX
 8
PELATOR_2
 10
12.5841
 20
-11.7899
 30
23.1
 70
192
 0
VERTEX
 8
PELATOR_2
 10
12.2378
 20
-11.4445
 30
23.1
 70
192
 0
VERTEX
 8
PELATOR_2
 10
12.3051
 20
-11.3275
 30
23.1
 70
192
 0
VERTEX
 8
PELATOR_2
 10
12.3276
 20
-11.2885
 30
23.145
 70
192
 0
VERTEX
 8
PELATOR_2
 10
12.3276
 20
-11.2885
 30
25.305
 70
192
 0
VERTEX
 8
PELATOR_2
 10
12.2153
 20
-11.4835
 30
25.305
 70
192
 0
VERTEX
 8
PELATOR_2
 10
12.2153
 20
-11.4835
 30
23.145
 70
192
 0
VERTEX
 8
PELATOR_2
 10
11.765
 20
-11.1834
 30
23.1
 70
192
 0
VERTEX
 8
PELATOR_2
 10
11.7649
 20
-11.1384
 30
23.145
 70
192
 0
VERTEX
 8
PELATOR_2
 10
11.7649
 20
-11.1384
 30
25.305
 70
192
 0
VERTEX
 8
PELATOR_2
 10
11.7652
 20
-11.3634
 30
25.305
 70
192
 0
VERTEX
 8
PELATOR_2
 10
11.7652
 20
-11.3634
 30
23.145
 70
192
 0
VERTEX
 8
PELATOR_2
 10
11.7651
 20
-11.3184
 30
23.1
 70
192
 0
VERTEX
 8
PELATOR_2
 10
11.2251
 20
-11.3287
 30
23.1
 70
192
 0
VERTEX
 8
PELATOR_2
 10
11.2026
 20
-11.2898
 30
23.145
 70
192
 0
VERTEX
 8
PELATOR_2
 10
11.2026
 20
-11.2898
 30
25.305
 70
192
 0
VERTEX
 8
PELATOR_2
 10
11.3153
 20
-11.4845
 30
25.305
 70
192
 0
VERTEX
 8
PELATOR_2
 10
11.3153
 20
-11.4845
 30
23.145
 70
192
 0
VERTEX
 8
PELATOR_2
 10
11.2928
 20
-11.4456
 30
23.1
 70
192
 0
VERTEX
 8
PELATOR_2
 10
10.9473
 20
-11.7919
 30
23.1
 70
192
 0
VERTEX
 8
PELATOR_2
 10
10.8303
 20
-11.7245
 30
23.1
 70
192
 0
VERTEX
 8
PELATOR_2
 10
10.7913
 20
-11.7021
 30
23.145
 70
192
 0
VERTEX
 8
PELATOR_2
 10
10.7913
 20
-11.7021
 30
25.305
 70
192
 0
VERTEX
 8
PELATOR_2
 10
10.9863
 20
-11.8143
 30
25.305
 70
192
 0
VERTEX
 8
PELATOR_2
 10
10.9863
 20
-11.8143
 30
23.145
 70
192
 0
VERTEX
 8
PELATOR_2
 10
10.8212
 20
-12.2645
 30
23.1
 70
192
 0
VERTEX
 8
PELATOR_2
 10
10.6862
 20
-12.2647
 30
23.1
 70
192
 0
VERTEX
 8
PELATOR_2
 10
10.6412
 20
-12.2647
 30
23.145
 70
192
 0
VERTEX
 8
PELATOR_2
 10
10.6412
 20
-12.2647
 30
25.305
 70
192
 0
VERTEX
 8
PELATOR_2
 10
10.8662
 20
-12.2645
 30
25.305
 70
192
 0
VERTEX
 8
PELATOR_2
 10
10.8662
 20
-12.2645
 30
23.145
 70
192
 0
VERTEX
 8
PELATOR_2
 10
10.8316
 20
-12.8045
 30
23.1
 70
192
 0
VERTEX
 8
PELATOR_2
 10
10.7926
 20
-12.8271
 30
23.145
 70
192
 0
VERTEX
 8
PELATOR_2
 10
10.7926
 20
-12.8271
 30
25.305
 70
192
 0
VERTEX
 8
PELATOR_2
 10
10.9874
 20
-12.7143
 30
25.305
 70
192
 0
VERTEX
 8
PELATOR_2
 10
10.9874
 20
-12.7143
 30
23.145
 70
192
 0
VERTEX
 8
PELATOR_2
 10
10.9484
 20
-12.7369
 30
23.1
 70
192
 0
VERTEX
 8
PELATOR_2
 10
11.2947
 20
-13.0824
 30
23.1
 70
192
 0
VERTEX
 8
PELATOR_2
 10
11.2274
 20
-13.1994
 30
23.1
 70
192
 0
VERTEX
 8
PELATOR_2
 10
11.2049
 20
-13.2384
 30
23.145
 70
192
 0
VERTEX
 8
PELATOR_2
 10
11.2049
 20
-13.2384
 30
25.305
 70
192
 0
VERTEX
 8
PELATOR_2
 10
11.3172
 20
-13.0434
 30
25.305
 70
192
 0
VERTEX
 8
PELATOR_2
 10
11.3172
 20
-13.0434
 30
23.145
 70
192
 0
VERTEX
 8
PELATOR_2
 10
11.7675
 20
-13.3434
 30
23.1
 70
192
 0
VERTEX
 8
PELATOR_2
 10
11.7676
 20
-13.3884
 30
23.145
 70
192
 0
VERTEX
 8
PELATOR_2
 10
11.7676
 20
-13.3884
 30
25.305
 70
192
 0
VERTEX
 8
PELATOR_2
 10
11.7673
 20
-13.1634
 30
25.305
 70
192
 0
VERTEX
 8
PELATOR_2
 10
11.7673
 20
-13.1634
 30
23.145
 70
192
 0
VERTEX
 8
PELATOR_2
 10
11.7674
 20
-13.2084
 30
23.1
 70
192
 0
VERTEX
 8
PELATOR_2
 10
12.3073
 20
-13.1981
 30
23.1
 70
192
 0
VERTEX
 8
PELATOR_2
 10
12.3299
 20
-13.237
 30
23.145
 70
192
 0
VERTEX
 8
PELATOR_2
 10
12.3299
 20
-13.237
 30
25.305
 70
192
 0
VERTEX
 8
PELATOR_2
 10
12.2172
 20
-13.0423
 30
25.305
 70
192
 0
VERTEX
 8
PELATOR_2
 10
12.2172
 20
-13.0423
 30
23.145
 70
192
 0
VERTEX
 8
PELATOR_2
 10
12.2397
 20
-13.0812
 30
23.1
 70
192
 0
VERTEX
 8
PELATOR_2
 10
12.5852
 20
-12.7349
 30
23.1
 70
192
 0
VERTEX
 8
PELATOR_2
 10
12.7022
 20
-12.8023
 30
23.1
 70
192
 0
VERTEX
 8
PELATOR_2
 10
12.7412
 20
-12.8247
 30
23.145
 70
192
 0
VERTEX
 8
PELATOR_2
 10
12.7412
 20
-12.8247
 30
25.305
 70
192
 0
VERTEX
 8
PELATOR_2
 10
12.5462
 20
-12.7125
 30
25.305
 70
192
 0
VERTEX
 8
PELATOR_2
 10
12.5462
 20
-12.7125
 30
23.145
 70
192
 0
VERTEX
 8
PELATOR_2
 10
12.7112
 20
-12.2623
 30
23.1
 70
192
 0
VERTEX
 8
PELATOR_2
 10
12.8462
 20
-12.2621
 30
23.1
 70
192
 0
VERTEX
 8
PELATOR_2
 10
12.8912
 20
-12.2621
 30
23.145
 70
192
 0
VERTEX
 8
PELATOR_2
 10
12.8912
 20
-12.2621
 30
25.305
 70
192
 0
VERTEX
 8
PELATOR_2
 10
12.6662
 20
-12.2623
 30
25.305
 70
192
 0
VERTEX
 8
PELATOR_2
 10
12.6662
 20
-12.2623
 30
23.145
 70
192
 0
VERTEX
 8
PELATOR_2
 10
0
 20
0
 30
0
 70
128
 71
6
 72
1
 73
8
 74
7
 0
VERTEX
 8
PELATOR_2
 10
0
 20
0
 30
0
 70
128
 71
1
 72
2
 73
9
 74
8
 0
VERTEX
 8
PELATOR_2
 10
0
 20
0
 30
0
 70
128
 71
2
 72
3
 73
10
 74
9
 0
VERTEX
 8
PELATOR_2
 10
0
 20
0
 30
0
 70
128
 71
47
 72
48
 73
53
 74
52
 0
VERTEX
 8
PELATOR_2
 10
0
 20
0
 30
0
 70
128
 71
48
 72
43
 73
54
 74
53
 0
VERTEX
 8
PELATOR_2
 10
0
 20
0
 30
0
 70
128
 71
54
 72
49
 73
55
 74
60
 0
VERTEX
 8
PELATOR_2
 10
0
 20
0
 30
0
 70
128
 71
4
 72
5
 73
12
 74
11
 0
VERTEX
 8
PELATOR_2
 10
0
 20
0
 30
0
 70
128
 71
5
 72
6
 73
7
 74
12
 0
VERTEX
 8
PELATOR_2
 10
0
 20
0
 30
0
 70
128
 71
7
 72
8
 73
13
 74
18
 0
VERTEX
 8
PELATOR_2
 10
0
 20
0
 30
0
 70
128
 71
8
 72
9
 73
14
 74
13
 0
VERTEX
 8
PELATOR_2
 10
0
 20
0
 30
0
 70
128
 71
9
 72
10
 73
15
 74
14
 0
VERTEX
 8
PELATOR_2
 10
0
 20
0
 30
0
 70
128
 71
49
 72
50
 73
56
 74
55
 0
VERTEX
 8
PELATOR_2
 10
0
 20
0
 30
0
 70
128
 71
50
 72
51
 73
57
 74
56
 0
VERTEX
 8
PELATOR_2
 10
0
 20
0
 30
0
 70
128
 71
52
 72
53
 73
59
 74
58
 0
VERTEX
 8
PELATOR_2
 10
0
 20
0
 30
0
 70
128
 71
11
 72
12
 73
17
 74
16
 0
VERTEX
 8
PELATOR_2
 10
0
 20
0
 30
0
 70
128
 71
12
 72
7
 73
18
 74
17
 0
VERTEX
 8
PELATOR_2
 10
0
 20
0
 30
0
 70
128
 71
18
 72
13
 73
19
 74
24
 0
VERTEX
 8
PELATOR_2
 10
0
 20
0
 30
0
 70
128
 71
13
 72
14
 73
20
 74
19
 0
VERTEX
 8
PELATOR_2
 10
0
 20
0
 30
0
 70
128
 71
14
 72
15
 73
21
 74
20
 0
VERTEX
 8
PELATOR_2
 10
0
 20
0
 30
0
 70
128
 71
53
 72
54
 73
60
 74
59
 0
VERTEX
 8
PELATOR_2
 10
0
 20
0
 30
0
 70
128
 71
60
 72
55
 73
62
 74
61
 0
VERTEX
 8
PELATOR_2
 10
0
 20
0
 30
0
 70
128
 71
55
 72
56
 73
63
 74
62
 0
VERTEX
 8
PELATOR_2
 10
0
 20
0
 30
0
 70
128
 71
16
 72
17
 73
23
 74
22
 0
VERTEX
 8
PELATOR_2
 10
0
 20
0
 30
0
 70
128
 71
17
 72
18
 73
24
 74
23
 0
VERTEX
 8
PELATOR_2
 10
0
 20
0
 30
0
 70
128
 71
24
 72
19
 73
26
 74
25
 0
VERTEX
 8
PELATOR_2
 10
0
 20
0
 30
0
 70
128
 71
19
 72
20
 73
27
 74
26
 0
VERTEX
 8
PELATOR_2
 10
0
 20
0
 30
0
 70
128
 71
20
 72
21
 73
28
 74
27
 0
VERTEX
 8
PELATOR_2
 10
0
 20
0
 30
0
 70
128
 71
56
 72
57
 73
64
 74
63
 0
VERTEX
 8
PELATOR_2
 10
0
 20
0
 30
0
 70
128
 71
58
 72
59
 73
66
 74
65
 0
VERTEX
 8
PELATOR_2
 10
0
 20
0
 30
0
 70
128
 71
59
 72
60
 73
61
 74
66
 0
VERTEX
 8
PELATOR_2
 10
0
 20
0
 30
0
 70
128
 71
22
 72
23
 73
30
 74
29
 0
VERTEX
 8
PELATOR_2
 10
0
 20
0
 30
0
 70
128
 71
23
 72
24
 73
25
 74
30
 0
VERTEX
 8
PELATOR_2
 10
0
 20
0
 30
0
 70
128
 71
25
 72
26
 73
32
 74
31
 0
VERTEX
 8
PELATOR_2
 10
0
 20
0
 30
0
 70
128
 71
26
 72
27
 73
33
 74
32
 0
VERTEX
 8
PELATOR_2
 10
0
 20
0
 30
0
 70
128
 71
27
 72
28
 73
34
 74
33
 0
VERTEX
 8
PELATOR_2
 10
0
 20
0
 30
0
 70
128
 71
61
 72
62
 73
68
 74
67
 0
VERTEX
 8
PELATOR_2
 10
0
 20
0
 30
0
 70
128
 71
62
 72
63
 73
69
 74
68
 0
VERTEX
 8
PELATOR_2
 10
0
 20
0
 30
0
 70
128
 71
63
 72
64
 73
70
 74
69
 0
VERTEX
 8
PELATOR_2
 10
0
 20
0
 30
0
 70
128
 71
29
 72
30
 73
36
 74
35
 0
VERTEX
 8
PELATOR_2
 10
0
 20
0
 30
0
 70
128
 71
30
 72
25
 73
31
 74
36
 0
VERTEX
 8
PELATOR_2
 10
0
 20
0
 30
0
 70
128
 71
31
 72
32
 73
37
 74
42
 0
VERTEX
 8
PELATOR_2
 10
0
 20
0
 30
0
 70
128
 71
32
 72
33
 73
38
 74
37
 0
VERTEX
 8
PELATOR_2
 10
0
 20
0
 30
0
 70
128
 71
33
 72
34
 73
39
 74
38
 0
VERTEX
 8
PELATOR_2
 10
0
 20
0
 30
0
 70
128
 71
65
 72
66
 73
72
 74
71
 0
VERTEX
 8
PELATOR_2
 10
0
 20
0
 30
0
 70
128
 71
66
 72
61
 73
67
 74
72
 0
VERTEX
 8
PELATOR_2
 10
0
 20
0
 30
0
 70
128
 71
67
 72
68
 73
1
 74
6
 0
VERTEX
 8
PELATOR_2
 10
0
 20
0
 30
0
 70
128
 71
35
 72
36
 73
41
 74
40
 0
VERTEX
 8
PELATOR_2
 10
0
 20
0
 30
0
 70
128
 71
36
 72
31
 73
42
 74
41
 0
VERTEX
 8
PELATOR_2
 10
0
 20
0
 30
0
 70
128
 71
42
 72
37
 73
44
 74
43
 0
VERTEX
 8
PELATOR_2
 10
0
 20
0
 30
0
 70
128
 71
37
 72
38
 73
45
 74
44
 0
VERTEX
 8
PELATOR_2
 10
0
 20
0
 30
0
 70
128
 71
38
 72
39
 73
46
 74
45
 0
VERTEX
 8
PELATOR_2
 10
0
 20
0
 30
0
 70
128
 71
68
 72
69
 73
2
 74
1
 0
VERTEX
 8
PELATOR_2
 10
0
 20
0
 30
0
 70
128
 71
69
 72
70
 73
3
 74
2
 0
VERTEX
 8
PELATOR_2
 10
0
 20
0
 30
0
 70
128
 71
71
 72
72
 73
5
 74
4
 0
VERTEX
 8
PELATOR_2
 10
0
 20
0
 30
0
 70
128
 71
40
 72
41
 73
48
 74
47
 0
VERTEX
 8
PELATOR_2
 10
0
 20
0
 30
0
 70
128
 71
41
 72
42
 73
43
 74
48
 0
VERTEX
 8
PELATOR_2
 10
0
 20
0
 30
0
 70
128
 71
43
 72
44
 73
49
 74
54
 0
VERTEX
 8
PELATOR_2
 10
0
 20
0
 30
0
 70
128
 71
44
 72
45
 73
50
 74
49
 0
VERTEX
 8
PELATOR_2
 10
0
 20
0
 30
0
 70
128
 71
45
 72
46
 73
51
 74
50
 0
VERTEX
 8
PELATOR_2
 10
0
 20
0
 30
0
 70
128
 71
72
 72
67
 73
6
 74
5
 0
SEQEND
 0
POLYLINE
 8
K_RPER_1_1
 66
1
 10
0.0
 20
0.0
 30
0.0
 70
64
 71
37
 72
36
 0
VERTEX
 8
K_RPER_1_1
 10
14.141
 20
-10.8887
 30
22.2388
 70
192
 0
VERTEX
 8
K_RPER_1_1
 10
14.3414
 20
-11.2348
 30
22.2388
 70
192
 0
VERTEX
 8
K_RPER_1_1
 10
14.3664
 20
-11.2781
 30
22.2888
 70
192
 0
VERTEX
 8
K_RPER_1_1
 10
14.3664
 20
-11.2781
 30
25.1888
 70
192
 0
VERTEX
 8
K_RPER_1_1
 10
14.4876
 20
-11.0882
 30
22.2388
 70
192
 0
VERTEX
 8
K_RPER_1_1
 10
14.5309
 20
-11.1132
 30
22.2888
 70
192
 0
VERTEX
 8
K_RPER_1_1
 10
14.5309
 20
-11.1132
 30
25.1888
 70
192
 0
VERTEX
 8
K_RPER_1_1
 10
14.541
 20
-10.8882
 30
22.2388
 70
192
 0
VERTEX
 8
K_RPER_1_1
 10
14.591
 20
-10.8881
 30
22.2888
 70
192
 0
VERTEX
 8
K_RPER_1_1
 10
14.591
 20
-10.8881
 30
25.1888
 70
192
 0
VERTEX
 8
K_RPER_1_1
 10
14.4871
 20
-10.6882
 30
22.2388
 70
192
 0
VERTEX
 8
K_RPER_1_1
 10
14.5304
 20
-10.6632
 30
22.2888
 70
192
 0
VERTEX
 8
K_RPER_1_1
 10
14.5304
 20
-10.6632
 30
25.1888
 70
192
 0
VERTEX
 8
K_RPER_1_1
 10
14.3405
 20
-10.542
 30
22.2388
 70
192
 0
VERTEX
 8
K_RPER_1_1
 10
14.3655
 20
-10.4987
 30
22.2888
 70
192
 0
VERTEX
 8
K_RPER_1_1
 10
14.3655
 20
-10.4987
 30
25.1888
 70
192
 0
VERTEX
 8
K_RPER_1_1
 10
14.1405
 20
-10.4887
 30
22.2388
 70
192
 0
VERTEX
 8
K_RPER_1_1
 10
14.1404
 20
-10.4387
 30
22.2888
 70
192
 0
VERTEX
 8
K_RPER_1_1
 10
14.1404
 20
-10.4387
 30
25.1888
 70
192
 0
VERTEX
 8
K_RPER_1_1
 10
13.9405
 20
-10.5425
 30
22.2388
 70
192
 0
VERTEX
 8
K_RPER_1_1
 10
13.9155
 20
-10.4992
 30
22.2888
 70
192
 0
VERTEX
 8
K_RPER_1_1
 10
13.9155
 20
-10.4992
 30
25.1888
 70
192
 0
VERTEX
 8
K_RPER_1_1
 10
13.7943
 20
-10.6891
 30
22.2388
 70
192
 0
VERTEX
 8
K_RPER_1_1
 10
13.751
 20
-10.6641
 30
22.2888
 70
192
 0
VERTEX
 8
K_RPER_1_1
 10
13.751
 20
-10.6641
 30
25.1888
 70
192
 0
VERTEX
 8
K_RPER_1_1
 10
13.741
 20
-10.8891
 30
22.2388
 70
192
 0
VERTEX
 8
K_RPER_1_1
 10
13.691
 20
-10.8892
 30
22.2888
 70
192
 0
VERTEX
 8
K_RPER_1_1
 10
13.691
 20
-10.8892
 30
25.1888
 70
192
 0
VERTEX
 8
K_RPER_1_1
 10
13.7948
 20
-11.0891
 30
22.2388
 70
192
 0
VERTEX
 8
K_RPER_1_1
 10
13.7515
 20
-11.1141
 30
22.2888
 70
192
 0
VERTEX
 8
K_RPER_1_1
 10
13.7515
 20
-11.1141
 30
25.1888
 70
192
 0
VERTEX
 8
K_RPER_1_1
 10
13.9414
 20
-11.2353
 30
22.2388
 70
192
 0
VERTEX
 8
K_RPER_1_1
 10
13.9164
 20
-11.2786
 30
22.2888
 70
192
 0
VERTEX
 8
K_RPER_1_1
 10
13.9164
 20
-11.2786
 30
25.1888
 70
192
 0
VERTEX
 8
K_RPER_1_1
 10
14.1414
 20
-11.2887
 30
22.2388
 70
192
 0
VERTEX
 8
K_RPER_1_1
 10
14.1415
 20
-11.3387
 30
22.2888
 70
192
 0
VERTEX
 8
K_RPER_1_1
 10
14.1415
 20
-11.3387
 30
25.1888
 70
192
 0
VERTEX
 8
K_RPER_1_1
 10
0
 20
0
 30
0
 70
128
 71
1
 72
2
 73
5
 74
5
 0
VERTEX
 8
K_RPER_1_1
 10
0
 20
0
 30
0
 70
128
 71
2
 72
3
 73
6
 74
5
 0
VERTEX
 8
K_RPER_1_1
 10
0
 20
0
 30
0
 70
128
 71
3
 72
4
 73
7
 74
6
 0
VERTEX
 8
K_RPER_1_1
 10
0
 20
0
 30
0
 70
128
 71
1
 72
26
 73
29
 74
29
 0
VERTEX
 8
K_RPER_1_1
 10
0
 20
0
 30
0
 70
128
 71
26
 72
27
 73
30
 74
29
 0
VERTEX
 8
K_RPER_1_1
 10
0
 20
0
 30
0
 70
128
 71
1
 72
5
 73
8
 74
8
 0
VERTEX
 8
K_RPER_1_1
 10
0
 20
0
 30
0
 70
128
 71
5
 72
6
 73
9
 74
8
 0
VERTEX
 8
K_RPER_1_1
 10
0
 20
0
 30
0
 70
128
 71
6
 72
7
 73
10
 74
9
 0
VERTEX
 8
K_RPER_1_1
 10
0
 20
0
 30
0
 70
128
 71
27
 72
28
 73
31
 74
30
 0
VERTEX
 8
K_RPER_1_1
 10
0
 20
0
 30
0
 70
128
 71
1
 72
29
 73
32
 74
32
 0
VERTEX
 8
K_RPER_1_1
 10
0
 20
0
 30
0
 70
128
 71
1
 72
8
 73
11
 74
11
 0
VERTEX
 8
K_RPER_1_1
 10
0
 20
0
 30
0
 70
128
 71
8
 72
9
 73
12
 74
11
 0
VERTEX
 8
K_RPER_1_1
 10
0
 20
0
 30
0
 70
128
 71
9
 72
10
 73
13
 74
12
 0
VERTEX
 8
K_RPER_1_1
 10
0
 20
0
 30
0
 70
128
 71
29
 72
30
 73
33
 74
32
 0
VERTEX
 8
K_RPER_1_1
 10
0
 20
0
 30
0
 70
128
 71
30
 72
31
 73
34
 74
33
 0
VERTEX
 8
K_RPER_1_1
 10
0
 20
0
 30
0
 70
128
 71
1
 72
11
 73
14
 74
14
 0
VERTEX
 8
K_RPER_1_1
 10
0
 20
0
 30
0
 70
128
 71
11
 72
12
 73
15
 74
14
 0
VERTEX
 8
K_RPER_1_1
 10
0
 20
0
 30
0
 70
128
 71
12
 72
13
 73
16
 74
15
 0
VERTEX
 8
K_RPER_1_1
 10
0
 20
0
 30
0
 70
128
 71
1
 72
32
 73
35
 74
35
 0
VERTEX
 8
K_RPER_1_1
 10
0
 20
0
 30
0
 70
128
 71
32
 72
33
 73
36
 74
35
 0
VERTEX
 8
K_RPER_1_1
 10
0
 20
0
 30
0
 70
128
 71
1
 72
14
 73
17
 74
17
 0
VERTEX
 8
K_RPER_1_1
 10
0
 20
0
 30
0
 70
128
 71
14
 72
15
 73
18
 74
17
 0
VERTEX
 8
K_RPER_1_1
 10
0
 20
0
 30
0
 70
128
 71
15
 72
16
 73
19
 74
18
 0
VERTEX
 8
K_RPER_1_1
 10
0
 20
0
 30
0
 70
128
 71
23
 72
24
 73
27
 74
26
 0
VERTEX
 8
K_RPER_1_1
 10
0
 20
0
 30
0
 70
128
 71
33
 72
34
 73
37
 74
36
 0
VERTEX
 8
K_RPER_1_1
 10
0
 20
0
 30
0
 70
128
 71
1
 72
17
 73
20
 74
20
 0
VERTEX
 8
K_RPER_1_1
 10
0
 20
0
 30
0
 70
128
 71
17
 72
18
 73
21
 74
20
 0
VERTEX
 8
K_RPER_1_1
 10
0
 20
0
 30
0
 70
128
 71
18
 72
19
 73
22
 74
21
 0
VERTEX
 8
K_RPER_1_1
 10
0
 20
0
 30
0
 70
128
 71
24
 72
25
 73
28
 74
27
 0
VERTEX
 8
K_RPER_1_1
 10
0
 20
0
 30
0
 70
128
 71
1
 72
35
 73
2
 74
2
 0
VERTEX
 8
K_RPER_1_1
 10
0
 20
0
 30
0
 70
128
 71
1
 72
20
 73
23
 74
23
 0
VERTEX
 8
K_RPER_1_1
 10
0
 20
0
 30
0
 70
128
 71
20
 72
21
 73
24
 74
23
 0
VERTEX
 8
K_RPER_1_1
 10
0
 20
0
 30
0
 70
128
 71
21
 72
22
 73
25
 74
24
 0
VERTEX
 8
K_RPER_1_1
 10
0
 20
0
 30
0
 70
128
 71
36
 72
37
 73
4
 74
3
 0
VERTEX
 8
K_RPER_1_1
 10
0
 20
0
 30
0
 70
128
 71
35
 72
36
 73
3
 74
2
 0
VERTEX
 8
K_RPER_1_1
 10
0
 20
0
 30
0
 70
128
 71
1
 72
23
 73
26
 74
26
 0
SEQEND
 0
POLYLINE
 8
K_RPER
 66
1
 10
0.0
 20
0.0
 30
0.0
 70
64
 71
81
 72
80
 0
VERTEX
 8
K_RPER
 10
14.6926
 20
-10.5693
 30
26.4685
 70
192
 0
VERTEX
 8
K_RPER
 10
15.5192
 20
-11.9973
 30
26.4685
 70
192
 0
VERTEX
 8
K_RPER
 10
15.501
 20
-12.0656
 30
26.4685
 70
192
 0
VERTEX
 8
K_RPER
 10
13.8567
 20
-13.0176
 30
26.4685
 70
192
 0
VERTEX
 8
K_RPER
 10
13.7884
 20
-12.9993
 30
26.4685
 70
192
 0
VERTEX
 8
K_RPER
 10
15.4788
 20
-11.9274
 30
26.9784
 70
192
 0
VERTEX
 8
K_RPER
 10
15.4593
 20
-11.9936
 30
26.9938
 70
192
 0
VERTEX
 8
K_RPER
 10
13.815
 20
-12.9455
 30
26.9938
 70
192
 0
VERTEX
 8
K_RPER
 10
13.7479
 20
-12.9294
 30
26.9784
 70
192
 0
VERTEX
 8
K_RPER
 10
15.3614
 20
-11.7246
 30
27.4383
 70
192
 0
VERTEX
 8
K_RPER
 10
15.3384
 20
-11.7846
 30
27.4677
 70
192
 0
VERTEX
 8
K_RPER
 10
13.694
 20
-12.7366
 30
27.4677
 70
192
 0
VERTEX
 8
K_RPER
 10
13.6305
 20
-12.7266
 30
27.4383
 70
192
 0
VERTEX
 8
K_RPER
 10
15.1785
 20
-11.4087
 30
27.8034
 70
192
 0
VERTEX
 8
K_RPER
 10
15.1499
 20
-11.4591
 30
27.8438
 70
192
 0
VERTEX
 8
K_RPER
 10
13.5056
 20
-12.4111
 30
27.8438
 70
192
 0
VERTEX
 8
K_RPER
 10
13.4476
 20
-12.4107
 30
27.8034
 70
192
 0
VERTEX
 8
K_RPER
 10
14.948
 20
-11.0106
 30
28.0377
 70
192
 0
VERTEX
 8
K_RPER
 10
14.9125
 20
-11.049
 30
28.0853
 70
192
 0
VERTEX
 8
K_RPER
 10
13.2682
 20
-12.001
 30
28.0853
 70
192
 0
VERTEX
 8
K_RPER
 10
13.2172
 20
-12.0126
 30
28.0377
 70
192
 0
VERTEX
 8
K_RPER
 10
14.6926
 20
-10.5693
 30
28.1185
 70
192
 0
VERTEX
 8
K_RPER
 10
14.6493
 20
-10.5944
 30
28.1685
 70
192
 0
VERTEX
 8
K_RPER
 10
13.005
 20
-11.5463
 30
28.1685
 70
192
 0
VERTEX
 8
K_RPER
 10
12.9617
 20
-11.5714
 30
28.1185
 70
192
 0
VERTEX
 8
K_RPER
 10
14.4371
 20
-10.1281
 30
28.0377
 70
192
 0
VERTEX
 8
K_RPER
 10
14.3861
 20
-10.1397
 30
28.0853
 70
192
 0
VERTEX
 8
K_RPER
 10
12.7418
 20
-11.0917
 30
28.0853
 70
192
 0
VERTEX
 8
K_RPER
 10
12.7062
 20
-11.1301
 30
28.0377
 70
192
 0
VERTEX
 8
K_RPER
 10
14.2066
 20
-9.73
 30
27.8034
 70
192
 0
VERTEX
 8
K_RPER
 10
14.1486
 20
-9.7296
 30
27.8438
 70
192
 0
VERTEX
 8
K_RPER
 10
12.5043
 20
-10.6816
 30
27.8438
 70
192
 0
VERTEX
 8
K_RPER
 10
12.4758
 20
-10.732
 30
27.8034
 70
192
 0
VERTEX
 8
K_RPER
 10
14.0237
 20
-9.4141
 30
27.4383
 70
192
 0
VERTEX
 8
K_RPER
 10
13.9602
 20
-9.4041
 30
27.4677
 70
192
 0
VERTEX
 8
K_RPER
 10
12.3159
 20
-10.3561
 30
27.4677
 70
192
 0
VERTEX
 8
K_RPER
 10
12.2929
 20
-10.4161
 30
27.4383
 70
192
 0
VERTEX
 8
K_RPER
 10
13.9063
 20
-9.2112
 30
26.9784
 70
192
 0
VERTEX
 8
K_RPER
 10
13.8392
 20
-9.1951
 30
26.9938
 70
192
 0
VERTEX
 8
K_RPER
 10
12.1949
 20
-10.1471
 30
26.9938
 70
192
 0
VERTEX
 8
K_RPER
 10
12.1755
 20
-10.2133
 30
26.9784
 70
192
 0
VERTEX
 8
K_RPER
 10
13.8659
 20
-9.1414
 30
26.4685
 70
192
 0
VERTEX
 8
K_RPER
 10
13.7975
 20
-9.1231
 30
26.4685
 70
192
 0
VERTEX
 8
K_RPER
 10
12.1532
 20
-10.0751
 30
26.4685
 70
192
 0
VERTEX
 8
K_RPER
 10
12.135
 20
-10.1434
 30
26.4685
 70
192
 0
VERTEX
 8
K_RPER
 10
13.9063
 20
-9.2112
 30
25.9586
 70
192
 0
VERTEX
 8
K_RPER
 10
13.8392
 20
-9.1951
 30
25.9431
 70
192
 0
VERTEX
 8
K_RPER
 10
12.1949
 20
-10.1471
 30
25.9431
 70
192
 0
VERTEX
 8
K_RPER
 10
12.1755
 20
-10.2133
 30
25.9586
 70
192
 0
VERTEX
 8
K_RPER
 10
14.0237
 20
-9.4141
 30
25.4986
 70
192
 0
VERTEX
 8
K_RPER
 10
13.9602
 20
-9.4041
 30
25.4692
 70
192
 0
VERTEX
 8
K_RPER
 10
12.3159
 20
-10.3561
 30
25.4692
 70
192
 0
VERTEX
 8
K_RPER
 10
12.2929
 20
-10.4161
 30
25.4986
 70
192
 0
VERTEX
 8
K_RPER
 10
14.2066
 20
-9.73
 30
25.1336
 70
192
 0
VERTEX
 8
K_RPER
 10
14.1486
 20
-9.7296
 30
25.0931
 70
192
 0
VERTEX
 8
K_RPER
 10
12.5043
 20
-10.6816
 30
25.0931
 70
192
 0
VERTEX
 8
K_RPER
 10
12.4758
 20
-10.732
 30
25.1336
 70
192
 0
VERTEX
 8
K_RPER
 10
14.4371
 20
-10.1281
 30
24.8992
 70
192
 0
VERTEX
 8
K_RPER
 10
14.3861
 20
-10.1397
 30
24.8517
 70
192
 0
VERTEX
 8
K_RPER
 10
12.7418
 20
-11.0917
 30
24.8517
 70
192
 0
VERTEX
 8
K_RPER
 10
12.7062
 20
-11.1301
 30
24.8992
 70
192
 0
VERTEX
 8
K_RPER
 10
14.6926
 20
-10.5693
 30
24.8185
 70
192
 0
VERTEX
 8
K_RPER
 10
14.6493
 20
-10.5944
 30
24.7685
 70
192
 0
VERTEX
 8
K_RPER
 10
13.005
 20
-11.5463
 30
24.7685
 70
192
 0
VERTEX
 8
K_RPER
 10
12.9617
 20
-11.5714
 30
24.8185
 70
192
 0
VERTEX
 8
K_RPER
 10
14.948
 20
-11.0106
 30
24.8992
 70
192
 0
VERTEX
 8
K_RPER
 10
14.9125
 20
-11.049
 30
24.8517
 70
192
 0
VERTEX
 8
K_RPER
 10
13.2682
 20
-12.001
 30
24.8517
 70
192
 0
VERTEX
 8
K_RPER
 10
13.2172
 20
-12.0126
 30
24.8992
 70
192
 0
VERTEX
 8
K_RPER
 10
15.1785
 20
-11.4087
 30
25.1336
 70
192
 0
VERTEX
 8
K_RPER
 10
15.1499
 20
-11.4591
 30
25.0931
 70
192
 0
VERTEX
 8
K_RPER
 10
13.5056
 20
-12.4111
 30
25.0931
 70
192
 0
VERTEX
 8
K_RPER
 10
13.4476
 20
-12.4107
 30
25.1336
 70
192
 0
VERTEX
 8
K_RPER
 10
15.3614
 20
-11.7246
 30
25.4986
 70
192
 0
VERTEX
 8
K_RPER
 10
15.3384
 20
-11.7846
 30
25.4692
 70
192
 0
VERTEX
 8
K_RPER
 10
13.694
 20
-12.7366
 30
25.4692
 70
192
 0
VERTEX
 8
K_RPER
 10
13.6305
 20
-12.7266
 30
25.4986
 70
192
 0
VERTEX
 8
K_RPER
 10
15.4788
 20
-11.9274
 30
25.9586
 70
192
 0
VERTEX
 8
K_RPER
 10
15.4593
 20
-11.9936
 30
25.9431
 70
192
 0
VERTEX
 8
K_RPER
 10
13.815
 20
-12.9455
 30
25.9431
 70
192
 0
VERTEX
 8
K_RPER
 10
13.7479
 20
-12.9294
 30
25.9586
 70
192
 0
VERTEX
 8
K_RPER
 10
0
 20
0
 30
0
 70
128
 71
1
 72
2
 73
6
 74
6
 0
VERTEX
 8
K_RPER
 10
0
 20
0
 30
0
 70
128
 71
2
 72
3
 73
7
 74
6
 0
VERTEX
 8
K_RPER
 10
0
 20
0
 30
0
 70
128
 71
3
 72
4
 73
8
 74
7
 0
VERTEX
 8
K_RPER
 10
0
 20
0
 30
0
 70
128
 71
4
 72
5
 73
9
 74
8
 0
VERTEX
 8
K_RPER
 10
0
 20
0
 30
0
 70
128
 71
1
 72
66
 73
70
 74
70
 0
VERTEX
 8
K_RPER
 10
0
 20
0
 30
0
 70
128
 71
1
 72
6
 73
10
 74
10
 0
VERTEX
 8
K_RPER
 10
0
 20
0
 30
0
 70
128
 71
6
 72
7
 73
11
 74
10
 0
VERTEX
 8
K_RPER
 10
0
 20
0
 30
0
 70
128
 71
7
 72
8
 73
12
 74
11
 0
VERTEX
 8
K_RPER
 10
0
 20
0
 30
0
 70
128
 71
8
 72
9
 73
13
 74
12
 0
VERTEX
 8
K_RPER
 10
0
 20
0
 30
0
 70
128
 71
66
 72
67
 73
71
 74
70
 0
VERTEX
 8
K_RPER
 10
0
 20
0
 30
0
 70
128
 71
1
 72
10
 73
14
 74
14
 0
VERTEX
 8
K_RPER
 10
0
 20
0
 30
0
 70
128
 71
10
 72
11
 73
15
 74
14
 0
VERTEX
 8
K_RPER
 10
0
 20
0
 30
0
 70
128
 71
11
 72
12
 73
16
 74
15
 0
VERTEX
 8
K_RPER
 10
0
 20
0
 30
0
 70
128
 71
12
 72
13
 73
17
 74
16
 0
VERTEX
 8
K_RPER
 10
0
 20
0
 30
0
 70
128
 71
67
 72
68
 73
72
 74
71
 0
VERTEX
 8
K_RPER
 10
0
 20
0
 30
0
 70
128
 71
1
 72
14
 73
18
 74
18
 0
VERTEX
 8
K_RPER
 10
0
 20
0
 30
0
 70
128
 71
14
 72
15
 73
19
 74
18
 0
VERTEX
 8
K_RPER
 10
0
 20
0
 30
0
 70
128
 71
15
 72
16
 73
20
 74
19
 0
VERTEX
 8
K_RPER
 10
0
 20
0
 30
0
 70
128
 71
16
 72
17
 73
21
 74
20
 0
VERTEX
 8
K_RPER
 10
0
 20
0
 30
0
 70
128
 71
68
 72
69
 73
73
 74
72
 0
VERTEX
 8
K_RPER
 10
0
 20
0
 30
0
 70
128
 71
1
 72
18
 73
22
 74
22
 0
VERTEX
 8
K_RPER
 10
0
 20
0
 30
0
 70
128
 71
18
 72
19
 73
23
 74
22
 0
VERTEX
 8
K_RPER
 10
0
 20
0
 30
0
 70
128
 71
19
 72
20
 73
24
 74
23
 0
VERTEX
 8
K_RPER
 10
0
 20
0
 30
0
 70
128
 71
20
 72
21
 73
25
 74
24
 0
VERTEX
 8
K_RPER
 10
0
 20
0
 30
0
 70
128
 71
1
 72
70
 73
74
 74
74
 0
VERTEX
 8
K_RPER
 10
0
 20
0
 30
0
 70
128
 71
1
 72
22
 73
26
 74
26
 0
VERTEX
 8
K_RPER
 10
0
 20
0
 30
0
 70
128
 71
22
 72
23
 73
27
 74
26
 0
VERTEX
 8
K_RPER
 10
0
 20
0
 30
0
 70
128
 71
23
 72
24
 73
28
 74
27
 0
VERTEX
 8
K_RPER
 10
0
 20
0
 30
0
 70
128
 71
24
 72
25
 73
29
 74
28
 0
VERTEX
 8
K_RPER
 10
0
 20
0
 30
0
 70
128
 71
70
 72
71
 73
75
 74
74
 0
VERTEX
 8
K_RPER
 10
0
 20
0
 30
0
 70
128
 71
1
 72
26
 73
30
 74
30
 0
VERTEX
 8
K_RPER
 10
0
 20
0
 30
0
 70
128
 71
26
 72
27
 73
31
 74
30
 0
VERTEX
 8
K_RPER
 10
0
 20
0
 30
0
 70
128
 71
27
 72
28
 73
32
 74
31
 0
VERTEX
 8
K_RPER
 10
0
 20
0
 30
0
 70
128
 71
28
 72
29
 73
33
 74
32
 0
VERTEX
 8
K_RPER
 10
0
 20
0
 30
0
 70
128
 71
71
 72
72
 73
76
 74
75
 0
VERTEX
 8
K_RPER
 10
0
 20
0
 30
0
 70
128
 71
1
 72
30
 73
34
 74
34
 0
VERTEX
 8
K_RPER
 10
0
 20
0
 30
0
 70
128
 71
30
 72
31
 73
35
 74
34
 0
VERTEX
 8
K_RPER
 10
0
 20
0
 30
0
 70
128
 71
31
 72
32
 73
36
 74
35
 0
VERTEX
 8
K_RPER
 10
0
 20
0
 30
0
 70
128
 71
32
 72
33
 73
37
 74
36
 0
VERTEX
 8
K_RPER
 10
0
 20
0
 30
0
 70
128
 71
72
 72
73
 73
77
 74
76
 0
VERTEX
 8
K_RPER
 10
0
 20
0
 30
0
 70
128
 71
1
 72
34
 73
38
 74
38
 0
VERTEX
 8
K_RPER
 10
0
 20
0
 30
0
 70
128
 71
34
 72
35
 73
39
 74
38
 0
VERTEX
 8
K_RPER
 10
0
 20
0
 30
0
 70
128
 71
35
 72
36
 73
40
 74
39
 0
VERTEX
 8
K_RPER
 10
0
 20
0
 30
0
 70
128
 71
36
 72
37
 73
41
 74
40
 0
VERTEX
 8
K_RPER
 10
0
 20
0
 30
0
 70
128
 71
1
 72
74
 73
78
 74
78
 0
VERTEX
 8
K_RPER
 10
0
 20
0
 30
0
 70
128
 71
1
 72
38
 73
42
 74
42
 0
VERTEX
 8
K_RPER
 10
0
 20
0
 30
0
 70
128
 71
38
 72
39
 73
43
 74
42
 0
VERTEX
 8
K_RPER
 10
0
 20
0
 30
0
 70
128
 71
39
 72
40
 73
44
 74
43
 0
VERTEX
 8
K_RPER
 10
0
 20
0
 30
0
 70
128
 71
40
 72
41
 73
45
 74
44
 0
VERTEX
 8
K_RPER
 10
0
 20
0
 30
0
 70
128
 71
74
 72
75
 73
79
 74
78
 0
VERTEX
 8
K_RPER
 10
0
 20
0
 30
0
 70
128
 71
1
 72
42
 73
46
 74
46
 0
VERTEX
 8
K_RPER
 10
0
 20
0
 30
0
 70
128
 71
42
 72
43
 73
47
 74
46
 0
VERTEX
 8
K_RPER
 10
0
 20
0
 30
0
 70
128
 71
43
 72
44
 73
48
 74
47
 0
VERTEX
 8
K_RPER
 10
0
 20
0
 30
0
 70
128
 71
44
 72
45
 73
49
 74
48
 0
VERTEX
 8
K_RPER
 10
0
 20
0
 30
0
 70
128
 71
75
 72
76
 73
80
 74
79
 0
VERTEX
 8
K_RPER
 10
0
 20
0
 30
0
 70
128
 71
1
 72
46
 73
50
 74
50
 0
VERTEX
 8
K_RPER
 10
0
 20
0
 30
0
 70
128
 71
46
 72
47
 73
51
 74
50
 0
VERTEX
 8
K_RPER
 10
0
 20
0
 30
0
 70
128
 71
47
 72
48
 73
52
 74
51
 0
VERTEX
 8
K_RPER
 10
0
 20
0
 30
0
 70
128
 71
48
 72
49
 73
53
 74
52
 0
VERTEX
 8
K_RPER
 10
0
 20
0
 30
0
 70
128
 71
76
 72
77
 73
81
 74
80
 0
VERTEX
 8
K_RPER
 10
0
 20
0
 30
0
 70
128
 71
1
 72
50
 73
54
 74
54
 0
VERTEX
 8
K_RPER
 10
0
 20
0
 30
0
 70
128
 71
50
 72
51
 73
55
 74
54
 0
VERTEX
 8
K_RPER
 10
0
 20
0
 30
0
 70
128
 71
51
 72
52
 73
56
 74
55
 0
VERTEX
 8
K_RPER
 10
0
 20
0
 30
0
 70
128
 71
52
 72
53
 73
57
 74
56
 0
VERTEX
 8
K_RPER
 10
0
 20
0
 30
0
 70
128
 71
1
 72
78
 73
2
 74
2
 0
VERTEX
 8
K_RPER
 10
0
 20
0
 30
0
 70
128
 71
1
 72
54
 73
58
 74
58
 0
VERTEX
 8
K_RPER
 10
0
 20
0
 30
0
 70
128
 71
54
 72
55
 73
59
 74
58
 0
VERTEX
 8
K_RPER
 10
0
 20
0
 30
0
 70
128
 71
55
 72
56
 73
60
 74
59
 0
VERTEX
 8
K_RPER
 10
0
 20
0
 30
0
 70
128
 71
56
 72
57
 73
61
 74
60
 0
VERTEX
 8
K_RPER
 10
0
 20
0
 30
0
 70
128
 71
78
 72
79
 73
3
 74
2
 0
VERTEX
 8
K_RPER
 10
0
 20
0
 30
0
 70
128
 71
1
 72
58
 73
62
 74
62
 0
VERTEX
 8
K_RPER
 10
0
 20
0
 30
0
 70
128
 71
58
 72
59
 73
63
 74
62
 0
VERTEX
 8
K_RPER
 10
0
 20
0
 30
0
 70
128
 71
59
 72
60
 73
64
 74
63
 0
VERTEX
 8
K_RPER
 10
0
 20
0
 30
0
 70
128
 71
60
 72
61
 73
65
 74
64
 0
VERTEX
 8
K_RPER
 10
0
 20
0
 30
0
 70
128
 71
79
 72
80
 73
4
 74
3
 0
VERTEX
 8
K_RPER
 10
0
 20
0
 30
0
 70
128
 71
1
 72
62
 73
66
 74
66
 0
VERTEX
 8
K_RPER
 10
0
 20
0
 30
0
 70
128
 71
62
 72
63
 73
67
 74
66
 0
VERTEX
 8
K_RPER
 10
0
 20
0
 30
0
 70
128
 71
63
 72
64
 73
68
 74
67
 0
VERTEX
 8
K_RPER
 10
0
 20
0
 30
0
 70
128
 71
64
 72
65
 73
69
 74
68
 0
VERTEX
 8
K_RPER
 10
0
 20
0
 30
0
 70
128
 71
80
 72
81
 73
5
 74
4
 0
SEQEND
 0
POLYLINE
 8
K_RPER33
 66
1
 10
0.0
 20
0.0
 30
0.0
 70
64
 71
81
 72
80
 0
VERTEX
 8
K_RPER33
 10
10.5414
 20
-12.9725
 30
26.4685
 70
192
 0
VERTEX
 8
K_RPER33
 10
13.7914
 20
-12.9976
 30
26.4685
 70
192
 0
VERTEX
 8
K_RPER33
 10
13.7731
 20
-13.0659
 30
26.4685
 70
192
 0
VERTEX
 8
K_RPER33
 10
11.4365
 20
-14.4187
 30
26.4685
 70
192
 0
VERTEX
 8
K_RPER33
 10
11.3681
 20
-14.4005
 30
26.4685
 70
192
 0
VERTEX
 8
K_RPER33
 10
13.7509
 20
-12.9277
 30
26.9784
 70
192
 0
VERTEX
 8
K_RPER33
 10
13.7314
 20
-12.9939
 30
26.9938
 70
192
 0
VERTEX
 8
K_RPER33
 10
11.3948
 20
-14.3467
 30
26.9938
 70
192
 0
VERTEX
 8
K_RPER33
 10
11.3277
 20
-14.3306
 30
26.9784
 70
192
 0
VERTEX
 8
K_RPER33
 10
13.6335
 20
-12.7249
 30
27.4383
 70
192
 0
VERTEX
 8
K_RPER33
 10
13.6105
 20
-12.785
 30
27.4677
 70
192
 0
VERTEX
 8
K_RPER33
 10
11.2738
 20
-14.1377
 30
27.4677
 70
192
 0
VERTEX
 8
K_RPER33
 10
11.2103
 20
-14.1278
 30
27.4383
 70
192
 0
VERTEX
 8
K_RPER33
 10
13.4506
 20
-12.409
 30
27.8034
 70
192
 0
VERTEX
 8
K_RPER33
 10
13.422
 20
-12.4595
 30
27.8438
 70
192
 0
VERTEX
 8
K_RPER33
 10
11.0854
 20
-13.8122
 30
27.8438
 70
192
 0
VERTEX
 8
K_RPER33
 10
11.0274
 20
-13.8119
 30
27.8034
 70
192
 0
VERTEX
 8
K_RPER33
 10
13.2201
 20
-12.0109
 30
28.0377
 70
192
 0
VERTEX
 8
K_RPER33
 10
13.1846
 20
-12.0493
 30
28.0853
 70
192
 0
VERTEX
 8
K_RPER33
 10
10.8479
 20
-13.4021
 30
28.0853
 70
192
 0
VERTEX
 8
K_RPER33
 10
10.7969
 20
-13.4138
 30
28.0377
 70
192
 0
VERTEX
 8
K_RPER33
 10
12.9647
 20
-11.5697
 30
28.1185
 70
192
 0
VERTEX
 8
K_RPER33
 10
12.9214
 20
-11.5947
 30
28.1685
 70
192
 0
VERTEX
 8
K_RPER33
 10
10.5847
 20
-12.9475
 30
28.1685
 70
192
 0
VERTEX
 8
K_RPER33
 10
10.5414
 20
-12.9725
 30
28.1185
 70
192
 0
VERTEX
 8
K_RPER33
 10
12.7092
 20
-11.1284
 30
28.0377
 70
192
 0
VERTEX
 8
K_RPER33
 10
12.6582
 20
-11.1401
 30
28.0853
 70
192
 0
VERTEX
 8
K_RPER33
 10
10.3215
 20
-12.4928
 30
28.0853
 70
192
 0
VERTEX
 8
K_RPER33
 10
10.286
 20
-12.5313
 30
28.0377
 70
192
 0
VERTEX
 8
K_RPER33
 10
12.4787
 20
-10.7303
 30
27.8034
 70
192
 0
VERTEX
 8
K_RPER33
 10
12.4207
 20
-10.7299
 30
27.8438
 70
192
 0
VERTEX
 8
K_RPER33
 10
10.0841
 20
-12.0827
 30
27.8438
 70
192
 0
VERTEX
 8
K_RPER33
 10
10.0555
 20
-12.1332
 30
27.8034
 70
192
 0
VERTEX
 8
K_RPER33
 10
12.2958
 20
-10.4144
 30
27.4383
 70
192
 0
VERTEX
 8
K_RPER33
 10
12.2323
 20
-10.4045
 30
27.4677
 70
192
 0
VERTEX
 8
K_RPER33
 10
9.8956
 20
-11.7572
 30
27.4677
 70
192
 0
VERTEX
 8
K_RPER33
 10
9.8726
 20
-11.8173
 30
27.4383
 70
192
 0
VERTEX
 8
K_RPER33
 10
12.1784
 20
-10.2116
 30
26.9784
 70
192
 0
VERTEX
 8
K_RPER33
 10
12.1113
 20
-10.1955
 30
26.9938
 70
192
 0
VERTEX
 8
K_RPER33
 10
9.7747
 20
-11.5483
 30
26.9938
 70
192
 0
VERTEX
 8
K_RPER33
 10
9.7552
 20
-11.6145
 30
26.9784
 70
192
 0
VERTEX
 8
K_RPER33
 10
12.138
 20
-10.1417
 30
26.4685
 70
192
 0
VERTEX
 8
K_RPER33
 10
12.0696
 20
-10.1235
 30
26.4685
 70
192
 0
VERTEX
 8
K_RPER33
 10
9.733
 20
-11.4762
 30
26.4685
 70
192
 0
VERTEX
 8
K_RPER33
 10
9.7148
 20
-11.5446
 30
26.4685
 70
192
 0
VERTEX
 8
K_RPER33
 10
12.1784
 20
-10.2116
 30
25.9586
 70
192
 0
VERTEX
 8
K_RPER33
 10
12.1113
 20
-10.1955
 30
25.9431
 70
192
 0
VERTEX
 8
K_RPER33
 10
9.7747
 20
-11.5483
 30
25.9431
 70
192
 0
VERTEX
 8
K_RPER33
 10
9.7552
 20
-11.6145
 30
25.9586
 70
192
 0
VERTEX
 8
K_RPER33
 10
12.2958
 20
-10.4144
 30
25.4986
 70
192
 0
VERTEX
 8
K_RPER33
 10
12.2323
 20
-10.4045
 30
25.4692
 70
192
 0
VERTEX
 8
K_RPER33
 10
9.8956
 20
-11.7572
 30
25.4692
 70
192
 0
VERTEX
 8
K_RPER33
 10
9.8726
 20
-11.8173
 30
25.4986
 70
192
 0
VERTEX
 8
K_RPER33
 10
12.4787
 20
-10.7303
 30
25.1336
 70
192
 0
VERTEX
 8
K_RPER33
 10
12.4207
 20
-10.7299
 30
25.0931
 70
192
 0
VERTEX
 8
K_RPER33
 10
10.0841
 20
-12.0827
 30
25.0931
 70
192
 0
VERTEX
 8
K_RPER33
 10
10.0555
 20
-12.1332
 30
25.1336
 70
192
 0
VERTEX
 8
K_RPER33
 10
12.7092
 20
-11.1284
 30
24.8992
 70
192
 0
VERTEX
 8
K_RPER33
 10
12.6582
 20
-11.1401
 30
24.8517
 70
192
 0
VERTEX
 8
K_RPER33
 10
10.3215
 20
-12.4928
 30
24.8517
 70
192
 0
VERTEX
 8
K_RPER33
 10
10.286
 20
-12.5313
 30
24.8992
 70
192
 0
VERTEX
 8
K_RPER33
 10
12.9647
 20
-11.5697
 30
24.8185
 70
192
 0
VERTEX
 8
K_RPER33
 10
12.9214
 20
-11.5947
 30
24.7685
 70
192
 0
VERTEX
 8
K_RPER33
 10
10.5847
 20
-12.9475
 30
24.7685
 70
192
 0
VERTEX
 8
K_RPER33
 10
10.5414
 20
-12.9725
 30
24.8185
 70
192
 0
VERTEX
 8
K_RPER33
 10
13.2201
 20
-12.0109
 30
24.8992
 70
192
 0
VERTEX
 8
K_RPER33
 10
13.1846
 20
-12.0493
 30
24.8517
 70
192
 0
VERTEX
 8
K_RPER33
 10
10.8479
 20
-13.4021
 30
24.8517
 70
192
 0
VERTEX
 8
K_RPER33
 10
10.7969
 20
-13.4138
 30
24.8992
 70
192
 0
VERTEX
 8
K_RPER33
 10
13.4506
 20
-12.409
 30
25.1336
 70
192
 0
VERTEX
 8
K_RPER33
 10
13.422
 20
-12.4595
 30
25.0931
 70
192
 0
VERTEX
 8
K_RPER33
 10
11.0854
 20
-13.8122
 30
25.0931
 70
192
 0
VERTEX
 8
K_RPER33
 10
11.0274
 20
-13.8119
 30
25.1336
 70
192
 0
VERTEX
 8
K_RPER33
 10
13.6335
 20
-12.7249
 30
25.4986
 70
192
 0
VERTEX
 8
K_RPER33
 10
13.6105
 20
-12.785
 30
25.4692
 70
192
 0
VERTEX
 8
K_RPER33
 10
11.2738
 20
-14.1377
 30
25.4692
 70
192
 0
VERTEX
 8
K_RPER33
 10
11.2103
 20
-14.1278
 30
25.4986
 70
192
 0
VERTEX
 8
K_RPER33
 10
13.7509
 20
-12.9277
 30
25.9586
 70
192
 0
VERTEX
 8
K_RPER33
 10
13.7314
 20
-12.9939
 30
25.9431
 70
192
 0
VERTEX
 8
K_RPER33
 10
11.3948
 20
-14.3467
 30
25.9431
 70
192
 0
VERTEX
 8
K_RPER33
 10
11.3277
 20
-14.3306
 30
25.9586
 70
192
 0
VERTEX
 8
K_RPER33
 10
0
 20
0
 30
0
 70
128
 71
66
 72
67
 73
71
 74
70
 0
VERTEX
 8
K_RPER33
 10
0
 20
0
 30
0
 70
128
 71
2
 72
3
 73
7
 74
6
 0
VERTEX
 8
K_RPER33
 10
0
 20
0
 30
0
 70
128
 71
3
 72
4
 73
8
 74
7
 0
VERTEX
 8
K_RPER33
 10
0
 20
0
 30
0
 70
128
 71
4
 72
5
 73
9
 74
8
 0
VERTEX
 8
K_RPER33
 10
0
 20
0
 30
0
 70
128
 71
5
 72
1
 73
9
 74
9
 0
VERTEX
 8
K_RPER33
 10
0
 20
0
 30
0
 70
128
 71
67
 72
68
 73
72
 74
71
 0
VERTEX
 8
K_RPER33
 10
0
 20
0
 30
0
 70
128
 71
6
 72
7
 73
11
 74
10
 0
VERTEX
 8
K_RPER33
 10
0
 20
0
 30
0
 70
128
 71
7
 72
8
 73
12
 74
11
 0
VERTEX
 8
K_RPER33
 10
0
 20
0
 30
0
 70
128
 71
8
 72
9
 73
13
 74
12
 0
VERTEX
 8
K_RPER33
 10
0
 20
0
 30
0
 70
128
 71
9
 72
1
 73
13
 74
13
 0
VERTEX
 8
K_RPER33
 10
0
 20
0
 30
0
 70
128
 71
68
 72
69
 73
73
 74
72
 0
VERTEX
 8
K_RPER33
 10
0
 20
0
 30
0
 70
128
 71
10
 72
11
 73
15
 74
14
 0
VERTEX
 8
K_RPER33
 10
0
 20
0
 30
0
 70
128
 71
11
 72
12
 73
16
 74
15
 0
VERTEX
 8
K_RPER33
 10
0
 20
0
 30
0
 70
128
 71
12
 72
13
 73
17
 74
16
 0
VERTEX
 8
K_RPER33
 10
0
 20
0
 30
0
 70
128
 71
13
 72
1
 73
17
 74
17
 0
VERTEX
 8
K_RPER33
 10
0
 20
0
 30
0
 70
128
 71
69
 72
1
 73
73
 74
73
 0
VERTEX
 8
K_RPER33
 10
0
 20
0
 30
0
 70
128
 71
14
 72
15
 73
19
 74
18
 0
VERTEX
 8
K_RPER33
 10
0
 20
0
 30
0
 70
128
 71
15
 72
16
 73
20
 74
19
 0
VERTEX
 8
K_RPER33
 10
0
 20
0
 30
0
 70
128
 71
16
 72
17
 73
21
 74
20
 0
VERTEX
 8
K_RPER33
 10
0
 20
0
 30
0
 70
128
 71
17
 72
1
 73
21
 74
21
 0
VERTEX
 8
K_RPER33
 10
0
 20
0
 30
0
 70
128
 71
70
 72
71
 73
75
 74
74
 0
VERTEX
 8
K_RPER33
 10
0
 20
0
 30
0
 70
128
 71
18
 72
19
 73
23
 74
22
 0
VERTEX
 8
K_RPER33
 10
0
 20
0
 30
0
 70
128
 71
19
 72
20
 73
24
 74
23
 0
VERTEX
 8
K_RPER33
 10
0
 20
0
 30
0
 70
128
 71
20
 72
21
 73
25
 74
24
 0
VERTEX
 8
K_RPER33
 10
0
 20
0
 30
0
 70
128
 71
21
 72
1
 73
25
 74
25
 0
VERTEX
 8
K_RPER33
 10
0
 20
0
 30
0
 70
128
 71
71
 72
72
 73
76
 74
75
 0
VERTEX
 8
K_RPER33
 10
0
 20
0
 30
0
 70
128
 71
22
 72
23
 73
27
 74
26
 0
VERTEX
 8
K_RPER33
 10
0
 20
0
 30
0
 70
128
 71
23
 72
24
 73
28
 74
27
 0
VERTEX
 8
K_RPER33
 10
0
 20
0
 30
0
 70
128
 71
24
 72
25
 73
29
 74
28
 0
VERTEX
 8
K_RPER33
 10
0
 20
0
 30
0
 70
128
 71
25
 72
1
 73
29
 74
29
 0
VERTEX
 8
K_RPER33
 10
0
 20
0
 30
0
 70
128
 71
72
 72
73
 73
77
 74
76
 0
VERTEX
 8
K_RPER33
 10
0
 20
0
 30
0
 70
128
 71
26
 72
27
 73
31
 74
30
 0
VERTEX
 8
K_RPER33
 10
0
 20
0
 30
0
 70
128
 71
27
 72
28
 73
32
 74
31
 0
VERTEX
 8
K_RPER33
 10
0
 20
0
 30
0
 70
128
 71
28
 72
29
 73
33
 74
32
 0
VERTEX
 8
K_RPER33
 10
0
 20
0
 30
0
 70
128
 71
29
 72
1
 73
33
 74
33
 0
VERTEX
 8
K_RPER33
 10
0
 20
0
 30
0
 70
128
 71
73
 72
1
 73
77
 74
77
 0
VERTEX
 8
K_RPER33
 10
0
 20
0
 30
0
 70
128
 71
30
 72
31
 73
35
 74
34
 0
VERTEX
 8
K_RPER33
 10
0
 20
0
 30
0
 70
128
 71
31
 72
32
 73
36
 74
35
 0
VERTEX
 8
K_RPER33
 10
0
 20
0
 30
0
 70
128
 71
32
 72
33
 73
37
 74
36
 0
VERTEX
 8
K_RPER33
 10
0
 20
0
 30
0
 70
128
 71
33
 72
1
 73
37
 74
37
 0
VERTEX
 8
K_RPER33
 10
0
 20
0
 30
0
 70
128
 71
74
 72
75
 73
79
 74
78
 0
VERTEX
 8
K_RPER33
 10
0
 20
0
 30
0
 70
128
 71
34
 72
35
 73
39
 74
38
 0
VERTEX
 8
K_RPER33
 10
0
 20
0
 30
0
 70
128
 71
35
 72
36
 73
40
 74
39
 0
VERTEX
 8
K_RPER33
 10
0
 20
0
 30
0
 70
128
 71
36
 72
37
 73
41
 74
40
 0
VERTEX
 8
K_RPER33
 10
0
 20
0
 30
0
 70
128
 71
37
 72
1
 73
41
 74
41
 0
VERTEX
 8
K_RPER33
 10
0
 20
0
 30
0
 70
128
 71
75
 72
76
 73
80
 74
79
 0
VERTEX
 8
K_RPER33
 10
0
 20
0
 30
0
 70
128
 71
38
 72
39
 73
43
 74
42
 0
VERTEX
 8
K_RPER33
 10
0
 20
0
 30
0
 70
128
 71
39
 72
40
 73
44
 74
43
 0
VERTEX
 8
K_RPER33
 10
0
 20
0
 30
0
 70
128
 71
40
 72
41
 73
45
 74
44
 0
VERTEX
 8
K_RPER33
 10
0
 20
0
 30
0
 70
128
 71
41
 72
1
 73
45
 74
45
 0
VERTEX
 8
K_RPER33
 10
0
 20
0
 30
0
 70
128
 71
76
 72
77
 73
81
 74
80
 0
VERTEX
 8
K_RPER33
 10
0
 20
0
 30
0
 70
128
 71
42
 72
43
 73
47
 74
46
 0
VERTEX
 8
K_RPER33
 10
0
 20
0
 30
0
 70
128
 71
43
 72
44
 73
48
 74
47
 0
VERTEX
 8
K_RPER33
 10
0
 20
0
 30
0
 70
128
 71
44
 72
45
 73
49
 74
48
 0
VERTEX
 8
K_RPER33
 10
0
 20
0
 30
0
 70
128
 71
45
 72
1
 73
49
 74
49
 0
VERTEX
 8
K_RPER33
 10
0
 20
0
 30
0
 70
128
 71
77
 72
1
 73
81
 74
81
 0
VERTEX
 8
K_RPER33
 10
0
 20
0
 30
0
 70
128
 71
46
 72
47
 73
51
 74
50
 0
VERTEX
 8
K_RPER33
 10
0
 20
0
 30
0
 70
128
 71
47
 72
48
 73
52
 74
51
 0
VERTEX
 8
K_RPER33
 10
0
 20
0
 30
0
 70
128
 71
48
 72
49
 73
53
 74
52
 0
VERTEX
 8
K_RPER33
 10
0
 20
0
 30
0
 70
128
 71
49
 72
1
 73
53
 74
53
 0
VERTEX
 8
K_RPER33
 10
0
 20
0
 30
0
 70
128
 71
78
 72
79
 73
3
 74
2
 0
VERTEX
 8
K_RPER33
 10
0
 20
0
 30
0
 70
128
 71
50
 72
51
 73
55
 74
54
 0
VERTEX
 8
K_RPER33
 10
0
 20
0
 30
0
 70
128
 71
51
 72
52
 73
56
 74
55
 0
VERTEX
 8
K_RPER33
 10
0
 20
0
 30
0
 70
128
 71
52
 72
53
 73
57
 74
56
 0
VERTEX
 8
K_RPER33
 10
0
 20
0
 30
0
 70
128
 71
53
 72
1
 73
57
 74
57
 0
VERTEX
 8
K_RPER33
 10
0
 20
0
 30
0
 70
128
 71
79
 72
80
 73
4
 74
3
 0
VERTEX
 8
K_RPER33
 10
0
 20
0
 30
0
 70
128
 71
54
 72
55
 73
59
 74
58
 0
VERTEX
 8
K_RPER33
 10
0
 20
0
 30
0
 70
128
 71
55
 72
56
 73
60
 74
59
 0
VERTEX
 8
K_RPER33
 10
0
 20
0
 30
0
 70
128
 71
56
 72
57
 73
61
 74
60
 0
VERTEX
 8
K_RPER33
 10
0
 20
0
 30
0
 70
128
 71
57
 72
1
 73
61
 74
61
 0
VERTEX
 8
K_RPER33
 10
0
 20
0
 30
0
 70
128
 71
80
 72
81
 73
5
 74
4
 0
VERTEX
 8
K_RPER33
 10
0
 20
0
 30
0
 70
128
 71
58
 72
59
 73
63
 74
62
 0
VERTEX
 8
K_RPER33
 10
0
 20
0
 30
0
 70
128
 71
59
 72
60
 73
64
 74
63
 0
VERTEX
 8
K_RPER33
 10
0
 20
0
 30
0
 70
128
 71
60
 72
61
 73
65
 74
64
 0
VERTEX
 8
K_RPER33
 10
0
 20
0
 30
0
 70
128
 71
61
 72
1
 73
65
 74
65
 0
VERTEX
 8
K_RPER33
 10
0
 20
0
 30
0
 70
128
 71
81
 72
1
 73
5
 74
5
 0
VERTEX
 8
K_RPER33
 10
0
 20
0
 30
0
 70
128
 71
62
 72
63
 73
67
 74
66
 0
VERTEX
 8
K_RPER33
 10
0
 20
0
 30
0
 70
128
 71
63
 72
64
 73
68
 74
67
 0
VERTEX
 8
K_RPER33
 10
0
 20
0
 30
0
 70
128
 71
64
 72
65
 73
69
 74
68
 0
VERTEX
 8
K_RPER33
 10
0
 20
0
 30
0
 70
128
 71
65
 72
1
 73
69
 74
69
 0
SEQEND
 0
POLYLINE
 8
K_RPER_2_2
 66
1
 10
0.0
 20
0.0
 30
0.0
 70
64
 71
40
 72
20
 0
VERTEX
 8
K_RPER_2_2
 10
12.9562
 20
-13.1923
 30
26.4685
 70
192
 0
VERTEX
 8
K_RPER_2_2
 10
-3.8332
 20
-22.9122
 30
26.4685
 70
192
 0
VERTEX
 8
K_RPER_2_2
 10
12.9218
 20
-13.133
 30
26.9011
 70
192
 0
VERTEX
 8
K_RPER_2_2
 10
-3.8675
 20
-22.8529
 30
26.9011
 70
192
 0
VERTEX
 8
K_RPER_2_2
 10
12.8222
 20
-12.9609
 30
27.2914
 70
192
 0
VERTEX
 8
K_RPER_2_2
 10
-3.9672
 20
-22.6808
 30
27.2914
 70
192
 0
VERTEX
 8
K_RPER_2_2
 10
12.667
 20
-12.6928
 30
27.6011
 70
192
 0
VERTEX
 8
K_RPER_2_2
 10
-4.1223
 20
-22.4127
 30
27.6011
 70
192
 0
VERTEX
 8
K_RPER_2_2
 10
12.4715
 20
-12.3551
 30
27.8
 70
192
 0
VERTEX
 8
K_RPER_2_2
 10
-4.3179
 20
-22.075
 30
27.8
 70
192
 0
VERTEX
 8
K_RPER_2_2
 10
12.2547
 20
-11.9807
 30
27.8685
 70
192
 0
VERTEX
 8
K_RPER_2_2
 10
-4.5346
 20
-21.7006
 30
27.8685
 70
192
 0
VERTEX
 8
K_RPER_2_2
 10
12.038
 20
-11.6062
 30
27.8
 70
192
 0
VERTEX
 8
K_RPER_2_2
 10
-4.7514
 20
-21.3262
 30
27.8
 70
192
 0
VERTEX
 8
K_RPER_2_2
 10
11.8424
 20
-11.2685
 30
27.6011
 70
192
 0
VERTEX
 8
K_RPER_2_2
 10
-4.9469
 20
-20.9884
 30
27.6011
 70
192
 0
VERTEX
 8
K_RPER_2_2
 10
11.6873
 20
-11.0004
 30
27.2914
 70
192
 0
VERTEX
 8
K_RPER_2_2
 10
-5.1021
 20
-20.7204
 30
27.2914
 70
192
 0
VERTEX
 8
K_RPER_2_2
 10
11.5876
 20
-10.8284
 30
26.9011
 70
192
 0
VERTEX
 8
K_RPER_2_2
 10
-5.2018
 20
-20.5483
 30
26.9011
 70
192
 0
VERTEX
 8
K_RPER_2_2
 10
11.5533
 20
-10.7691
 30
26.4685
 70
192
 0
VERTEX
 8
K_RPER_2_2
 10
-5.2361
 20
-20.489
 30
26.4685
 70
192
 0
VERTEX
 8
K_RPER_2_2
 10
11.5876
 20
-10.8284
 30
26.0359
 70
192
 0
VERTEX
 8
K_RPER_2_2
 10
-5.2018
 20
-20.5483
 30
26.0359
 70
192
 0
VERTEX
 8
K_RPER_2_2
 10
11.6873
 20
-11.0004
 30
25.6456
 70
192
 0
VERTEX
 8
K_RPER_2_2
 10
-5.1021
 20
-20.7204
 30
25.6456
 70
192
 0
VERTEX
 8
K_RPER_2_2
 10
11.8424
 20
-11.2685
 30
25.3359
 70
192
 0
VERTEX
 8
K_RPER_2_2
 10
-4.9469
 20
-20.9884
 30
25.3359
 70
192
 0
VERTEX
 8
K_RPER_2_2
 10
12.038
 20
-11.6062
 30
25.137
 70
192
 0
VERTEX
 8
K_RPER_2_2
 10
-4.7514
 20
-21.3262
 30
25.137
 70
192
 0
VERTEX
 8
K_RPER_2_2
 10
12.2547
 20
-11.9807
 30
25.0685
 70
192
 0
VERTEX
 8
K_RPER_2_2
 10
-4.5346
 20
-21.7006
 30
25.0685
 70
192
 0
VERTEX
 8
K_RPER_2_2
 10
12.4715
 20
-12.3551
 30
25.137
 70
192
 0
VERTEX
 8
K_RPER_2_2
 10
-4.3179
 20
-22.075
 30
25.137
 70
192
 0
VERTEX
 8
K_RPER_2_2
 10
12.667
 20
-12.6928
 30
25.3359
 70
192
 0
VERTEX
 8
K_RPER_2_2
 10
-4.1223
 20
-22.4127
 30
25.3359
 70
192
 0
VERTEX
 8
K_RPER_2_2
 10
12.8222
 20
-12.9609
 30
25.6456
 70
192
 0
VERTEX
 8
K_RPER_2_2
 10
-3.9672
 20
-22.6808
 30
25.6456
 70
192
 0
VERTEX
 8
K_RPER_2_2
 10
12.9218
 20
-13.133
 30
26.0359
 70
192
 0
VERTEX
 8
K_RPER_2_2
 10
-3.8675
 20
-22.8529
 30
26.0359
 70
192
 0
VERTEX
 8
K_RPER_2_2
 10
0
 20
0
 30
0
 70
128
 71
1
 72
2
 73
4
 74
3
 0
VERTEX
 8
K_RPER_2_2
 10
0
 20
0
 30
0
 70
128
 71
3
 72
4
 73
6
 74
5
 0
VERTEX
 8
K_RPER_2_2
 10
0
 20
0
 30
0
 70
128
 71
5
 72
6
 73
8
 74
7
 0
VERTEX
 8
K_RPER_2_2
 10
0
 20
0
 30
0
 70
128
 71
7
 72
8
 73
10
 74
9
 0
VERTEX
 8
K_RPER_2_2
 10
0
 20
0
 30
0
 70
128
 71
9
 72
10
 73
12
 74
11
 0
VERTEX
 8
K_RPER_2_2
 10
0
 20
0
 30
0
 70
128
 71
11
 72
12
 73
14
 74
13
 0
VERTEX
 8
K_RPER_2_2
 10
0
 20
0
 30
0
 70
128
 71
13
 72
14
 73
16
 74
15
 0
VERTEX
 8
K_RPER_2_2
 10
0
 20
0
 30
0
 70
128
 71
15
 72
16
 73
18
 74
17
 0
VERTEX
 8
K_RPER_2_2
 10
0
 20
0
 30
0
 70
128
 71
17
 72
18
 73
20
 74
19
 0
VERTEX
 8
K_RPER_2_2
 10
0
 20
0
 30
0
 70
128
 71
19
 72
20
 73
22
 74
21
 0
VERTEX
 8
K_RPER_2_2
 10
0
 20
0
 30
0
 70
128
 71
21
 72
22
 73
24
 74
23
 0
VERTEX
 8
K_RPER_2_2
 10
0
 20
0
 30
0
 70
128
 71
23
 72
24
 73
26
 74
25
 0
VERTEX
 8
K_RPER_2_2
 10
0
 20
0
 30
0
 70
128
 71
25
 72
26
 73
28
 74
27
 0
VERTEX
 8
K_RPER_2_2
 10
0
 20
0
 30
0
 70
128
 71
27
 72
28
 73
30
 74
29
 0
VERTEX
 8
K_RPER_2_2
 10
0
 20
0
 30
0
 70
128
 71
29
 72
30
 73
32
 74
31
 0
VERTEX
 8
K_RPER_2_2
 10
0
 20
0
 30
0
 70
128
 71
31
 72
32
 73
34
 74
33
 0
VERTEX
 8
K_RPER_2_2
 10
0
 20
0
 30
0
 70
128
 71
33
 72
34
 73
36
 74
35
 0
VERTEX
 8
K_RPER_2_2
 10
0
 20
0
 30
0
 70
128
 71
35
 72
36
 73
38
 74
37
 0
VERTEX
 8
K_RPER_2_2
 10
0
 20
0
 30
0
 70
128
 71
37
 72
38
 73
40
 74
39
 0
VERTEX
 8
K_RPER_2_2
 10
0
 20
0
 30
0
 70
128
 71
39
 72
40
 73
2
 74
1
 0
SEQEND
 0
POLYLINE
 8
K_RPER_1_2
 66
1
 10
0.0
 20
0.0
 30
0.0
 70
64
 71
81
 72
80
 0
VERTEX
 8
K_RPER_1_2
 10
-4.7886
 20
-21.8476
 30
27.9685
 70
192
 0
VERTEX
 8
K_RPER_1_2
 10
-4.0621
 20
-23.1025
 30
24.9685
 70
192
 0
VERTEX
 8
K_RPER_1_2
 10
-4.0371
 20
-23.1457
 30
25.0185
 70
192
 0
VERTEX
 8
K_RPER_1_2
 10
-4.0371
 20
-23.1457
 30
27.9185
 70
192
 0
VERTEX
 8
K_RPER_1_2
 10
-4.0621
 20
-23.1025
 30
27.9685
 70
192
 0
VERTEX
 8
K_RPER_1_2
 10
-3.7099
 20
-22.8166
 30
24.9685
 70
192
 0
VERTEX
 8
K_RPER_1_2
 10
-3.6727
 20
-22.85
 30
25.0185
 70
192
 0
VERTEX
 8
K_RPER_1_2
 10
-3.6727
 20
-22.85
 30
27.9185
 70
192
 0
VERTEX
 8
K_RPER_1_2
 10
-3.7099
 20
-22.8166
 30
27.9685
 70
192
 0
VERTEX
 8
K_RPER_1_2
 10
-3.4633
 20
-22.4358
 30
24.9685
 70
192
 0
VERTEX
 8
K_RPER_1_2
 10
-3.4176
 20
-22.4561
 30
25.0185
 70
192
 0
VERTEX
 8
K_RPER_1_2
 10
-3.4176
 20
-22.4561
 30
27.9185
 70
192
 0
VERTEX
 8
K_RPER_1_2
 10
-3.4633
 20
-22.4358
 30
27.9685
 70
192
 0
VERTEX
 8
K_RPER_1_2
 10
-3.3464
 20
-21.9975
 30
24.9685
 70
192
 0
VERTEX
 8
K_RPER_1_2
 10
-3.2966
 20
-22.0026
 30
25.0185
 70
192
 0
VERTEX
 8
K_RPER_1_2
 10
-3.2966
 20
-22.0026
 30
27.9185
 70
192
 0
VERTEX
 8
K_RPER_1_2
 10
-3.3464
 20
-21.9975
 30
27.9685
 70
192
 0
VERTEX
 8
K_RPER_1_2
 10
-3.3706
 20
-21.5444
 30
24.9685
 70
192
 0
VERTEX
 8
K_RPER_1_2
 10
-3.3217
 20
-21.534
 30
25.0185
 70
192
 0
VERTEX
 8
K_RPER_1_2
 10
-3.3217
 20
-21.534
 30
27.9185
 70
192
 0
VERTEX
 8
K_RPER_1_2
 10
-3.3706
 20
-21.5444
 30
27.9685
 70
192
 0
VERTEX
 8
K_RPER_1_2
 10
-3.5337
 20
-21.1211
 30
24.9685
 70
192
 0
VERTEX
 8
K_RPER_1_2
 10
-3.4905
 20
-21.0961
 30
25.0185
 70
192
 0
VERTEX
 8
K_RPER_1_2
 10
-3.4905
 20
-21.0961
 30
27.9185
 70
192
 0
VERTEX
 8
K_RPER_1_2
 10
-3.5337
 20
-21.1211
 30
27.9685
 70
192
 0
VERTEX
 8
K_RPER_1_2
 10
-3.8196
 20
-20.7689
 30
24.9685
 70
192
 0
VERTEX
 8
K_RPER_1_2
 10
-3.7862
 20
-20.7317
 30
25.0185
 70
192
 0
VERTEX
 8
K_RPER_1_2
 10
-3.7862
 20
-20.7317
 30
27.9185
 70
192
 0
VERTEX
 8
K_RPER_1_2
 10
-3.8196
 20
-20.7689
 30
27.9685
 70
192
 0
VERTEX
 8
K_RPER_1_2
 10
-4.2004
 20
-20.5223
 30
24.9685
 70
192
 0
VERTEX
 8
K_RPER_1_2
 10
-4.1801
 20
-20.4766
 30
25.0185
 70
192
 0
VERTEX
 8
K_RPER_1_2
 10
-4.1801
 20
-20.4766
 30
27.9185
 70
192
 0
VERTEX
 8
K_RPER_1_2
 10
-4.2004
 20
-20.5223
 30
27.9685
 70
192
 0
VERTEX
 8
K_RPER_1_2
 10
-4.6387
 20
-20.4054
 30
24.9685
 70
192
 0
VERTEX
 8
K_RPER_1_2
 10
-4.6336
 20
-20.3556
 30
25.0185
 70
192
 0
VERTEX
 8
K_RPER_1_2
 10
-4.6336
 20
-20.3556
 30
27.9185
 70
192
 0
VERTEX
 8
K_RPER_1_2
 10
-4.6387
 20
-20.4054
 30
27.9685
 70
192
 0
VERTEX
 8
K_RPER_1_2
 10
-5.0918
 20
-20.4296
 30
24.9685
 70
192
 0
VERTEX
 8
K_RPER_1_2
 10
-5.1022
 20
-20.3808
 30
25.0185
 70
192
 0
VERTEX
 8
K_RPER_1_2
 10
-5.1022
 20
-20.3808
 30
27.9185
 70
192
 0
VERTEX
 8
K_RPER_1_2
 10
-5.0918
 20
-20.4296
 30
27.9685
 70
192
 0
VERTEX
 8
K_RPER_1_2
 10
-5.5151
 20
-20.5927
 30
24.9685
 70
192
 0
VERTEX
 8
K_RPER_1_2
 10
-5.5401
 20
-20.5495
 30
25.0185
 70
192
 0
VERTEX
 8
K_RPER_1_2
 10
-5.5401
 20
-20.5495
 30
27.9185
 70
192
 0
VERTEX
 8
K_RPER_1_2
 10
-5.5151
 20
-20.5927
 30
27.9685
 70
192
 0
VERTEX
 8
K_RPER_1_2
 10
-5.8673
 20
-20.8786
 30
24.9685
 70
192
 0
VERTEX
 8
K_RPER_1_2
 10
-5.9045
 20
-20.8452
 30
25.0185
 70
192
 0
VERTEX
 8
K_RPER_1_2
 10
-5.9045
 20
-20.8452
 30
27.9185
 70
192
 0
VERTEX
 8
K_RPER_1_2
 10
-5.8673
 20
-20.8786
 30
27.9685
 70
192
 0
VERTEX
 8
K_RPER_1_2
 10
-6.1139
 20
-21.2594
 30
24.9685
 70
192
 0
VERTEX
 8
K_RPER_1_2
 10
-6.1596
 20
-21.2391
 30
25.0185
 70
192
 0
VERTEX
 8
K_RPER_1_2
 10
-6.1596
 20
-21.2391
 30
27.9185
 70
192
 0
VERTEX
 8
K_RPER_1_2
 10
-6.1139
 20
-21.2594
 30
27.9685
 70
192
 0
VERTEX
 8
K_RPER_1_2
 10
-6.2308
 20
-21.6977
 30
24.9685
 70
192
 0
VERTEX
 8
K_RPER_1_2
 10
-6.2806
 20
-21.6926
 30
25.0185
 70
192
 0
VERTEX
 8
K_RPER_1_2
 10
-6.2806
 20
-21.6926
 30
27.9185
 70
192
 0
VERTEX
 8
K_RPER_1_2
 10
-6.2308
 20
-21.6977
 30
27.9685
 70
192
 0
VERTEX
 8
K_RPER_1_2
 10
-6.2066
 20
-22.1508
 30
24.9685
 70
192
 0
VERTEX
 8
K_RPER_1_2
 10
-6.2554
 20
-22.1612
 30
25.0185
 70
192
 0
VERTEX
 8
K_RPER_1_2
 10
-6.2554
 20
-22.1612
 30
27.9185
 70
192
 0
VERTEX
 8
K_RPER_1_2
 10
-6.2066
 20
-22.1508
 30
27.9685
 70
192
 0
VERTEX
 8
K_RPER_1_2
 10
-6.0435
 20
-22.5741
 30
24.9685
 70
192
 0
VERTEX
 8
K_RPER_1_2
 10
-6.0867
 20
-22.5991
 30
25.0185
 70
192
 0
VERTEX
 8
K_RPER_1_2
 10
-6.0867
 20
-22.5991
 30
27.9185
 70
192
 0
VERTEX
 8
K_RPER_1_2
 10
-6.0435
 20
-22.5741
 30
27.9685
 70
192
 0
VERTEX
 8
K_RPER_1_2
 10
-5.7576
 20
-22.9263
 30
24.9685
 70
192
 0
VERTEX
 8
K_RPER_1_2
 10
-5.791
 20
-22.9635
 30
25.0185
 70
192
 0
VERTEX
 8
K_RPER_1_2
 10
-5.791
 20
-22.9635
 30
27.9185
 70
192
 0
VERTEX
 8
K_RPER_1_2
 10
-5.7576
 20
-22.9263
 30
27.9685
 70
192
 0
VERTEX
 8
K_RPER_1_2
 10
-5.3768
 20
-23.1729
 30
24.9685
 70
192
 0
VERTEX
 8
K_RPER_1_2
 10
-5.3971
 20
-23.2186
 30
25.0185
 70
192
 0
VERTEX
 8
K_RPER_1_2
 10
-5.3971
 20
-23.2186
 30
27.9185
 70
192
 0
VERTEX
 8
K_RPER_1_2
 10
-5.3768
 20
-23.1729
 30
27.9685
 70
192
 0
VERTEX
 8
K_RPER_1_2
 10
-4.9385
 20
-23.2898
 30
24.9685
 70
192
 0
VERTEX
 8
K_RPER_1_2
 10
-4.9436
 20
-23.3396
 30
25.0185
 70
192
 0
VERTEX
 8
K_RPER_1_2
 10
-4.9436
 20
-23.3396
 30
27.9185
 70
192
 0
VERTEX
 8
K_RPER_1_2
 10
-4.9385
 20
-23.2898
 30
27.9685
 70
192
 0
VERTEX
 8
K_RPER_1_2
 10
-4.4854
 20
-23.2656
 30
24.9685
 70
192
 0
VERTEX
 8
K_RPER_1_2
 10
-4.475
 20
-23.3145
 30
25.0185
 70
192
 0
VERTEX
 8
K_RPER_1_2
 10
-4.475
 20
-23.3145
 30
27.9185
 70
192
 0
VERTEX
 8
K_RPER_1_2
 10
-4.4854
 20
-23.2656
 30
27.9685
 70
192
 0
VERTEX
 8
K_RPER_1_2
 10
0
 20
0
 30
0
 70
128
 71
66
 72
67
 73
71
 74
70
 0
VERTEX
 8
K_RPER_1_2
 10
0
 20
0
 30
0
 70
128
 71
2
 72
3
 73
7
 74
6
 0
VERTEX
 8
K_RPER_1_2
 10
0
 20
0
 30
0
 70
128
 71
3
 72
4
 73
8
 74
7
 0
VERTEX
 8
K_RPER_1_2
 10
0
 20
0
 30
0
 70
128
 71
4
 72
5
 73
9
 74
8
 0
VERTEX
 8
K_RPER_1_2
 10
0
 20
0
 30
0
 70
128
 71
5
 72
1
 73
9
 74
9
 0
VERTEX
 8
K_RPER_1_2
 10
0
 20
0
 30
0
 70
128
 71
67
 72
68
 73
72
 74
71
 0
VERTEX
 8
K_RPER_1_2
 10
0
 20
0
 30
0
 70
128
 71
6
 72
7
 73
11
 74
10
 0
VERTEX
 8
K_RPER_1_2
 10
0
 20
0
 30
0
 70
128
 71
7
 72
8
 73
12
 74
11
 0
VERTEX
 8
K_RPER_1_2
 10
0
 20
0
 30
0
 70
128
 71
8
 72
9
 73
13
 74
12
 0
VERTEX
 8
K_RPER_1_2
 10
0
 20
0
 30
0
 70
128
 71
9
 72
1
 73
13
 74
13
 0
VERTEX
 8
K_RPER_1_2
 10
0
 20
0
 30
0
 70
128
 71
68
 72
69
 73
73
 74
72
 0
VERTEX
 8
K_RPER_1_2
 10
0
 20
0
 30
0
 70
128
 71
10
 72
11
 73
15
 74
14
 0
VERTEX
 8
K_RPER_1_2
 10
0
 20
0
 30
0
 70
128
 71
11
 72
12
 73
16
 74
15
 0
VERTEX
 8
K_RPER_1_2
 10
0
 20
0
 30
0
 70
128
 71
12
 72
13
 73
17
 74
16
 0
VERTEX
 8
K_RPER_1_2
 10
0
 20
0
 30
0
 70
128
 71
13
 72
1
 73
17
 74
17
 0
VERTEX
 8
K_RPER_1_2
 10
0
 20
0
 30
0
 70
128
 71
69
 72
1
 73
73
 74
73
 0
VERTEX
 8
K_RPER_1_2
 10
0
 20
0
 30
0
 70
128
 71
14
 72
15
 73
19
 74
18
 0
VERTEX
 8
K_RPER_1_2
 10
0
 20
0
 30
0
 70
128
 71
15
 72
16
 73
20
 74
19
 0
VERTEX
 8
K_RPER_1_2
 10
0
 20
0
 30
0
 70
128
 71
16
 72
17
 73
21
 74
20
 0
VERTEX
 8
K_RPER_1_2
 10
0
 20
0
 30
0
 70
128
 71
17
 72
1
 73
21
 74
21
 0
VERTEX
 8
K_RPER_1_2
 10
0
 20
0
 30
0
 70
128
 71
70
 72
71
 73
75
 74
74
 0
VERTEX
 8
K_RPER_1_2
 10
0
 20
0
 30
0
 70
128
 71
18
 72
19
 73
23
 74
22
 0
VERTEX
 8
K_RPER_1_2
 10
0
 20
0
 30
0
 70
128
 71
19
 72
20
 73
24
 74
23
 0
VERTEX
 8
K_RPER_1_2
 10
0
 20
0
 30
0
 70
128
 71
20
 72
21
 73
25
 74
24
 0
VERTEX
 8
K_RPER_1_2
 10
0
 20
0
 30
0
 70
128
 71
21
 72
1
 73
25
 74
25
 0
VERTEX
 8
K_RPER_1_2
 10
0
 20
0
 30
0
 70
128
 71
71
 72
72
 73
76
 74
75
 0
VERTEX
 8
K_RPER_1_2
 10
0
 20
0
 30
0
 70
128
 71
22
 72
23
 73
27
 74
26
 0
VERTEX
 8
K_RPER_1_2
 10
0
 20
0
 30
0
 70
128
 71
23
 72
24
 73
28
 74
27
 0
VERTEX
 8
K_RPER_1_2
 10
0
 20
0
 30
0
 70
128
 71
24
 72
25
 73
29
 74
28
 0
VERTEX
 8
K_RPER_1_2
 10
0
 20
0
 30
0
 70
128
 71
25
 72
1
 73
29
 74
29
 0
VERTEX
 8
K_RPER_1_2
 10
0
 20
0
 30
0
 70
128
 71
72
 72
73
 73
77
 74
76
 0
VERTEX
 8
K_RPER_1_2
 10
0
 20
0
 30
0
 70
128
 71
26
 72
27
 73
31
 74
30
 0
VERTEX
 8
K_RPER_1_2
 10
0
 20
0
 30
0
 70
128
 71
27
 72
28
 73
32
 74
31
 0
VERTEX
 8
K_RPER_1_2
 10
0
 20
0
 30
0
 70
128
 71
28
 72
29
 73
33
 74
32
 0
VERTEX
 8
K_RPER_1_2
 10
0
 20
0
 30
0
 70
128
 71
29
 72
1
 73
33
 74
33
 0
VERTEX
 8
K_RPER_1_2
 10
0
 20
0
 30
0
 70
128
 71
73
 72
1
 73
77
 74
77
 0
VERTEX
 8
K_RPER_1_2
 10
0
 20
0
 30
0
 70
128
 71
30
 72
31
 73
35
 74
34
 0
VERTEX
 8
K_RPER_1_2
 10
0
 20
0
 30
0
 70
128
 71
31
 72
32
 73
36
 74
35
 0
VERTEX
 8
K_RPER_1_2
 10
0
 20
0
 30
0
 70
128
 71
32
 72
33
 73
37
 74
36
 0
VERTEX
 8
K_RPER_1_2
 10
0
 20
0
 30
0
 70
128
 71
33
 72
1
 73
37
 74
37
 0
VERTEX
 8
K_RPER_1_2
 10
0
 20
0
 30
0
 70
128
 71
74
 72
75
 73
79
 74
78
 0
VERTEX
 8
K_RPER_1_2
 10
0
 20
0
 30
0
 70
128
 71
34
 72
35
 73
39
 74
38
 0
VERTEX
 8
K_RPER_1_2
 10
0
 20
0
 30
0
 70
128
 71
35
 72
36
 73
40
 74
39
 0
VERTEX
 8
K_RPER_1_2
 10
0
 20
0
 30
0
 70
128
 71
36
 72
37
 73
41
 74
40
 0
VERTEX
 8
K_RPER_1_2
 10
0
 20
0
 30
0
 70
128
 71
37
 72
1
 73
41
 74
41
 0
VERTEX
 8
K_RPER_1_2
 10
0
 20
0
 30
0
 70
128
 71
75
 72
76
 73
80
 74
79
 0
VERTEX
 8
K_RPER_1_2
 10
0
 20
0
 30
0
 70
128
 71
38
 72
39
 73
43
 74
42
 0
VERTEX
 8
K_RPER_1_2
 10
0
 20
0
 30
0
 70
128
 71
39
 72
40
 73
44
 74
43
 0
VERTEX
 8
K_RPER_1_2
 10
0
 20
0
 30
0
 70
128
 71
40
 72
41
 73
45
 74
44
 0
VERTEX
 8
K_RPER_1_2
 10
0
 20
0
 30
0
 70
128
 71
41
 72
1
 73
45
 74
45
 0
VERTEX
 8
K_RPER_1_2
 10
0
 20
0
 30
0
 70
128
 71
76
 72
77
 73
81
 74
80
 0
VERTEX
 8
K_RPER_1_2
 10
0
 20
0
 30
0
 70
128
 71
42
 72
43
 73
47
 74
46
 0
VERTEX
 8
K_RPER_1_2
 10
0
 20
0
 30
0
 70
128
 71
43
 72
44
 73
48
 74
47
 0
VERTEX
 8
K_RPER_1_2
 10
0
 20
0
 30
0
 70
128
 71
44
 72
45
 73
49
 74
48
 0
VERTEX
 8
K_RPER_1_2
 10
0
 20
0
 30
0
 70
128
 71
45
 72
1
 73
49
 74
49
 0
VERTEX
 8
K_RPER_1_2
 10
0
 20
0
 30
0
 70
128
 71
77
 72
1
 73
81
 74
81
 0
VERTEX
 8
K_RPER_1_2
 10
0
 20
0
 30
0
 70
128
 71
46
 72
47
 73
51
 74
50
 0
VERTEX
 8
K_RPER_1_2
 10
0
 20
0
 30
0
 70
128
 71
47
 72
48
 73
52
 74
51
 0
VERTEX
 8
K_RPER_1_2
 10
0
 20
0
 30
0
 70
128
 71
48
 72
49
 73
53
 74
52
 0
VERTEX
 8
K_RPER_1_2
 10
0
 20
0
 30
0
 70
128
 71
49
 72
1
 73
53
 74
53
 0
VERTEX
 8
K_RPER_1_2
 10
0
 20
0
 30
0
 70
128
 71
78
 72
79
 73
3
 74
2
 0
VERTEX
 8
K_RPER_1_2
 10
0
 20
0
 30
0
 70
128
 71
50
 72
51
 73
55
 74
54
 0
VERTEX
 8
K_RPER_1_2
 10
0
 20
0
 30
0
 70
128
 71
51
 72
52
 73
56
 74
55
 0
VERTEX
 8
K_RPER_1_2
 10
0
 20
0
 30
0
 70
128
 71
52
 72
53
 73
57
 74
56
 0
VERTEX
 8
K_RPER_1_2
 10
0
 20
0
 30
0
 70
128
 71
53
 72
1
 73
57
 74
57
 0
VERTEX
 8
K_RPER_1_2
 10
0
 20
0
 30
0
 70
128
 71
79
 72
80
 73
4
 74
3
 0
VERTEX
 8
K_RPER_1_2
 10
0
 20
0
 30
0
 70
128
 71
54
 72
55
 73
59
 74
58
 0
VERTEX
 8
K_RPER_1_2
 10
0
 20
0
 30
0
 70
128
 71
55
 72
56
 73
60
 74
59
 0
VERTEX
 8
K_RPER_1_2
 10
0
 20
0
 30
0
 70
128
 71
56
 72
57
 73
61
 74
60
 0
VERTEX
 8
K_RPER_1_2
 10
0
 20
0
 30
0
 70
128
 71
57
 72
1
 73
61
 74
61
 0
VERTEX
 8
K_RPER_1_2
 10
0
 20
0
 30
0
 70
128
 71
80
 72
81
 73
5
 74
4
 0
VERTEX
 8
K_RPER_1_2
 10
0
 20
0
 30
0
 70
128
 71
58
 72
59
 73
63
 74
62
 0
VERTEX
 8
K_RPER_1_2
 10
0
 20
0
 30
0
 70
128
 71
59
 72
60
 73
64
 74
63
 0
VERTEX
 8
K_RPER_1_2
 10
0
 20
0
 30
0
 70
128
 71
60
 72
61
 73
65
 74
64
 0
VERTEX
 8
K_RPER_1_2
 10
0
 20
0
 30
0
 70
128
 71
61
 72
1
 73
65
 74
65
 0
VERTEX
 8
K_RPER_1_2
 10
0
 20
0
 30
0
 70
128
 71
81
 72
1
 73
5
 74
5
 0
VERTEX
 8
K_RPER_1_2
 10
0
 20
0
 30
0
 70
128
 71
62
 72
63
 73
67
 74
66
 0
VERTEX
 8
K_RPER_1_2
 10
0
 20
0
 30
0
 70
128
 71
63
 72
64
 73
68
 74
67
 0
VERTEX
 8
K_RPER_1_2
 10
0
 20
0
 30
0
 70
128
 71
64
 72
65
 73
69
 74
68
 0
VERTEX
 8
K_RPER_1_2
 10
0
 20
0
 30
0
 70
128
 71
65
 72
1
 73
69
 74
69
 0
SEQEND
 0
POLYLINE
 8
K_RPER_2_3
 66
1
 10
0.0
 20
0.0
 30
0.0
 70
64
 71
40
 72
20
 0
VERTEX
 8
K_RPER_2_3
 10
-0.01
 20
-2.3913
 30
17.9788
 70
192
 0
VERTEX
 8
K_RPER_2_3
 10
-0.01
 20
-2.3913
 30
25.9788
 70
192
 0
VERTEX
 8
K_RPER_2_3
 10
0.7316
 20
-2.2738
 30
17.9788
 70
192
 0
VERTEX
 8
K_RPER_2_3
 10
0.7316
 20
-2.2738
 30
25.9788
 70
192
 0
VERTEX
 8
K_RPER_2_3
 10
1.4007
 20
-1.9329
 30
17.9788
 70
192
 0
VERTEX
 8
K_RPER_2_3
 10
1.4007
 20
-1.9329
 30
25.9788
 70
192
 0
VERTEX
 8
K_RPER_2_3
 10
1.9316
 20
-1.402
 30
17.9788
 70
192
 0
VERTEX
 8
K_RPER_2_3
 10
1.9316
 20
-1.402
 30
25.9788
 70
192
 0
VERTEX
 8
K_RPER_2_3
 10
2.2725
 20
-0.7329
 30
17.9788
 70
192
 0
VERTEX
 8
K_RPER_2_3
 10
2.2725
 20
-0.7329
 30
25.9788
 70
192
 0
VERTEX
 8
K_RPER_2_3
 10
2.39
 20
0.0087
 30
17.9788
 70
192
 0
VERTEX
 8
K_RPER_2_3
 10
2.39
 20
0.0087
 30
25.9788
 70
192
 0
VERTEX
 8
K_RPER_2_3
 10
2.2725
 20
0.7503
 30
17.9788
 70
192
 0
VERTEX
 8
K_RPER_2_3
 10
2.2725
 20
0.7503
 30
25.9788
 70
192
 0
VERTEX
 8
K_RPER_2_3
 10
1.9316
 20
1.4194
 30
17.9788
 70
192
 0
VERTEX
 8
K_RPER_2_3
 10
1.9316
 20
1.4194
 30
25.9788
 70
192
 0
VERTEX
 8
K_RPER_2_3
 10
1.4007
 20
1.9503
 30
17.9788
 70
192
 0
VERTEX
 8
K_RPER_2_3
 10
1.4007
 20
1.9503
 30
25.9788
 70
192
 0
VERTEX
 8
K_RPER_2_3
 10
0.7316
 20
2.2912
 30
17.9788
 70
192
 0
VERTEX
 8
K_RPER_2_3
 10
0.7316
 20
2.2912
 30
25.9788
 70
192
 0
VERTEX
 8
K_RPER_2_3
 10
-0.01
 20
2.4087
 30
17.9788
 70
192
 0
VERTEX
 8
K_RPER_2_3
 10
-0.01
 20
2.4087
 30
25.9788
 70
192
 0
VERTEX
 8
K_RPER_2_3
 10
-0.7516
 20
2.2912
 30
17.9788
 70
192
 0
VERTEX
 8
K_RPER_2_3
 10
-0.7516
 20
2.2912
 30
25.9788
 70
192
 0
VERTEX
 8
K_RPER_2_3
 10
-1.4207
 20
1.9503
 30
17.9788
 70
192
 0
VERTEX
 8
K_RPER_2_3
 10
-1.4207
 20
1.9503
 30
25.9788
 70
192
 0
VERTEX
 8
K_RPER_2_3
 10
-1.9516
 20
1.4194
 30
17.9788
 70
192
 0
VERTEX
 8
K_RPER_2_3
 10
-1.9516
 20
1.4194
 30
25.9788
 70
192
 0
VERTEX
 8
K_RPER_2_3
 10
-2.2925
 20
0.7503
 30
17.9788
 70
192
 0
VERTEX
 8
K_RPER_2_3
 10
-2.2925
 20
0.7503
 30
25.9788
 70
192
 0
VERTEX
 8
K_RPER_2_3
 10
-2.41
 20
0.0087
 30
17.9788
 70
192
 0
VERTEX
 8
K_RPER_2_3
 10
-2.41
 20
0.0087
 30
25.9788
 70
192
 0
VERTEX
 8
K_RPER_2_3
 10
-2.2925
 20
-0.7329
 30
17.9788
 70
192
 0
VERTEX
 8
K_RPER_2_3
 10
-2.2925
 20
-0.7329
 30
25.9788
 70
192
 0
VERTEX
 8
K_RPER_2_3
 10
-1.9516
 20
-1.402
 30
17.9788
 70
192
 0
VERTEX
 8
K_RPER_2_3
 10
-1.9516
 20
-1.402
 30
25.9788
 70
192
 0
VERTEX
 8
K_RPER_2_3
 10
-1.4207
 20
-1.9329
 30
17.9788
 70
192
 0
VERTEX
 8
K_RPER_2_3
 10
-1.4207
 20
-1.9329
 30
25.9788
 70
192
 0
VERTEX
 8
K_RPER_2_3
 10
-0.7516
 20
-2.2738
 30
17.9788
 70
192
 0
VERTEX
 8
K_RPER_2_3
 10
-0.7516
 20
-2.2738
 30
25.9788
 70
192
 0
VERTEX
 8
K_RPER_2_3
 10
0
 20
0
 30
0
 70
128
 71
1
 72
2
 73
4
 74
3
 0
VERTEX
 8
K_RPER_2_3
 10
0
 20
0
 30
0
 70
128
 71
3
 72
4
 73
6
 74
5
 0
VERTEX
 8
K_RPER_2_3
 10
0
 20
0
 30
0
 70
128
 71
5
 72
6
 73
8
 74
7
 0
VERTEX
 8
K_RPER_2_3
 10
0
 20
0
 30
0
 70
128
 71
7
 72
8
 73
10
 74
9
 0
VERTEX
 8
K_RPER_2_3
 10
0
 20
0
 30
0
 70
128
 71
9
 72
10
 73
12
 74
11
 0
VERTEX
 8
K_RPER_2_3
 10
0
 20
0
 30
0
 70
128
 71
11
 72
12
 73
14
 74
13
 0
VERTEX
 8
K_RPER_2_3
 10
0
 20
0
 30
0
 70
128
 71
13
 72
14
 73
16
 74
15
 0
VERTEX
 8
K_RPER_2_3
 10
0
 20
0
 30
0
 70
128
 71
15
 72
16
 73
18
 74
17
 0
VERTEX
 8
K_RPER_2_3
 10
0
 20
0
 30
0
 70
128
 71
17
 72
18
 73
20
 74
19
 0
VERTEX
 8
K_RPER_2_3
 10
0
 20
0
 30
0
 70
128
 71
19
 72
20
 73
22
 74
21
 0
VERTEX
 8
K_RPER_2_3
 10
0
 20
0
 30
0
 70
128
 71
21
 72
22
 73
24
 74
23
 0
VERTEX
 8
K_RPER_2_3
 10
0
 20
0
 30
0
 70
128
 71
23
 72
24
 73
26
 74
25
 0
VERTEX
 8
K_RPER_2_3
 10
0
 20
0
 30
0
 70
128
 71
25
 72
26
 73
28
 74
27
 0
VERTEX
 8
K_RPER_2_3
 10
0
 20
0
 30
0
 70
128
 71
27
 72
28
 73
30
 74
29
 0
VERTEX
 8
K_RPER_2_3
 10
0
 20
0
 30
0
 70
128
 71
29
 72
30
 73
32
 74
31
 0
VERTEX
 8
K_RPER_2_3
 10
0
 20
0
 30
0
 70
128
 71
31
 72
32
 73
34
 74
33
 0
VERTEX
 8
K_RPER_2_3
 10
0
 20
0
 30
0
 70
128
 71
33
 72
34
 73
36
 74
35
 0
VERTEX
 8
K_RPER_2_3
 10
0
 20
0
 30
0
 70
128
 71
35
 72
36
 73
38
 74
37
 0
VERTEX
 8
K_RPER_2_3
 10
0
 20
0
 30
0
 70
128
 71
37
 72
38
 73
40
 74
39
 0
VERTEX
 8
K_RPER_2_3
 10
0
 20
0
 30
0
 70
128
 71
39
 72
40
 73
2
 74
1
 0
SEQEND
 0
POLYLINE
 8
K_RPER_1_3
 66
1
 10
0.0
 20
0.0
 30
0.0
 70
64
 71
40
 72
20
 0
VERTEX
 8
K_RPER_1_3
 10
-0.01
 20
-2.4913
 30
1.7102
 70
192
 0
VERTEX
 8
K_RPER_1_3
 10
-0.01
 20
-2.4913
 30
20.0726
 70
192
 0
VERTEX
 8
K_RPER_1_3
 10
0.7625
 20
-2.3689
 30
1.7102
 70
192
 0
VERTEX
 8
K_RPER_1_3
 10
0.7625
 20
-2.3689
 30
20.0726
 70
192
 0
VERTEX
 8
K_RPER_1_3
 10
1.4595
 20
-2.0139
 30
1.7102
 70
192
 0
VERTEX
 8
K_RPER_1_3
 10
1.4595
 20
-2.0139
 30
20.0726
 70
192
 0
VERTEX
 8
K_RPER_1_3
 10
2.0125
 20
-1.4608
 30
1.7102
 70
192
 0
VERTEX
 8
K_RPER_1_3
 10
2.0125
 20
-1.4608
 30
20.0726
 70
192
 0
VERTEX
 8
K_RPER_1_3
 10
2.3676
 20
-0.7639
 30
1.7102
 70
192
 0
VERTEX
 8
K_RPER_1_3
 10
2.3676
 20
-0.7639
 30
20.0726
 70
192
 0
VERTEX
 8
K_RPER_1_3
 10
2.49
 20
0.0087
 30
1.7102
 70
192
 0
VERTEX
 8
K_RPER_1_3
 10
2.49
 20
0.0087
 30
20.0726
 70
192
 0
VERTEX
 8
K_RPER_1_3
 10
2.3676
 20
0.7812
 30
1.7102
 70
192
 0
VERTEX
 8
K_RPER_1_3
 10
2.3676
 20
0.7812
 30
20.0726
 70
192
 0
VERTEX
 8
K_RPER_1_3
 10
2.0125
 20
1.4782
 30
1.7102
 70
192
 0
VERTEX
 8
K_RPER_1_3
 10
2.0125
 20
1.4782
 30
20.0726
 70
192
 0
VERTEX
 8
K_RPER_1_3
 10
1.4595
 20
2.0312
 30
1.7102
 70
192
 0
VERTEX
 8
K_RPER_1_3
 10
1.4595
 20
2.0312
 30
20.0726
 70
192
 0
VERTEX
 8
K_RPER_1_3
 10
0.7625
 20
2.3863
 30
1.7102
 70
192
 0
VERTEX
 8
K_RPER_1_3
 10
0.7625
 20
2.3863
 30
20.0726
 70
192
 0
VERTEX
 8
K_RPER_1_3
 10
-0.01
 20
2.5087
 30
1.7102
 70
192
 0
VERTEX
 8
K_RPER_1_3
 10
-0.01
 20
2.5087
 30
20.0726
 70
192
 0
VERTEX
 8
K_RPER_1_3
 10
-0.7826
 20
2.3863
 30
1.7102
 70
192
 0
VERTEX
 8
K_RPER_1_3
 10
-0.7826
 20
2.3863
 30
20.0726
 70
192
 0
VERTEX
 8
K_RPER_1_3
 10
-1.4795
 20
2.0312
 30
1.7102
 70
192
 0
VERTEX
 8
K_RPER_1_3
 10
-1.4795
 20
2.0312
 30
20.0726
 70
192
 0
VERTEX
 8
K_RPER_1_3
 10
-2.0326
 20
1.4782
 30
1.7102
 70
192
 0
VERTEX
 8
K_RPER_1_3
 10
-2.0326
 20
1.4782
 30
20.0726
 70
192
 0
VERTEX
 8
K_RPER_1_3
 10
-2.3876
 20
0.7812
 30
1.7102
 70
192
 0
VERTEX
 8
K_RPER_1_3
 10
-2.3876
 20
0.7812
 30
20.0726
 70
192
 0
VERTEX
 8
K_RPER_1_3
 10
-2.51
 20
0.0087
 30
1.7102
 70
192
 0
VERTEX
 8
K_RPER_1_3
 10
-2.51
 20
0.0087
 30
20.0726
 70
192
 0
VERTEX
 8
K_RPER_1_3
 10
-2.3876
 20
-0.7639
 30
1.7102
 70
192
 0
VERTEX
 8
K_RPER_1_3
 10
-2.3876
 20
-0.7639
 30
20.0726
 70
192
 0
VERTEX
 8
K_RPER_1_3
 10
-2.0326
 20
-1.4608
 30
1.7102
 70
192
 0
VERTEX
 8
K_RPER_1_3
 10
-2.0326
 20
-1.4608
 30
20.0726
 70
192
 0
VERTEX
 8
K_RPER_1_3
 10
-1.4795
 20
-2.0139
 30
1.7102
 70
192
 0
VERTEX
 8
K_RPER_1_3
 10
-1.4795
 20
-2.0139
 30
20.0726
 70
192
 0
VERTEX
 8
K_RPER_1_3
 10
-0.7826
 20
-2.3689
 30
1.7102
 70
192
 0
VERTEX
 8
K_RPER_1_3
 10
-0.7826
 20
-2.3689
 30
20.0726
 70
192
 0
VERTEX
 8
K_RPER_1_3
 10
0
 20
0
 30
0
 70
128
 71
1
 72
2
 73
4
 74
3
 0
VERTEX
 8
K_RPER_1_3
 10
0
 20
0
 30
0
 70
128
 71
3
 72
4
 73
6
 74
5
 0
VERTEX
 8
K_RPER_1_3
 10
0
 20
0
 30
0
 70
128
 71
5
 72
6
 73
8
 74
7
 0
VERTEX
 8
K_RPER_1_3
 10
0
 20
0
 30
0
 70
128
 71
7
 72
8
 73
10
 74
9
 0
VERTEX
 8
K_RPER_1_3
 10
0
 20
0
 30
0
 70
128
 71
9
 72
10
 73
12
 74
11
 0
VERTEX
 8
K_RPER_1_3
 10
0
 20
0
 30
0
 70
128
 71
11
 72
12
 73
14
 74
13
 0
VERTEX
 8
K_RPER_1_3
 10
0
 20
0
 30
0
 70
128
 71
13
 72
14
 73
16
 74
15
 0
VERTEX
 8
K_RPER_1_3
 10
0
 20
0
 30
0
 70
128
 71
15
 72
16
 73
18
 74
17
 0
VERTEX
 8
K_RPER_1_3
 10
0
 20
0
 30
0
 70
128
 71
17
 72
18
 73
20
 74
19
 0
VERTEX
 8
K_RPER_1_3
 10
0
 20
0
 30
0
 70
128
 71
19
 72
20
 73
22
 74
21
 0
VERTEX
 8
K_RPER_1_3
 10
0
 20
0
 30
0
 70
128
 71
21
 72
22
 73
24
 74
23
 0
VERTEX
 8
K_RPER_1_3
 10
0
 20
0
 30
0
 70
128
 71
23
 72
24
 73
26
 74
25
 0
VERTEX
 8
K_RPER_1_3
 10
0
 20
0
 30
0
 70
128
 71
25
 72
26
 73
28
 74
27
 0
VERTEX
 8
K_RPER_1_3
 10
0
 20
0
 30
0
 70
128
 71
27
 72
28
 73
30
 74
29
 0
VERTEX
 8
K_RPER_1_3
 10
0
 20
0
 30
0
 70
128
 71
29
 72
30
 73
32
 74
31
 0
VERTEX
 8
K_RPER_1_3
 10
0
 20
0
 30
0
 70
128
 71
31
 72
32
 73
34
 74
33
 0
VERTEX
 8
K_RPER_1_3
 10
0
 20
0
 30
0
 70
128
 71
33
 72
34
 73
36
 74
35
 0
VERTEX
 8
K_RPER_1_3
 10
0
 20
0
 30
0
 70
128
 71
35
 72
36
 73
38
 74
37
 0
VERTEX
 8
K_RPER_1_3
 10
0
 20
0
 30
0
 70
128
 71
37
 72
38
 73
40
 74
39
 0
VERTEX
 8
K_RPER_1_3
 10
0
 20
0
 30
0
 70
128
 71
39
 72
40
 73
2
 74
1
 0
SEQEND
 0
POLYLINE
 8
K_RPER_2
 66
1
 10
0.0
 20
0.0
 30
0.0
 70
64
 71
40
 72
20
 0
VERTEX
 8
K_RPER_2
 10
-0.01
 20
-2.4913
 30
20.1397
 70
192
 0
VERTEX
 8
K_RPER_2
 10
-0.01
 20
-2.4913
 30
24.1397
 70
192
 0
VERTEX
 8
K_RPER_2
 10
0.7625
 20
-2.3689
 30
20.1397
 70
192
 0
VERTEX
 8
K_RPER_2
 10
0.7625
 20
-2.3689
 30
24.1397
 70
192
 0
VERTEX
 8
K_RPER_2
 10
1.4595
 20
-2.0139
 30
20.1397
 70
192
 0
VERTEX
 8
K_RPER_2
 10
1.4595
 20
-2.0139
 30
24.1397
 70
192
 0
VERTEX
 8
K_RPER_2
 10
2.0125
 20
-1.4608
 30
20.1397
 70
192
 0
VERTEX
 8
K_RPER_2
 10
2.0125
 20
-1.4608
 30
24.1397
 70
192
 0
VERTEX
 8
K_RPER_2
 10
2.3676
 20
-0.7639
 30
20.1397
 70
192
 0
VERTEX
 8
K_RPER_2
 10
2.3676
 20
-0.7639
 30
24.1397
 70
192
 0
VERTEX
 8
K_RPER_2
 10
2.49
 20
0.0087
 30
20.1397
 70
192
 0
VERTEX
 8
K_RPER_2
 10
2.49
 20
0.0087
 30
24.1397
 70
192
 0
VERTEX
 8
K_RPER_2
 10
2.3676
 20
0.7812
 30
20.1397
 70
192
 0
VERTEX
 8
K_RPER_2
 10
2.3676
 20
0.7812
 30
24.1397
 70
192
 0
VERTEX
 8
K_RPER_2
 10
2.0125
 20
1.4782
 30
20.1397
 70
192
 0
VERTEX
 8
K_RPER_2
 10
2.0125
 20
1.4782
 30
24.1397
 70
192
 0
VERTEX
 8
K_RPER_2
 10
1.4595
 20
2.0312
 30
20.1397
 70
192
 0
VERTEX
 8
K_RPER_2
 10
1.4595
 20
2.0312
 30
24.1397
 70
192
 0
VERTEX
 8
K_RPER_2
 10
0.7625
 20
2.3863
 30
20.1397
 70
192
 0
VERTEX
 8
K_RPER_2
 10
0.7625
 20
2.3863
 30
24.1397
 70
192
 0
VERTEX
 8
K_RPER_2
 10
-0.01
 20
2.5087
 30
20.1397
 70
192
 0
VERTEX
 8
K_RPER_2
 10
-0.01
 20
2.5087
 30
24.1397
 70
192
 0
VERTEX
 8
K_RPER_2
 10
-0.7826
 20
2.3863
 30
20.1397
 70
192
 0
VERTEX
 8
K_RPER_2
 10
-0.7826
 20
2.3863
 30
24.1397
 70
192
 0
VERTEX
 8
K_RPER_2
 10
-1.4795
 20
2.0312
 30
20.1397
 70
192
 0
VERTEX
 8
K_RPER_2
 10
-1.4795
 20
2.0312
 30
24.1397
 70
192
 0
VERTEX
 8
K_RPER_2
 10
-2.0326
 20
1.4782
 30
20.1397
 70
192
 0
VERTEX
 8
K_RPER_2
 10
-2.0326
 20
1.4782
 30
24.1397
 70
192
 0
VERTEX
 8
K_RPER_2
 10
-2.3876
 20
0.7812
 30
20.1397
 70
192
 0
VERTEX
 8
K_RPER_2
 10
-2.3876
 20
0.7812
 30
24.1397
 70
192
 0
VERTEX
 8
K_RPER_2
 10
-2.51
 20
0.0087
 30
20.1397
 70
192
 0
VERTEX
 8
K_RPER_2
 10
-2.51
 20
0.0087
 30
24.1397
 70
192
 0
VERTEX
 8
K_RPER_2
 10
-2.3876
 20
-0.7639
 30
20.1397
 70
192
 0
VERTEX
 8
K_RPER_2
 10
-2.3876
 20
-0.7639
 30
24.1397
 70
192
 0
VERTEX
 8
K_RPER_2
 10
-2.0326
 20
-1.4608
 30
20.1397
 70
192
 0
VERTEX
 8
K_RPER_2
 10
-2.0326
 20
-1.4608
 30
24.1397
 70
192
 0
VERTEX
 8
K_RPER_2
 10
-1.4795
 20
-2.0139
 30
20.1397
 70
192
 0
VERTEX
 8
K_RPER_2
 10
-1.4795
 20
-2.0139
 30
24.1397
 70
192
 0
VERTEX
 8
K_RPER_2
 10
-0.7826
 20
-2.3689
 30
20.1397
 70
192
 0
VERTEX
 8
K_RPER_2
 10
-0.7826
 20
-2.3689
 30
24.1397
 70
192
 0
VERTEX
 8
K_RPER_2
 10
0
 20
0
 30
0
 70
128
 71
1
 72
2
 73
4
 74
3
 0
VERTEX
 8
K_RPER_2
 10
0
 20
0
 30
0
 70
128
 71
3
 72
4
 73
6
 74
5
 0
VERTEX
 8
K_RPER_2
 10
0
 20
0
 30
0
 70
128
 71
5
 72
6
 73
8
 74
7
 0
VERTEX
 8
K_RPER_2
 10
0
 20
0
 30
0
 70
128
 71
7
 72
8
 73
10
 74
9
 0
VERTEX
 8
K_RPER_2
 10
0
 20
0
 30
0
 70
128
 71
9
 72
10
 73
12
 74
11
 0
VERTEX
 8
K_RPER_2
 10
0
 20
0
 30
0
 70
128
 71
11
 72
12
 73
14
 74
13
 0
VERTEX
 8
K_RPER_2
 10
0
 20
0
 30
0
 70
128
 71
13
 72
14
 73
16
 74
15
 0
VERTEX
 8
K_RPER_2
 10
0
 20
0
 30
0
 70
128
 71
15
 72
16
 73
18
 74
17
 0
VERTEX
 8
K_RPER_2
 10
0
 20
0
 30
0
 70
128
 71
17
 72
18
 73
20
 74
19
 0
VERTEX
 8
K_RPER_2
 10
0
 20
0
 30
0
 70
128
 71
19
 72
20
 73
22
 74
21
 0
VERTEX
 8
K_RPER_2
 10
0
 20
0
 30
0
 70
128
 71
21
 72
22
 73
24
 74
23
 0
VERTEX
 8
K_RPER_2
 10
0
 20
0
 30
0
 70
128
 71
23
 72
24
 73
26
 74
25
 0
VERTEX
 8
K_RPER_2
 10
0
 20
0
 30
0
 70
128
 71
25
 72
26
 73
28
 74
27
 0
VERTEX
 8
K_RPER_2
 10
0
 20
0
 30
0
 70
128
 71
27
 72
28
 73
30
 74
29
 0
VERTEX
 8
K_RPER_2
 10
0
 20
0
 30
0
 70
128
 71
29
 72
30
 73
32
 74
31
 0
VERTEX
 8
K_RPER_2
 10
0
 20
0
 30
0
 70
128
 71
31
 72
32
 73
34
 74
33
 0
VERTEX
 8
K_RPER_2
 10
0
 20
0
 30
0
 70
128
 71
33
 72
34
 73
36
 74
35
 0
VERTEX
 8
K_RPER_2
 10
0
 20
0
 30
0
 70
128
 71
35
 72
36
 73
38
 74
37
 0
VERTEX
 8
K_RPER_2
 10
0
 20
0
 30
0
 70
128
 71
37
 72
38
 73
40
 74
39
 0
VERTEX
 8
K_RPER_2
 10
0
 20
0
 30
0
 70
128
 71
39
 72
40
 73
2
 74
1
 0
SEQEND
 0
POLYLINE
 8
K_RPER_3
 66
1
 10
0.0
 20
0.0
 30
0.0
 70
64
 71
61
 72
60
 0
VERTEX
 8
K_RPER_3
 10
-0.01
 20
0.0087
 30
28.1807
 70
192
 0
VERTEX
 8
K_RPER_3
 10
-0.01
 20
-2.4913
 30
24.2407
 70
192
 0
VERTEX
 8
K_RPER_3
 10
-0.01
 20
-2.4913
 30
28.1207
 70
192
 0
VERTEX
 8
K_RPER_3
 10
-0.01
 20
-2.4313
 30
28.1807
 70
192
 0
VERTEX
 8
K_RPER_3
 10
0.7625
 20
-2.3689
 30
24.2407
 70
192
 0
VERTEX
 8
K_RPER_3
 10
0.7625
 20
-2.3689
 30
28.1207
 70
192
 0
VERTEX
 8
K_RPER_3
 10
0.744
 20
-2.3119
 30
28.1807
 70
192
 0
VERTEX
 8
K_RPER_3
 10
1.4595
 20
-2.0139
 30
24.2407
 70
192
 0
VERTEX
 8
K_RPER_3
 10
1.4595
 20
-2.0139
 30
28.1207
 70
192
 0
VERTEX
 8
K_RPER_3
 10
1.4242
 20
-1.9653
 30
28.1807
 70
192
 0
VERTEX
 8
K_RPER_3
 10
2.0125
 20
-1.4608
 30
24.2407
 70
192
 0
VERTEX
 8
K_RPER_3
 10
2.0125
 20
-1.4608
 30
28.1207
 70
192
 0
VERTEX
 8
K_RPER_3
 10
1.964
 20
-1.4255
 30
28.1807
 70
192
 0
VERTEX
 8
K_RPER_3
 10
2.3676
 20
-0.7639
 30
24.2407
 70
192
 0
VERTEX
 8
K_RPER_3
 10
2.3676
 20
-0.7639
 30
28.1207
 70
192
 0
VERTEX
 8
K_RPER_3
 10
2.3106
 20
-0.7453
 30
28.1807
 70
192
 0
VERTEX
 8
K_RPER_3
 10
2.49
 20
0.0087
 30
24.2407
 70
192
 0
VERTEX
 8
K_RPER_3
 10
2.49
 20
0.0087
 30
28.1207
 70
192
 0
VERTEX
 8
K_RPER_3
 10
2.43
 20
0.0087
 30
28.1807
 70
192
 0
VERTEX
 8
K_RPER_3
 10
2.3676
 20
0.7812
 30
24.2407
 70
192
 0
VERTEX
 8
K_RPER_3
 10
2.3676
 20
0.7812
 30
28.1207
 70
192
 0
VERTEX
 8
K_RPER_3
 10
2.3106
 20
0.7627
 30
28.1807
 70
192
 0
VERTEX
 8
K_RPER_3
 10
2.0125
 20
1.4782
 30
24.2407
 70
192
 0
VERTEX
 8
K_RPER_3
 10
2.0125
 20
1.4782
 30
28.1207
 70
192
 0
VERTEX
 8
K_RPER_3
 10
1.964
 20
1.4429
 30
28.1807
 70
192
 0
VERTEX
 8
K_RPER_3
 10
1.4595
 20
2.0312
 30
24.2407
 70
192
 0
VERTEX
 8
K_RPER_3
 10
1.4595
 20
2.0312
 30
28.1207
 70
192
 0
VERTEX
 8
K_RPER_3
 10
1.4242
 20
1.9827
 30
28.1807
 70
192
 0
VERTEX
 8
K_RPER_3
 10
0.7625
 20
2.3863
 30
24.2407
 70
192
 0
VERTEX
 8
K_RPER_3
 10
0.7625
 20
2.3863
 30
28.1207
 70
192
 0
VERTEX
 8
K_RPER_3
 10
0.744
 20
2.3293
 30
28.1807
 70
192
 0
VERTEX
 8
K_RPER_3
 10
-0.01
 20
2.5087
 30
24.2407
 70
192
 0
VERTEX
 8
K_RPER_3
 10
-0.01
 20
2.5087
 30
28.1207
 70
192
 0
VERTEX
 8
K_RPER_3
 10
-0.01
 20
2.4487
 30
28.1807
 70
192
 0
VERTEX
 8
K_RPER_3
 10
-0.7826
 20
2.3863
 30
24.2407
 70
192
 0
VERTEX
 8
K_RPER_3
 10
-0.7826
 20
2.3863
 30
28.1207
 70
192
 0
VERTEX
 8
K_RPER_3
 10
-0.764
 20
2.3293
 30
28.1807
 70
192
 0
VERTEX
 8
K_RPER_3
 10
-1.4795
 20
2.0312
 30
24.2407
 70
192
 0
VERTEX
 8
K_RPER_3
 10
-1.4795
 20
2.0312
 30
28.1207
 70
192
 0
VERTEX
 8
K_RPER_3
 10
-1.4442
 20
1.9827
 30
28.1807
 70
192
 0
VERTEX
 8
K_RPER_3
 10
-2.0326
 20
1.4782
 30
24.2407
 70
192
 0
VERTEX
 8
K_RPER_3
 10
-2.0326
 20
1.4782
 30
28.1207
 70
192
 0
VERTEX
 8
K_RPER_3
 10
-1.984
 20
1.4429
 30
28.1807
 70
192
 0
VERTEX
 8
K_RPER_3
 10
-2.3876
 20
0.7812
 30
24.2407
 70
192
 0
VERTEX
 8
K_RPER_3
 10
-2.3876
 20
0.7812
 30
28.1207
 70
192
 0
VERTEX
 8
K_RPER_3
 10
-2.3306
 20
0.7627
 30
28.1807
 70
192
 0
VERTEX
 8
K_RPER_3
 10
-2.51
 20
0.0087
 30
24.2407
 70
192
 0
VERTEX
 8
K_RPER_3
 10
-2.51
 20
0.0087
 30
28.1207
 70
192
 0
VERTEX
 8
K_RPER_3
 10
-2.45
 20
0.0087
 30
28.1807
 70
192
 0
VERTEX
 8
K_RPER_3
 10
-2.3876
 20
-0.7639
 30
24.2407
 70
192
 0
VERTEX
 8
K_RPER_3
 10
-2.3876
 20
-0.7639
 30
28.1207
 70
192
 0
VERTEX
 8
K_RPER_3
 10
-2.3306
 20
-0.7453
 30
28.1807
 70
192
 0
VERTEX
 8
K_RPER_3
 10
-2.0326
 20
-1.4608
 30
24.2407
 70
192
 0
VERTEX
 8
K_RPER_3
 10
-2.0326
 20
-1.4608
 30
28.1207
 70
192
 0
VERTEX
 8
K_RPER_3
 10
-1.984
 20
-1.4255
 30
28.1807
 70
192
 0
VERTEX
 8
K_RPER_3
 10
-1.4795
 20
-2.0139
 30
24.2407
 70
192
 0
VERTEX
 8
K_RPER_3
 10
-1.4795
 20
-2.0139
 30
28.1207
 70
192
 0
VERTEX
 8
K_RPER_3
 10
-1.4442
 20
-1.9653
 30
28.1807
 70
192
 0
VERTEX
 8
K_RPER_3
 10
-0.7826
 20
-2.3689
 30
24.2407
 70
192
 0
VERTEX
 8
K_RPER_3
 10
-0.7826
 20
-2.3689
 30
28.1207
 70
192
 0
VERTEX
 8
K_RPER_3
 10
-0.764
 20
-2.3119
 30
28.1807
 70
192
 0
VERTEX
 8
K_RPER_3
 10
0
 20
0
 30
0
 70
128
 71
38
 72
39
 73
42
 74
41
 0
VERTEX
 8
K_RPER_3
 10
0
 20
0
 30
0
 70
128
 71
39
 72
40
 73
43
 74
42
 0
VERTEX
 8
K_RPER_3
 10
0
 20
0
 30
0
 70
128
 71
2
 72
3
 73
6
 74
5
 0
VERTEX
 8
K_RPER_3
 10
0
 20
0
 30
0
 70
128
 71
3
 72
4
 73
7
 74
6
 0
VERTEX
 8
K_RPER_3
 10
0
 20
0
 30
0
 70
128
 71
4
 72
1
 73
7
 74
7
 0
VERTEX
 8
K_RPER_3
 10
0
 20
0
 30
0
 70
128
 71
50
 72
51
 73
54
 74
53
 0
VERTEX
 8
K_RPER_3
 10
0
 20
0
 30
0
 70
128
 71
40
 72
1
 73
43
 74
43
 0
VERTEX
 8
K_RPER_3
 10
0
 20
0
 30
0
 70
128
 71
5
 72
6
 73
9
 74
8
 0
VERTEX
 8
K_RPER_3
 10
0
 20
0
 30
0
 70
128
 71
6
 72
7
 73
10
 74
9
 0
VERTEX
 8
K_RPER_3
 10
0
 20
0
 30
0
 70
128
 71
7
 72
1
 73
10
 74
10
 0
VERTEX
 8
K_RPER_3
 10
0
 20
0
 30
0
 70
128
 71
51
 72
52
 73
55
 74
54
 0
VERTEX
 8
K_RPER_3
 10
0
 20
0
 30
0
 70
128
 71
59
 72
60
 73
3
 74
2
 0
VERTEX
 8
K_RPER_3
 10
0
 20
0
 30
0
 70
128
 71
8
 72
9
 73
12
 74
11
 0
VERTEX
 8
K_RPER_3
 10
0
 20
0
 30
0
 70
128
 71
9
 72
10
 73
13
 74
12
 0
VERTEX
 8
K_RPER_3
 10
0
 20
0
 30
0
 70
128
 71
10
 72
1
 73
13
 74
13
 0
VERTEX
 8
K_RPER_3
 10
0
 20
0
 30
0
 70
128
 71
52
 72
1
 73
55
 74
55
 0
VERTEX
 8
K_RPER_3
 10
0
 20
0
 30
0
 70
128
 71
41
 72
42
 73
45
 74
44
 0
VERTEX
 8
K_RPER_3
 10
0
 20
0
 30
0
 70
128
 71
11
 72
12
 73
15
 74
14
 0
VERTEX
 8
K_RPER_3
 10
0
 20
0
 30
0
 70
128
 71
12
 72
13
 73
16
 74
15
 0
VERTEX
 8
K_RPER_3
 10
0
 20
0
 30
0
 70
128
 71
13
 72
1
 73
16
 74
16
 0
VERTEX
 8
K_RPER_3
 10
0
 20
0
 30
0
 70
128
 71
42
 72
43
 73
46
 74
45
 0
VERTEX
 8
K_RPER_3
 10
0
 20
0
 30
0
 70
128
 71
43
 72
1
 73
46
 74
46
 0
VERTEX
 8
K_RPER_3
 10
0
 20
0
 30
0
 70
128
 71
14
 72
15
 73
18
 74
17
 0
VERTEX
 8
K_RPER_3
 10
0
 20
0
 30
0
 70
128
 71
15
 72
16
 73
19
 74
18
 0
VERTEX
 8
K_RPER_3
 10
0
 20
0
 30
0
 70
128
 71
16
 72
1
 73
19
 74
19
 0
VERTEX
 8
K_RPER_3
 10
0
 20
0
 30
0
 70
128
 71
53
 72
54
 73
57
 74
56
 0
VERTEX
 8
K_RPER_3
 10
0
 20
0
 30
0
 70
128
 71
60
 72
61
 73
4
 74
3
 0
VERTEX
 8
K_RPER_3
 10
0
 20
0
 30
0
 70
128
 71
17
 72
18
 73
21
 74
20
 0
VERTEX
 8
K_RPER_3
 10
0
 20
0
 30
0
 70
128
 71
18
 72
19
 73
22
 74
21
 0
VERTEX
 8
K_RPER_3
 10
0
 20
0
 30
0
 70
128
 71
19
 72
1
 73
22
 74
22
 0
VERTEX
 8
K_RPER_3
 10
0
 20
0
 30
0
 70
128
 71
54
 72
55
 73
58
 74
57
 0
VERTEX
 8
K_RPER_3
 10
0
 20
0
 30
0
 70
128
 71
44
 72
45
 73
48
 74
47
 0
VERTEX
 8
K_RPER_3
 10
0
 20
0
 30
0
 70
128
 71
20
 72
21
 73
24
 74
23
 0
VERTEX
 8
K_RPER_3
 10
0
 20
0
 30
0
 70
128
 71
21
 72
22
 73
25
 74
24
 0
VERTEX
 8
K_RPER_3
 10
0
 20
0
 30
0
 70
128
 71
22
 72
1
 73
25
 74
25
 0
VERTEX
 8
K_RPER_3
 10
0
 20
0
 30
0
 70
128
 71
55
 72
1
 73
58
 74
58
 0
VERTEX
 8
K_RPER_3
 10
0
 20
0
 30
0
 70
128
 71
45
 72
46
 73
49
 74
48
 0
VERTEX
 8
K_RPER_3
 10
0
 20
0
 30
0
 70
128
 71
23
 72
24
 73
27
 74
26
 0
VERTEX
 8
K_RPER_3
 10
0
 20
0
 30
0
 70
128
 71
24
 72
25
 73
28
 74
27
 0
VERTEX
 8
K_RPER_3
 10
0
 20
0
 30
0
 70
128
 71
25
 72
1
 73
28
 74
28
 0
VERTEX
 8
K_RPER_3
 10
0
 20
0
 30
0
 70
128
 71
46
 72
1
 73
49
 74
49
 0
VERTEX
 8
K_RPER_3
 10
0
 20
0
 30
0
 70
128
 71
61
 72
1
 73
4
 74
4
 0
VERTEX
 8
K_RPER_3
 10
0
 20
0
 30
0
 70
128
 71
26
 72
27
 73
30
 74
29
 0
VERTEX
 8
K_RPER_3
 10
0
 20
0
 30
0
 70
128
 71
27
 72
28
 73
31
 74
30
 0
VERTEX
 8
K_RPER_3
 10
0
 20
0
 30
0
 70
128
 71
28
 72
1
 73
31
 74
31
 0
VERTEX
 8
K_RPER_3
 10
0
 20
0
 30
0
 70
128
 71
56
 72
57
 73
60
 74
59
 0
VERTEX
 8
K_RPER_3
 10
0
 20
0
 30
0
 70
128
 71
47
 72
48
 73
51
 74
50
 0
VERTEX
 8
K_RPER_3
 10
0
 20
0
 30
0
 70
128
 71
29
 72
30
 73
33
 74
32
 0
VERTEX
 8
K_RPER_3
 10
0
 20
0
 30
0
 70
128
 71
30
 72
31
 73
34
 74
33
 0
VERTEX
 8
K_RPER_3
 10
0
 20
0
 30
0
 70
128
 71
31
 72
1
 73
34
 74
34
 0
VERTEX
 8
K_RPER_3
 10
0
 20
0
 30
0
 70
128
 71
57
 72
58
 73
61
 74
60
 0
VERTEX
 8
K_RPER_3
 10
0
 20
0
 30
0
 70
128
 71
48
 72
49
 73
52
 74
51
 0
VERTEX
 8
K_RPER_3
 10
0
 20
0
 30
0
 70
128
 71
32
 72
33
 73
36
 74
35
 0
VERTEX
 8
K_RPER_3
 10
0
 20
0
 30
0
 70
128
 71
33
 72
34
 73
37
 74
36
 0
VERTEX
 8
K_RPER_3
 10
0
 20
0
 30
0
 70
128
 71
34
 72
1
 73
37
 74
37
 0
VERTEX
 8
K_RPER_3
 10
0
 20
0
 30
0
 70
128
 71
58
 72
1
 73
61
 74
61
 0
VERTEX
 8
K_RPER_3
 10
0
 20
0
 30
0
 70
128
 71
49
 72
1
 73
52
 74
52
 0
VERTEX
 8
K_RPER_3
 10
0
 20
0
 30
0
 70
128
 71
35
 72
36
 73
39
 74
38
 0
VERTEX
 8
K_RPER_3
 10
0
 20
0
 30
0
 70
128
 71
36
 72
37
 73
40
 74
39
 0
VERTEX
 8
K_RPER_3
 10
0
 20
0
 30
0
 70
128
 71
37
 72
1
 73
40
 74
40
 0
SEQEND
 0
POLYLINE
 8
KARTUSCHE
 66
1
 10
0.0
 20
0.0
 30
0.0
 70
64
 71
36
 72
24
 0
VERTEX
 8
KARTUSCHE
 10
0.008
 20
-2.2318
 30
27.683
 70
192
 0
VERTEX
 8
KARTUSCHE
 10
0.008
 20
-2.2318
 30
28.4421
 70
192
 0
VERTEX
 8
KARTUSCHE
 10
0.008
 20
-1.929
 30
29.5721
 70
192
 0
VERTEX
 8
KARTUSCHE
 10
1.138
 20
-1.929
 30
27.683
 70
192
 0
VERTEX
 8
KARTUSCHE
 10
1.138
 20
-1.929
 30
28.4421
 70
192
 0
VERTEX
 8
KARTUSCHE
 10
0.9866
 20
-1.6668
 30
29.5721
 70
192
 0
VERTEX
 8
KARTUSCHE
 10
1.9652
 20
-1.1018
 30
27.683
 70
192
 0
VERTEX
 8
KARTUSCHE
 10
1.9652
 20
-1.1018
 30
28.4421
 70
192
 0
VERTEX
 8
KARTUSCHE
 10
1.703
 20
-0.9504
 30
29.5721
 70
192
 0
VERTEX
 8
KARTUSCHE
 10
2.268
 20
0.0282
 30
27.683
 70
192
 0
VERTEX
 8
KARTUSCHE
 10
2.268
 20
0.0282
 30
28.4421
 70
192
 0
VERTEX
 8
KARTUSCHE
 10
1.9652
 20
0.0282
 30
29.5721
 70
192
 0
VERTEX
 8
KARTUSCHE
 10
1.9652
 20
1.1582
 30
27.683
 70
192
 0
VERTEX
 8
KARTUSCHE
 10
1.9652
 20
1.1582
 30
28.4421
 70
192
 0
VERTEX
 8
KARTUSCHE
 10
1.703
 20
1.0068
 30
29.5721
 70
192
 0
VERTEX
 8
KARTUSCHE
 10
1.138
 20
1.9854
 30
27.683
 70
192
 0
VERTEX
 8
KARTUSCHE
 10
1.138
 20
1.9854
 30
28.4421
 70
192
 0
VERTEX
 8
KARTUSCHE
 10
0.9866
 20
1.7232
 30
29.5721
 70
192
 0
VERTEX
 8
KARTUSCHE
 10
0.008
 20
2.2882
 30
27.683
 70
192
 0
VERTEX
 8
KARTUSCHE
 10
0.008
 20
2.2882
 30
28.4421
 70
192
 0
VERTEX
 8
KARTUSCHE
 10
0.008
 20
1.9854
 30
29.5721
 70
192
 0
VERTEX
 8
KARTUSCHE
 10
-1.122
 20
1.9854
 30
27.683
 70
192
 0
VERTEX
 8
KARTUSCHE
 10
-1.122
 20
1.9854
 30
28.4421
 70
192
 0
VERTEX
 8
KARTUSCHE
 10
-0.9706
 20
1.7232
 30
29.5721
 70
192
 0
VERTEX
 8
KARTUSCHE
 10
-1.9492
 20
1.1582
 30
27.683
 70
192
 0
VERTEX
 8
KARTUSCHE
 10
-1.9492
 20
1.1582
 30
28.4421
 70
192
 0
VERTEX
 8
KARTUSCHE
 10
-1.687
 20
1.0068
 30
29.5721
 70
192
 0
VERTEX
 8
KARTUSCHE
 10
-2.252
 20
0.0282
 30
27.683
 70
192
 0
VERTEX
 8
KARTUSCHE
 10
-2.252
 20
0.0282
 30
28.4421
 70
192
 0
VERTEX
 8
KARTUSCHE
 10
-1.9492
 20
0.0282
 30
29.5721
 70
192
 0
VERTEX
 8
KARTUSCHE
 10
-1.9492
 20
-1.1018
 30
27.683
 70
192
 0
VERTEX
 8
KARTUSCHE
 10
-1.9492
 20
-1.1018
 30
28.4421
 70
192
 0
VERTEX
 8
KARTUSCHE
 10
-1.687
 20
-0.9504
 30
29.5721
 70
192
 0
VERTEX
 8
KARTUSCHE
 10
-1.122
 20
-1.929
 30
27.683
 70
192
 0
VERTEX
 8
KARTUSCHE
 10
-1.122
 20
-1.929
 30
28.4421
 70
192
 0
VERTEX
 8
KARTUSCHE
 10
-0.9706
 20
-1.6668
 30
29.5721
 70
192
 0
VERTEX
 8
KARTUSCHE
 10
0
 20
0
 30
0
 70
128
 71
10
 72
11
 73
14
 74
13
 0
VERTEX
 8
KARTUSCHE
 10
0
 20
0
 30
0
 70
128
 71
11
 72
12
 73
15
 74
14
 0
VERTEX
 8
KARTUSCHE
 10
0
 20
0
 30
0
 70
128
 71
34
 72
35
 73
2
 74
1
 0
VERTEX
 8
KARTUSCHE
 10
0
 20
0
 30
0
 70
128
 71
1
 72
2
 73
5
 74
4
 0
VERTEX
 8
KARTUSCHE
 10
0
 20
0
 30
0
 70
128
 71
2
 72
3
 73
6
 74
5
 0
VERTEX
 8
KARTUSCHE
 10
0
 20
0
 30
0
 70
128
 71
26
 72
27
 73
30
 74
29
 0
VERTEX
 8
KARTUSCHE
 10
0
 20
0
 30
0
 70
128
 71
29
 72
30
 73
33
 74
32
 0
VERTEX
 8
KARTUSCHE
 10
0
 20
0
 30
0
 70
128
 71
19
 72
20
 73
23
 74
22
 0
VERTEX
 8
KARTUSCHE
 10
0
 20
0
 30
0
 70
128
 71
20
 72
21
 73
24
 74
23
 0
VERTEX
 8
KARTUSCHE
 10
0
 20
0
 30
0
 70
128
 71
28
 72
29
 73
32
 74
31
 0
VERTEX
 8
KARTUSCHE
 10
0
 20
0
 30
0
 70
128
 71
4
 72
5
 73
8
 74
7
 0
VERTEX
 8
KARTUSCHE
 10
0
 20
0
 30
0
 70
128
 71
5
 72
6
 73
9
 74
8
 0
VERTEX
 8
KARTUSCHE
 10
0
 20
0
 30
0
 70
128
 71
13
 72
14
 73
17
 74
16
 0
VERTEX
 8
KARTUSCHE
 10
0
 20
0
 30
0
 70
128
 71
14
 72
15
 73
18
 74
17
 0
VERTEX
 8
KARTUSCHE
 10
0
 20
0
 30
0
 70
128
 71
35
 72
36
 73
3
 74
2
 0
VERTEX
 8
KARTUSCHE
 10
0
 20
0
 30
0
 70
128
 71
25
 72
26
 73
29
 74
28
 0
VERTEX
 8
KARTUSCHE
 10
0
 20
0
 30
0
 70
128
 71
16
 72
17
 73
20
 74
19
 0
VERTEX
 8
KARTUSCHE
 10
0
 20
0
 30
0
 70
128
 71
7
 72
8
 73
11
 74
10
 0
VERTEX
 8
KARTUSCHE
 10
0
 20
0
 30
0
 70
128
 71
8
 72
9
 73
12
 74
11
 0
VERTEX
 8
KARTUSCHE
 10
0
 20
0
 30
0
 70
128
 71
17
 72
18
 73
21
 74
20
 0
VERTEX
 8
KARTUSCHE
 10
0
 20
0
 30
0
 70
128
 71
31
 72
32
 73
35
 74
34
 0
VERTEX
 8
KARTUSCHE
 10
0
 20
0
 30
0
 70
128
 71
32
 72
33
 73
36
 74
35
 0
VERTEX
 8
KARTUSCHE
 10
0
 20
0
 30
0
 70
128
 71
22
 72
23
 73
26
 74
25
 0
VERTEX
 8
KARTUSCHE
 10
0
 20
0
 30
0
 70
128
 71
23
 72
24
 73
27
 74
26
 0
SEQEND
 0
POLYLINE
 8
ROSETTE
 66
1
 10
0.0
 20
0.0
 30
0.0
 70
64
 71
82
 72
100
 0
VERTEX
 8
ROSETTE
 10
-0.01
 20
0.0087
 30
1.1049
 70
192
 0
VERTEX
 8
ROSETTE
 10
-0.01
 20
0.0087
 30
1.7049
 70
192
 0
VERTEX
 8
ROSETTE
 10
-0.01
 20
-2.8313
 30
1.1049
 70
192
 0
VERTEX
 8
ROSETTE
 10
-0.01
 20
-2.8913
 30
1.1649
 70
192
 0
VERTEX
 8
ROSETTE
 10
-0.01
 20
-2.8913
 30
1.6449
 70
192
 0
VERTEX
 8
ROSETTE
 10
-0.01
 20
-2.8313
 30
1.7049
 70
192
 0
VERTEX
 8
ROSETTE
 10
0.8676
 20
-2.6923
 30
1.1049
 70
192
 0
VERTEX
 8
ROSETTE
 10
0.8861
 20
-2.7494
 30
1.1649
 70
192
 0
VERTEX
 8
ROSETTE
 10
0.8861
 20
-2.7494
 30
1.6449
 70
192
 0
VERTEX
 8
ROSETTE
 10
0.8676
 20
-2.6923
 30
1.7049
 70
192
 0
VERTEX
 8
ROSETTE
 10
1.6593
 20
-2.2889
 30
1.1049
 70
192
 0
VERTEX
 8
ROSETTE
 10
1.6946
 20
-2.3375
 30
1.1649
 70
192
 0
VERTEX
 8
ROSETTE
 10
1.6946
 20
-2.3375
 30
1.6449
 70
192
 0
VERTEX
 8
ROSETTE
 10
1.6593
 20
-2.2889
 30
1.7049
 70
192
 0
VERTEX
 8
ROSETTE
 10
2.2876
 20
-1.6606
 30
1.1049
 70
192
 0
VERTEX
 8
ROSETTE
 10
2.3361
 20
-1.6959
 30
1.1649
 70
192
 0
VERTEX
 8
ROSETTE
 10
2.3361
 20
-1.6959
 30
1.6449
 70
192
 0
VERTEX
 8
ROSETTE
 10
2.2876
 20
-1.6606
 30
1.7049
 70
192
 0
VERTEX
 8
ROSETTE
 10
2.691
 20
-0.8689
 30
1.1049
 70
192
 0
VERTEX
 8
ROSETTE
 10
2.7481
 20
-0.8875
 30
1.1649
 70
192
 0
VERTEX
 8
ROSETTE
 10
2.7481
 20
-0.8875
 30
1.6449
 70
192
 0
VERTEX
 8
ROSETTE
 10
2.691
 20
-0.8689
 30
1.7049
 70
192
 0
VERTEX
 8
ROSETTE
 10
2.83
 20
0.0087
 30
1.1049
 70
192
 0
VERTEX
 8
ROSETTE
 10
2.89
 20
0.0087
 30
1.1649
 70
192
 0
VERTEX
 8
ROSETTE
 10
2.89
 20
0.0087
 30
1.6449
 70
192
 0
VERTEX
 8
ROSETTE
 10
2.83
 20
0.0087
 30
1.7049
 70
192
 0
VERTEX
 8
ROSETTE
 10
2.691
 20
0.8863
 30
1.1049
 70
192
 0
VERTEX
 8
ROSETTE
 10
2.7481
 20
0.9048
 30
1.1649
 70
192
 0
VERTEX
 8
ROSETTE
 10
2.7481
 20
0.9048
 30
1.6449
 70
192
 0
VERTEX
 8
ROSETTE
 10
2.691
 20
0.8863
 30
1.7049
 70
192
 0
VERTEX
 8
ROSETTE
 10
2.2876
 20
1.678
 30
1.1049
 70
192
 0
VERTEX
 8
ROSETTE
 10
2.3361
 20
1.7133
 30
1.1649
 70
192
 0
VERTEX
 8
ROSETTE
 10
2.3361
 20
1.7133
 30
1.6449
 70
192
 0
VERTEX
 8
ROSETTE
 10
2.2876
 20
1.678
 30
1.7049
 70
192
 0
VERTEX
 8
ROSETTE
 10
1.6593
 20
2.3063
 30
1.1049
 70
192
 0
VERTEX
 8
ROSETTE
 10
1.6946
 20
2.3548
 30
1.1649
 70
192
 0
VERTEX
 8
ROSETTE
 10
1.6946
 20
2.3548
 30
1.6449
 70
192
 0
VERTEX
 8
ROSETTE
 10
1.6593
 20
2.3063
 30
1.7049
 70
192
 0
VERTEX
 8
ROSETTE
 10
0.8676
 20
2.7097
 30
1.1049
 70
192
 0
VERTEX
 8
ROSETTE
 10
0.8861
 20
2.7668
 30
1.1649
 70
192
 0
VERTEX
 8
ROSETTE
 10
0.8861
 20
2.7668
 30
1.6449
 70
192
 0
VERTEX
 8
ROSETTE
 10
0.8676
 20
2.7097
 30
1.7049
 70
192
 0
VERTEX
 8
ROSETTE
 10
-0.01
 20
2.8487
 30
1.1049
 70
192
 0
VERTEX
 8
ROSETTE
 10
-0.01
 20
2.9087
 30
1.1649
 70
192
 0
VERTEX
 8
ROSETTE
 10
-0.01
 20
2.9087
 30
1.6449
 70
192
 0
VERTEX
 8
ROSETTE
 10
-0.01
 20
2.8487
 30
1.7049
 70
192
 0
VERTEX
 8
ROSETTE
 10
-0.8876
 20
2.7097
 30
1.1049
 70
192
 0
VERTEX
 8
ROSETTE
 10
-0.9062
 20
2.7668
 30
1.1649
 70
192
 0
VERTEX
 8
ROSETTE
 10
-0.9062
 20
2.7668
 30
1.6449
 70
192
 0
VERTEX
 8
ROSETTE
 10
-0.8876
 20
2.7097
 30
1.7049
 70
192
 0
VERTEX
 8
ROSETTE
 10
-1.6793
 20
2.3063
 30
1.1049
 70
192
 0
VERTEX
 8
ROSETTE
 10
-1.7146
 20
2.3548
 30
1.1649
 70
192
 0
VERTEX
 8
ROSETTE
 10
-1.7146
 20
2.3548
 30
1.6449
 70
192
 0
VERTEX
 8
ROSETTE
 10
-1.6793
 20
2.3063
 30
1.7049
 70
192
 0
VERTEX
 8
ROSETTE
 10
-2.3076
 20
1.678
 30
1.1049
 70
192
 0
VERTEX
 8
ROSETTE
 10
-2.3562
 20
1.7133
 30
1.1649
 70
192
 0
VERTEX
 8
ROSETTE
 10
-2.3562
 20
1.7133
 30
1.6449
 70
192
 0
VERTEX
 8
ROSETTE
 10
-2.3076
 20
1.678
 30
1.7049
 70
192
 0
VERTEX
 8
ROSETTE
 10
-2.711
 20
0.8863
 30
1.1049
 70
192
 0
VERTEX
 8
ROSETTE
 10
-2.7681
 20
0.9048
 30
1.1649
 70
192
 0
VERTEX
 8
ROSETTE
 10
-2.7681
 20
0.9048
 30
1.6449
 70
192
 0
VERTEX
 8
ROSETTE
 10
-2.711
 20
0.8863
 30
1.7049
 70
192
 0
VERTEX
 8
ROSETTE
 10
-2.85
 20
0.0087
 30
1.1049
 70
192
 0
VERTEX
 8
ROSETTE
 10
-2.91
 20
0.0087
 30
1.1649
 70
192
 0
VERTEX
 8
ROSETTE
 10
-2.91
 20
0.0087
 30
1.6449
 70
192
 0
VERTEX
 8
ROSETTE
 10
-2.85
 20
0.0087
 30
1.7049
 70
192
 0
VERTEX
 8
ROSETTE
 10
-2.711
 20
-0.8689
 30
1.1049
 70
192
 0
VERTEX
 8
ROSETTE
 10
-2.7681
 20
-0.8875
 30
1.1649
 70
192
 0
VERTEX
 8
ROSETTE
 10
-2.7681
 20
-0.8875
 30
1.6449
 70
192
 0
VERTEX
 8
ROSETTE
 10
-2.711
 20
-0.8689
 30
1.7049
 70
192
 0
VERTEX
 8
ROSETTE
 10
-2.3076
 20
-1.6606
 30
1.1049
 70
192
 0
VERTEX
 8
ROSETTE
 10
-2.3562
 20
-1.6959
 30
1.1649
 70
192
 0
VERTEX
 8
ROSETTE
 10
-2.3562
 20
-1.6959
 30
1.6449
 70
192
 0
VERTEX
 8
ROSETTE
 10
-2.3076
 20
-1.6606
 30
1.7049
 70
192
 0
VERTEX
 8
ROSETTE
 10
-1.6793
 20
-2.2889
 30
1.1049
 70
192
 0
VERTEX
 8
ROSETTE
 10
-1.7146
 20
-2.3375
 30
1.1649
 70
192
 0
VERTEX
 8
ROSETTE
 10
-1.7146
 20
-2.3375
 30
1.6449
 70
192
 0
VERTEX
 8
ROSETTE
 10
-1.6793
 20
-2.2889
 30
1.7049
 70
192
 0
VERTEX
 8
ROSETTE
 10
-0.8876
 20
-2.6923
 30
1.1049
 70
192
 0
VERTEX
 8
ROSETTE
 10
-0.9062
 20
-2.7494
 30
1.1649
 70
192
 0
VERTEX
 8
ROSETTE
 10
-0.9062
 20
-2.7494
 30
1.6449
 70
192
 0
VERTEX
 8
ROSETTE
 10
-0.8876
 20
-2.6923
 30
1.7049
 70
192
 0
VERTEX
 8
ROSETTE
 10
0
 20
0
 30
0
 70
128
 71
1
 72
3
 73
7
 74
7
 0
VERTEX
 8
ROSETTE
 10
0
 20
0
 30
0
 70
128
 71
3
 72
4
 73
8
 74
7
 0
VERTEX
 8
ROSETTE
 10
0
 20
0
 30
0
 70
128
 71
4
 72
5
 73
9
 74
8
 0
VERTEX
 8
ROSETTE
 10
0
 20
0
 30
0
 70
128
 71
5
 72
6
 73
10
 74
9
 0
VERTEX
 8
ROSETTE
 10
0
 20
0
 30
0
 70
128
 71
6
 72
2
 73
10
 74
10
 0
VERTEX
 8
ROSETTE
 10
0
 20
0
 30
0
 70
128
 71
1
 72
7
 73
11
 74
11
 0
VERTEX
 8
ROSETTE
 10
0
 20
0
 30
0
 70
128
 71
7
 72
8
 73
12
 74
11
 0
VERTEX
 8
ROSETTE
 10
0
 20
0
 30
0
 70
128
 71
8
 72
9
 73
13
 74
12
 0
VERTEX
 8
ROSETTE
 10
0
 20
0
 30
0
 70
128
 71
9
 72
10
 73
14
 74
13
 0
VERTEX
 8
ROSETTE
 10
0
 20
0
 30
0
 70
128
 71
10
 72
2
 73
14
 74
14
 0
VERTEX
 8
ROSETTE
 10
0
 20
0
 30
0
 70
128
 71
1
 72
11
 73
15
 74
15
 0
VERTEX
 8
ROSETTE
 10
0
 20
0
 30
0
 70
128
 71
11
 72
12
 73
16
 74
15
 0
VERTEX
 8
ROSETTE
 10
0
 20
0
 30
0
 70
128
 71
12
 72
13
 73
17
 74
16
 0
VERTEX
 8
ROSETTE
 10
0
 20
0
 30
0
 70
128
 71
13
 72
14
 73
18
 74
17
 0
VERTEX
 8
ROSETTE
 10
0
 20
0
 30
0
 70
128
 71
14
 72
2
 73
18
 74
18
 0
VERTEX
 8
ROSETTE
 10
0
 20
0
 30
0
 70
128
 71
1
 72
15
 73
19
 74
19
 0
VERTEX
 8
ROSETTE
 10
0
 20
0
 30
0
 70
128
 71
15
 72
16
 73
20
 74
19
 0
VERTEX
 8
ROSETTE
 10
0
 20
0
 30
0
 70
128
 71
16
 72
17
 73
21
 74
20
 0
VERTEX
 8
ROSETTE
 10
0
 20
0
 30
0
 70
128
 71
17
 72
18
 73
22
 74
21
 0
VERTEX
 8
ROSETTE
 10
0
 20
0
 30
0
 70
128
 71
18
 72
2
 73
22
 74
22
 0
VERTEX
 8
ROSETTE
 10
0
 20
0
 30
0
 70
128
 71
1
 72
19
 73
23
 74
23
 0
VERTEX
 8
ROSETTE
 10
0
 20
0
 30
0
 70
128
 71
19
 72
20
 73
24
 74
23
 0
VERTEX
 8
ROSETTE
 10
0
 20
0
 30
0
 70
128
 71
20
 72
21
 73
25
 74
24
 0
VERTEX
 8
ROSETTE
 10
0
 20
0
 30
0
 70
128
 71
21
 72
22
 73
26
 74
25
 0
VERTEX
 8
ROSETTE
 10
0
 20
0
 30
0
 70
128
 71
22
 72
2
 73
26
 74
26
 0
VERTEX
 8
ROSETTE
 10
0
 20
0
 30
0
 70
128
 71
1
 72
23
 73
27
 74
27
 0
VERTEX
 8
ROSETTE
 10
0
 20
0
 30
0
 70
128
 71
23
 72
24
 73
28
 74
27
 0
VERTEX
 8
ROSETTE
 10
0
 20
0
 30
0
 70
128
 71
24
 72
25
 73
29
 74
28
 0
VERTEX
 8
ROSETTE
 10
0
 20
0
 30
0
 70
128
 71
25
 72
26
 73
30
 74
29
 0
VERTEX
 8
ROSETTE
 10
0
 20
0
 30
0
 70
128
 71
26
 72
2
 73
30
 74
30
 0
VERTEX
 8
ROSETTE
 10
0
 20
0
 30
0
 70
128
 71
1
 72
27
 73
31
 74
31
 0
VERTEX
 8
ROSETTE
 10
0
 20
0
 30
0
 70
128
 71
27
 72
28
 73
32
 74
31
 0
VERTEX
 8
ROSETTE
 10
0
 20
0
 30
0
 70
128
 71
28
 72
29
 73
33
 74
32
 0
VERTEX
 8
ROSETTE
 10
0
 20
0
 30
0
 70
128
 71
29
 72
30
 73
34
 74
33
 0
VERTEX
 8
ROSETTE
 10
0
 20
0
 30
0
 70
128
 71
30
 72
2
 73
34
 74
34
 0
VERTEX
 8
ROSETTE
 10
0
 20
0
 30
0
 70
128
 71
1
 72
31
 73
35
 74
35
 0
VERTEX
 8
ROSETTE
 10
0
 20
0
 30
0
 70
128
 71
31
 72
32
 73
36
 74
35
 0
VERTEX
 8
ROSETTE
 10
0
 20
0
 30
0
 70
128
 71
32
 72
33
 73
37
 74
36
 0
VERTEX
 8
ROSETTE
 10
0
 20
0
 30
0
 70
128
 71
33
 72
34
 73
38
 74
37
 0
VERTEX
 8
ROSETTE
 10
0
 20
0
 30
0
 70
128
 71
34
 72
2
 73
38
 74
38
 0
VERTEX
 8
ROSETTE
 10
0
 20
0
 30
0
 70
128
 71
1
 72
35
 73
39
 74
39
 0
VERTEX
 8
ROSETTE
 10
0
 20
0
 30
0
 70
128
 71
35
 72
36
 73
40
 74
39
 0
VERTEX
 8
ROSETTE
 10
0
 20
0
 30
0
 70
128
 71
36
 72
37
 73
41
 74
40
 0
VERTEX
 8
ROSETTE
 10
0
 20
0
 30
0
 70
128
 71
37
 72
38
 73
42
 74
41
 0
VERTEX
 8
ROSETTE
 10
0
 20
0
 30
0
 70
128
 71
38
 72
2
 73
42
 74
42
 0
VERTEX
 8
ROSETTE
 10
0
 20
0
 30
0
 70
128
 71
1
 72
39
 73
43
 74
43
 0
VERTEX
 8
ROSETTE
 10
0
 20
0
 30
0
 70
128
 71
39
 72
40
 73
44
 74
43
 0
VERTEX
 8
ROSETTE
 10
0
 20
0
 30
0
 70
128
 71
40
 72
41
 73
45
 74
44
 0
VERTEX
 8
ROSETTE
 10
0
 20
0
 30
0
 70
128
 71
41
 72
42
 73
46
 74
45
 0
VERTEX
 8
ROSETTE
 10
0
 20
0
 30
0
 70
128
 71
42
 72
2
 73
46
 74
46
 0
VERTEX
 8
ROSETTE
 10
0
 20
0
 30
0
 70
128
 71
1
 72
43
 73
47
 74
47
 0
VERTEX
 8
ROSETTE
 10
0
 20
0
 30
0
 70
128
 71
43
 72
44
 73
48
 74
47
 0
VERTEX
 8
ROSETTE
 10
0
 20
0
 30
0
 70
128
 71
44
 72
45
 73
49
 74
48
 0
VERTEX
 8
ROSETTE
 10
0
 20
0
 30
0
 70
128
 71
45
 72
46
 73
50
 74
49
 0
VERTEX
 8
ROSETTE
 10
0
 20
0
 30
0
 70
128
 71
46
 72
2
 73
50
 74
50
 0
VERTEX
 8
ROSETTE
 10
0
 20
0
 30
0
 70
128
 71
1
 72
47
 73
51
 74
51
 0
VERTEX
 8
ROSETTE
 10
0
 20
0
 30
0
 70
128
 71
47
 72
48
 73
52
 74
51
 0
VERTEX
 8
ROSETTE
 10
0
 20
0
 30
0
 70
128
 71
48
 72
49
 73
53
 74
52
 0
VERTEX
 8
ROSETTE
 10
0
 20
0
 30
0
 70
128
 71
49
 72
50
 73
54
 74
53
 0
VERTEX
 8
ROSETTE
 10
0
 20
0
 30
0
 70
128
 71
50
 72
2
 73
54
 74
54
 0
VERTEX
 8
ROSETTE
 10
0
 20
0
 30
0
 70
128
 71
1
 72
51
 73
55
 74
55
 0
VERTEX
 8
ROSETTE
 10
0
 20
0
 30
0
 70
128
 71
51
 72
52
 73
56
 74
55
 0
VERTEX
 8
ROSETTE
 10
0
 20
0
 30
0
 70
128
 71
52
 72
53
 73
57
 74
56
 0
VERTEX
 8
ROSETTE
 10
0
 20
0
 30
0
 70
128
 71
53
 72
54
 73
58
 74
57
 0
VERTEX
 8
ROSETTE
 10
0
 20
0
 30
0
 70
128
 71
54
 72
2
 73
58
 74
58
 0
VERTEX
 8
ROSETTE
 10
0
 20
0
 30
0
 70
128
 71
1
 72
55
 73
59
 74
59
 0
VERTEX
 8
ROSETTE
 10
0
 20
0
 30
0
 70
128
 71
55
 72
56
 73
60
 74
59
 0
VERTEX
 8
ROSETTE
 10
0
 20
0
 30
0
 70
128
 71
56
 72
57
 73
61
 74
60
 0
VERTEX
 8
ROSETTE
 10
0
 20
0
 30
0
 70
128
 71
57
 72
58
 73
62
 74
61
 0
VERTEX
 8
ROSETTE
 10
0
 20
0
 30
0
 70
128
 71
58
 72
2
 73
62
 74
62
 0
VERTEX
 8
ROSETTE
 10
0
 20
0
 30
0
 70
128
 71
1
 72
59
 73
63
 74
63
 0
VERTEX
 8
ROSETTE
 10
0
 20
0
 30
0
 70
128
 71
59
 72
60
 73
64
 74
63
 0
VERTEX
 8
ROSETTE
 10
0
 20
0
 30
0
 70
128
 71
60
 72
61
 73
65
 74
64
 0
VERTEX
 8
ROSETTE
 10
0
 20
0
 30
0
 70
128
 71
61
 72
62
 73
66
 74
65
 0
VERTEX
 8
ROSETTE
 10
0
 20
0
 30
0
 70
128
 71
62
 72
2
 73
66
 74
66
 0
VERTEX
 8
ROSETTE
 10
0
 20
0
 30
0
 70
128
 71
1
 72
63
 73
67
 74
67
 0
VERTEX
 8
ROSETTE
 10
0
 20
0
 30
0
 70
128
 71
63
 72
64
 73
68
 74
67
 0
VERTEX
 8
ROSETTE
 10
0
 20
0
 30
0
 70
128
 71
64
 72
65
 73
69
 74
68
 0
VERTEX
 8
ROSETTE
 10
0
 20
0
 30
0
 70
128
 71
65
 72
66
 73
70
 74
69
 0
VERTEX
 8
ROSETTE
 10
0
 20
0
 30
0
 70
128
 71
66
 72
2
 73
70
 74
70
 0
VERTEX
 8
ROSETTE
 10
0
 20
0
 30
0
 70
128
 71
1
 72
67
 73
71
 74
71
 0
VERTEX
 8
ROSETTE
 10
0
 20
0
 30
0
 70
128
 71
67
 72
68
 73
72
 74
71
 0
VERTEX
 8
ROSETTE
 10
0
 20
0
 30
0
 70
128
 71
68
 72
69
 73
73
 74
72
 0
VERTEX
 8
ROSETTE
 10
0
 20
0
 30
0
 70
128
 71
69
 72
70
 73
74
 74
73
 0
VERTEX
 8
ROSETTE
 10
0
 20
0
 30
0
 70
128
 71
70
 72
2
 73
74
 74
74
 0
VERTEX
 8
ROSETTE
 10
0
 20
0
 30
0
 70
128
 71
1
 72
71
 73
75
 74
75
 0
VERTEX
 8
ROSETTE
 10
0
 20
0
 30
0
 70
128
 71
71
 72
72
 73
76
 74
75
 0
VERTEX
 8
ROSETTE
 10
0
 20
0
 30
0
 70
128
 71
72
 72
73
 73
77
 74
76
 0
VERTEX
 8
ROSETTE
 10
0
 20
0
 30
0
 70
128
 71
73
 72
74
 73
78
 74
77
 0
VERTEX
 8
ROSETTE
 10
0
 20
0
 30
0
 70
128
 71
74
 72
2
 73
78
 74
78
 0
VERTEX
 8
ROSETTE
 10
0
 20
0
 30
0
 70
128
 71
1
 72
75
 73
79
 74
79
 0
VERTEX
 8
ROSETTE
 10
0
 20
0
 30
0
 70
128
 71
75
 72
76
 73
80
 74
79
 0
VERTEX
 8
ROSETTE
 10
0
 20
0
 30
0
 70
128
 71
76
 72
77
 73
81
 74
80
 0
VERTEX
 8
ROSETTE
 10
0
 20
0
 30
0
 70
128
 71
77
 72
78
 73
82
 74
81
 0
VERTEX
 8
ROSETTE
 10
0
 20
0
 30
0
 70
128
 71
78
 72
2
 73
82
 74
82
 0
VERTEX
 8
ROSETTE
 10
0
 20
0
 30
0
 70
128
 71
1
 72
79
 73
3
 74
3
 0
VERTEX
 8
ROSETTE
 10
0
 20
0
 30
0
 70
128
 71
79
 72
80
 73
4
 74
3
 0
VERTEX
 8
ROSETTE
 10
0
 20
0
 30
0
 70
128
 71
80
 72
81
 73
5
 74
4
 0
VERTEX
 8
ROSETTE
 10
0
 20
0
 30
0
 70
128
 71
81
 72
82
 73
6
 74
5
 0
VERTEX
 8
ROSETTE
 10
0
 20
0
 30
0
 70
128
 71
82
 72
2
 73
6
 74
6
 0
SEQEND
 0
POLYLINE
 8
GRIFFHEBEL
 66
1
 10
0.0
 20
0.0
 30
0.0
 70
64
 71
37
 72
36
 0
VERTEX
 8
GRIFFHEBEL
 10
-0.0035
 20
-7.8569
 30
29.8784
 70
192
 0
VERTEX
 8
GRIFFHEBEL
 10
-0.0035
 20
-1.1309
 30
29.3284
 70
192
 0
VERTEX
 8
GRIFFHEBEL
 10
-0.0035
 20
-7.7969
 30
29.3284
 70
192
 0
VERTEX
 8
GRIFFHEBEL
 10
-0.0035
 20
-7.8569
 30
29.3884
 70
192
 0
VERTEX
 8
GRIFFHEBEL
 10
0.2715
 20
-1.1309
 30
29.4021
 70
192
 0
VERTEX
 8
GRIFFHEBEL
 10
0.2715
 20
-7.7969
 30
29.4021
 70
192
 0
VERTEX
 8
GRIFFHEBEL
 10
0.2415
 20
-7.8569
 30
29.4541
 70
192
 0
VERTEX
 8
GRIFFHEBEL
 10
0.4728
 20
-1.1309
 30
29.6034
 70
192
 0
VERTEX
 8
GRIFFHEBEL
 10
0.4728
 20
-7.7969
 30
29.6034
 70
192
 0
VERTEX
 8
GRIFFHEBEL
 10
0.4208
 20
-7.8569
 30
29.6334
 70
192
 0
VERTEX
 8
GRIFFHEBEL
 10
0.5465
 20
-1.1309
 30
29.8784
 70
192
 0
VERTEX
 8
GRIFFHEBEL
 10
0.5465
 20
-7.7969
 30
29.8784
 70
192
 0
VERTEX
 8
GRIFFHEBEL
 10
0.4865
 20
-7.8569
 30
29.8784
 70
192
 0
VERTEX
 8
GRIFFHEBEL
 10
0.4728
 20
-1.1309
 30
30.1534
 70
192
 0
VERTEX
 8
GRIFFHEBEL
 10
0.4728
 20
-7.7969
 30
30.1534
 70
192
 0
VERTEX
 8
GRIFFHEBEL
 10
0.4208
 20
-7.8569
 30
30.1234
 70
192
 0
VERTEX
 8
GRIFFHEBEL
 10
0.2715
 20
-1.1309
 30
30.3548
 70
192
 0
VERTEX
 8
GRIFFHEBEL
 10
0.2715
 20
-7.7969
 30
30.3548
 70
192
 0
VERTEX
 8
GRIFFHEBEL
 10
0.2415
 20
-7.8569
 30
30.3028
 70
192
 0
VERTEX
 8
GRIFFHEBEL
 10
-0.0035
 20
-1.1309
 30
30.4284
 70
192
 0
VERTEX
 8
GRIFFHEBEL
 10
-0.0035
 20
-7.7969
 30
30.4284
 70
192
 0
VERTEX
 8
GRIFFHEBEL
 10
-0.0035
 20
-7.8569
 30
30.3684
 70
192
 0
VERTEX
 8
GRIFFHEBEL
 10
-0.2785
 20
-1.1309
 30
30.3548
 70
192
 0
VERTEX
 8
GRIFFHEBEL
 10
-0.2785
 20
-7.7969
 30
30.3548
 70
192
 0
VERTEX
 8
GRIFFHEBEL
 10
-0.2485
 20
-7.8569
 30
30.3028
 70
192
 0
VERTEX
 8
GRIFFHEBEL
 10
-0.4798
 20
-1.1309
 30
30.1534
 70
192
 0
VERTEX
 8
GRIFFHEBEL
 10
-0.4798
 20
-7.7969
 30
30.1534
 70
192
 0
VERTEX
 8
GRIFFHEBEL
 10
-0.4279
 20
-7.8569
 30
30.1234
 70
192
 0
VERTEX
 8
GRIFFHEBEL
 10
-0.5535
 20
-1.1309
 30
29.8784
 70
192
 0
VERTEX
 8
GRIFFHEBEL
 10
-0.5535
 20
-7.7969
 30
29.8784
 70
192
 0
VERTEX
 8
GRIFFHEBEL
 10
-0.4935
 20
-7.8569
 30
29.8784
 70
192
 0
VERTEX
 8
GRIFFHEBEL
 10
-0.4798
 20
-1.1309
 30
29.6034
 70
192
 0
VERTEX
 8
GRIFFHEBEL
 10
-0.4798
 20
-7.7969
 30
29.6034
 70
192
 0
VERTEX
 8
GRIFFHEBEL
 10
-0.4279
 20
-7.8569
 30
29.6334
 70
192
 0
VERTEX
 8
GRIFFHEBEL
 10
-0.2785
 20
-1.1309
 30
29.4021
 70
192
 0
VERTEX
 8
GRIFFHEBEL
 10
-0.2785
 20
-7.7969
 30
29.4021
 70
192
 0
VERTEX
 8
GRIFFHEBEL
 10
-0.2485
 20
-7.8569
 30
29.4541
 70
192
 0
VERTEX
 8
GRIFFHEBEL
 10
0
 20
0
 30
0
 70
128
 71
25
 72
1
 73
28
 74
28
 0
VERTEX
 8
GRIFFHEBEL
 10
0
 20
0
 30
0
 70
128
 71
26
 72
27
 73
30
 74
29
 0
VERTEX
 8
GRIFFHEBEL
 10
0
 20
0
 30
0
 70
128
 71
2
 72
3
 73
6
 74
5
 0
VERTEX
 8
GRIFFHEBEL
 10
0
 20
0
 30
0
 70
128
 71
3
 72
4
 73
7
 74
6
 0
VERTEX
 8
GRIFFHEBEL
 10
0
 20
0
 30
0
 70
128
 71
4
 72
1
 73
7
 74
7
 0
VERTEX
 8
GRIFFHEBEL
 10
0
 20
0
 30
0
 70
128
 71
27
 72
28
 73
31
 74
30
 0
VERTEX
 8
GRIFFHEBEL
 10
0
 20
0
 30
0
 70
128
 71
28
 72
1
 73
31
 74
31
 0
VERTEX
 8
GRIFFHEBEL
 10
0
 20
0
 30
0
 70
128
 71
5
 72
6
 73
9
 74
8
 0
VERTEX
 8
GRIFFHEBEL
 10
0
 20
0
 30
0
 70
128
 71
6
 72
7
 73
10
 74
9
 0
VERTEX
 8
GRIFFHEBEL
 10
0
 20
0
 30
0
 70
128
 71
7
 72
1
 73
10
 74
10
 0
VERTEX
 8
GRIFFHEBEL
 10
0
 20
0
 30
0
 70
128
 71
23
 72
24
 73
27
 74
26
 0
VERTEX
 8
GRIFFHEBEL
 10
0
 20
0
 30
0
 70
128
 71
29
 72
30
 73
33
 74
32
 0
VERTEX
 8
GRIFFHEBEL
 10
0
 20
0
 30
0
 70
128
 71
8
 72
9
 73
12
 74
11
 0
VERTEX
 8
GRIFFHEBEL
 10
0
 20
0
 30
0
 70
128
 71
9
 72
10
 73
13
 74
12
 0
VERTEX
 8
GRIFFHEBEL
 10
0
 20
0
 30
0
 70
128
 71
10
 72
1
 73
13
 74
13
 0
VERTEX
 8
GRIFFHEBEL
 10
0
 20
0
 30
0
 70
128
 71
30
 72
31
 73
34
 74
33
 0
VERTEX
 8
GRIFFHEBEL
 10
0
 20
0
 30
0
 70
128
 71
31
 72
1
 73
34
 74
34
 0
VERTEX
 8
GRIFFHEBEL
 10
0
 20
0
 30
0
 70
128
 71
11
 72
12
 73
15
 74
14
 0
VERTEX
 8
GRIFFHEBEL
 10
0
 20
0
 30
0
 70
128
 71
12
 72
13
 73
16
 74
15
 0
VERTEX
 8
GRIFFHEBEL
 10
0
 20
0
 30
0
 70
128
 71
13
 72
1
 73
16
 74
16
 0
VERTEX
 8
GRIFFHEBEL
 10
0
 20
0
 30
0
 70
128
 71
24
 72
25
 73
28
 74
27
 0
VERTEX
 8
GRIFFHEBEL
 10
0
 20
0
 30
0
 70
128
 71
32
 72
33
 73
36
 74
35
 0
VERTEX
 8
GRIFFHEBEL
 10
0
 20
0
 30
0
 70
128
 71
14
 72
15
 73
18
 74
17
 0
VERTEX
 8
GRIFFHEBEL
 10
0
 20
0
 30
0
 70
128
 71
15
 72
16
 73
19
 74
18
 0
VERTEX
 8
GRIFFHEBEL
 10
0
 20
0
 30
0
 70
128
 71
16
 72
1
 73
19
 74
19
 0
VERTEX
 8
GRIFFHEBEL
 10
0
 20
0
 30
0
 70
128
 71
33
 72
34
 73
37
 74
36
 0
VERTEX
 8
GRIFFHEBEL
 10
0
 20
0
 30
0
 70
128
 71
34
 72
1
 73
37
 74
37
 0
VERTEX
 8
GRIFFHEBEL
 10
0
 20
0
 30
0
 70
128
 71
17
 72
18
 73
21
 74
20
 0
VERTEX
 8
GRIFFHEBEL
 10
0
 20
0
 30
0
 70
128
 71
18
 72
19
 73
22
 74
21
 0
VERTEX
 8
GRIFFHEBEL
 10
0
 20
0
 30
0
 70
128
 71
19
 72
1
 73
22
 74
22
 0
VERTEX
 8
GRIFFHEBEL
 10
0
 20
0
 30
0
 70
128
 71
35
 72
36
 73
3
 74
2
 0
VERTEX
 8
GRIFFHEBEL
 10
0
 20
0
 30
0
 70
128
 71
36
 72
37
 73
4
 74
3
 0
VERTEX
 8
GRIFFHEBEL
 10
0
 20
0
 30
0
 70
128
 71
20
 72
21
 73
24
 74
23
 0
VERTEX
 8
GRIFFHEBEL
 10
0
 20
0
 30
0
 70
128
 71
21
 72
22
 73
25
 74
24
 0
VERTEX
 8
GRIFFHEBEL
 10
0
 20
0
 30
0
 70
128
 71
22
 72
1
 73
25
 74
25
 0
VERTEX
 8
GRIFFHEBEL
 10
0
 20
0
 30
0
 70
128
 71
37
 72
1
 73
4
 74
4
 0
SEQEND
 0
POLYLINE
 8
GRIFF_2
 66
1
 10
0.0
 20
0.0
 30
0.0
 70
64
 71
83
 72
82
 0
VERTEX
 8
GRIFF_2
 10
-0.0035
 20
0.0146
 30
31.2569
 70
192
 0
VERTEX
 8
GRIFF_2
 10
-0.0035
 20
-2.4254
 30
28.2569
 70
192
 0
VERTEX
 8
GRIFF_2
 10
-0.0035
 20
-2.4854
 30
28.3169
 70
192
 0
VERTEX
 8
GRIFF_2
 10
-0.0035
 20
-2.4854
 30
31.1969
 70
192
 0
VERTEX
 8
GRIFF_2
 10
-0.0035
 20
-2.4254
 30
31.2569
 70
192
 0
VERTEX
 8
GRIFF_2
 10
0.7505
 20
-2.306
 30
28.2569
 70
192
 0
VERTEX
 8
GRIFF_2
 10
0.769
 20
-2.3631
 30
28.3169
 70
192
 0
VERTEX
 8
GRIFF_2
 10
0.769
 20
-2.3631
 30
31.1969
 70
192
 0
VERTEX
 8
GRIFF_2
 10
0.7505
 20
-2.306
 30
31.2569
 70
192
 0
VERTEX
 8
GRIFF_2
 10
1.4307
 20
-1.9594
 30
28.2569
 70
192
 0
VERTEX
 8
GRIFF_2
 10
1.4659
 20
-2.008
 30
28.3169
 70
192
 0
VERTEX
 8
GRIFF_2
 10
1.4659
 20
-2.008
 30
31.1969
 70
192
 0
VERTEX
 8
GRIFF_2
 10
1.4307
 20
-1.9594
 30
31.2569
 70
192
 0
VERTEX
 8
GRIFF_2
 10
1.9705
 20
-1.4196
 30
28.2569
 70
192
 0
VERTEX
 8
GRIFF_2
 10
2.019
 20
-1.4549
 30
28.3169
 70
192
 0
VERTEX
 8
GRIFF_2
 10
2.019
 20
-1.4549
 30
31.1969
 70
192
 0
VERTEX
 8
GRIFF_2
 10
1.9705
 20
-1.4196
 30
31.2569
 70
192
 0
VERTEX
 8
GRIFF_2
 10
2.3171
 20
-0.7394
 30
28.2569
 70
192
 0
VERTEX
 8
GRIFF_2
 10
2.3741
 20
-0.758
 30
28.3169
 70
192
 0
VERTEX
 8
GRIFF_2
 10
2.3741
 20
-0.758
 30
31.1969
 70
192
 0
VERTEX
 8
GRIFF_2
 10
2.3171
 20
-0.7394
 30
31.2569
 70
192
 0
VERTEX
 8
GRIFF_2
 10
2.4965
 20
0.0146
 30
31.1969
 70
192
 0
VERTEX
 8
GRIFF_2
 10
2.4365
 20
0.0146
 30
31.2569
 70
192
 0
VERTEX
 8
GRIFF_2
 10
2.3741
 20
0.7871
 30
31.1969
 70
192
 0
VERTEX
 8
GRIFF_2
 10
2.3171
 20
0.7686
 30
31.2569
 70
192
 0
VERTEX
 8
GRIFF_2
 10
2.019
 20
1.484
 30
31.1969
 70
192
 0
VERTEX
 8
GRIFF_2
 10
1.9705
 20
1.4487
 30
31.2569
 70
192
 0
VERTEX
 8
GRIFF_2
 10
1.4659
 20
2.0371
 30
31.1969
 70
192
 0
VERTEX
 8
GRIFF_2
 10
1.4307
 20
1.9886
 30
31.2569
 70
192
 0
VERTEX
 8
GRIFF_2
 10
0.769
 20
2.3922
 30
31.1969
 70
192
 0
VERTEX
 8
GRIFF_2
 10
0.7505
 20
2.3351
 30
31.2569
 70
192
 0
VERTEX
 8
GRIFF_2
 10
-0.0035
 20
2.5146
 30
31.1969
 70
192
 0
VERTEX
 8
GRIFF_2
 10
-0.0035
 20
2.4546
 30
31.2569
 70
192
 0
VERTEX
 8
GRIFF_2
 10
-0.7761
 20
2.3922
 30
31.1969
 70
192
 0
VERTEX
 8
GRIFF_2
 10
-0.7575
 20
2.3351
 30
31.2569
 70
192
 0
VERTEX
 8
GRIFF_2
 10
-1.473
 20
2.0371
 30
31.1969
 70
192
 0
VERTEX
 8
GRIFF_2
 10
-1.4377
 20
1.9886
 30
31.2569
 70
192
 0
VERTEX
 8
GRIFF_2
 10
-2.0261
 20
1.484
 30
31.1969
 70
192
 0
VERTEX
 8
GRIFF_2
 10
-1.9775
 20
1.4487
 30
31.2569
 70
192
 0
VERTEX
 8
GRIFF_2
 10
-2.3812
 20
0.7871
 30
31.1969
 70
192
 0
VERTEX
 8
GRIFF_2
 10
-2.3241
 20
0.7686
 30
31.2569
 70
192
 0
VERTEX
 8
GRIFF_2
 10
-2.5035
 20
0.0146
 30
31.1969
 70
192
 0
VERTEX
 8
GRIFF_2
 10
-2.4435
 20
0.0146
 30
31.2569
 70
192
 0
VERTEX
 8
GRIFF_2
 10
-2.3241
 20
-0.7394
 30
28.2569
 70
192
 0
VERTEX
 8
GRIFF_2
 10
-2.3812
 20
-0.758
 30
28.3169
 70
192
 0
VERTEX
 8
GRIFF_2
 10
-2.3812
 20
-0.758
 30
31.1969
 70
192
 0
VERTEX
 8
GRIFF_2
 10
-2.3241
 20
-0.7394
 30
31.2569
 70
192
 0
VERTEX
 8
GRIFF_2
 10
-1.9775
 20
-1.4196
 30
28.2569
 70
192
 0
VERTEX
 8
GRIFF_2
 10
-2.0261
 20
-1.4549
 30
28.3169
 70
192
 0
VERTEX
 8
GRIFF_2
 10
-2.0261
 20
-1.4549
 30
31.1969
 70
192
 0
VERTEX
 8
GRIFF_2
 10
-1.9775
 20
-1.4196
 30
31.2569
 70
192
 0
VERTEX
 8
GRIFF_2
 10
-1.4377
 20
-1.9594
 30
28.2569
 70
192
 0
VERTEX
 8
GRIFF_2
 10
-1.473
 20
-2.008
 30
28.3169
 70
192
 0
VERTEX
 8
GRIFF_2
 10
-1.473
 20
-2.008
 30
31.1969
 70
192
 0
VERTEX
 8
GRIFF_2
 10
-1.4377
 20
-1.9594
 30
31.2569
 70
192
 0
VERTEX
 8
GRIFF_2
 10
-0.7575
 20
-2.306
 30
28.2569
 70
192
 0
VERTEX
 8
GRIFF_2
 10
-0.7761
 20
-2.3631
 30
28.3169
 70
192
 0
VERTEX
 8
GRIFF_2
 10
-0.7761
 20
-2.3631
 30
31.1969
 70
192
 0
VERTEX
 8
GRIFF_2
 10
-0.7575
 20
-2.306
 30
31.2569
 70
192
 0
VERTEX
 8
GRIFF_2
 10
-0.0035
 20
-0.5437
 30
28.2569
 70
192
 0
VERTEX
 8
GRIFF_2
 10
0.1779
 20
-0.5437
 30
28.2569
 70
192
 0
VERTEX
 8
GRIFF_2
 10
0.4021
 20
-0.5437
 30
28.2569
 70
192
 0
VERTEX
 8
GRIFF_2
 10
0.7649
 20
-0.5437
 30
28.2569
 70
192
 0
VERTEX
 8
GRIFF_2
 10
1.7146
 20
-0.5437
 30
28.2569
 70
192
 0
VERTEX
 8
GRIFF_2
 10
2.3481
 20
-0.5437
 30
28.2569
 70
192
 0
VERTEX
 8
GRIFF_2
 10
2.4342
 20
-0.3789
 30
28.3169
 70
192
 0
VERTEX
 8
GRIFF_2
 10
2.4965
 20
0.0146
 30
28.4601
 70
192
 0
VERTEX
 8
GRIFF_2
 10
2.3741
 20
0.7871
 30
28.7412
 70
192
 0
VERTEX
 8
GRIFF_2
 10
2.019
 20
1.484
 30
28.9949
 70
192
 0
VERTEX
 8
GRIFF_2
 10
1.4659
 20
2.0371
 30
29.1962
 70
192
 0
VERTEX
 8
GRIFF_2
 10
0.769
 20
2.3922
 30
29.3255
 70
192
 0
VERTEX
 8
GRIFF_2
 10
-0.0035
 20
2.5146
 30
29.37
 70
192
 0
VERTEX
 8
GRIFF_2
 10
-0.7761
 20
2.3922
 30
29.3255
 70
192
 0
VERTEX
 8
GRIFF_2
 10
-1.473
 20
2.0371
 30
29.1962
 70
192
 0
VERTEX
 8
GRIFF_2
 10
-2.0261
 20
1.484
 30
28.9949
 70
192
 0
VERTEX
 8
GRIFF_2
 10
-2.3812
 20
0.7871
 30
28.7412
 70
192
 0
VERTEX
 8
GRIFF_2
 10
-2.5035
 20
0.0146
 30
28.4601
 70
192
 0
VERTEX
 8
GRIFF_2
 10
-2.3551
 20
-0.5437
 30
28.2569
 70
192
 0
VERTEX
 8
GRIFF_2
 10
-1.7217
 20
-0.5437
 30
28.2569
 70
192
 0
VERTEX
 8
GRIFF_2
 10
-2.4412
 20
-0.3789
 30
28.3169
 70
192
 0
VERTEX
 8
GRIFF_2
 10
-0.7719
 20
-0.5437
 30
28.2569
 70
192
 0
VERTEX
 8
GRIFF_2
 10
-0.4091
 20
-0.5437
 30
28.2569
 70
192
 0
VERTEX
 8
GRIFF_2
 10
-0.1849
 20
-0.5437
 30
28.2569
 70
192
 0
VERTEX
 8
GRIFF_2
 10
0
 20
0
 30
0
 70
128
 71
61
 72
60
 73
2
 74
6
 0
VERTEX
 8
GRIFF_2
 10
0
 20
0
 30
0
 70
128
 71
2
 72
3
 73
7
 74
6
 0
VERTEX
 8
GRIFF_2
 10
0
 20
0
 30
0
 70
128
 71
3
 72
4
 73
8
 74
7
 0
VERTEX
 8
GRIFF_2
 10
0
 20
0
 30
0
 70
128
 71
4
 72
5
 73
9
 74
8
 0
VERTEX
 8
GRIFF_2
 10
0
 20
0
 30
0
 70
128
 71
5
 72
1
 73
9
 74
9
 0
VERTEX
 8
GRIFF_2
 10
0
 20
0
 30
0
 70
128
 71
6
 72
10
 73
62
 74
61
 0
VERTEX
 8
GRIFF_2
 10
0
 20
0
 30
0
 70
128
 71
6
 72
7
 73
11
 74
10
 0
VERTEX
 8
GRIFF_2
 10
0
 20
0
 30
0
 70
128
 71
7
 72
8
 73
12
 74
11
 0
VERTEX
 8
GRIFF_2
 10
0
 20
0
 30
0
 70
128
 71
8
 72
9
 73
13
 74
12
 0
VERTEX
 8
GRIFF_2
 10
0
 20
0
 30
0
 70
128
 71
9
 72
1
 73
13
 74
13
 0
VERTEX
 8
GRIFF_2
 10
0
 20
0
 30
0
 70
128
 71
10
 72
14
 73
63
 74
62
 0
VERTEX
 8
GRIFF_2
 10
0
 20
0
 30
0
 70
128
 71
10
 72
11
 73
15
 74
14
 0
VERTEX
 8
GRIFF_2
 10
0
 20
0
 30
0
 70
128
 71
11
 72
12
 73
16
 74
15
 0
VERTEX
 8
GRIFF_2
 10
0
 20
0
 30
0
 70
128
 71
12
 72
13
 73
17
 74
16
 0
VERTEX
 8
GRIFF_2
 10
0
 20
0
 30
0
 70
128
 71
13
 72
1
 73
17
 74
17
 0
VERTEX
 8
GRIFF_2
 10
0
 20
0
 30
0
 70
128
 71
14
 72
18
 73
64
 74
63
 0
VERTEX
 8
GRIFF_2
 10
0
 20
0
 30
0
 70
128
 71
14
 72
15
 73
19
 74
18
 0
VERTEX
 8
GRIFF_2
 10
0
 20
0
 30
0
 70
128
 71
15
 72
16
 73
20
 74
19
 0
VERTEX
 8
GRIFF_2
 10
0
 20
0
 30
0
 70
128
 71
16
 72
17
 73
21
 74
20
 0
VERTEX
 8
GRIFF_2
 10
0
 20
0
 30
0
 70
128
 71
17
 72
1
 73
21
 74
21
 0
VERTEX
 8
GRIFF_2
 10
0
 20
0
 30
0
 70
128
 71
64
 72
18
 73
65
 74
65
 0
VERTEX
 8
GRIFF_2
 10
0
 20
0
 30
0
 70
128
 71
18
 72
19
 73
66
 74
65
 0
VERTEX
 8
GRIFF_2
 10
0
 20
0
 30
0
 70
128
 71
66
 72
19
 73
67
 74
67
 0
VERTEX
 8
GRIFF_2
 10
0
 20
0
 30
0
 70
128
 71
67
 72
19
 73
20
 74
22
 0
VERTEX
 8
GRIFF_2
 10
0
 20
0
 30
0
 70
128
 71
20
 72
21
 73
23
 74
22
 0
VERTEX
 8
GRIFF_2
 10
0
 20
0
 30
0
 70
128
 71
21
 72
1
 73
23
 74
23
 0
VERTEX
 8
GRIFF_2
 10
0
 20
0
 30
0
 70
128
 71
67
 72
22
 73
24
 74
68
 0
VERTEX
 8
GRIFF_2
 10
0
 20
0
 30
0
 70
128
 71
22
 72
23
 73
25
 74
24
 0
VERTEX
 8
GRIFF_2
 10
0
 20
0
 30
0
 70
128
 71
23
 72
1
 73
25
 74
25
 0
VERTEX
 8
GRIFF_2
 10
0
 20
0
 30
0
 70
128
 71
68
 72
24
 73
26
 74
69
 0
VERTEX
 8
GRIFF_2
 10
0
 20
0
 30
0
 70
128
 71
24
 72
25
 73
27
 74
26
 0
VERTEX
 8
GRIFF_2
 10
0
 20
0
 30
0
 70
128
 71
25
 72
1
 73
27
 74
27
 0
VERTEX
 8
GRIFF_2
 10
0
 20
0
 30
0
 70
128
 71
69
 72
26
 73
28
 74
70
 0
VERTEX
 8
GRIFF_2
 10
0
 20
0
 30
0
 70
128
 71
26
 72
27
 73
29
 74
28
 0
VERTEX
 8
GRIFF_2
 10
0
 20
0
 30
0
 70
128
 71
27
 72
1
 73
29
 74
29
 0
VERTEX
 8
GRIFF_2
 10
0
 20
0
 30
0
 70
128
 71
70
 72
28
 73
30
 74
71
 0
VERTEX
 8
GRIFF_2
 10
0
 20
0
 30
0
 70
128
 71
28
 72
29
 73
31
 74
30
 0
VERTEX
 8
GRIFF_2
 10
0
 20
0
 30
0
 70
128
 71
29
 72
1
 73
31
 74
31
 0
VERTEX
 8
GRIFF_2
 10
0
 20
0
 30
0
 70
128
 71
71
 72
30
 73
32
 74
72
 0
VERTEX
 8
GRIFF_2
 10
0
 20
0
 30
0
 70
128
 71
30
 72
31
 73
33
 74
32
 0
VERTEX
 8
GRIFF_2
 10
0
 20
0
 30
0
 70
128
 71
31
 72
1
 73
33
 74
33
 0
VERTEX
 8
GRIFF_2
 10
0
 20
0
 30
0
 70
128
 71
72
 72
32
 73
34
 74
73
 0
VERTEX
 8
GRIFF_2
 10
0
 20
0
 30
0
 70
128
 71
32
 72
33
 73
35
 74
34
 0
VERTEX
 8
GRIFF_2
 10
0
 20
0
 30
0
 70
128
 71
33
 72
1
 73
35
 74
35
 0
VERTEX
 8
GRIFF_2
 10
0
 20
0
 30
0
 70
128
 71
73
 72
34
 73
36
 74
74
 0
VERTEX
 8
GRIFF_2
 10
0
 20
0
 30
0
 70
128
 71
34
 72
35
 73
37
 74
36
 0
VERTEX
 8
GRIFF_2
 10
0
 20
0
 30
0
 70
128
 71
35
 72
1
 73
37
 74
37
 0
VERTEX
 8
GRIFF_2
 10
0
 20
0
 30
0
 70
128
 71
74
 72
36
 73
38
 74
75
 0
VERTEX
 8
GRIFF_2
 10
0
 20
0
 30
0
 70
128
 71
36
 72
37
 73
39
 74
38
 0
VERTEX
 8
GRIFF_2
 10
0
 20
0
 30
0
 70
128
 71
37
 72
1
 73
39
 74
39
 0
VERTEX
 8
GRIFF_2
 10
0
 20
0
 30
0
 70
128
 71
75
 72
38
 73
40
 74
76
 0
VERTEX
 8
GRIFF_2
 10
0
 20
0
 30
0
 70
128
 71
38
 72
39
 73
41
 74
40
 0
VERTEX
 8
GRIFF_2
 10
0
 20
0
 30
0
 70
128
 71
39
 72
1
 73
41
 74
41
 0
VERTEX
 8
GRIFF_2
 10
0
 20
0
 30
0
 70
128
 71
76
 72
40
 73
42
 74
77
 0
VERTEX
 8
GRIFF_2
 10
0
 20
0
 30
0
 70
128
 71
40
 72
41
 73
43
 74
42
 0
VERTEX
 8
GRIFF_2
 10
0
 20
0
 30
0
 70
128
 71
41
 72
1
 73
43
 74
43
 0
VERTEX
 8
GRIFF_2
 10
0
 20
0
 30
0
 70
128
 71
78
 72
44
 73
79
 74
79
 0
VERTEX
 8
GRIFF_2
 10
0
 20
0
 30
0
 70
128
 71
80
 72
45
 73
44
 74
78
 0
VERTEX
 8
GRIFF_2
 10
0
 20
0
 30
0
 70
128
 71
77
 72
42
 73
46
 74
45
 0
VERTEX
 8
GRIFF_2
 10
0
 20
0
 30
0
 70
128
 71
77
 72
45
 73
80
 74
80
 0
VERTEX
 8
GRIFF_2
 10
0
 20
0
 30
0
 70
128
 71
42
 72
43
 73
47
 74
46
 0
VERTEX
 8
GRIFF_2
 10
0
 20
0
 30
0
 70
128
 71
43
 72
1
 73
47
 74
47
 0
VERTEX
 8
GRIFF_2
 10
0
 20
0
 30
0
 70
128
 71
79
 72
44
 73
48
 74
81
 0
VERTEX
 8
GRIFF_2
 10
0
 20
0
 30
0
 70
128
 71
44
 72
45
 73
49
 74
48
 0
VERTEX
 8
GRIFF_2
 10
0
 20
0
 30
0
 70
128
 71
45
 72
46
 73
50
 74
49
 0
VERTEX
 8
GRIFF_2
 10
0
 20
0
 30
0
 70
128
 71
46
 72
47
 73
51
 74
50
 0
VERTEX
 8
GRIFF_2
 10
0
 20
0
 30
0
 70
128
 71
47
 72
1
 73
51
 74
51
 0
VERTEX
 8
GRIFF_2
 10
0
 20
0
 30
0
 70
128
 71
81
 72
48
 73
52
 74
82
 0
VERTEX
 8
GRIFF_2
 10
0
 20
0
 30
0
 70
128
 71
48
 72
49
 73
53
 74
52
 0
VERTEX
 8
GRIFF_2
 10
0
 20
0
 30
0
 70
128
 71
49
 72
50
 73
54
 74
53
 0
VERTEX
 8
GRIFF_2
 10
0
 20
0
 30
0
 70
128
 71
50
 72
51
 73
55
 74
54
 0
VERTEX
 8
GRIFF_2
 10
0
 20
0
 30
0
 70
128
 71
51
 72
1
 73
55
 74
55
 0
VERTEX
 8
GRIFF_2
 10
0
 20
0
 30
0
 70
128
 71
82
 72
52
 73
56
 74
83
 0
VERTEX
 8
GRIFF_2
 10
0
 20
0
 30
0
 70
128
 71
52
 72
53
 73
57
 74
56
 0
VERTEX
 8
GRIFF_2
 10
0
 20
0
 30
0
 70
128
 71
53
 72
54
 73
58
 74
57
 0
VERTEX
 8
GRIFF_2
 10
0
 20
0
 30
0
 70
128
 71
54
 72
55
 73
59
 74
58
 0
VERTEX
 8
GRIFF_2
 10
0
 20
0
 30
0
 70
128
 71
55
 72
1
 73
59
 74
59
 0
VERTEX
 8
GRIFF_2
 10
0
 20
0
 30
0
 70
128
 71
2
 72
60
 73
83
 74
56
 0
VERTEX
 8
GRIFF_2
 10
0
 20
0
 30
0
 70
128
 71
56
 72
57
 73
3
 74
2
 0
VERTEX
 8
GRIFF_2
 10
0
 20
0
 30
0
 70
128
 71
57
 72
58
 73
4
 74
3
 0
VERTEX
 8
GRIFF_2
 10
0
 20
0
 30
0
 70
128
 71
58
 72
59
 73
5
 74
4
 0
VERTEX
 8
GRIFF_2
 10
0
 20
0
 30
0
 70
128
 71
59
 72
1
 73
5
 74
5
 0
SEQEND
 0
POLYLINE
 8
W_RFEL
 66
1
 10
0.0
 20
0.0
 30
0.0
 70
64
 71
24
 72
12
 0
VERTEX
 8
W_RFEL
 10
-0.0035
 20
-0.5437
 30
28.2569
 70
192
 0
VERTEX
 8
W_RFEL
 10
0.1779
 20
-0.5437
 30
28.2569
 70
192
 0
VERTEX
 8
W_RFEL
 10
0.4021
 20
-0.5437
 30
28.2569
 70
192
 0
VERTEX
 8
W_RFEL
 10
0.7649
 20
-0.5437
 30
28.2569
 70
192
 0
VERTEX
 8
W_RFEL
 10
1.7146
 20
-0.5437
 30
28.2569
 70
192
 0
VERTEX
 8
W_RFEL
 10
2.3481
 20
-0.5437
 30
28.2569
 70
192
 0
VERTEX
 8
W_RFEL
 10
2.4342
 20
-0.3789
 30
28.3169
 70
192
 0
VERTEX
 8
W_RFEL
 10
2.4965
 20
0.0146
 30
28.4601
 70
192
 0
VERTEX
 8
W_RFEL
 10
2.3741
 20
0.7871
 30
28.7412
 70
192
 0
VERTEX
 8
W_RFEL
 10
2.019
 20
1.484
 30
28.9949
 70
192
 0
VERTEX
 8
W_RFEL
 10
1.4659
 20
2.0371
 30
29.1962
 70
192
 0
VERTEX
 8
W_RFEL
 10
0.769
 20
2.3922
 30
29.3255
 70
192
 0
VERTEX
 8
W_RFEL
 10
-0.0035
 20
2.5146
 30
29.37
 70
192
 0
VERTEX
 8
W_RFEL
 10
-0.7761
 20
2.3922
 30
29.3255
 70
192
 0
VERTEX
 8
W_RFEL
 10
-1.473
 20
2.0371
 30
29.1962
 70
192
 0
VERTEX
 8
W_RFEL
 10
-2.0261
 20
1.484
 30
28.9949
 70
192
 0
VERTEX
 8
W_RFEL
 10
-2.3812
 20
0.7871
 30
28.7412
 70
192
 0
VERTEX
 8
W_RFEL
 10
-2.5035
 20
0.0146
 30
28.4601
 70
192
 0
VERTEX
 8
W_RFEL
 10
-2.3551
 20
-0.5437
 30
28.2569
 70
192
 0
VERTEX
 8
W_RFEL
 10
-1.7217
 20
-0.5437
 30
28.2569
 70
192
 0
VERTEX
 8
W_RFEL
 10
-2.4412
 20
-0.3789
 30
28.3169
 70
192
 0
VERTEX
 8
W_RFEL
 10
-0.7719
 20
-0.5437
 30
28.2569
 70
192
 0
VERTEX
 8
W_RFEL
 10
-0.4091
 20
-0.5437
 30
28.2569
 70
192
 0
VERTEX
 8
W_RFEL
 10
-0.1849
 20
-0.5437
 30
28.2569
 70
192
 0
VERTEX
 8
W_RFEL
 10
0
 20
0
 30
0
 70
128
 71
3
 72
11
 73
12
 74
2
 0
VERTEX
 8
W_RFEL
 10
0
 20
0
 30
0
 70
128
 71
4
 72
5
 73
9
 74
10
 0
VERTEX
 8
W_RFEL
 10
0
 20
0
 30
0
 70
128
 71
11
 72
3
 73
4
 74
10
 0
VERTEX
 8
W_RFEL
 10
0
 20
0
 30
0
 70
128
 71
5
 72
6
 73
7
 74
7
 0
VERTEX
 8
W_RFEL
 10
0
 20
0
 30
0
 70
128
 71
5
 72
7
 73
8
 74
9
 0
VERTEX
 8
W_RFEL
 10
0
 20
0
 30
0
 70
128
 71
2
 72
12
 73
13
 74
1
 0
VERTEX
 8
W_RFEL
 10
0
 20
0
 30
0
 70
128
 71
13
 72
14
 73
24
 74
1
 0
VERTEX
 8
W_RFEL
 10
0
 20
0
 30
0
 70
128
 71
23
 72
24
 73
14
 74
15
 0
VERTEX
 8
W_RFEL
 10
0
 20
0
 30
0
 70
128
 71
22
 72
23
 73
15
 74
16
 0
VERTEX
 8
W_RFEL
 10
0
 20
0
 30
0
 70
128
 71
22
 72
16
 73
17
 74
20
 0
VERTEX
 8
W_RFEL
 10
0
 20
0
 30
0
 70
128
 71
20
 72
17
 73
18
 74
21
 0
VERTEX
 8
W_RFEL
 10
0
 20
0
 30
0
 70
128
 71
21
 72
19
 73
20
 74
20
 0
SEQEND
 0
ENDSEC
 0
EOF
