 0
SECTION
 2
HEADER
 9
$ACADVER
 1
AC1009
 0
ENDSEC
 0
SECTION
 2
TABLES
 0
TABLE
 2
LTYPE
 70
1
 0
LTYPE
 2
CONTINUOUS
 70
64
 3
solid line
 72
65
 73
0
 40
0.0
 0
ENDTAB
 0
TABLE
 2
LAYER
 70
6
 0
LAYER
 2
0
 70
0
 62
7
 6
CONTINUOUS
 0
LAYER
 2
100_1601_M
 70
64
 62
7
 6
CONTINUOUS
 0
LAYER
 2
CONE_1
 70
64
 62
250
 6
CONTINUOUS
 0
LAYER
 2
CYLINDER
 70
64
 62
250
 6
CONTINUOUS
 0
LAYER
 2
CYLINDER_1
 70
64
 62
250
 6
CONTINUOUS
 0
LAYER
 2
TUBE
 70
64
 62
250
 6
CONTINUOUS
 0
LAYER
 2
SCHLAUCH_1
 70
64
 62
250
 6
CONTINUOUS
 0
LAYER
 2
CYLINDER_2
 70
64
 62
250
 6
CONTINUOUS
 0
LAYER
 2
CYLINDER_3
 70
64
 62
250
 6
CONTINUOUS
 0
LAYER
 2
CYLINDER_4
 70
64
 62
250
 6
CONTINUOUS
 0
LAYER
 2
CYLINDER_5
 70
64
 62
250
 6
CONTINUOUS
 0
LAYER
 2
CYLINDER_6
 70
64
 62
250
 6
CONTINUOUS
 0
LAYER
 2
CYLINDER_7
 70
64
 62
250
 6
CONTINUOUS
 0
LAYER
 2
CYLINDER_8
 70
64
 62
250
 6
CONTINUOUS
 0
LAYER
 2
CYLINDER_9
 70
64
 62
250
 6
CONTINUOUS
 0
LAYER
 2
CYLINDER_10
 70
64
 62
250
 6
CONTINUOUS
 0
LAYER
 2
CYLINDER_11
 70
64
 62
250
 6
CONTINUOUS
 0
LAYER
 2
CYLINDER_12
 70
64
 62
250
 6
CONTINUOUS
 0
LAYER
 2
CYLINDER_13
 70
64
 62
250
 6
CONTINUOUS
 0
ENDTAB
 0
ENDSEC
 0
SECTION
 2
BLOCKS
 0
ENDSEC
 0
SECTION
 2
ENTITIES
 0
POLYLINE
 8
CONE_1
 66
1
 10
0.0
 20
0.0
 30
0.0
 70
64
 71
12
 72
20
 0
VERTEX
 8
CONE_1
 10
0.0824
 20
-0.1281
 30
24.8748
 70
192
 0
VERTEX
 8
CONE_1
 10
-0.1376
 20
0.6955
 30
24.8749
 70
192
 0
VERTEX
 8
CONE_1
 10
0.4016
 20
-0.0071
 30
24.8741
 70
192
 0
VERTEX
 8
CONE_1
 10
-0.2294
 20
0.1345
 30
24.0749
 70
192
 0
VERTEX
 8
CONE_1
 10
0.0824
 20
-0.0713
 30
24.0741
 70
192
 0
VERTEX
 8
CONE_1
 10
-0.3925
 20
0.3145
 30
24.8734
 70
192
 0
VERTEX
 8
CONE_1
 10
0.0824
 20
0.7545
 30
24.8749
 70
192
 0
VERTEX
 8
CONE_1
 10
0.3024
 20
0.6955
 30
24.8749
 70
192
 0
VERTEX
 8
CONE_1
 10
-0.2294
 20
0.4945
 30
24.0749
 70
192
 0
VERTEX
 8
CONE_1
 10
0.4424
 20
0.3145
 30
24.0749
 70
192
 0
VERTEX
 8
CONE_1
 10
0.2946
 20
0.6451
 30
24.0723
 70
192
 0
VERTEX
 8
CONE_1
 10
0.5224
 20
0.3145
 30
24.8749
 70
192
 0
VERTEX
 8
CONE_1
 10
0
 20
0
 30
0
 70
128
 71
3
 72
12
 73
10
 74
10
 0
VERTEX
 8
CONE_1
 10
0
 20
0
 30
0
 70
128
 71
5
 72
10
 73
11
 74
11
 0
VERTEX
 8
CONE_1
 10
0
 20
0
 30
0
 70
128
 71
4
 72
6
 73
5
 74
5
 0
VERTEX
 8
CONE_1
 10
0
 20
0
 30
0
 70
128
 71
10
 72
12
 73
11
 74
11
 0
VERTEX
 8
CONE_1
 10
0
 20
0
 30
0
 70
128
 71
5
 72
1
 73
3
 74
3
 0
VERTEX
 8
CONE_1
 10
0
 20
0
 30
0
 70
128
 71
12
 72
1
 73
8
 74
8
 0
VERTEX
 8
CONE_1
 10
0
 20
0
 30
0
 70
128
 71
11
 72
7
 73
2
 74
2
 0
VERTEX
 8
CONE_1
 10
0
 20
0
 30
0
 70
128
 71
11
 72
2
 73
9
 74
9
 0
VERTEX
 8
CONE_1
 10
0
 20
0
 30
0
 70
128
 71
5
 72
3
 73
10
 74
10
 0
VERTEX
 8
CONE_1
 10
0
 20
0
 30
0
 70
128
 71
8
 72
1
 73
7
 74
7
 0
VERTEX
 8
CONE_1
 10
0
 20
0
 30
0
 70
128
 71
6
 72
1
 73
5
 74
5
 0
VERTEX
 8
CONE_1
 10
0
 20
0
 30
0
 70
128
 71
5
 72
11
 73
9
 74
9
 0
VERTEX
 8
CONE_1
 10
0
 20
0
 30
0
 70
128
 71
2
 72
1
 73
6
 74
6
 0
VERTEX
 8
CONE_1
 10
0
 20
0
 30
0
 70
128
 71
8
 72
7
 73
11
 74
11
 0
VERTEX
 8
CONE_1
 10
0
 20
0
 30
0
 70
128
 71
3
 72
1
 73
12
 74
12
 0
VERTEX
 8
CONE_1
 10
0
 20
0
 30
0
 70
128
 71
11
 72
12
 73
8
 74
8
 0
VERTEX
 8
CONE_1
 10
0
 20
0
 30
0
 70
128
 71
9
 72
6
 73
4
 74
4
 0
VERTEX
 8
CONE_1
 10
0
 20
0
 30
0
 70
128
 71
5
 72
9
 73
4
 74
4
 0
VERTEX
 8
CONE_1
 10
0
 20
0
 30
0
 70
128
 71
2
 72
6
 73
9
 74
9
 0
VERTEX
 8
CONE_1
 10
0
 20
0
 30
0
 70
128
 71
7
 72
1
 73
2
 74
2
 0
SEQEND
 0
POLYLINE
 8
CYLINDER
 66
1
 10
0.0
 20
0.0
 30
0.0
 70
64
 71
273
 72
214
 0
VERTEX
 8
CYLINDER
 10
0.0871
 20
0.3045
 30
32.7124
 70
192
 0
VERTEX
 8
CYLINDER
 10
0.0871
 20
-0.1275
 30
30.3124
 70
192
 0
VERTEX
 8
CYLINDER
 10
0.0871
 20
-0.1555
 30
30.3404
 70
192
 0
VERTEX
 8
CYLINDER
 10
0.0871
 20
-0.1555
 30
32.6844
 70
192
 0
VERTEX
 8
CYLINDER
 10
0.0871
 20
-0.1275
 30
32.7124
 70
192
 0
VERTEX
 8
CYLINDER
 10
0.2206
 20
-0.1063
 30
30.3124
 70
192
 0
VERTEX
 8
CYLINDER
 10
0.2292
 20
-0.1329
 30
30.3404
 70
192
 0
VERTEX
 8
CYLINDER
 10
0.2292
 20
-0.1329
 30
32.6844
 70
192
 0
VERTEX
 8
CYLINDER
 10
0.2206
 20
-0.1063
 30
32.7124
 70
192
 0
VERTEX
 8
CYLINDER
 10
0.341
 20
-0.045
 30
30.3124
 70
192
 0
VERTEX
 8
CYLINDER
 10
0.3575
 20
-0.0676
 30
30.3404
 70
192
 0
VERTEX
 8
CYLINDER
 10
0.3575
 20
-0.0676
 30
32.6844
 70
192
 0
VERTEX
 8
CYLINDER
 10
0.341
 20
-0.045
 30
32.7124
 70
192
 0
VERTEX
 8
CYLINDER
 10
0.4366
 20
0.0506
 30
30.3124
 70
192
 0
VERTEX
 8
CYLINDER
 10
0.4592
 20
0.0342
 30
30.3404
 70
192
 0
VERTEX
 8
CYLINDER
 10
0.4592
 20
0.0342
 30
32.6844
 70
192
 0
VERTEX
 8
CYLINDER
 10
0.4366
 20
0.0506
 30
32.7124
 70
192
 0
VERTEX
 8
CYLINDER
 10
0.4979
 20
0.171
 30
30.3124
 70
192
 0
VERTEX
 8
CYLINDER
 10
0.5246
 20
0.1624
 30
30.3404
 70
192
 0
VERTEX
 8
CYLINDER
 10
0.5246
 20
0.1624
 30
32.6844
 70
192
 0
VERTEX
 8
CYLINDER
 10
0.4979
 20
0.171
 30
32.7124
 70
192
 0
VERTEX
 8
CYLINDER
 10
0.5191
 20
0.3045
 30
30.3124
 70
192
 0
VERTEX
 8
CYLINDER
 10
0.5471
 20
0.3045
 30
30.3404
 70
192
 0
VERTEX
 8
CYLINDER
 10
0.5471
 20
0.3045
 30
32.6844
 70
192
 0
VERTEX
 8
CYLINDER
 10
0.5191
 20
0.3045
 30
32.7124
 70
192
 0
VERTEX
 8
CYLINDER
 10
0.4979
 20
0.438
 30
30.3124
 70
192
 0
VERTEX
 8
CYLINDER
 10
0.5246
 20
0.4467
 30
30.3404
 70
192
 0
VERTEX
 8
CYLINDER
 10
0.5246
 20
0.4467
 30
32.6844
 70
192
 0
VERTEX
 8
CYLINDER
 10
0.4979
 20
0.438
 30
32.7124
 70
192
 0
VERTEX
 8
CYLINDER
 10
0.4366
 20
0.5585
 30
30.3124
 70
192
 0
VERTEX
 8
CYLINDER
 10
0.4592
 20
0.5749
 30
30.3404
 70
192
 0
VERTEX
 8
CYLINDER
 10
0.4592
 20
0.5749
 30
32.6844
 70
192
 0
VERTEX
 8
CYLINDER
 10
0.4366
 20
0.5585
 30
32.7124
 70
192
 0
VERTEX
 8
CYLINDER
 10
0.341
 20
0.654
 30
30.3124
 70
192
 0
VERTEX
 8
CYLINDER
 10
0.3575
 20
0.6767
 30
30.3404
 70
192
 0
VERTEX
 8
CYLINDER
 10
0.3575
 20
0.6767
 30
32.6844
 70
192
 0
VERTEX
 8
CYLINDER
 10
0.341
 20
0.654
 30
32.7124
 70
192
 0
VERTEX
 8
CYLINDER
 10
0.2206
 20
0.7154
 30
30.3124
 70
192
 0
VERTEX
 8
CYLINDER
 10
0.2292
 20
0.742
 30
30.3404
 70
192
 0
VERTEX
 8
CYLINDER
 10
0.2292
 20
0.742
 30
32.6844
 70
192
 0
VERTEX
 8
CYLINDER
 10
0.2206
 20
0.7154
 30
32.7124
 70
192
 0
VERTEX
 8
CYLINDER
 10
0.0871
 20
0.7365
 30
30.3124
 70
192
 0
VERTEX
 8
CYLINDER
 10
0.0871
 20
0.7645
 30
30.3404
 70
192
 0
VERTEX
 8
CYLINDER
 10
0.0871
 20
0.7645
 30
32.6844
 70
192
 0
VERTEX
 8
CYLINDER
 10
0.0871
 20
0.7365
 30
32.7124
 70
192
 0
VERTEX
 8
CYLINDER
 10
-0.0464
 20
0.7154
 30
30.3124
 70
192
 0
VERTEX
 8
CYLINDER
 10
-0.0551
 20
0.742
 30
30.3404
 70
192
 0
VERTEX
 8
CYLINDER
 10
-0.0551
 20
0.742
 30
32.6844
 70
192
 0
VERTEX
 8
CYLINDER
 10
-0.0464
 20
0.7154
 30
32.7124
 70
192
 0
VERTEX
 8
CYLINDER
 10
-0.1668
 20
0.654
 30
30.3124
 70
192
 0
VERTEX
 8
CYLINDER
 10
-0.1833
 20
0.6767
 30
30.3404
 70
192
 0
VERTEX
 8
CYLINDER
 10
-0.1833
 20
0.6767
 30
32.6844
 70
192
 0
VERTEX
 8
CYLINDER
 10
-0.1668
 20
0.654
 30
32.7124
 70
192
 0
VERTEX
 8
CYLINDER
 10
-0.2624
 20
0.5585
 30
30.3124
 70
192
 0
VERTEX
 8
CYLINDER
 10
-0.2851
 20
0.5749
 30
30.3404
 70
192
 0
VERTEX
 8
CYLINDER
 10
-0.2851
 20
0.5749
 30
32.6844
 70
192
 0
VERTEX
 8
CYLINDER
 10
-0.2624
 20
0.5585
 30
32.7124
 70
192
 0
VERTEX
 8
CYLINDER
 10
-0.3238
 20
0.438
 30
30.3124
 70
192
 0
VERTEX
 8
CYLINDER
 10
-0.3504
 20
0.4467
 30
30.3404
 70
192
 0
VERTEX
 8
CYLINDER
 10
-0.3504
 20
0.4467
 30
32.6844
 70
192
 0
VERTEX
 8
CYLINDER
 10
-0.3238
 20
0.438
 30
32.7124
 70
192
 0
VERTEX
 8
CYLINDER
 10
-0.3449
 20
0.3045
 30
30.3124
 70
192
 0
VERTEX
 8
CYLINDER
 10
-0.3729
 20
0.3045
 30
30.3404
 70
192
 0
VERTEX
 8
CYLINDER
 10
-0.3729
 20
0.3045
 30
32.6844
 70
192
 0
VERTEX
 8
CYLINDER
 10
-0.3449
 20
0.3045
 30
32.7124
 70
192
 0
VERTEX
 8
CYLINDER
 10
-0.3238
 20
0.171
 30
30.3124
 70
192
 0
VERTEX
 8
CYLINDER
 10
-0.3504
 20
0.1624
 30
30.3404
 70
192
 0
VERTEX
 8
CYLINDER
 10
-0.3504
 20
0.1624
 30
32.6844
 70
192
 0
VERTEX
 8
CYLINDER
 10
-0.3238
 20
0.171
 30
32.7124
 70
192
 0
VERTEX
 8
CYLINDER
 10
-0.2624
 20
0.0506
 30
30.3124
 70
192
 0
VERTEX
 8
CYLINDER
 10
-0.2851
 20
0.0342
 30
30.3404
 70
192
 0
VERTEX
 8
CYLINDER
 10
-0.2851
 20
0.0342
 30
32.6844
 70
192
 0
VERTEX
 8
CYLINDER
 10
-0.2624
 20
0.0506
 30
32.7124
 70
192
 0
VERTEX
 8
CYLINDER
 10
-0.1668
 20
-0.045
 30
30.3124
 70
192
 0
VERTEX
 8
CYLINDER
 10
-0.1833
 20
-0.0676
 30
30.3404
 70
192
 0
VERTEX
 8
CYLINDER
 10
-0.1833
 20
-0.0676
 30
32.6844
 70
192
 0
VERTEX
 8
CYLINDER
 10
-0.1668
 20
-0.045
 30
32.7124
 70
192
 0
VERTEX
 8
CYLINDER
 10
-0.0464
 20
-0.1063
 30
30.3124
 70
192
 0
VERTEX
 8
CYLINDER
 10
-0.0551
 20
-0.1329
 30
30.3404
 70
192
 0
VERTEX
 8
CYLINDER
 10
-0.0551
 20
-0.1329
 30
32.6844
 70
192
 0
VERTEX
 8
CYLINDER
 10
-0.0464
 20
-0.1063
 30
32.7124
 70
192
 0
VERTEX
 8
CYLINDER
 10
0.0965
 20
-0.154
 30
31.3055
 70
192
 0
VERTEX
 8
CYLINDER
 10
0.0965
 20
-0.154
 30
31.2455
 70
192
 0
VERTEX
 8
CYLINDER
 10
0.0965
 20
-0.154
 30
32.0753
 70
192
 0
VERTEX
 8
CYLINDER
 10
0.0965
 20
-0.154
 30
31.1181
 70
192
 0
VERTEX
 8
CYLINDER
 10
0.0965
 20
-0.154
 30
31.0581
 70
192
 0
VERTEX
 8
CYLINDER
 10
0.0965
 20
-0.154
 30
31.8639
 70
192
 0
VERTEX
 8
CYLINDER
 10
0.0965
 20
-0.154
 30
30.9186
 70
192
 0
VERTEX
 8
CYLINDER
 10
0.0965
 20
-0.154
 30
30.8586
 70
192
 0
VERTEX
 8
CYLINDER
 10
0.0965
 20
-0.154
 30
31.6564
 70
192
 0
VERTEX
 8
CYLINDER
 10
0.0965
 20
-0.154
 30
31.505
 70
192
 0
VERTEX
 8
CYLINDER
 10
0.0965
 20
-0.154
 30
31.445
 70
192
 0
VERTEX
 8
CYLINDER
 10
0.0965
 20
-0.154
 30
32.2673
 70
192
 0
VERTEX
 8
CYLINDER
 10
0.0965
 20
-0.154
 30
32.1353
 70
192
 0
VERTEX
 8
CYLINDER
 10
0.0965
 20
-0.154
 30
31.9239
 70
192
 0
VERTEX
 8
CYLINDER
 10
0.0965
 20
-0.154
 30
31.7164
 70
192
 0
VERTEX
 8
CYLINDER
 10
0.0965
 20
-0.154
 30
32.3273
 70
192
 0
VERTEX
 8
CYLINDER
 10
0.1165
 20
-0.1508
 30
30.8786
 70
192
 0
VERTEX
 8
CYLINDER
 10
0.1165
 20
-0.1508
 30
31.0781
 70
192
 0
VERTEX
 8
CYLINDER
 10
0.1165
 20
-0.1508
 30
31.0981
 70
192
 0
VERTEX
 8
CYLINDER
 10
0.1165
 20
-0.1508
 30
31.6764
 70
192
 0
VERTEX
 8
CYLINDER
 10
0.1165
 20
-0.1508
 30
30.8986
 70
192
 0
VERTEX
 8
CYLINDER
 10
0.1165
 20
-0.1508
 30
31.485
 70
192
 0
VERTEX
 8
CYLINDER
 10
0.1165
 20
-0.1508
 30
31.2855
 70
192
 0
VERTEX
 8
CYLINDER
 10
0.1165
 20
-0.1508
 30
31.8839
 70
192
 0
VERTEX
 8
CYLINDER
 10
0.1165
 20
-0.1508
 30
31.6964
 70
192
 0
VERTEX
 8
CYLINDER
 10
0.1165
 20
-0.1508
 30
32.0953
 70
192
 0
VERTEX
 8
CYLINDER
 10
0.1165
 20
-0.1508
 30
32.1153
 70
192
 0
VERTEX
 8
CYLINDER
 10
0.1165
 20
-0.1508
 30
31.2655
 70
192
 0
VERTEX
 8
CYLINDER
 10
0.1165
 20
-0.1508
 30
31.9039
 70
192
 0
VERTEX
 8
CYLINDER
 10
0.1165
 20
-0.1508
 30
32.2873
 70
192
 0
VERTEX
 8
CYLINDER
 10
0.1165
 20
-0.1508
 30
32.3073
 70
192
 0
VERTEX
 8
CYLINDER
 10
0.1165
 20
-0.1508
 30
31.465
 70
192
 0
VERTEX
 8
CYLINDER
 10
0.246
 20
-0.1244
 30
30.8786
 70
192
 0
VERTEX
 8
CYLINDER
 10
0.266
 20
-0.1142
 30
30.8586
 70
192
 0
VERTEX
 8
CYLINDER
 10
0.246
 20
-0.1244
 30
30.8986
 70
192
 0
VERTEX
 8
CYLINDER
 10
0.266
 20
-0.1142
 30
30.9186
 70
192
 0
VERTEX
 8
CYLINDER
 10
0.306
 20
-0.0938
 30
30.8786
 70
192
 0
VERTEX
 8
CYLINDER
 10
0.286
 20
-0.104
 30
30.8586
 70
192
 0
VERTEX
 8
CYLINDER
 10
0.306
 20
-0.0938
 30
30.8986
 70
192
 0
VERTEX
 8
CYLINDER
 10
0.286
 20
-0.104
 30
30.9186
 70
192
 0
VERTEX
 8
CYLINDER
 10
0.246
 20
-0.1244
 30
31.0781
 70
192
 0
VERTEX
 8
CYLINDER
 10
0.266
 20
-0.1142
 30
31.0581
 70
192
 0
VERTEX
 8
CYLINDER
 10
0.246
 20
-0.1244
 30
31.0981
 70
192
 0
VERTEX
 8
CYLINDER
 10
0.266
 20
-0.1142
 30
31.1181
 70
192
 0
VERTEX
 8
CYLINDER
 10
0.306
 20
-0.0938
 30
31.0781
 70
192
 0
VERTEX
 8
CYLINDER
 10
0.306
 20
-0.0938
 30
31.0981
 70
192
 0
VERTEX
 8
CYLINDER
 10
0.286
 20
-0.104
 30
31.1181
 70
192
 0
VERTEX
 8
CYLINDER
 10
0.246
 20
-0.1244
 30
31.2655
 70
192
 0
VERTEX
 8
CYLINDER
 10
0.246
 20
-0.1244
 30
31.2855
 70
192
 0
VERTEX
 8
CYLINDER
 10
0.266
 20
-0.1142
 30
31.3055
 70
192
 0
VERTEX
 8
CYLINDER
 10
0.306
 20
-0.0938
 30
31.2655
 70
192
 0
VERTEX
 8
CYLINDER
 10
0.286
 20
-0.104
 30
31.2455
 70
192
 0
VERTEX
 8
CYLINDER
 10
0.306
 20
-0.0938
 30
31.2855
 70
192
 0
VERTEX
 8
CYLINDER
 10
0.286
 20
-0.104
 30
31.3055
 70
192
 0
VERTEX
 8
CYLINDER
 10
0.266
 20
-0.1142
 30
31.2455
 70
192
 0
VERTEX
 8
CYLINDER
 10
0.246
 20
-0.1244
 30
31.465
 70
192
 0
VERTEX
 8
CYLINDER
 10
0.266
 20
-0.1142
 30
31.445
 70
192
 0
VERTEX
 8
CYLINDER
 10
0.246
 20
-0.1244
 30
31.485
 70
192
 0
VERTEX
 8
CYLINDER
 10
0.266
 20
-0.1142
 30
31.505
 70
192
 0
VERTEX
 8
CYLINDER
 10
0.286
 20
-0.104
 30
31.445
 70
192
 0
VERTEX
 8
CYLINDER
 10
0.306
 20
-0.0938
 30
31.465
 70
192
 0
VERTEX
 8
CYLINDER
 10
0.306
 20
-0.0938
 30
31.485
 70
192
 0
VERTEX
 8
CYLINDER
 10
0.286
 20
-0.104
 30
31.505
 70
192
 0
VERTEX
 8
CYLINDER
 10
0.246
 20
-0.1244
 30
31.6764
 70
192
 0
VERTEX
 8
CYLINDER
 10
0.266
 20
-0.1142
 30
31.6564
 70
192
 0
VERTEX
 8
CYLINDER
 10
0.246
 20
-0.1244
 30
31.6964
 70
192
 0
VERTEX
 8
CYLINDER
 10
0.266
 20
-0.1142
 30
31.7164
 70
192
 0
VERTEX
 8
CYLINDER
 10
0.286
 20
-0.104
 30
31.6564
 70
192
 0
VERTEX
 8
CYLINDER
 10
0.306
 20
-0.0938
 30
31.6964
 70
192
 0
VERTEX
 8
CYLINDER
 10
0.286
 20
-0.104
 30
31.7164
 70
192
 0
VERTEX
 8
CYLINDER
 10
0.246
 20
-0.1244
 30
31.8839
 70
192
 0
VERTEX
 8
CYLINDER
 10
0.246
 20
-0.1244
 30
31.9039
 70
192
 0
VERTEX
 8
CYLINDER
 10
0.266
 20
-0.1142
 30
31.9239
 70
192
 0
VERTEX
 8
CYLINDER
 10
0.306
 20
-0.0938
 30
31.8839
 70
192
 0
VERTEX
 8
CYLINDER
 10
0.286
 20
-0.104
 30
31.8639
 70
192
 0
VERTEX
 8
CYLINDER
 10
0.306
 20
-0.0938
 30
31.9039
 70
192
 0
VERTEX
 8
CYLINDER
 10
0.286
 20
-0.104
 30
31.9239
 70
192
 0
VERTEX
 8
CYLINDER
 10
0.266
 20
-0.1142
 30
31.8639
 70
192
 0
VERTEX
 8
CYLINDER
 10
0.246
 20
-0.1244
 30
32.0953
 70
192
 0
VERTEX
 8
CYLINDER
 10
0.266
 20
-0.1142
 30
32.0753
 70
192
 0
VERTEX
 8
CYLINDER
 10
0.246
 20
-0.1244
 30
32.1153
 70
192
 0
VERTEX
 8
CYLINDER
 10
0.266
 20
-0.1142
 30
32.1353
 70
192
 0
VERTEX
 8
CYLINDER
 10
0.306
 20
-0.0938
 30
32.0953
 70
192
 0
VERTEX
 8
CYLINDER
 10
0.286
 20
-0.104
 30
32.0753
 70
192
 0
VERTEX
 8
CYLINDER
 10
0.306
 20
-0.0938
 30
32.1153
 70
192
 0
VERTEX
 8
CYLINDER
 10
0.286
 20
-0.104
 30
32.1353
 70
192
 0
VERTEX
 8
CYLINDER
 10
0.246
 20
-0.1244
 30
32.2873
 70
192
 0
VERTEX
 8
CYLINDER
 10
0.266
 20
-0.1142
 30
32.2673
 70
192
 0
VERTEX
 8
CYLINDER
 10
0.246
 20
-0.1244
 30
32.3073
 70
192
 0
VERTEX
 8
CYLINDER
 10
0.266
 20
-0.1142
 30
32.3273
 70
192
 0
VERTEX
 8
CYLINDER
 10
0.306
 20
-0.0938
 30
32.2873
 70
192
 0
VERTEX
 8
CYLINDER
 10
0.286
 20
-0.104
 30
32.2673
 70
192
 0
VERTEX
 8
CYLINDER
 10
0.306
 20
-0.0938
 30
32.3073
 70
192
 0
VERTEX
 8
CYLINDER
 10
0.286
 20
-0.104
 30
32.3273
 70
192
 0
VERTEX
 8
CYLINDER
 10
-0.1355
 20
-0.0919
 30
30.8786
 70
192
 0
VERTEX
 8
CYLINDER
 10
-0.1155
 20
-0.1021
 30
30.8586
 70
192
 0
VERTEX
 8
CYLINDER
 10
-0.1355
 20
-0.0919
 30
30.8986
 70
192
 0
VERTEX
 8
CYLINDER
 10
-0.1155
 20
-0.1021
 30
30.9186
 70
192
 0
VERTEX
 8
CYLINDER
 10
-0.0755
 20
-0.1225
 30
30.8786
 70
192
 0
VERTEX
 8
CYLINDER
 10
-0.0955
 20
-0.1123
 30
30.8586
 70
192
 0
VERTEX
 8
CYLINDER
 10
-0.0755
 20
-0.1225
 30
30.8986
 70
192
 0
VERTEX
 8
CYLINDER
 10
-0.0955
 20
-0.1123
 30
30.9186
 70
192
 0
VERTEX
 8
CYLINDER
 10
0.286
 20
-0.104
 30
31.0581
 70
192
 0
VERTEX
 8
CYLINDER
 10
-0.1155
 20
-0.1021
 30
31.0581
 70
192
 0
VERTEX
 8
CYLINDER
 10
-0.1355
 20
-0.0919
 30
31.0981
 70
192
 0
VERTEX
 8
CYLINDER
 10
-0.1355
 20
-0.0919
 30
31.0781
 70
192
 0
VERTEX
 8
CYLINDER
 10
-0.1155
 20
-0.1021
 30
31.1181
 70
192
 0
VERTEX
 8
CYLINDER
 10
-0.0755
 20
-0.1225
 30
31.0781
 70
192
 0
VERTEX
 8
CYLINDER
 10
-0.0955
 20
-0.1123
 30
31.0581
 70
192
 0
VERTEX
 8
CYLINDER
 10
-0.0755
 20
-0.1225
 30
31.0981
 70
192
 0
VERTEX
 8
CYLINDER
 10
-0.0955
 20
-0.1123
 30
31.1181
 70
192
 0
VERTEX
 8
CYLINDER
 10
-0.1355
 20
-0.0919
 30
31.2655
 70
192
 0
VERTEX
 8
CYLINDER
 10
-0.1155
 20
-0.1021
 30
31.2455
 70
192
 0
VERTEX
 8
CYLINDER
 10
-0.1155
 20
-0.1021
 30
31.3055
 70
192
 0
VERTEX
 8
CYLINDER
 10
-0.0755
 20
-0.1225
 30
31.2655
 70
192
 0
VERTEX
 8
CYLINDER
 10
-0.0955
 20
-0.1123
 30
31.2455
 70
192
 0
VERTEX
 8
CYLINDER
 10
-0.0755
 20
-0.1225
 30
31.2855
 70
192
 0
VERTEX
 8
CYLINDER
 10
-0.0955
 20
-0.1123
 30
31.3055
 70
192
 0
VERTEX
 8
CYLINDER
 10
-0.1355
 20
-0.0919
 30
31.465
 70
192
 0
VERTEX
 8
CYLINDER
 10
-0.1155
 20
-0.1021
 30
31.445
 70
192
 0
VERTEX
 8
CYLINDER
 10
-0.1355
 20
-0.0919
 30
31.485
 70
192
 0
VERTEX
 8
CYLINDER
 10
-0.1155
 20
-0.1021
 30
31.505
 70
192
 0
VERTEX
 8
CYLINDER
 10
-0.0955
 20
-0.1123
 30
31.445
 70
192
 0
VERTEX
 8
CYLINDER
 10
-0.0755
 20
-0.1225
 30
31.465
 70
192
 0
VERTEX
 8
CYLINDER
 10
-0.0955
 20
-0.1123
 30
31.505
 70
192
 0
VERTEX
 8
CYLINDER
 10
-0.0755
 20
-0.1225
 30
31.485
 70
192
 0
VERTEX
 8
CYLINDER
 10
0.306
 20
-0.0938
 30
31.6764
 70
192
 0
VERTEX
 8
CYLINDER
 10
-0.1155
 20
-0.1021
 30
31.6564
 70
192
 0
VERTEX
 8
CYLINDER
 10
-0.1355
 20
-0.0919
 30
31.6764
 70
192
 0
VERTEX
 8
CYLINDER
 10
-0.1155
 20
-0.1021
 30
31.7164
 70
192
 0
VERTEX
 8
CYLINDER
 10
-0.1355
 20
-0.0919
 30
31.6964
 70
192
 0
VERTEX
 8
CYLINDER
 10
-0.0755
 20
-0.1225
 30
31.6764
 70
192
 0
VERTEX
 8
CYLINDER
 10
-0.0955
 20
-0.1123
 30
31.6564
 70
192
 0
VERTEX
 8
CYLINDER
 10
-0.0755
 20
-0.1225
 30
31.6964
 70
192
 0
VERTEX
 8
CYLINDER
 10
-0.0955
 20
-0.1123
 30
31.7164
 70
192
 0
VERTEX
 8
CYLINDER
 10
-0.1355
 20
-0.0919
 30
31.8839
 70
192
 0
VERTEX
 8
CYLINDER
 10
-0.1155
 20
-0.1021
 30
31.8639
 70
192
 0
VERTEX
 8
CYLINDER
 10
-0.1355
 20
-0.0919
 30
31.9039
 70
192
 0
VERTEX
 8
CYLINDER
 10
-0.0955
 20
-0.1123
 30
31.8639
 70
192
 0
VERTEX
 8
CYLINDER
 10
-0.0755
 20
-0.1225
 30
31.9039
 70
192
 0
VERTEX
 8
CYLINDER
 10
-0.0755
 20
-0.1225
 30
31.8839
 70
192
 0
VERTEX
 8
CYLINDER
 10
-0.0955
 20
-0.1123
 30
31.9239
 70
192
 0
VERTEX
 8
CYLINDER
 10
-0.1155
 20
-0.1021
 30
31.9239
 70
192
 0
VERTEX
 8
CYLINDER
 10
-0.1355
 20
-0.0919
 30
32.0953
 70
192
 0
VERTEX
 8
CYLINDER
 10
-0.1155
 20
-0.1021
 30
32.0753
 70
192
 0
VERTEX
 8
CYLINDER
 10
-0.1355
 20
-0.0919
 30
32.1153
 70
192
 0
VERTEX
 8
CYLINDER
 10
-0.1155
 20
-0.1021
 30
32.1353
 70
192
 0
VERTEX
 8
CYLINDER
 10
-0.0955
 20
-0.1123
 30
32.0753
 70
192
 0
VERTEX
 8
CYLINDER
 10
-0.0755
 20
-0.1225
 30
32.0953
 70
192
 0
VERTEX
 8
CYLINDER
 10
-0.0755
 20
-0.1225
 30
32.1153
 70
192
 0
VERTEX
 8
CYLINDER
 10
-0.0955
 20
-0.1123
 30
32.1353
 70
192
 0
VERTEX
 8
CYLINDER
 10
-0.1355
 20
-0.0919
 30
32.2873
 70
192
 0
VERTEX
 8
CYLINDER
 10
-0.1155
 20
-0.1021
 30
32.2673
 70
192
 0
VERTEX
 8
CYLINDER
 10
-0.1355
 20
-0.0919
 30
32.3073
 70
192
 0
VERTEX
 8
CYLINDER
 10
-0.1155
 20
-0.1021
 30
32.3273
 70
192
 0
VERTEX
 8
CYLINDER
 10
-0.0955
 20
-0.1123
 30
32.2673
 70
192
 0
VERTEX
 8
CYLINDER
 10
-0.0755
 20
-0.1225
 30
32.2873
 70
192
 0
VERTEX
 8
CYLINDER
 10
-0.0755
 20
-0.1225
 30
32.3073
 70
192
 0
VERTEX
 8
CYLINDER
 10
-0.0955
 20
-0.1123
 30
32.3273
 70
192
 0
VERTEX
 8
CYLINDER
 10
0.0565
 20
-0.1506
 30
30.8786
 70
192
 0
VERTEX
 8
CYLINDER
 10
0.0765
 20
-0.1538
 30
30.8586
 70
192
 0
VERTEX
 8
CYLINDER
 10
0.0565
 20
-0.1506
 30
30.8986
 70
192
 0
VERTEX
 8
CYLINDER
 10
0.0765
 20
-0.1538
 30
30.9186
 70
192
 0
VERTEX
 8
CYLINDER
 10
0.0565
 20
-0.1506
 30
31.0781
 70
192
 0
VERTEX
 8
CYLINDER
 10
0.0765
 20
-0.1538
 30
31.0581
 70
192
 0
VERTEX
 8
CYLINDER
 10
0.0565
 20
-0.1506
 30
31.0981
 70
192
 0
VERTEX
 8
CYLINDER
 10
0.0765
 20
-0.1538
 30
31.1181
 70
192
 0
VERTEX
 8
CYLINDER
 10
0.0565
 20
-0.1506
 30
31.2655
 70
192
 0
VERTEX
 8
CYLINDER
 10
0.0765
 20
-0.1538
 30
31.2455
 70
192
 0
VERTEX
 8
CYLINDER
 10
0.0565
 20
-0.1506
 30
31.2855
 70
192
 0
VERTEX
 8
CYLINDER
 10
0.0765
 20
-0.1538
 30
31.3055
 70
192
 0
VERTEX
 8
CYLINDER
 10
-0.1355
 20
-0.0919
 30
31.2855
 70
192
 0
VERTEX
 8
CYLINDER
 10
0.0565
 20
-0.1506
 30
31.465
 70
192
 0
VERTEX
 8
CYLINDER
 10
0.0765
 20
-0.1538
 30
31.445
 70
192
 0
VERTEX
 8
CYLINDER
 10
0.0565
 20
-0.1506
 30
31.485
 70
192
 0
VERTEX
 8
CYLINDER
 10
0.0765
 20
-0.1538
 30
31.505
 70
192
 0
VERTEX
 8
CYLINDER
 10
0.0565
 20
-0.1506
 30
31.6764
 70
192
 0
VERTEX
 8
CYLINDER
 10
0.0765
 20
-0.1538
 30
31.6564
 70
192
 0
VERTEX
 8
CYLINDER
 10
0.0565
 20
-0.1506
 30
31.6964
 70
192
 0
VERTEX
 8
CYLINDER
 10
0.0765
 20
-0.1538
 30
31.7164
 70
192
 0
VERTEX
 8
CYLINDER
 10
0.0565
 20
-0.1506
 30
31.8839
 70
192
 0
VERTEX
 8
CYLINDER
 10
0.0765
 20
-0.1538
 30
31.8639
 70
192
 0
VERTEX
 8
CYLINDER
 10
0.0565
 20
-0.1506
 30
31.9039
 70
192
 0
VERTEX
 8
CYLINDER
 10
0.0765
 20
-0.1538
 30
31.9239
 70
192
 0
VERTEX
 8
CYLINDER
 10
0.0565
 20
-0.1506
 30
32.0953
 70
192
 0
VERTEX
 8
CYLINDER
 10
0.0765
 20
-0.1538
 30
32.0753
 70
192
 0
VERTEX
 8
CYLINDER
 10
0.0565
 20
-0.1506
 30
32.1153
 70
192
 0
VERTEX
 8
CYLINDER
 10
0.0765
 20
-0.1538
 30
32.1353
 70
192
 0
VERTEX
 8
CYLINDER
 10
0.0565
 20
-0.1506
 30
32.2873
 70
192
 0
VERTEX
 8
CYLINDER
 10
0.0765
 20
-0.1538
 30
32.2673
 70
192
 0
VERTEX
 8
CYLINDER
 10
0.0565
 20
-0.1506
 30
32.3073
 70
192
 0
VERTEX
 8
CYLINDER
 10
0.0765
 20
-0.1538
 30
32.3273
 70
192
 0
VERTEX
 8
CYLINDER
 10
0
 20
0
 30
0
 70
128
 71
247
 72
243
 73
79
 74
79
 0
VERTEX
 8
CYLINDER
 10
0
 20
0
 30
0
 70
128
 71
2
 72
3
 73
7
 74
6
 0
VERTEX
 8
CYLINDER
 10
0
 20
0
 30
0
 70
128
 71
85
 72
83
 73
109
 74
100
 0
VERTEX
 8
CYLINDER
 10
0
 20
0
 30
0
 70
128
 71
109
 72
104
 73
7
 74
7
 0
VERTEX
 8
CYLINDER
 10
0
 20
0
 30
0
 70
128
 71
109
 72
7
 73
99
 74
99
 0
VERTEX
 8
CYLINDER
 10
0
 20
0
 30
0
 70
128
 71
113
 72
104
 73
82
 74
92
 0
VERTEX
 8
CYLINDER
 10
0
 20
0
 30
0
 70
128
 71
104
 72
113
 73
7
 74
7
 0
VERTEX
 8
CYLINDER
 10
0
 20
0
 30
0
 70
128
 71
113
 72
103
 73
7
 74
7
 0
VERTEX
 8
CYLINDER
 10
0
 20
0
 30
0
 70
128
 71
103
 72
91
 73
90
 74
101
 0
VERTEX
 8
CYLINDER
 10
0
 20
0
 30
0
 70
128
 71
103
 72
101
 73
8
 74
7
 0
VERTEX
 8
CYLINDER
 10
0
 20
0
 30
0
 70
128
 71
101
 72
106
 73
8
 74
8
 0
VERTEX
 8
CYLINDER
 10
0
 20
0
 30
0
 70
128
 71
106
 72
96
 73
87
 74
105
 0
VERTEX
 8
CYLINDER
 10
0
 20
0
 30
0
 70
128
 71
106
 72
110
 73
8
 74
8
 0
VERTEX
 8
CYLINDER
 10
0
 20
0
 30
0
 70
128
 71
110
 72
95
 73
107
 74
8
 0
VERTEX
 8
CYLINDER
 10
0
 20
0
 30
0
 70
128
 71
95
 72
84
 73
107
 74
107
 0
VERTEX
 8
CYLINDER
 10
0
 20
0
 30
0
 70
128
 71
107
 72
108
 73
8
 74
8
 0
VERTEX
 8
CYLINDER
 10
0
 20
0
 30
0
 70
128
 71
108
 72
94
 73
93
 74
111
 0
VERTEX
 8
CYLINDER
 10
0
 20
0
 30
0
 70
128
 71
108
 72
111
 73
8
 74
8
 0
VERTEX
 8
CYLINDER
 10
0
 20
0
 30
0
 70
128
 71
111
 72
112
 73
8
 74
8
 0
VERTEX
 8
CYLINDER
 10
0
 20
0
 30
0
 70
128
 71
8
 72
112
 73
97
 74
4
 0
VERTEX
 8
CYLINDER
 10
0
 20
0
 30
0
 70
128
 71
7
 72
3
 73
89
 74
98
 0
VERTEX
 8
CYLINDER
 10
0
 20
0
 30
0
 70
128
 71
7
 72
98
 73
102
 74
102
 0
VERTEX
 8
CYLINDER
 10
0
 20
0
 30
0
 70
128
 71
99
 72
7
 73
102
 74
86
 0
VERTEX
 8
CYLINDER
 10
0
 20
0
 30
0
 70
128
 71
102
 72
88
 73
86
 74
86
 0
VERTEX
 8
CYLINDER
 10
0
 20
0
 30
0
 70
128
 71
12
 72
208
 73
150
 74
150
 0
VERTEX
 8
CYLINDER
 10
0
 20
0
 30
0
 70
128
 71
12
 72
150
 73
155
 74
157
 0
VERTEX
 8
CYLINDER
 10
0
 20
0
 30
0
 70
128
 71
12
 72
157
 73
164
 74
166
 0
VERTEX
 8
CYLINDER
 10
0
 20
0
 30
0
 70
128
 71
4
 72
5
 73
9
 74
8
 0
VERTEX
 8
CYLINDER
 10
0
 20
0
 30
0
 70
128
 71
5
 72
81
 73
1
 74
9
 0
VERTEX
 8
CYLINDER
 10
0
 20
0
 30
0
 70
128
 71
245
 72
246
 73
244
 74
243
 0
VERTEX
 8
CYLINDER
 10
0
 20
0
 30
0
 70
128
 71
6
 72
7
 73
11
 74
10
 0
VERTEX
 8
CYLINDER
 10
0
 20
0
 30
0
 70
128
 71
12
 72
166
 73
172
 74
174
 0
VERTEX
 8
CYLINDER
 10
0
 20
0
 30
0
 70
128
 71
12
 72
174
 73
175
 74
8
 0
VERTEX
 8
CYLINDER
 10
0
 20
0
 30
0
 70
128
 71
11
 72
7
 73
119
 74
118
 0
VERTEX
 8
CYLINDER
 10
0
 20
0
 30
0
 70
128
 71
11
 72
118
 73
120
 74
120
 0
VERTEX
 8
CYLINDER
 10
0
 20
0
 30
0
 70
128
 71
11
 72
120
 73
126
 74
126
 0
VERTEX
 8
CYLINDER
 10
0
 20
0
 30
0
 70
128
 71
11
 72
126
 73
127
 74
127
 0
VERTEX
 8
CYLINDER
 10
0
 20
0
 30
0
 70
128
 71
11
 72
127
 73
132
 74
132
 0
VERTEX
 8
CYLINDER
 10
0
 20
0
 30
0
 70
128
 71
11
 72
132
 73
134
 74
134
 0
VERTEX
 8
CYLINDER
 10
0
 20
0
 30
0
 70
128
 71
11
 72
134
 73
142
 74
143
 0
VERTEX
 8
CYLINDER
 10
0
 20
0
 30
0
 70
128
 71
139
 72
7
 73
8
 74
145
 0
VERTEX
 8
CYLINDER
 10
0
 20
0
 30
0
 70
128
 71
7
 72
139
 73
137
 74
130
 0
VERTEX
 8
CYLINDER
 10
0
 20
0
 30
0
 70
128
 71
7
 72
130
 73
129
 74
124
 0
VERTEX
 8
CYLINDER
 10
0
 20
0
 30
0
 70
128
 71
7
 72
124
 73
122
 74
116
 0
VERTEX
 8
CYLINDER
 10
0
 20
0
 30
0
 70
128
 71
7
 72
116
 73
114
 74
114
 0
VERTEX
 8
CYLINDER
 10
0
 20
0
 30
0
 70
128
 71
7
 72
114
 73
115
 74
115
 0
VERTEX
 8
CYLINDER
 10
0
 20
0
 30
0
 70
128
 71
7
 72
115
 73
119
 74
119
 0
VERTEX
 8
CYLINDER
 10
0
 20
0
 30
0
 70
128
 71
8
 72
175
 73
171
 74
171
 0
VERTEX
 8
CYLINDER
 10
0
 20
0
 30
0
 70
128
 71
8
 72
171
 73
170
 74
170
 0
VERTEX
 8
CYLINDER
 10
0
 20
0
 30
0
 70
128
 71
8
 72
170
 73
168
 74
162
 0
VERTEX
 8
CYLINDER
 10
0
 20
0
 30
0
 70
128
 71
8
 72
162
 73
160
 74
160
 0
VERTEX
 8
CYLINDER
 10
0
 20
0
 30
0
 70
128
 71
8
 72
160
 73
153
 74
153
 0
VERTEX
 8
CYLINDER
 10
0
 20
0
 30
0
 70
128
 71
8
 72
153
 73
152
 74
147
 0
VERTEX
 8
CYLINDER
 10
0
 20
0
 30
0
 70
128
 71
8
 72
147
 73
145
 74
145
 0
VERTEX
 8
CYLINDER
 10
0
 20
0
 30
0
 70
128
 71
140
 72
139
 73
145
 74
146
 0
VERTEX
 8
CYLINDER
 10
0
 20
0
 30
0
 70
128
 71
130
 72
137
 73
138
 74
131
 0
VERTEX
 8
CYLINDER
 10
0
 20
0
 30
0
 70
128
 71
131
 72
138
 73
141
 74
135
 0
VERTEX
 8
CYLINDER
 10
0
 20
0
 30
0
 70
128
 71
135
 72
141
 73
142
 74
134
 0
VERTEX
 8
CYLINDER
 10
0
 20
0
 30
0
 70
128
 71
143
 72
144
 73
149
 74
208
 0
VERTEX
 8
CYLINDER
 10
0
 20
0
 30
0
 70
128
 71
144
 72
140
 73
146
 74
149
 0
VERTEX
 8
CYLINDER
 10
0
 20
0
 30
0
 70
128
 71
155
 72
150
 73
151
 74
156
 0
VERTEX
 8
CYLINDER
 10
0
 20
0
 30
0
 70
128
 71
156
 72
151
 73
148
 74
159
 0
VERTEX
 8
CYLINDER
 10
0
 20
0
 30
0
 70
128
 71
159
 72
148
 73
147
 74
152
 0
VERTEX
 8
CYLINDER
 10
0
 20
0
 30
0
 70
128
 71
164
 72
157
 73
158
 74
165
 0
VERTEX
 8
CYLINDER
 10
0
 20
0
 30
0
 70
128
 71
165
 72
158
 73
154
 74
161
 0
VERTEX
 8
CYLINDER
 10
0
 20
0
 30
0
 70
128
 71
160
 72
161
 73
154
 74
153
 0
VERTEX
 8
CYLINDER
 10
0
 20
0
 30
0
 70
128
 71
12
 72
11
 73
143
 74
208
 0
VERTEX
 8
CYLINDER
 10
0
 20
0
 30
0
 70
128
 71
163
 72
162
 73
168
 74
169
 0
VERTEX
 8
CYLINDER
 10
0
 20
0
 30
0
 70
128
 71
172
 72
166
 73
167
 74
173
 0
VERTEX
 8
CYLINDER
 10
0
 20
0
 30
0
 70
128
 71
173
 72
167
 73
163
 74
169
 0
VERTEX
 8
CYLINDER
 10
0
 20
0
 30
0
 70
128
 71
117
 72
116
 73
122
 74
123
 0
VERTEX
 8
CYLINDER
 10
0
 20
0
 30
0
 70
128
 71
120
 72
121
 73
184
 74
126
 0
VERTEX
 8
CYLINDER
 10
0
 20
0
 30
0
 70
128
 71
121
 72
117
 73
123
 74
184
 0
VERTEX
 8
CYLINDER
 10
0
 20
0
 30
0
 70
128
 71
125
 72
124
 73
129
 74
136
 0
VERTEX
 8
CYLINDER
 10
0
 20
0
 30
0
 70
128
 71
127
 72
128
 73
133
 74
132
 0
VERTEX
 8
CYLINDER
 10
0
 20
0
 30
0
 70
128
 71
128
 72
125
 73
136
 74
133
 0
VERTEX
 8
CYLINDER
 10
0
 20
0
 30
0
 70
128
 71
80
 72
213
 73
215
 74
222
 0
VERTEX
 8
CYLINDER
 10
0
 20
0
 30
0
 70
128
 71
80
 72
222
 73
221
 74
221
 0
VERTEX
 8
CYLINDER
 10
0
 20
0
 30
0
 70
128
 71
80
 72
221
 73
230
 74
230
 0
VERTEX
 8
CYLINDER
 10
0
 20
0
 30
0
 70
128
 71
80
 72
230
 73
231
 74
231
 0
VERTEX
 8
CYLINDER
 10
0
 20
0
 30
0
 70
128
 71
80
 72
231
 73
238
 74
238
 0
VERTEX
 8
CYLINDER
 10
0
 20
0
 30
0
 70
128
 71
8
 72
9
 73
13
 74
12
 0
VERTEX
 8
CYLINDER
 10
0
 20
0
 30
0
 70
128
 71
9
 72
1
 73
17
 74
13
 0
VERTEX
 8
CYLINDER
 10
0
 20
0
 30
0
 70
128
 71
10
 72
11
 73
15
 74
14
 0
VERTEX
 8
CYLINDER
 10
0
 20
0
 30
0
 70
128
 71
11
 72
12
 73
16
 74
15
 0
VERTEX
 8
CYLINDER
 10
0
 20
0
 30
0
 70
128
 71
12
 72
13
 73
17
 74
16
 0
VERTEX
 8
CYLINDER
 10
0
 20
0
 30
0
 70
128
 71
246
 72
86
 73
88
 74
244
 0
VERTEX
 8
CYLINDER
 10
0
 20
0
 30
0
 70
128
 71
14
 72
15
 73
19
 74
18
 0
VERTEX
 8
CYLINDER
 10
0
 20
0
 30
0
 70
128
 71
15
 72
16
 73
20
 74
19
 0
VERTEX
 8
CYLINDER
 10
0
 20
0
 30
0
 70
128
 71
16
 72
17
 73
21
 74
20
 0
VERTEX
 8
CYLINDER
 10
0
 20
0
 30
0
 70
128
 71
17
 72
1
 73
25
 74
21
 0
VERTEX
 8
CYLINDER
 10
0
 20
0
 30
0
 70
128
 71
18
 72
19
 73
23
 74
22
 0
VERTEX
 8
CYLINDER
 10
0
 20
0
 30
0
 70
128
 71
19
 72
20
 73
24
 74
23
 0
VERTEX
 8
CYLINDER
 10
0
 20
0
 30
0
 70
128
 71
20
 72
21
 73
25
 74
24
 0
VERTEX
 8
CYLINDER
 10
0
 20
0
 30
0
 70
128
 71
243
 72
241
 73
79
 74
79
 0
VERTEX
 8
CYLINDER
 10
0
 20
0
 30
0
 70
128
 71
22
 72
23
 73
27
 74
26
 0
VERTEX
 8
CYLINDER
 10
0
 20
0
 30
0
 70
128
 71
23
 72
24
 73
28
 74
27
 0
VERTEX
 8
CYLINDER
 10
0
 20
0
 30
0
 70
128
 71
24
 72
25
 73
29
 74
28
 0
VERTEX
 8
CYLINDER
 10
0
 20
0
 30
0
 70
128
 71
25
 72
1
 73
33
 74
29
 0
VERTEX
 8
CYLINDER
 10
0
 20
0
 30
0
 70
128
 71
26
 72
27
 73
31
 74
30
 0
VERTEX
 8
CYLINDER
 10
0
 20
0
 30
0
 70
128
 71
27
 72
28
 73
32
 74
31
 0
VERTEX
 8
CYLINDER
 10
0
 20
0
 30
0
 70
128
 71
28
 72
29
 73
33
 74
32
 0
VERTEX
 8
CYLINDER
 10
0
 20
0
 30
0
 70
128
 71
79
 72
241
 73
242
 74
3
 0
VERTEX
 8
CYLINDER
 10
0
 20
0
 30
0
 70
128
 71
30
 72
31
 73
35
 74
34
 0
VERTEX
 8
CYLINDER
 10
0
 20
0
 30
0
 70
128
 71
31
 72
32
 73
36
 74
35
 0
VERTEX
 8
CYLINDER
 10
0
 20
0
 30
0
 70
128
 71
32
 72
33
 73
37
 74
36
 0
VERTEX
 8
CYLINDER
 10
0
 20
0
 30
0
 70
128
 71
33
 72
1
 73
41
 74
37
 0
VERTEX
 8
CYLINDER
 10
0
 20
0
 30
0
 70
128
 71
34
 72
35
 73
39
 74
38
 0
VERTEX
 8
CYLINDER
 10
0
 20
0
 30
0
 70
128
 71
35
 72
36
 73
40
 74
39
 0
VERTEX
 8
CYLINDER
 10
0
 20
0
 30
0
 70
128
 71
36
 72
37
 73
41
 74
40
 0
VERTEX
 8
CYLINDER
 10
0
 20
0
 30
0
 70
128
 71
242
 72
89
 73
3
 74
3
 0
VERTEX
 8
CYLINDER
 10
0
 20
0
 30
0
 70
128
 71
38
 72
39
 73
43
 74
42
 0
VERTEX
 8
CYLINDER
 10
0
 20
0
 30
0
 70
128
 71
39
 72
40
 73
44
 74
43
 0
VERTEX
 8
CYLINDER
 10
0
 20
0
 30
0
 70
128
 71
40
 72
41
 73
45
 74
44
 0
VERTEX
 8
CYLINDER
 10
0
 20
0
 30
0
 70
128
 71
41
 72
1
 73
49
 74
45
 0
VERTEX
 8
CYLINDER
 10
0
 20
0
 30
0
 70
128
 71
42
 72
43
 73
47
 74
46
 0
VERTEX
 8
CYLINDER
 10
0
 20
0
 30
0
 70
128
 71
43
 72
44
 73
48
 74
47
 0
VERTEX
 8
CYLINDER
 10
0
 20
0
 30
0
 70
128
 71
44
 72
45
 73
49
 74
48
 0
VERTEX
 8
CYLINDER
 10
0
 20
0
 30
0
 70
128
 71
80
 72
4
 73
273
 74
272
 0
VERTEX
 8
CYLINDER
 10
0
 20
0
 30
0
 70
128
 71
46
 72
47
 73
51
 74
50
 0
VERTEX
 8
CYLINDER
 10
0
 20
0
 30
0
 70
128
 71
47
 72
48
 73
52
 74
51
 0
VERTEX
 8
CYLINDER
 10
0
 20
0
 30
0
 70
128
 71
48
 72
49
 73
53
 74
52
 0
VERTEX
 8
CYLINDER
 10
0
 20
0
 30
0
 70
128
 71
49
 72
1
 73
57
 74
53
 0
VERTEX
 8
CYLINDER
 10
0
 20
0
 30
0
 70
128
 71
50
 72
51
 73
55
 74
54
 0
VERTEX
 8
CYLINDER
 10
0
 20
0
 30
0
 70
128
 71
51
 72
52
 73
56
 74
55
 0
VERTEX
 8
CYLINDER
 10
0
 20
0
 30
0
 70
128
 71
52
 72
53
 73
57
 74
56
 0
VERTEX
 8
CYLINDER
 10
0
 20
0
 30
0
 70
128
 71
80
 72
272
 73
270
 74
270
 0
VERTEX
 8
CYLINDER
 10
0
 20
0
 30
0
 70
128
 71
54
 72
55
 73
59
 74
58
 0
VERTEX
 8
CYLINDER
 10
0
 20
0
 30
0
 70
128
 71
55
 72
56
 73
60
 74
59
 0
VERTEX
 8
CYLINDER
 10
0
 20
0
 30
0
 70
128
 71
56
 72
57
 73
61
 74
60
 0
VERTEX
 8
CYLINDER
 10
0
 20
0
 30
0
 70
128
 71
57
 72
1
 73
65
 74
61
 0
VERTEX
 8
CYLINDER
 10
0
 20
0
 30
0
 70
128
 71
58
 72
59
 73
63
 74
62
 0
VERTEX
 8
CYLINDER
 10
0
 20
0
 30
0
 70
128
 71
59
 72
60
 73
64
 74
63
 0
VERTEX
 8
CYLINDER
 10
0
 20
0
 30
0
 70
128
 71
60
 72
61
 73
65
 74
64
 0
VERTEX
 8
CYLINDER
 10
0
 20
0
 30
0
 70
128
 71
4
 72
97
 73
273
 74
273
 0
VERTEX
 8
CYLINDER
 10
0
 20
0
 30
0
 70
128
 71
62
 72
63
 73
67
 74
66
 0
VERTEX
 8
CYLINDER
 10
0
 20
0
 30
0
 70
128
 71
63
 72
64
 73
68
 74
67
 0
VERTEX
 8
CYLINDER
 10
0
 20
0
 30
0
 70
128
 71
64
 72
65
 73
69
 74
68
 0
VERTEX
 8
CYLINDER
 10
0
 20
0
 30
0
 70
128
 71
65
 72
1
 73
73
 74
69
 0
VERTEX
 8
CYLINDER
 10
0
 20
0
 30
0
 70
128
 71
66
 72
67
 73
71
 74
70
 0
VERTEX
 8
CYLINDER
 10
0
 20
0
 30
0
 70
128
 71
67
 72
68
 73
72
 74
71
 0
VERTEX
 8
CYLINDER
 10
0
 20
0
 30
0
 70
128
 71
68
 72
69
 73
73
 74
72
 0
VERTEX
 8
CYLINDER
 10
0
 20
0
 30
0
 70
128
 71
80
 72
81
 73
5
 74
4
 0
VERTEX
 8
CYLINDER
 10
0
 20
0
 30
0
 70
128
 71
70
 72
71
 73
75
 74
74
 0
VERTEX
 8
CYLINDER
 10
0
 20
0
 30
0
 70
128
 71
71
 72
72
 73
76
 74
75
 0
VERTEX
 8
CYLINDER
 10
0
 20
0
 30
0
 70
128
 71
72
 72
73
 73
77
 74
76
 0
VERTEX
 8
CYLINDER
 10
0
 20
0
 30
0
 70
128
 71
73
 72
1
 73
81
 74
77
 0
VERTEX
 8
CYLINDER
 10
0
 20
0
 30
0
 70
128
 71
74
 72
75
 73
79
 74
78
 0
VERTEX
 8
CYLINDER
 10
0
 20
0
 30
0
 70
128
 71
80
 72
238
 73
239
 74
239
 0
VERTEX
 8
CYLINDER
 10
0
 20
0
 30
0
 70
128
 71
80
 72
239
 73
240
 74
240
 0
VERTEX
 8
CYLINDER
 10
0
 20
0
 30
0
 70
128
 71
80
 72
79
 73
207
 74
213
 0
VERTEX
 8
CYLINDER
 10
0
 20
0
 30
0
 70
128
 71
80
 72
240
 73
236
 74
236
 0
VERTEX
 8
CYLINDER
 10
0
 20
0
 30
0
 70
128
 71
76
 72
80
 73
236
 74
235
 0
VERTEX
 8
CYLINDER
 10
0
 20
0
 30
0
 70
128
 71
177
 72
79
 73
75
 74
176
 0
VERTEX
 8
CYLINDER
 10
0
 20
0
 30
0
 70
128
 71
79
 72
177
 73
181
 74
181
 0
VERTEX
 8
CYLINDER
 10
0
 20
0
 30
0
 70
128
 71
79
 72
181
 73
180
 74
180
 0
VERTEX
 8
CYLINDER
 10
0
 20
0
 30
0
 70
128
 71
79
 72
180
 73
182
 74
182
 0
VERTEX
 8
CYLINDER
 10
0
 20
0
 30
0
 70
128
 71
79
 72
182
 73
189
 74
191
 0
VERTEX
 8
CYLINDER
 10
0
 20
0
 30
0
 70
128
 71
79
 72
191
 73
196
 74
198
 0
VERTEX
 8
CYLINDER
 10
0
 20
0
 30
0
 70
128
 71
79
 72
198
 73
205
 74
205
 0
VERTEX
 8
CYLINDER
 10
0
 20
0
 30
0
 70
128
 71
79
 72
205
 73
207
 74
207
 0
VERTEX
 8
CYLINDER
 10
0
 20
0
 30
0
 70
128
 71
202
 72
75
 73
76
 74
210
 0
VERTEX
 8
CYLINDER
 10
0
 20
0
 30
0
 70
128
 71
75
 72
202
 73
200
 74
253
 0
VERTEX
 8
CYLINDER
 10
0
 20
0
 30
0
 70
128
 71
75
 72
253
 73
193
 74
186
 0
VERTEX
 8
CYLINDER
 10
0
 20
0
 30
0
 70
128
 71
75
 72
186
 73
187
 74
178
 0
VERTEX
 8
CYLINDER
 10
0
 20
0
 30
0
 70
128
 71
75
 72
178
 73
176
 74
176
 0
VERTEX
 8
CYLINDER
 10
0
 20
0
 30
0
 70
128
 71
76
 72
235
 73
233
 74
227
 0
VERTEX
 8
CYLINDER
 10
0
 20
0
 30
0
 70
128
 71
76
 72
227
 73
225
 74
219
 0
VERTEX
 8
CYLINDER
 10
0
 20
0
 30
0
 70
128
 71
76
 72
219
 73
217
 74
212
 0
VERTEX
 8
CYLINDER
 10
0
 20
0
 30
0
 70
128
 71
76
 72
212
 73
210
 74
210
 0
VERTEX
 8
CYLINDER
 10
0
 20
0
 30
0
 70
128
 71
213
 72
207
 73
206
 74
214
 0
VERTEX
 8
CYLINDER
 10
0
 20
0
 30
0
 70
128
 71
222
 72
215
 73
216
 74
220
 0
VERTEX
 8
CYLINDER
 10
0
 20
0
 30
0
 70
128
 71
220
 72
216
 73
211
 74
218
 0
VERTEX
 8
CYLINDER
 10
0
 20
0
 30
0
 70
128
 71
218
 72
211
 73
212
 74
217
 0
VERTEX
 8
CYLINDER
 10
0
 20
0
 30
0
 70
128
 71
210
 72
209
 73
203
 74
202
 0
VERTEX
 8
CYLINDER
 10
0
 20
0
 30
0
 70
128
 71
209
 72
214
 73
206
 74
203
 0
VERTEX
 8
CYLINDER
 10
0
 20
0
 30
0
 70
128
 71
179
 72
178
 73
187
 74
185
 0
VERTEX
 8
CYLINDER
 10
0
 20
0
 30
0
 70
128
 71
182
 72
183
 73
190
 74
189
 0
VERTEX
 8
CYLINDER
 10
0
 20
0
 30
0
 70
128
 71
183
 72
179
 73
185
 74
190
 0
VERTEX
 8
CYLINDER
 10
0
 20
0
 30
0
 70
128
 71
253
 72
200
 73
201
 74
195
 0
VERTEX
 8
CYLINDER
 10
0
 20
0
 30
0
 70
128
 71
193
 72
194
 73
188
 74
186
 0
VERTEX
 8
CYLINDER
 10
0
 20
0
 30
0
 70
128
 71
194
 72
197
 73
192
 74
188
 0
VERTEX
 8
CYLINDER
 10
0
 20
0
 30
0
 70
128
 71
197
 72
196
 73
191
 74
192
 0
VERTEX
 8
CYLINDER
 10
0
 20
0
 30
0
 70
128
 71
205
 72
198
 73
199
 74
204
 0
VERTEX
 8
CYLINDER
 10
0
 20
0
 30
0
 70
128
 71
204
 72
199
 73
195
 74
201
 0
VERTEX
 8
CYLINDER
 10
0
 20
0
 30
0
 70
128
 71
229
 72
230
 73
221
 74
223
 0
VERTEX
 8
CYLINDER
 10
0
 20
0
 30
0
 70
128
 71
238
 72
231
 73
232
 74
237
 0
VERTEX
 8
CYLINDER
 10
0
 20
0
 30
0
 70
128
 71
237
 72
232
 73
228
 74
234
 0
VERTEX
 8
CYLINDER
 10
0
 20
0
 30
0
 70
128
 71
234
 72
228
 73
227
 74
233
 0
VERTEX
 8
CYLINDER
 10
0
 20
0
 30
0
 70
128
 71
225
 72
226
 73
224
 74
219
 0
VERTEX
 8
CYLINDER
 10
0
 20
0
 30
0
 70
128
 71
226
 72
229
 73
223
 74
224
 0
VERTEX
 8
CYLINDER
 10
0
 20
0
 30
0
 70
128
 71
271
 72
269
 73
270
 74
270
 0
VERTEX
 8
CYLINDER
 10
0
 20
0
 30
0
 70
128
 71
270
 72
269
 73
268
 74
80
 0
VERTEX
 8
CYLINDER
 10
0
 20
0
 30
0
 70
128
 71
268
 72
264
 73
80
 74
80
 0
VERTEX
 8
CYLINDER
 10
0
 20
0
 30
0
 70
128
 71
264
 72
266
 73
267
 74
265
 0
VERTEX
 8
CYLINDER
 10
0
 20
0
 30
0
 70
128
 71
265
 72
267
 73
84
 74
95
 0
VERTEX
 8
CYLINDER
 10
0
 20
0
 30
0
 70
128
 71
264
 72
262
 73
80
 74
80
 0
VERTEX
 8
CYLINDER
 10
0
 20
0
 30
0
 70
128
 71
262
 72
263
 73
261
 74
261
 0
VERTEX
 8
CYLINDER
 10
0
 20
0
 30
0
 70
128
 71
76
 72
77
 73
81
 74
80
 0
VERTEX
 8
CYLINDER
 10
0
 20
0
 30
0
 70
128
 71
78
 72
79
 73
3
 74
2
 0
VERTEX
 8
CYLINDER
 10
0
 20
0
 30
0
 70
128
 71
262
 72
261
 73
260
 74
80
 0
VERTEX
 8
CYLINDER
 10
0
 20
0
 30
0
 70
128
 71
263
 72
87
 73
96
 74
261
 0
VERTEX
 8
CYLINDER
 10
0
 20
0
 30
0
 70
128
 71
271
 72
93
 73
94
 74
269
 0
VERTEX
 8
CYLINDER
 10
0
 20
0
 30
0
 70
128
 71
260
 72
258
 73
80
 74
80
 0
VERTEX
 8
CYLINDER
 10
0
 20
0
 30
0
 70
128
 71
258
 72
259
 73
257
 74
256
 0
VERTEX
 8
CYLINDER
 10
0
 20
0
 30
0
 70
128
 71
80
 72
258
 73
256
 74
79
 0
VERTEX
 8
CYLINDER
 10
0
 20
0
 30
0
 70
128
 71
259
 72
90
 73
91
 74
257
 0
VERTEX
 8
CYLINDER
 10
0
 20
0
 30
0
 70
128
 71
256
 72
251
 73
79
 74
79
 0
VERTEX
 8
CYLINDER
 10
0
 20
0
 30
0
 70
128
 71
251
 72
254
 73
255
 74
252
 0
VERTEX
 8
CYLINDER
 10
0
 20
0
 30
0
 70
128
 71
252
 72
255
 73
92
 74
82
 0
VERTEX
 8
CYLINDER
 10
0
 20
0
 30
0
 70
128
 71
251
 72
249
 73
79
 74
79
 0
VERTEX
 8
CYLINDER
 10
0
 20
0
 30
0
 70
128
 71
249
 72
250
 73
247
 74
79
 0
VERTEX
 8
CYLINDER
 10
0
 20
0
 30
0
 70
128
 71
248
 72
250
 73
83
 74
85
 0
VERTEX
 8
CYLINDER
 10
0
 20
0
 30
0
 70
128
 71
250
 72
248
 73
247
 74
247
 0
SEQEND
 0
POLYLINE
 8
CYLINDER_1
 66
1
 10
0.0
 20
0.0
 30
0.0
 70
64
 71
81
 72
80
 0
VERTEX
 8
CYLINDER_1
 10
0.086
 20
0.3045
 30
25.1303
 70
192
 0
VERTEX
 8
CYLINDER_1
 10
0.086
 20
-0.1275
 30
25.1303
 70
192
 0
VERTEX
 8
CYLINDER_1
 10
0.086
 20
-0.1555
 30
25.1583
 70
192
 0
VERTEX
 8
CYLINDER_1
 10
0.086
 20
-0.1555
 30
30.3023
 70
192
 0
VERTEX
 8
CYLINDER_1
 10
0.086
 20
-0.1275
 30
30.3303
 70
192
 0
VERTEX
 8
CYLINDER_1
 10
0.2195
 20
-0.1063
 30
25.1303
 70
192
 0
VERTEX
 8
CYLINDER_1
 10
0.2281
 20
-0.1329
 30
25.1583
 70
192
 0
VERTEX
 8
CYLINDER_1
 10
0.2281
 20
-0.1329
 30
30.3023
 70
192
 0
VERTEX
 8
CYLINDER_1
 10
0.2195
 20
-0.1063
 30
30.3303
 70
192
 0
VERTEX
 8
CYLINDER_1
 10
0.3399
 20
-0.045
 30
25.1303
 70
192
 0
VERTEX
 8
CYLINDER_1
 10
0.3564
 20
-0.0676
 30
25.1583
 70
192
 0
VERTEX
 8
CYLINDER_1
 10
0.3564
 20
-0.0676
 30
30.3023
 70
192
 0
VERTEX
 8
CYLINDER_1
 10
0.3399
 20
-0.045
 30
30.3303
 70
192
 0
VERTEX
 8
CYLINDER_1
 10
0.4355
 20
0.0506
 30
25.1303
 70
192
 0
VERTEX
 8
CYLINDER_1
 10
0.4581
 20
0.0342
 30
25.1583
 70
192
 0
VERTEX
 8
CYLINDER_1
 10
0.4581
 20
0.0342
 30
30.3023
 70
192
 0
VERTEX
 8
CYLINDER_1
 10
0.4355
 20
0.0506
 30
30.3303
 70
192
 0
VERTEX
 8
CYLINDER_1
 10
0.4968
 20
0.171
 30
25.1303
 70
192
 0
VERTEX
 8
CYLINDER_1
 10
0.5235
 20
0.1624
 30
25.1583
 70
192
 0
VERTEX
 8
CYLINDER_1
 10
0.5235
 20
0.1624
 30
30.3023
 70
192
 0
VERTEX
 8
CYLINDER_1
 10
0.4968
 20
0.171
 30
30.3303
 70
192
 0
VERTEX
 8
CYLINDER_1
 10
0.518
 20
0.3045
 30
25.1303
 70
192
 0
VERTEX
 8
CYLINDER_1
 10
0.546
 20
0.3045
 30
25.1583
 70
192
 0
VERTEX
 8
CYLINDER_1
 10
0.546
 20
0.3045
 30
30.3023
 70
192
 0
VERTEX
 8
CYLINDER_1
 10
0.518
 20
0.3045
 30
30.3303
 70
192
 0
VERTEX
 8
CYLINDER_1
 10
0.4968
 20
0.438
 30
25.1303
 70
192
 0
VERTEX
 8
CYLINDER_1
 10
0.5235
 20
0.4467
 30
25.1583
 70
192
 0
VERTEX
 8
CYLINDER_1
 10
0.5235
 20
0.4467
 30
30.3023
 70
192
 0
VERTEX
 8
CYLINDER_1
 10
0.4968
 20
0.438
 30
30.3303
 70
192
 0
VERTEX
 8
CYLINDER_1
 10
0.4355
 20
0.5585
 30
25.1303
 70
192
 0
VERTEX
 8
CYLINDER_1
 10
0.4581
 20
0.5749
 30
25.1583
 70
192
 0
VERTEX
 8
CYLINDER_1
 10
0.4581
 20
0.5749
 30
30.3023
 70
192
 0
VERTEX
 8
CYLINDER_1
 10
0.4355
 20
0.5585
 30
30.3303
 70
192
 0
VERTEX
 8
CYLINDER_1
 10
0.3399
 20
0.654
 30
25.1303
 70
192
 0
VERTEX
 8
CYLINDER_1
 10
0.3564
 20
0.6767
 30
25.1583
 70
192
 0
VERTEX
 8
CYLINDER_1
 10
0.3564
 20
0.6767
 30
30.3023
 70
192
 0
VERTEX
 8
CYLINDER_1
 10
0.3399
 20
0.654
 30
30.3303
 70
192
 0
VERTEX
 8
CYLINDER_1
 10
0.2195
 20
0.7154
 30
25.1303
 70
192
 0
VERTEX
 8
CYLINDER_1
 10
0.2281
 20
0.742
 30
25.1583
 70
192
 0
VERTEX
 8
CYLINDER_1
 10
0.2281
 20
0.742
 30
30.3023
 70
192
 0
VERTEX
 8
CYLINDER_1
 10
0.2195
 20
0.7154
 30
30.3303
 70
192
 0
VERTEX
 8
CYLINDER_1
 10
0.086
 20
0.7365
 30
25.1303
 70
192
 0
VERTEX
 8
CYLINDER_1
 10
0.086
 20
0.7645
 30
25.1583
 70
192
 0
VERTEX
 8
CYLINDER_1
 10
0.086
 20
0.7645
 30
30.3023
 70
192
 0
VERTEX
 8
CYLINDER_1
 10
0.086
 20
0.7365
 30
30.3303
 70
192
 0
VERTEX
 8
CYLINDER_1
 10
-0.0475
 20
0.7154
 30
25.1303
 70
192
 0
VERTEX
 8
CYLINDER_1
 10
-0.0562
 20
0.742
 30
25.1583
 70
192
 0
VERTEX
 8
CYLINDER_1
 10
-0.0562
 20
0.742
 30
30.3023
 70
192
 0
VERTEX
 8
CYLINDER_1
 10
-0.0475
 20
0.7154
 30
30.3303
 70
192
 0
VERTEX
 8
CYLINDER_1
 10
-0.1679
 20
0.654
 30
25.1303
 70
192
 0
VERTEX
 8
CYLINDER_1
 10
-0.1844
 20
0.6767
 30
25.1583
 70
192
 0
VERTEX
 8
CYLINDER_1
 10
-0.1844
 20
0.6767
 30
30.3023
 70
192
 0
VERTEX
 8
CYLINDER_1
 10
-0.1679
 20
0.654
 30
30.3303
 70
192
 0
VERTEX
 8
CYLINDER_1
 10
-0.2635
 20
0.5585
 30
25.1303
 70
192
 0
VERTEX
 8
CYLINDER_1
 10
-0.2862
 20
0.5749
 30
25.1583
 70
192
 0
VERTEX
 8
CYLINDER_1
 10
-0.2862
 20
0.5749
 30
30.3023
 70
192
 0
VERTEX
 8
CYLINDER_1
 10
-0.2635
 20
0.5585
 30
30.3303
 70
192
 0
VERTEX
 8
CYLINDER_1
 10
-0.3249
 20
0.438
 30
25.1303
 70
192
 0
VERTEX
 8
CYLINDER_1
 10
-0.3515
 20
0.4467
 30
25.1583
 70
192
 0
VERTEX
 8
CYLINDER_1
 10
-0.3515
 20
0.4467
 30
30.3023
 70
192
 0
VERTEX
 8
CYLINDER_1
 10
-0.3249
 20
0.438
 30
30.3303
 70
192
 0
VERTEX
 8
CYLINDER_1
 10
-0.346
 20
0.3045
 30
25.1303
 70
192
 0
VERTEX
 8
CYLINDER_1
 10
-0.374
 20
0.3045
 30
25.1583
 70
192
 0
VERTEX
 8
CYLINDER_1
 10
-0.374
 20
0.3045
 30
30.3023
 70
192
 0
VERTEX
 8
CYLINDER_1
 10
-0.346
 20
0.3045
 30
30.3303
 70
192
 0
VERTEX
 8
CYLINDER_1
 10
-0.3249
 20
0.171
 30
25.1303
 70
192
 0
VERTEX
 8
CYLINDER_1
 10
-0.3515
 20
0.1624
 30
25.1583
 70
192
 0
VERTEX
 8
CYLINDER_1
 10
-0.3515
 20
0.1624
 30
30.3023
 70
192
 0
VERTEX
 8
CYLINDER_1
 10
-0.3249
 20
0.171
 30
30.3303
 70
192
 0
VERTEX
 8
CYLINDER_1
 10
-0.2635
 20
0.0506
 30
25.1303
 70
192
 0
VERTEX
 8
CYLINDER_1
 10
-0.2862
 20
0.0342
 30
25.1583
 70
192
 0
VERTEX
 8
CYLINDER_1
 10
-0.2862
 20
0.0342
 30
30.3023
 70
192
 0
VERTEX
 8
CYLINDER_1
 10
-0.2635
 20
0.0506
 30
30.3303
 70
192
 0
VERTEX
 8
CYLINDER_1
 10
-0.1679
 20
-0.045
 30
25.1303
 70
192
 0
VERTEX
 8
CYLINDER_1
 10
-0.1844
 20
-0.0676
 30
25.1583
 70
192
 0
VERTEX
 8
CYLINDER_1
 10
-0.1844
 20
-0.0676
 30
30.3023
 70
192
 0
VERTEX
 8
CYLINDER_1
 10
-0.1679
 20
-0.045
 30
30.3303
 70
192
 0
VERTEX
 8
CYLINDER_1
 10
-0.0475
 20
-0.1063
 30
25.1303
 70
192
 0
VERTEX
 8
CYLINDER_1
 10
-0.0562
 20
-0.1329
 30
25.1583
 70
192
 0
VERTEX
 8
CYLINDER_1
 10
-0.0562
 20
-0.1329
 30
30.3023
 70
192
 0
VERTEX
 8
CYLINDER_1
 10
-0.0475
 20
-0.1063
 30
30.3303
 70
192
 0
VERTEX
 8
CYLINDER_1
 10
0
 20
0
 30
0
 70
128
 71
1
 72
2
 73
6
 74
6
 0
VERTEX
 8
CYLINDER_1
 10
0
 20
0
 30
0
 70
128
 71
2
 72
3
 73
7
 74
6
 0
VERTEX
 8
CYLINDER_1
 10
0
 20
0
 30
0
 70
128
 71
3
 72
4
 73
8
 74
7
 0
VERTEX
 8
CYLINDER_1
 10
0
 20
0
 30
0
 70
128
 71
4
 72
5
 73
9
 74
8
 0
VERTEX
 8
CYLINDER_1
 10
0
 20
0
 30
0
 70
128
 71
1
 72
66
 73
70
 74
70
 0
VERTEX
 8
CYLINDER_1
 10
0
 20
0
 30
0
 70
128
 71
1
 72
6
 73
10
 74
10
 0
VERTEX
 8
CYLINDER_1
 10
0
 20
0
 30
0
 70
128
 71
6
 72
7
 73
11
 74
10
 0
VERTEX
 8
CYLINDER_1
 10
0
 20
0
 30
0
 70
128
 71
7
 72
8
 73
12
 74
11
 0
VERTEX
 8
CYLINDER_1
 10
0
 20
0
 30
0
 70
128
 71
8
 72
9
 73
13
 74
12
 0
VERTEX
 8
CYLINDER_1
 10
0
 20
0
 30
0
 70
128
 71
66
 72
67
 73
71
 74
70
 0
VERTEX
 8
CYLINDER_1
 10
0
 20
0
 30
0
 70
128
 71
1
 72
10
 73
14
 74
14
 0
VERTEX
 8
CYLINDER_1
 10
0
 20
0
 30
0
 70
128
 71
10
 72
11
 73
15
 74
14
 0
VERTEX
 8
CYLINDER_1
 10
0
 20
0
 30
0
 70
128
 71
11
 72
12
 73
16
 74
15
 0
VERTEX
 8
CYLINDER_1
 10
0
 20
0
 30
0
 70
128
 71
12
 72
13
 73
17
 74
16
 0
VERTEX
 8
CYLINDER_1
 10
0
 20
0
 30
0
 70
128
 71
67
 72
68
 73
72
 74
71
 0
VERTEX
 8
CYLINDER_1
 10
0
 20
0
 30
0
 70
128
 71
1
 72
14
 73
18
 74
18
 0
VERTEX
 8
CYLINDER_1
 10
0
 20
0
 30
0
 70
128
 71
14
 72
15
 73
19
 74
18
 0
VERTEX
 8
CYLINDER_1
 10
0
 20
0
 30
0
 70
128
 71
15
 72
16
 73
20
 74
19
 0
VERTEX
 8
CYLINDER_1
 10
0
 20
0
 30
0
 70
128
 71
16
 72
17
 73
21
 74
20
 0
VERTEX
 8
CYLINDER_1
 10
0
 20
0
 30
0
 70
128
 71
68
 72
69
 73
73
 74
72
 0
VERTEX
 8
CYLINDER_1
 10
0
 20
0
 30
0
 70
128
 71
1
 72
18
 73
22
 74
22
 0
VERTEX
 8
CYLINDER_1
 10
0
 20
0
 30
0
 70
128
 71
18
 72
19
 73
23
 74
22
 0
VERTEX
 8
CYLINDER_1
 10
0
 20
0
 30
0
 70
128
 71
19
 72
20
 73
24
 74
23
 0
VERTEX
 8
CYLINDER_1
 10
0
 20
0
 30
0
 70
128
 71
20
 72
21
 73
25
 74
24
 0
VERTEX
 8
CYLINDER_1
 10
0
 20
0
 30
0
 70
128
 71
1
 72
70
 73
74
 74
74
 0
VERTEX
 8
CYLINDER_1
 10
0
 20
0
 30
0
 70
128
 71
1
 72
22
 73
26
 74
26
 0
VERTEX
 8
CYLINDER_1
 10
0
 20
0
 30
0
 70
128
 71
22
 72
23
 73
27
 74
26
 0
VERTEX
 8
CYLINDER_1
 10
0
 20
0
 30
0
 70
128
 71
23
 72
24
 73
28
 74
27
 0
VERTEX
 8
CYLINDER_1
 10
0
 20
0
 30
0
 70
128
 71
24
 72
25
 73
29
 74
28
 0
VERTEX
 8
CYLINDER_1
 10
0
 20
0
 30
0
 70
128
 71
70
 72
71
 73
75
 74
74
 0
VERTEX
 8
CYLINDER_1
 10
0
 20
0
 30
0
 70
128
 71
1
 72
26
 73
30
 74
30
 0
VERTEX
 8
CYLINDER_1
 10
0
 20
0
 30
0
 70
128
 71
26
 72
27
 73
31
 74
30
 0
VERTEX
 8
CYLINDER_1
 10
0
 20
0
 30
0
 70
128
 71
27
 72
28
 73
32
 74
31
 0
VERTEX
 8
CYLINDER_1
 10
0
 20
0
 30
0
 70
128
 71
28
 72
29
 73
33
 74
32
 0
VERTEX
 8
CYLINDER_1
 10
0
 20
0
 30
0
 70
128
 71
71
 72
72
 73
76
 74
75
 0
VERTEX
 8
CYLINDER_1
 10
0
 20
0
 30
0
 70
128
 71
1
 72
30
 73
34
 74
34
 0
VERTEX
 8
CYLINDER_1
 10
0
 20
0
 30
0
 70
128
 71
30
 72
31
 73
35
 74
34
 0
VERTEX
 8
CYLINDER_1
 10
0
 20
0
 30
0
 70
128
 71
31
 72
32
 73
36
 74
35
 0
VERTEX
 8
CYLINDER_1
 10
0
 20
0
 30
0
 70
128
 71
32
 72
33
 73
37
 74
36
 0
VERTEX
 8
CYLINDER_1
 10
0
 20
0
 30
0
 70
128
 71
72
 72
73
 73
77
 74
76
 0
VERTEX
 8
CYLINDER_1
 10
0
 20
0
 30
0
 70
128
 71
1
 72
34
 73
38
 74
38
 0
VERTEX
 8
CYLINDER_1
 10
0
 20
0
 30
0
 70
128
 71
34
 72
35
 73
39
 74
38
 0
VERTEX
 8
CYLINDER_1
 10
0
 20
0
 30
0
 70
128
 71
35
 72
36
 73
40
 74
39
 0
VERTEX
 8
CYLINDER_1
 10
0
 20
0
 30
0
 70
128
 71
36
 72
37
 73
41
 74
40
 0
VERTEX
 8
CYLINDER_1
 10
0
 20
0
 30
0
 70
128
 71
1
 72
74
 73
78
 74
78
 0
VERTEX
 8
CYLINDER_1
 10
0
 20
0
 30
0
 70
128
 71
1
 72
38
 73
42
 74
42
 0
VERTEX
 8
CYLINDER_1
 10
0
 20
0
 30
0
 70
128
 71
38
 72
39
 73
43
 74
42
 0
VERTEX
 8
CYLINDER_1
 10
0
 20
0
 30
0
 70
128
 71
39
 72
40
 73
44
 74
43
 0
VERTEX
 8
CYLINDER_1
 10
0
 20
0
 30
0
 70
128
 71
40
 72
41
 73
45
 74
44
 0
VERTEX
 8
CYLINDER_1
 10
0
 20
0
 30
0
 70
128
 71
74
 72
75
 73
79
 74
78
 0
VERTEX
 8
CYLINDER_1
 10
0
 20
0
 30
0
 70
128
 71
1
 72
42
 73
46
 74
46
 0
VERTEX
 8
CYLINDER_1
 10
0
 20
0
 30
0
 70
128
 71
42
 72
43
 73
47
 74
46
 0
VERTEX
 8
CYLINDER_1
 10
0
 20
0
 30
0
 70
128
 71
43
 72
44
 73
48
 74
47
 0
VERTEX
 8
CYLINDER_1
 10
0
 20
0
 30
0
 70
128
 71
44
 72
45
 73
49
 74
48
 0
VERTEX
 8
CYLINDER_1
 10
0
 20
0
 30
0
 70
128
 71
75
 72
76
 73
80
 74
79
 0
VERTEX
 8
CYLINDER_1
 10
0
 20
0
 30
0
 70
128
 71
1
 72
46
 73
50
 74
50
 0
VERTEX
 8
CYLINDER_1
 10
0
 20
0
 30
0
 70
128
 71
46
 72
47
 73
51
 74
50
 0
VERTEX
 8
CYLINDER_1
 10
0
 20
0
 30
0
 70
128
 71
47
 72
48
 73
52
 74
51
 0
VERTEX
 8
CYLINDER_1
 10
0
 20
0
 30
0
 70
128
 71
48
 72
49
 73
53
 74
52
 0
VERTEX
 8
CYLINDER_1
 10
0
 20
0
 30
0
 70
128
 71
76
 72
77
 73
81
 74
80
 0
VERTEX
 8
CYLINDER_1
 10
0
 20
0
 30
0
 70
128
 71
1
 72
50
 73
54
 74
54
 0
VERTEX
 8
CYLINDER_1
 10
0
 20
0
 30
0
 70
128
 71
50
 72
51
 73
55
 74
54
 0
VERTEX
 8
CYLINDER_1
 10
0
 20
0
 30
0
 70
128
 71
51
 72
52
 73
56
 74
55
 0
VERTEX
 8
CYLINDER_1
 10
0
 20
0
 30
0
 70
128
 71
52
 72
53
 73
57
 74
56
 0
VERTEX
 8
CYLINDER_1
 10
0
 20
0
 30
0
 70
128
 71
1
 72
78
 73
2
 74
2
 0
VERTEX
 8
CYLINDER_1
 10
0
 20
0
 30
0
 70
128
 71
1
 72
54
 73
58
 74
58
 0
VERTEX
 8
CYLINDER_1
 10
0
 20
0
 30
0
 70
128
 71
54
 72
55
 73
59
 74
58
 0
VERTEX
 8
CYLINDER_1
 10
0
 20
0
 30
0
 70
128
 71
55
 72
56
 73
60
 74
59
 0
VERTEX
 8
CYLINDER_1
 10
0
 20
0
 30
0
 70
128
 71
56
 72
57
 73
61
 74
60
 0
VERTEX
 8
CYLINDER_1
 10
0
 20
0
 30
0
 70
128
 71
78
 72
79
 73
3
 74
2
 0
VERTEX
 8
CYLINDER_1
 10
0
 20
0
 30
0
 70
128
 71
1
 72
58
 73
62
 74
62
 0
VERTEX
 8
CYLINDER_1
 10
0
 20
0
 30
0
 70
128
 71
58
 72
59
 73
63
 74
62
 0
VERTEX
 8
CYLINDER_1
 10
0
 20
0
 30
0
 70
128
 71
59
 72
60
 73
64
 74
63
 0
VERTEX
 8
CYLINDER_1
 10
0
 20
0
 30
0
 70
128
 71
60
 72
61
 73
65
 74
64
 0
VERTEX
 8
CYLINDER_1
 10
0
 20
0
 30
0
 70
128
 71
79
 72
80
 73
4
 74
3
 0
VERTEX
 8
CYLINDER_1
 10
0
 20
0
 30
0
 70
128
 71
1
 72
62
 73
66
 74
66
 0
VERTEX
 8
CYLINDER_1
 10
0
 20
0
 30
0
 70
128
 71
62
 72
63
 73
67
 74
66
 0
VERTEX
 8
CYLINDER_1
 10
0
 20
0
 30
0
 70
128
 71
63
 72
64
 73
68
 74
67
 0
VERTEX
 8
CYLINDER_1
 10
0
 20
0
 30
0
 70
128
 71
64
 72
65
 73
69
 74
68
 0
VERTEX
 8
CYLINDER_1
 10
0
 20
0
 30
0
 70
128
 71
80
 72
81
 73
5
 74
4
 0
SEQEND
 0
POLYLINE
 8
TUBE
 66
1
 10
0.0
 20
0.0
 30
0.0
 70
64
 71
48
 72
48
 0
VERTEX
 8
TUBE
 10
0.0853
 20
-0.0955
 30
24.8774
 70
192
 0
VERTEX
 8
TUBE
 10
0.0853
 20
-0.1355
 30
24.8774
 70
192
 0
VERTEX
 8
TUBE
 10
0.0853
 20
-0.1355
 30
25.1174
 70
192
 0
VERTEX
 8
TUBE
 10
0.0853
 20
-0.0955
 30
25.1174
 70
192
 0
VERTEX
 8
TUBE
 10
0.2853
 20
-0.0419
 30
24.8774
 70
192
 0
VERTEX
 8
TUBE
 10
0.3053
 20
-0.0765
 30
24.8774
 70
192
 0
VERTEX
 8
TUBE
 10
0.3053
 20
-0.0765
 30
25.1174
 70
192
 0
VERTEX
 8
TUBE
 10
0.2853
 20
-0.0419
 30
25.1174
 70
192
 0
VERTEX
 8
TUBE
 10
0.4317
 20
0.1045
 30
24.8774
 70
192
 0
VERTEX
 8
TUBE
 10
0.4664
 20
0.0845
 30
24.8774
 70
192
 0
VERTEX
 8
TUBE
 10
0.4664
 20
0.0845
 30
25.1174
 70
192
 0
VERTEX
 8
TUBE
 10
0.4317
 20
0.1045
 30
25.1174
 70
192
 0
VERTEX
 8
TUBE
 10
0.4853
 20
0.3045
 30
24.8774
 70
192
 0
VERTEX
 8
TUBE
 10
0.5253
 20
0.3045
 30
24.8774
 70
192
 0
VERTEX
 8
TUBE
 10
0.5253
 20
0.3045
 30
25.1174
 70
192
 0
VERTEX
 8
TUBE
 10
0.4853
 20
0.3045
 30
25.1174
 70
192
 0
VERTEX
 8
TUBE
 10
0.4317
 20
0.5045
 30
24.8774
 70
192
 0
VERTEX
 8
TUBE
 10
0.4664
 20
0.5245
 30
24.8774
 70
192
 0
VERTEX
 8
TUBE
 10
0.4664
 20
0.5245
 30
25.1174
 70
192
 0
VERTEX
 8
TUBE
 10
0.4317
 20
0.5045
 30
25.1174
 70
192
 0
VERTEX
 8
TUBE
 10
0.3053
 20
0.6856
 30
24.8774
 70
192
 0
VERTEX
 8
TUBE
 10
0.3053
 20
0.6856
 30
25.1174
 70
192
 0
VERTEX
 8
TUBE
 10
0.2853
 20
0.6509
 30
25.1174
 70
192
 0
VERTEX
 8
TUBE
 10
0.2853
 20
0.6509
 30
24.8774
 70
192
 0
VERTEX
 8
TUBE
 10
0.0853
 20
0.7045
 30
24.8774
 70
192
 0
VERTEX
 8
TUBE
 10
0.0853
 20
0.7445
 30
24.8774
 70
192
 0
VERTEX
 8
TUBE
 10
0.0853
 20
0.7445
 30
25.1174
 70
192
 0
VERTEX
 8
TUBE
 10
0.0853
 20
0.7045
 30
25.1174
 70
192
 0
VERTEX
 8
TUBE
 10
-0.1347
 20
0.6856
 30
24.8774
 70
192
 0
VERTEX
 8
TUBE
 10
-0.1347
 20
0.6856
 30
25.1174
 70
192
 0
VERTEX
 8
TUBE
 10
-0.1147
 20
0.6509
 30
25.1174
 70
192
 0
VERTEX
 8
TUBE
 10
-0.1147
 20
0.6509
 30
24.8774
 70
192
 0
VERTEX
 8
TUBE
 10
-0.2611
 20
0.5045
 30
24.8774
 70
192
 0
VERTEX
 8
TUBE
 10
-0.2957
 20
0.5245
 30
24.8774
 70
192
 0
VERTEX
 8
TUBE
 10
-0.2957
 20
0.5245
 30
25.1174
 70
192
 0
VERTEX
 8
TUBE
 10
-0.2611
 20
0.5045
 30
25.1174
 70
192
 0
VERTEX
 8
TUBE
 10
-0.3147
 20
0.3045
 30
24.8774
 70
192
 0
VERTEX
 8
TUBE
 10
-0.3547
 20
0.3045
 30
24.8774
 70
192
 0
VERTEX
 8
TUBE
 10
-0.3547
 20
0.3045
 30
25.1174
 70
192
 0
VERTEX
 8
TUBE
 10
-0.3147
 20
0.3045
 30
25.1174
 70
192
 0
VERTEX
 8
TUBE
 10
-0.2611
 20
0.1045
 30
24.8774
 70
192
 0
VERTEX
 8
TUBE
 10
-0.2957
 20
0.0845
 30
24.8774
 70
192
 0
VERTEX
 8
TUBE
 10
-0.2957
 20
0.0845
 30
25.1174
 70
192
 0
VERTEX
 8
TUBE
 10
-0.2611
 20
0.1045
 30
25.1174
 70
192
 0
VERTEX
 8
TUBE
 10
-0.1147
 20
-0.0419
 30
24.8774
 70
192
 0
VERTEX
 8
TUBE
 10
-0.1347
 20
-0.0765
 30
24.8774
 70
192
 0
VERTEX
 8
TUBE
 10
-0.1347
 20
-0.0765
 30
25.1174
 70
192
 0
VERTEX
 8
TUBE
 10
-0.1147
 20
-0.0419
 30
25.1174
 70
192
 0
VERTEX
 8
TUBE
 10
0
 20
0
 30
0
 70
128
 71
1
 72
2
 73
6
 74
5
 0
VERTEX
 8
TUBE
 10
0
 20
0
 30
0
 70
128
 71
2
 72
3
 73
7
 74
6
 0
VERTEX
 8
TUBE
 10
0
 20
0
 30
0
 70
128
 71
3
 72
4
 73
8
 74
7
 0
VERTEX
 8
TUBE
 10
0
 20
0
 30
0
 70
128
 71
4
 72
1
 73
5
 74
8
 0
VERTEX
 8
TUBE
 10
0
 20
0
 30
0
 70
128
 71
5
 72
6
 73
10
 74
9
 0
VERTEX
 8
TUBE
 10
0
 20
0
 30
0
 70
128
 71
6
 72
7
 73
11
 74
10
 0
VERTEX
 8
TUBE
 10
0
 20
0
 30
0
 70
128
 71
7
 72
8
 73
12
 74
11
 0
VERTEX
 8
TUBE
 10
0
 20
0
 30
0
 70
128
 71
8
 72
5
 73
9
 74
12
 0
VERTEX
 8
TUBE
 10
0
 20
0
 30
0
 70
128
 71
9
 72
10
 73
14
 74
13
 0
VERTEX
 8
TUBE
 10
0
 20
0
 30
0
 70
128
 71
10
 72
11
 73
15
 74
14
 0
VERTEX
 8
TUBE
 10
0
 20
0
 30
0
 70
128
 71
11
 72
12
 73
16
 74
15
 0
VERTEX
 8
TUBE
 10
0
 20
0
 30
0
 70
128
 71
12
 72
9
 73
13
 74
16
 0
VERTEX
 8
TUBE
 10
0
 20
0
 30
0
 70
128
 71
13
 72
14
 73
18
 74
17
 0
VERTEX
 8
TUBE
 10
0
 20
0
 30
0
 70
128
 71
14
 72
15
 73
19
 74
18
 0
VERTEX
 8
TUBE
 10
0
 20
0
 30
0
 70
128
 71
15
 72
16
 73
20
 74
19
 0
VERTEX
 8
TUBE
 10
0
 20
0
 30
0
 70
128
 71
16
 72
13
 73
17
 74
20
 0
VERTEX
 8
TUBE
 10
0
 20
0
 30
0
 70
128
 71
17
 72
18
 73
21
 74
24
 0
VERTEX
 8
TUBE
 10
0
 20
0
 30
0
 70
128
 71
18
 72
19
 73
22
 74
21
 0
VERTEX
 8
TUBE
 10
0
 20
0
 30
0
 70
128
 71
19
 72
20
 73
23
 74
22
 0
VERTEX
 8
TUBE
 10
0
 20
0
 30
0
 70
128
 71
20
 72
17
 73
24
 74
23
 0
VERTEX
 8
TUBE
 10
0
 20
0
 30
0
 70
128
 71
24
 72
21
 73
26
 74
25
 0
VERTEX
 8
TUBE
 10
0
 20
0
 30
0
 70
128
 71
21
 72
22
 73
27
 74
26
 0
VERTEX
 8
TUBE
 10
0
 20
0
 30
0
 70
128
 71
22
 72
23
 73
28
 74
27
 0
VERTEX
 8
TUBE
 10
0
 20
0
 30
0
 70
128
 71
23
 72
24
 73
25
 74
28
 0
VERTEX
 8
TUBE
 10
0
 20
0
 30
0
 70
128
 71
25
 72
26
 73
29
 74
32
 0
VERTEX
 8
TUBE
 10
0
 20
0
 30
0
 70
128
 71
26
 72
27
 73
30
 74
29
 0
VERTEX
 8
TUBE
 10
0
 20
0
 30
0
 70
128
 71
27
 72
28
 73
31
 74
30
 0
VERTEX
 8
TUBE
 10
0
 20
0
 30
0
 70
128
 71
28
 72
25
 73
32
 74
31
 0
VERTEX
 8
TUBE
 10
0
 20
0
 30
0
 70
128
 71
32
 72
29
 73
34
 74
33
 0
VERTEX
 8
TUBE
 10
0
 20
0
 30
0
 70
128
 71
29
 72
30
 73
35
 74
34
 0
VERTEX
 8
TUBE
 10
0
 20
0
 30
0
 70
128
 71
30
 72
31
 73
36
 74
35
 0
VERTEX
 8
TUBE
 10
0
 20
0
 30
0
 70
128
 71
31
 72
32
 73
33
 74
36
 0
VERTEX
 8
TUBE
 10
0
 20
0
 30
0
 70
128
 71
33
 72
34
 73
38
 74
37
 0
VERTEX
 8
TUBE
 10
0
 20
0
 30
0
 70
128
 71
34
 72
35
 73
39
 74
38
 0
VERTEX
 8
TUBE
 10
0
 20
0
 30
0
 70
128
 71
35
 72
36
 73
40
 74
39
 0
VERTEX
 8
TUBE
 10
0
 20
0
 30
0
 70
128
 71
36
 72
33
 73
37
 74
40
 0
VERTEX
 8
TUBE
 10
0
 20
0
 30
0
 70
128
 71
37
 72
38
 73
42
 74
41
 0
VERTEX
 8
TUBE
 10
0
 20
0
 30
0
 70
128
 71
38
 72
39
 73
43
 74
42
 0
VERTEX
 8
TUBE
 10
0
 20
0
 30
0
 70
128
 71
39
 72
40
 73
44
 74
43
 0
VERTEX
 8
TUBE
 10
0
 20
0
 30
0
 70
128
 71
40
 72
37
 73
41
 74
44
 0
VERTEX
 8
TUBE
 10
0
 20
0
 30
0
 70
128
 71
41
 72
42
 73
46
 74
45
 0
VERTEX
 8
TUBE
 10
0
 20
0
 30
0
 70
128
 71
42
 72
43
 73
47
 74
46
 0
VERTEX
 8
TUBE
 10
0
 20
0
 30
0
 70
128
 71
43
 72
44
 73
48
 74
47
 0
VERTEX
 8
TUBE
 10
0
 20
0
 30
0
 70
128
 71
44
 72
41
 73
45
 74
48
 0
VERTEX
 8
TUBE
 10
0
 20
0
 30
0
 70
128
 71
45
 72
46
 73
2
 74
1
 0
VERTEX
 8
TUBE
 10
0
 20
0
 30
0
 70
128
 71
46
 72
47
 73
3
 74
2
 0
VERTEX
 8
TUBE
 10
0
 20
0
 30
0
 70
128
 71
47
 72
48
 73
4
 74
3
 0
VERTEX
 8
TUBE
 10
0
 20
0
 30
0
 70
128
 71
48
 72
45
 73
1
 74
4
 0
SEQEND
 0
POLYLINE
 8
SCHLAUCH_1
 66
1
 10
0.0
 20
0.0
 30
0.0
 70
64
 71
24
 72
12
 0
VERTEX
 8
SCHLAUCH_1
 10
0.3476
 20
0.4772
 30
24.3232
 70
192
 0
VERTEX
 8
SCHLAUCH_1
 10
-0.2834
 20
0.21
 30
5.8007
 70
192
 0
VERTEX
 8
SCHLAUCH_1
 10
-0.3225
 20
0.4166
 30
5.7976
 70
192
 0
VERTEX
 8
SCHLAUCH_1
 10
-0.0778
 20
0.0701
 30
5.8087
 70
192
 0
VERTEX
 8
SCHLAUCH_1
 10
-0.3133
 20
0.4548
 30
5.7976
 70
192
 0
VERTEX
 8
SCHLAUCH_1
 10
-0.1653
 20
0.1655
 30
24.3096
 70
192
 0
VERTEX
 8
SCHLAUCH_1
 10
0.3867
 20
0.2706
 30
24.3261
 70
192
 0
VERTEX
 8
SCHLAUCH_1
 10
-0.1826
 20
0.6224
 30
5.8004
 70
192
 0
VERTEX
 8
SCHLAUCH_1
 10
-0.2044
 20
0.3721
 30
24.3067
 70
192
 0
VERTEX
 8
SCHLAUCH_1
 10
0.0239
 20
0.6615
 30
5.8068
 70
192
 0
VERTEX
 8
SCHLAUCH_1
 10
0.0403
 20
0.0256
 30
24.3171
 70
192
 0
VERTEX
 8
SCHLAUCH_1
 10
0.1287
 20
0.1093
 30
5.8152
 70
192
 0
VERTEX
 8
SCHLAUCH_1
 10
0.0022
 20
0.0348
 30
24.3159
 70
192
 0
VERTEX
 8
SCHLAUCH_1
 10
0.062
 20
0.6523
 30
5.8081
 70
192
 0
VERTEX
 8
SCHLAUCH_1
 10
0.2295
 20
0.5217
 30
5.8148
 70
192
 0
VERTEX
 8
SCHLAUCH_1
 10
0.2686
 20
0.3151
 30
5.8179
 70
192
 0
VERTEX
 8
SCHLAUCH_1
 10
0.3775
 20
0.2324
 30
24.3261
 70
192
 0
VERTEX
 8
SCHLAUCH_1
 10
-0.0645
 20
0.5779
 30
24.3095
 70
192
 0
VERTEX
 8
SCHLAUCH_1
 10
-0.1952
 20
0.4103
 30
24.3067
 70
192
 0
VERTEX
 8
SCHLAUCH_1
 10
0.2468
 20
0.0648
 30
24.3233
 70
192
 0
VERTEX
 8
SCHLAUCH_1
 10
-0.1159
 20
0.0793
 30
5.8074
 70
192
 0
VERTEX
 8
SCHLAUCH_1
 10
0.1419
 20
0.6171
 30
24.3157
 70
192
 0
VERTEX
 8
SCHLAUCH_1
 10
0.1801
 20
0.6079
 30
24.3169
 70
192
 0
VERTEX
 8
SCHLAUCH_1
 10
0.2594
 20
0.2769
 30
5.818
 70
192
 0
VERTEX
 8
SCHLAUCH_1
 10
0
 20
0
 30
0
 70
128
 71
3
 72
5
 73
19
 74
9
 0
VERTEX
 8
SCHLAUCH_1
 10
0
 20
0
 30
0
 70
128
 71
5
 72
8
 73
18
 74
19
 0
VERTEX
 8
SCHLAUCH_1
 10
0
 20
0
 30
0
 70
128
 71
8
 72
10
 73
22
 74
18
 0
VERTEX
 8
SCHLAUCH_1
 10
0
 20
0
 30
0
 70
128
 71
10
 72
14
 73
23
 74
22
 0
VERTEX
 8
SCHLAUCH_1
 10
0
 20
0
 30
0
 70
128
 71
14
 72
15
 73
1
 74
23
 0
VERTEX
 8
SCHLAUCH_1
 10
0
 20
0
 30
0
 70
128
 71
24
 72
12
 73
20
 74
17
 0
VERTEX
 8
SCHLAUCH_1
 10
0
 20
0
 30
0
 70
128
 71
12
 72
4
 73
11
 74
20
 0
VERTEX
 8
SCHLAUCH_1
 10
0
 20
0
 30
0
 70
128
 71
4
 72
21
 73
13
 74
11
 0
VERTEX
 8
SCHLAUCH_1
 10
0
 20
0
 30
0
 70
128
 71
21
 72
2
 73
6
 74
13
 0
VERTEX
 8
SCHLAUCH_1
 10
0
 20
0
 30
0
 70
128
 71
2
 72
3
 73
9
 74
6
 0
VERTEX
 8
SCHLAUCH_1
 10
0
 20
0
 30
0
 70
128
 71
16
 72
24
 73
17
 74
7
 0
VERTEX
 8
SCHLAUCH_1
 10
0
 20
0
 30
0
 70
128
 71
15
 72
16
 73
7
 74
1
 0
SEQEND
 0
POLYLINE
 8
CYLINDER_2
 66
1
 10
0.0
 20
0.0
 30
0.0
 70
64
 71
37
 72
36
 0
VERTEX
 8
CYLINDER_2
 10
-2.6779
 20
0.302
 30
22.9994
 70
192
 0
VERTEX
 8
CYLINDER_2
 10
-2.6779
 20
0.202
 30
22.9994
 70
192
 0
VERTEX
 8
CYLINDER_2
 10
-2.6779
 20
0.182
 30
23.0194
 70
192
 0
VERTEX
 8
CYLINDER_2
 10
-2.6779
 20
0.182
 30
23.7794
 70
192
 0
VERTEX
 8
CYLINDER_2
 10
-2.6279
 20
0.2154
 30
22.9994
 70
192
 0
VERTEX
 8
CYLINDER_2
 10
-2.6179
 20
0.1981
 30
23.0194
 70
192
 0
VERTEX
 8
CYLINDER_2
 10
-2.6179
 20
0.1981
 30
23.7794
 70
192
 0
VERTEX
 8
CYLINDER_2
 10
-2.5913
 20
0.252
 30
22.9994
 70
192
 0
VERTEX
 8
CYLINDER_2
 10
-2.5739
 20
0.242
 30
23.0194
 70
192
 0
VERTEX
 8
CYLINDER_2
 10
-2.5739
 20
0.242
 30
23.7794
 70
192
 0
VERTEX
 8
CYLINDER_2
 10
-2.5779
 20
0.302
 30
22.9994
 70
192
 0
VERTEX
 8
CYLINDER_2
 10
-2.5579
 20
0.302
 30
23.0194
 70
192
 0
VERTEX
 8
CYLINDER_2
 10
-2.5579
 20
0.302
 30
23.7794
 70
192
 0
VERTEX
 8
CYLINDER_2
 10
-2.5913
 20
0.352
 30
22.9994
 70
192
 0
VERTEX
 8
CYLINDER_2
 10
-2.5739
 20
0.362
 30
23.0194
 70
192
 0
VERTEX
 8
CYLINDER_2
 10
-2.5739
 20
0.362
 30
23.7794
 70
192
 0
VERTEX
 8
CYLINDER_2
 10
-2.6279
 20
0.3886
 30
22.9994
 70
192
 0
VERTEX
 8
CYLINDER_2
 10
-2.6179
 20
0.4059
 30
23.0194
 70
192
 0
VERTEX
 8
CYLINDER_2
 10
-2.6179
 20
0.4059
 30
23.7794
 70
192
 0
VERTEX
 8
CYLINDER_2
 10
-2.6779
 20
0.402
 30
22.9994
 70
192
 0
VERTEX
 8
CYLINDER_2
 10
-2.6779
 20
0.422
 30
23.0194
 70
192
 0
VERTEX
 8
CYLINDER_2
 10
-2.6779
 20
0.422
 30
23.7794
 70
192
 0
VERTEX
 8
CYLINDER_2
 10
-2.7279
 20
0.3886
 30
22.9994
 70
192
 0
VERTEX
 8
CYLINDER_2
 10
-2.7379
 20
0.4059
 30
23.0194
 70
192
 0
VERTEX
 8
CYLINDER_2
 10
-2.7379
 20
0.4059
 30
23.7794
 70
192
 0
VERTEX
 8
CYLINDER_2
 10
-2.7645
 20
0.352
 30
22.9994
 70
192
 0
VERTEX
 8
CYLINDER_2
 10
-2.7818
 20
0.362
 30
23.0194
 70
192
 0
VERTEX
 8
CYLINDER_2
 10
-2.7818
 20
0.362
 30
23.7794
 70
192
 0
VERTEX
 8
CYLINDER_2
 10
-2.7779
 20
0.302
 30
22.9994
 70
192
 0
VERTEX
 8
CYLINDER_2
 10
-2.7979
 20
0.302
 30
23.0194
 70
192
 0
VERTEX
 8
CYLINDER_2
 10
-2.7979
 20
0.302
 30
23.7794
 70
192
 0
VERTEX
 8
CYLINDER_2
 10
-2.7645
 20
0.252
 30
22.9994
 70
192
 0
VERTEX
 8
CYLINDER_2
 10
-2.7818
 20
0.242
 30
23.0194
 70
192
 0
VERTEX
 8
CYLINDER_2
 10
-2.7818
 20
0.242
 30
23.7794
 70
192
 0
VERTEX
 8
CYLINDER_2
 10
-2.7279
 20
0.2154
 30
22.9994
 70
192
 0
VERTEX
 8
CYLINDER_2
 10
-2.7379
 20
0.1981
 30
23.0194
 70
192
 0
VERTEX
 8
CYLINDER_2
 10
-2.7379
 20
0.1981
 30
23.7794
 70
192
 0
VERTEX
 8
CYLINDER_2
 10
0
 20
0
 30
0
 70
128
 71
1
 72
2
 73
5
 74
5
 0
VERTEX
 8
CYLINDER_2
 10
0
 20
0
 30
0
 70
128
 71
2
 72
3
 73
6
 74
5
 0
VERTEX
 8
CYLINDER_2
 10
0
 20
0
 30
0
 70
128
 71
3
 72
4
 73
7
 74
6
 0
VERTEX
 8
CYLINDER_2
 10
0
 20
0
 30
0
 70
128
 71
1
 72
26
 73
29
 74
29
 0
VERTEX
 8
CYLINDER_2
 10
0
 20
0
 30
0
 70
128
 71
26
 72
27
 73
30
 74
29
 0
VERTEX
 8
CYLINDER_2
 10
0
 20
0
 30
0
 70
128
 71
1
 72
5
 73
8
 74
8
 0
VERTEX
 8
CYLINDER_2
 10
0
 20
0
 30
0
 70
128
 71
5
 72
6
 73
9
 74
8
 0
VERTEX
 8
CYLINDER_2
 10
0
 20
0
 30
0
 70
128
 71
6
 72
7
 73
10
 74
9
 0
VERTEX
 8
CYLINDER_2
 10
0
 20
0
 30
0
 70
128
 71
27
 72
28
 73
31
 74
30
 0
VERTEX
 8
CYLINDER_2
 10
0
 20
0
 30
0
 70
128
 71
1
 72
29
 73
32
 74
32
 0
VERTEX
 8
CYLINDER_2
 10
0
 20
0
 30
0
 70
128
 71
1
 72
8
 73
11
 74
11
 0
VERTEX
 8
CYLINDER_2
 10
0
 20
0
 30
0
 70
128
 71
8
 72
9
 73
12
 74
11
 0
VERTEX
 8
CYLINDER_2
 10
0
 20
0
 30
0
 70
128
 71
9
 72
10
 73
13
 74
12
 0
VERTEX
 8
CYLINDER_2
 10
0
 20
0
 30
0
 70
128
 71
29
 72
30
 73
33
 74
32
 0
VERTEX
 8
CYLINDER_2
 10
0
 20
0
 30
0
 70
128
 71
30
 72
31
 73
34
 74
33
 0
VERTEX
 8
CYLINDER_2
 10
0
 20
0
 30
0
 70
128
 71
1
 72
11
 73
14
 74
14
 0
VERTEX
 8
CYLINDER_2
 10
0
 20
0
 30
0
 70
128
 71
11
 72
12
 73
15
 74
14
 0
VERTEX
 8
CYLINDER_2
 10
0
 20
0
 30
0
 70
128
 71
12
 72
13
 73
16
 74
15
 0
VERTEX
 8
CYLINDER_2
 10
0
 20
0
 30
0
 70
128
 71
1
 72
32
 73
35
 74
35
 0
VERTEX
 8
CYLINDER_2
 10
0
 20
0
 30
0
 70
128
 71
32
 72
33
 73
36
 74
35
 0
VERTEX
 8
CYLINDER_2
 10
0
 20
0
 30
0
 70
128
 71
1
 72
14
 73
17
 74
17
 0
VERTEX
 8
CYLINDER_2
 10
0
 20
0
 30
0
 70
128
 71
14
 72
15
 73
18
 74
17
 0
VERTEX
 8
CYLINDER_2
 10
0
 20
0
 30
0
 70
128
 71
15
 72
16
 73
19
 74
18
 0
VERTEX
 8
CYLINDER_2
 10
0
 20
0
 30
0
 70
128
 71
23
 72
24
 73
27
 74
26
 0
VERTEX
 8
CYLINDER_2
 10
0
 20
0
 30
0
 70
128
 71
33
 72
34
 73
37
 74
36
 0
VERTEX
 8
CYLINDER_2
 10
0
 20
0
 30
0
 70
128
 71
1
 72
17
 73
20
 74
20
 0
VERTEX
 8
CYLINDER_2
 10
0
 20
0
 30
0
 70
128
 71
17
 72
18
 73
21
 74
20
 0
VERTEX
 8
CYLINDER_2
 10
0
 20
0
 30
0
 70
128
 71
18
 72
19
 73
22
 74
21
 0
VERTEX
 8
CYLINDER_2
 10
0
 20
0
 30
0
 70
128
 71
24
 72
25
 73
28
 74
27
 0
VERTEX
 8
CYLINDER_2
 10
0
 20
0
 30
0
 70
128
 71
1
 72
35
 73
2
 74
2
 0
VERTEX
 8
CYLINDER_2
 10
0
 20
0
 30
0
 70
128
 71
1
 72
20
 73
23
 74
23
 0
VERTEX
 8
CYLINDER_2
 10
0
 20
0
 30
0
 70
128
 71
20
 72
21
 73
24
 74
23
 0
VERTEX
 8
CYLINDER_2
 10
0
 20
0
 30
0
 70
128
 71
21
 72
22
 73
25
 74
24
 0
VERTEX
 8
CYLINDER_2
 10
0
 20
0
 30
0
 70
128
 71
36
 72
37
 73
4
 74
3
 0
VERTEX
 8
CYLINDER_2
 10
0
 20
0
 30
0
 70
128
 71
35
 72
36
 73
3
 74
2
 0
VERTEX
 8
CYLINDER_2
 10
0
 20
0
 30
0
 70
128
 71
1
 72
23
 73
26
 74
26
 0
SEQEND
 0
POLYLINE
 8
CYLINDER_3
 66
1
 10
0.0
 20
0.0
 30
0.0
 70
64
 71
120
 72
96
 0
VERTEX
 8
CYLINDER_3
 10
0.5142
 20
-0.278
 30
24.3455
 70
192
 0
VERTEX
 8
CYLINDER_3
 10
0.4942
 20
-0.298
 30
24.3455
 70
192
 0
VERTEX
 8
CYLINDER_3
 10
-0.6658
 20
-0.298
 30
24.3455
 70
192
 0
VERTEX
 8
CYLINDER_3
 10
-0.6858
 20
-0.278
 30
24.3455
 70
192
 0
VERTEX
 8
CYLINDER_3
 10
0.5142
 20
-0.2496
 30
24.5248
 70
192
 0
VERTEX
 8
CYLINDER_3
 10
0.4942
 20
-0.2686
 30
24.5309
 70
192
 0
VERTEX
 8
CYLINDER_3
 10
-0.6658
 20
-0.2686
 30
24.5309
 70
192
 0
VERTEX
 8
CYLINDER_3
 10
-0.6858
 20
-0.2496
 30
24.5248
 70
192
 0
VERTEX
 8
CYLINDER_3
 10
0.5142
 20
-0.1672
 30
24.6865
 70
192
 0
VERTEX
 8
CYLINDER_3
 10
0.4942
 20
-0.1834
 30
24.6982
 70
192
 0
VERTEX
 8
CYLINDER_3
 10
-0.6658
 20
-0.1834
 30
24.6982
 70
192
 0
VERTEX
 8
CYLINDER_3
 10
-0.6858
 20
-0.1672
 30
24.6865
 70
192
 0
VERTEX
 8
CYLINDER_3
 10
0.5142
 20
-0.0389
 30
24.8148
 70
192
 0
VERTEX
 8
CYLINDER_3
 10
0.4942
 20
-0.0507
 30
24.8309
 70
192
 0
VERTEX
 8
CYLINDER_3
 10
-0.6658
 20
-0.0507
 30
24.8309
 70
192
 0
VERTEX
 8
CYLINDER_3
 10
-0.6858
 20
-0.0389
 30
24.8148
 70
192
 0
VERTEX
 8
CYLINDER_3
 10
-0.6658
 20
0.1166
 30
24.9162
 70
192
 0
VERTEX
 8
CYLINDER_3
 10
-0.6858
 20
0.1228
 30
24.8972
 70
192
 0
VERTEX
 8
CYLINDER_3
 10
0.344
 20
-0.1137
 30
23.9231
 70
192
 0
VERTEX
 8
CYLINDER_3
 10
-0.6658
 20
0.302
 30
24.9455
 70
192
 0
VERTEX
 8
CYLINDER_3
 10
-0.6858
 20
0.302
 30
24.9255
 70
192
 0
VERTEX
 8
CYLINDER_3
 10
-0.136
 20
0.7177
 30
24.7679
 70
192
 0
VERTEX
 8
CYLINDER_3
 10
-0.6658
 20
0.4874
 30
24.9162
 70
192
 0
VERTEX
 8
CYLINDER_3
 10
-0.6858
 20
0.4813
 30
24.8972
 70
192
 0
VERTEX
 8
CYLINDER_3
 10
0.5142
 20
0.6429
 30
24.8148
 70
192
 0
VERTEX
 8
CYLINDER_3
 10
0.4942
 20
0.6547
 30
24.8309
 70
192
 0
VERTEX
 8
CYLINDER_3
 10
-0.6658
 20
0.6547
 30
24.8309
 70
192
 0
VERTEX
 8
CYLINDER_3
 10
-0.6858
 20
0.6429
 30
24.8148
 70
192
 0
VERTEX
 8
CYLINDER_3
 10
0.5142
 20
0.7713
 30
24.6865
 70
192
 0
VERTEX
 8
CYLINDER_3
 10
0.4942
 20
0.7874
 30
24.6982
 70
192
 0
VERTEX
 8
CYLINDER_3
 10
-0.6658
 20
0.7874
 30
24.6982
 70
192
 0
VERTEX
 8
CYLINDER_3
 10
-0.6858
 20
0.7713
 30
24.6865
 70
192
 0
VERTEX
 8
CYLINDER_3
 10
0.5142
 20
0.8536
 30
24.5248
 70
192
 0
VERTEX
 8
CYLINDER_3
 10
0.4942
 20
0.8727
 30
24.5309
 70
192
 0
VERTEX
 8
CYLINDER_3
 10
-0.6658
 20
0.8727
 30
24.5309
 70
192
 0
VERTEX
 8
CYLINDER_3
 10
-0.6858
 20
0.8536
 30
24.5248
 70
192
 0
VERTEX
 8
CYLINDER_3
 10
0.5142
 20
0.882
 30
24.3455
 70
192
 0
VERTEX
 8
CYLINDER_3
 10
0.4942
 20
0.902
 30
24.3455
 70
192
 0
VERTEX
 8
CYLINDER_3
 10
-0.6658
 20
0.902
 30
24.3455
 70
192
 0
VERTEX
 8
CYLINDER_3
 10
-0.6858
 20
0.882
 30
24.3455
 70
192
 0
VERTEX
 8
CYLINDER_3
 10
0.5142
 20
0.8536
 30
24.1663
 70
192
 0
VERTEX
 8
CYLINDER_3
 10
0.4942
 20
0.8727
 30
24.1601
 70
192
 0
VERTEX
 8
CYLINDER_3
 10
-0.6658
 20
0.8727
 30
24.1601
 70
192
 0
VERTEX
 8
CYLINDER_3
 10
-0.6858
 20
0.8536
 30
24.1663
 70
192
 0
VERTEX
 8
CYLINDER_3
 10
0.5142
 20
0.7713
 30
24.0046
 70
192
 0
VERTEX
 8
CYLINDER_3
 10
0.4942
 20
0.7874
 30
23.9929
 70
192
 0
VERTEX
 8
CYLINDER_3
 10
-0.6658
 20
0.7874
 30
23.9929
 70
192
 0
VERTEX
 8
CYLINDER_3
 10
-0.6858
 20
0.7713
 30
24.0046
 70
192
 0
VERTEX
 8
CYLINDER_3
 10
0.5142
 20
0.6429
 30
23.8763
 70
192
 0
VERTEX
 8
CYLINDER_3
 10
0.4942
 20
0.6547
 30
23.8601
 70
192
 0
VERTEX
 8
CYLINDER_3
 10
-0.6658
 20
0.6547
 30
23.8601
 70
192
 0
VERTEX
 8
CYLINDER_3
 10
-0.6858
 20
0.6429
 30
23.8763
 70
192
 0
VERTEX
 8
CYLINDER_3
 10
-0.136
 20
-0.1137
 30
23.9231
 70
192
 0
VERTEX
 8
CYLINDER_3
 10
-0.6658
 20
0.4874
 30
23.7749
 70
192
 0
VERTEX
 8
CYLINDER_3
 10
-0.6858
 20
0.4813
 30
23.7939
 70
192
 0
VERTEX
 8
CYLINDER_3
 10
-0.3117
 20
0.062
 30
23.8027
 70
192
 0
VERTEX
 8
CYLINDER_3
 10
-0.6658
 20
0.302
 30
23.7455
 70
192
 0
VERTEX
 8
CYLINDER_3
 10
-0.6858
 20
0.302
 30
23.7655
 70
192
 0
VERTEX
 8
CYLINDER_3
 10
-0.6658
 20
0.1166
 30
23.7749
 70
192
 0
VERTEX
 8
CYLINDER_3
 10
-0.6858
 20
0.1228
 30
23.7939
 70
192
 0
VERTEX
 8
CYLINDER_3
 10
0.5142
 20
-0.0389
 30
23.8763
 70
192
 0
VERTEX
 8
CYLINDER_3
 10
0.4942
 20
-0.0507
 30
23.8601
 70
192
 0
VERTEX
 8
CYLINDER_3
 10
-0.6658
 20
-0.0507
 30
23.8601
 70
192
 0
VERTEX
 8
CYLINDER_3
 10
-0.6858
 20
-0.0389
 30
23.8763
 70
192
 0
VERTEX
 8
CYLINDER_3
 10
0.5142
 20
-0.1672
 30
24.0046
 70
192
 0
VERTEX
 8
CYLINDER_3
 10
0.4942
 20
-0.1834
 30
23.9929
 70
192
 0
VERTEX
 8
CYLINDER_3
 10
-0.6658
 20
-0.1834
 30
23.9929
 70
192
 0
VERTEX
 8
CYLINDER_3
 10
-0.6858
 20
-0.1672
 30
24.0046
 70
192
 0
VERTEX
 8
CYLINDER_3
 10
0.5142
 20
-0.2496
 30
24.1663
 70
192
 0
VERTEX
 8
CYLINDER_3
 10
0.4942
 20
-0.2686
 30
24.1601
 70
192
 0
VERTEX
 8
CYLINDER_3
 10
-0.6658
 20
-0.2686
 30
24.1601
 70
192
 0
VERTEX
 8
CYLINDER_3
 10
-0.6858
 20
-0.2496
 30
24.1663
 70
192
 0
VERTEX
 8
CYLINDER_3
 10
0.5142
 20
0.0565
 30
24.3455
 70
192
 0
VERTEX
 8
CYLINDER_3
 10
0.5142
 20
0.0565
 30
24.4253
 70
192
 0
VERTEX
 8
CYLINDER_3
 10
0.5142
 20
0.0565
 30
24.5239
 70
192
 0
VERTEX
 8
CYLINDER_3
 10
0.5142
 20
0.0565
 30
24.6834
 70
192
 0
VERTEX
 8
CYLINDER_3
 10
0.4942
 20
0.0365
 30
24.8754
 70
192
 0
VERTEX
 8
CYLINDER_3
 10
0.5142
 20
0.5475
 30
24.8634
 70
192
 0
VERTEX
 8
CYLINDER_3
 10
-0.3263
 20
0.1166
 30
24.9162
 70
192
 0
VERTEX
 8
CYLINDER_3
 10
0.407
 20
-0.0507
 30
24.8309
 70
192
 0
VERTEX
 8
CYLINDER_3
 10
-0.199
 20
-0.0507
 30
24.8309
 70
192
 0
VERTEX
 8
CYLINDER_3
 10
-0.376
 20
0.302
 30
24.9455
 70
192
 0
VERTEX
 8
CYLINDER_3
 10
-0.3263
 20
0.4874
 30
24.9162
 70
192
 0
VERTEX
 8
CYLINDER_3
 10
0.5142
 20
0.0565
 30
24.8634
 70
192
 0
VERTEX
 8
CYLINDER_3
 10
0.4942
 20
0.5675
 30
24.8754
 70
192
 0
VERTEX
 8
CYLINDER_3
 10
0.5142
 20
0.5475
 30
24.1672
 70
192
 0
VERTEX
 8
CYLINDER_3
 10
0.407
 20
0.6547
 30
24.8309
 70
192
 0
VERTEX
 8
CYLINDER_3
 10
-0.199
 20
0.6547
 30
24.8309
 70
192
 0
VERTEX
 8
CYLINDER_3
 10
0.5142
 20
0.5475
 30
24.5239
 70
192
 0
VERTEX
 8
CYLINDER_3
 10
0.5142
 20
0.5475
 30
24.3455
 70
192
 0
VERTEX
 8
CYLINDER_3
 10
0.5142
 20
0.5475
 30
24.6834
 70
192
 0
VERTEX
 8
CYLINDER_3
 10
0.5142
 20
0.5475
 30
24.0077
 70
192
 0
VERTEX
 8
CYLINDER_3
 10
0.407
 20
0.6547
 30
23.8601
 70
192
 0
VERTEX
 8
CYLINDER_3
 10
0.4942
 20
0.5675
 30
23.8157
 70
192
 0
VERTEX
 8
CYLINDER_3
 10
0.407
 20
-0.0507
 30
23.8601
 70
192
 0
VERTEX
 8
CYLINDER_3
 10
-0.3263
 20
0.4874
 30
23.7749
 70
192
 0
VERTEX
 8
CYLINDER_3
 10
0.5142
 20
0.5475
 30
24.2658
 70
192
 0
VERTEX
 8
CYLINDER_3
 10
0.5142
 20
0.5475
 30
23.8277
 70
192
 0
VERTEX
 8
CYLINDER_3
 10
0.5142
 20
0.0565
 30
24.0077
 70
192
 0
VERTEX
 8
CYLINDER_3
 10
0.4942
 20
0.0365
 30
23.8157
 70
192
 0
VERTEX
 8
CYLINDER_3
 10
-0.199
 20
0.6547
 30
23.8601
 70
192
 0
VERTEX
 8
CYLINDER_3
 10
0.5142
 20
0.5475
 30
24.4253
 70
192
 0
VERTEX
 8
CYLINDER_3
 10
-0.3263
 20
0.1166
 30
23.7749
 70
192
 0
VERTEX
 8
CYLINDER_3
 10
0.5142
 20
0.0565
 30
24.1672
 70
192
 0
VERTEX
 8
CYLINDER_3
 10
0.5142
 20
0.0565
 30
23.8277
 70
192
 0
VERTEX
 8
CYLINDER_3
 10
-0.376
 20
0.302
 30
23.7455
 70
192
 0
VERTEX
 8
CYLINDER_3
 10
0.5142
 20
0.0565
 30
24.2658
 70
192
 0
VERTEX
 8
CYLINDER_3
 10
-0.199
 20
-0.0507
 30
23.8601
 70
192
 0
VERTEX
 8
CYLINDER_3
 10
0.344
 20
-0.1137
 30
24.7679
 70
192
 0
VERTEX
 8
CYLINDER_3
 10
-0.136
 20
-0.1137
 30
24.7679
 70
192
 0
VERTEX
 8
CYLINDER_3
 10
0.104
 20
-0.178
 30
24.7036
 70
192
 0
VERTEX
 8
CYLINDER_3
 10
0.104
 20
0.782
 30
24.7036
 70
192
 0
VERTEX
 8
CYLINDER_3
 10
0.104
 20
0.782
 30
23.9875
 70
192
 0
VERTEX
 8
CYLINDER_3
 10
0.344
 20
0.7177
 30
23.9231
 70
192
 0
VERTEX
 8
CYLINDER_3
 10
-0.3117
 20
0.542
 30
24.8884
 70
192
 0
VERTEX
 8
CYLINDER_3
 10
-0.136
 20
0.7177
 30
23.9231
 70
192
 0
VERTEX
 8
CYLINDER_3
 10
-0.3117
 20
0.062
 30
24.8884
 70
192
 0
VERTEX
 8
CYLINDER_3
 10
0.344
 20
0.7177
 30
24.7679
 70
192
 0
VERTEX
 8
CYLINDER_3
 10
-0.3117
 20
0.542
 30
23.8027
 70
192
 0
VERTEX
 8
CYLINDER_3
 10
0.104
 20
-0.178
 30
23.9875
 70
192
 0
VERTEX
 8
CYLINDER_3
 10
0
 20
0
 30
0
 70
128
 71
74
 72
73
 73
1
 74
5
 0
VERTEX
 8
CYLINDER_3
 10
0
 20
0
 30
0
 70
128
 71
1
 72
2
 73
6
 74
5
 0
VERTEX
 8
CYLINDER_3
 10
0
 20
0
 30
0
 70
128
 71
2
 72
3
 73
7
 74
6
 0
VERTEX
 8
CYLINDER_3
 10
0
 20
0
 30
0
 70
128
 71
3
 72
4
 73
8
 74
7
 0
VERTEX
 8
CYLINDER_3
 10
0
 20
0
 30
0
 70
128
 71
99
 72
61
 73
65
 74
104
 0
VERTEX
 8
CYLINDER_3
 10
0
 20
0
 30
0
 70
128
 71
74
 72
5
 73
9
 74
75
 0
VERTEX
 8
CYLINDER_3
 10
0
 20
0
 30
0
 70
128
 71
5
 72
6
 73
10
 74
9
 0
VERTEX
 8
CYLINDER_3
 10
0
 20
0
 30
0
 70
128
 71
6
 72
7
 73
11
 74
10
 0
VERTEX
 8
CYLINDER_3
 10
0
 20
0
 30
0
 70
128
 71
7
 72
8
 73
12
 74
11
 0
VERTEX
 8
CYLINDER_3
 10
0
 20
0
 30
0
 70
128
 71
61
 72
62
 73
66
 74
65
 0
VERTEX
 8
CYLINDER_3
 10
0
 20
0
 30
0
 70
128
 71
75
 72
9
 73
13
 74
76
 0
VERTEX
 8
CYLINDER_3
 10
0
 20
0
 30
0
 70
128
 71
9
 72
10
 73
14
 74
13
 0
VERTEX
 8
CYLINDER_3
 10
0
 20
0
 30
0
 70
128
 71
11
 72
110
 73
111
 74
111
 0
VERTEX
 8
CYLINDER_3
 10
0
 20
0
 30
0
 70
128
 71
11
 72
15
 73
81
 74
110
 0
VERTEX
 8
CYLINDER_3
 10
0
 20
0
 30
0
 70
128
 71
11
 72
111
 73
10
 74
10
 0
VERTEX
 8
CYLINDER_3
 10
0
 20
0
 30
0
 70
128
 71
111
 72
109
 73
10
 74
10
 0
VERTEX
 8
CYLINDER_3
 10
0
 20
0
 30
0
 70
128
 71
10
 72
109
 73
80
 74
14
 0
VERTEX
 8
CYLINDER_3
 10
0
 20
0
 30
0
 70
128
 71
11
 72
12
 73
16
 74
15
 0
VERTEX
 8
CYLINDER_3
 10
0
 20
0
 30
0
 70
128
 71
67
 72
53
 73
108
 74
63
 0
VERTEX
 8
CYLINDER_3
 10
0
 20
0
 30
0
 70
128
 71
76
 72
13
 73
84
 74
84
 0
VERTEX
 8
CYLINDER_3
 10
0
 20
0
 30
0
 70
128
 71
13
 72
14
 73
77
 74
84
 0
VERTEX
 8
CYLINDER_3
 10
0
 20
0
 30
0
 70
128
 71
77
 72
14
 73
80
 74
80
 0
VERTEX
 8
CYLINDER_3
 10
0
 20
0
 30
0
 70
128
 71
117
 72
81
 73
15
 74
17
 0
VERTEX
 8
CYLINDER_3
 10
0
 20
0
 30
0
 70
128
 71
17
 72
79
 73
117
 74
117
 0
VERTEX
 8
CYLINDER_3
 10
0
 20
0
 30
0
 70
128
 71
15
 72
16
 73
18
 74
17
 0
VERTEX
 8
CYLINDER_3
 10
0
 20
0
 30
0
 70
128
 71
53
 72
67
 73
120
 74
120
 0
VERTEX
 8
CYLINDER_3
 10
0
 20
0
 30
0
 70
128
 71
79
 72
17
 73
20
 74
82
 0
VERTEX
 8
CYLINDER_3
 10
0
 20
0
 30
0
 70
128
 71
17
 72
18
 73
21
 74
20
 0
VERTEX
 8
CYLINDER_3
 10
0
 20
0
 30
0
 70
128
 71
67
 72
66
 73
120
 74
120
 0
VERTEX
 8
CYLINDER_3
 10
0
 20
0
 30
0
 70
128
 71
95
 72
62
 73
100
 74
100
 0
VERTEX
 8
CYLINDER_3
 10
0
 20
0
 30
0
 70
128
 71
82
 72
20
 73
23
 74
83
 0
VERTEX
 8
CYLINDER_3
 10
0
 20
0
 30
0
 70
128
 71
20
 72
21
 73
24
 74
23
 0
VERTEX
 8
CYLINDER_3
 10
0
 20
0
 30
0
 70
128
 71
66
 72
62
 73
95
 74
19
 0
VERTEX
 8
CYLINDER_3
 10
0
 20
0
 30
0
 70
128
 71
78
 72
25
 73
91
 74
91
 0
VERTEX
 8
CYLINDER_3
 10
0
 20
0
 30
0
 70
128
 71
85
 72
26
 73
25
 74
78
 0
VERTEX
 8
CYLINDER_3
 10
0
 20
0
 30
0
 70
128
 71
87
 72
26
 73
85
 74
85
 0
VERTEX
 8
CYLINDER_3
 10
0
 20
0
 30
0
 70
128
 71
83
 72
23
 73
115
 74
115
 0
VERTEX
 8
CYLINDER_3
 10
0
 20
0
 30
0
 70
128
 71
115
 72
23
 73
27
 74
88
 0
VERTEX
 8
CYLINDER_3
 10
0
 20
0
 30
0
 70
128
 71
23
 72
24
 73
28
 74
27
 0
VERTEX
 8
CYLINDER_3
 10
0
 20
0
 30
0
 70
128
 71
66
 72
19
 73
120
 74
120
 0
VERTEX
 8
CYLINDER_3
 10
0
 20
0
 30
0
 70
128
 71
25
 72
29
 73
89
 74
91
 0
VERTEX
 8
CYLINDER_3
 10
0
 20
0
 30
0
 70
128
 71
25
 72
26
 73
30
 74
29
 0
VERTEX
 8
CYLINDER_3
 10
0
 20
0
 30
0
 70
128
 71
31
 72
22
 73
88
 74
27
 0
VERTEX
 8
CYLINDER_3
 10
0
 20
0
 30
0
 70
128
 71
22
 72
31
 73
112
 74
112
 0
VERTEX
 8
CYLINDER_3
 10
0
 20
0
 30
0
 70
128
 71
31
 72
30
 73
112
 74
112
 0
VERTEX
 8
CYLINDER_3
 10
0
 20
0
 30
0
 70
128
 71
30
 72
26
 73
87
 74
118
 0
VERTEX
 8
CYLINDER_3
 10
0
 20
0
 30
0
 70
128
 71
30
 72
118
 73
112
 74
112
 0
VERTEX
 8
CYLINDER_3
 10
0
 20
0
 30
0
 70
128
 71
27
 72
28
 73
32
 74
31
 0
VERTEX
 8
CYLINDER_3
 10
0
 20
0
 30
0
 70
128
 71
63
 72
64
 73
68
 74
67
 0
VERTEX
 8
CYLINDER_3
 10
0
 20
0
 30
0
 70
128
 71
29
 72
33
 73
102
 74
89
 0
VERTEX
 8
CYLINDER_3
 10
0
 20
0
 30
0
 70
128
 71
29
 72
30
 73
34
 74
33
 0
VERTEX
 8
CYLINDER_3
 10
0
 20
0
 30
0
 70
128
 71
30
 72
31
 73
35
 74
34
 0
VERTEX
 8
CYLINDER_3
 10
0
 20
0
 30
0
 70
128
 71
31
 72
32
 73
36
 74
35
 0
VERTEX
 8
CYLINDER_3
 10
0
 20
0
 30
0
 70
128
 71
104
 72
65
 73
69
 74
107
 0
VERTEX
 8
CYLINDER_3
 10
0
 20
0
 30
0
 70
128
 71
37
 72
90
 73
102
 74
33
 0
VERTEX
 8
CYLINDER_3
 10
0
 20
0
 30
0
 70
128
 71
33
 72
34
 73
38
 74
37
 0
VERTEX
 8
CYLINDER_3
 10
0
 20
0
 30
0
 70
128
 71
34
 72
35
 73
39
 74
38
 0
VERTEX
 8
CYLINDER_3
 10
0
 20
0
 30
0
 70
128
 71
35
 72
36
 73
40
 74
39
 0
VERTEX
 8
CYLINDER_3
 10
0
 20
0
 30
0
 70
128
 71
65
 72
66
 73
70
 74
69
 0
VERTEX
 8
CYLINDER_3
 10
0
 20
0
 30
0
 70
128
 71
97
 72
90
 73
37
 74
41
 0
VERTEX
 8
CYLINDER_3
 10
0
 20
0
 30
0
 70
128
 71
37
 72
38
 73
42
 74
41
 0
VERTEX
 8
CYLINDER_3
 10
0
 20
0
 30
0
 70
128
 71
38
 72
39
 73
43
 74
42
 0
VERTEX
 8
CYLINDER_3
 10
0
 20
0
 30
0
 70
128
 71
39
 72
40
 73
44
 74
43
 0
VERTEX
 8
CYLINDER_3
 10
0
 20
0
 30
0
 70
128
 71
66
 72
67
 73
71
 74
70
 0
VERTEX
 8
CYLINDER_3
 10
0
 20
0
 30
0
 70
128
 71
41
 72
45
 73
86
 74
97
 0
VERTEX
 8
CYLINDER_3
 10
0
 20
0
 30
0
 70
128
 71
41
 72
42
 73
46
 74
45
 0
VERTEX
 8
CYLINDER_3
 10
0
 20
0
 30
0
 70
128
 71
42
 72
43
 73
47
 74
46
 0
VERTEX
 8
CYLINDER_3
 10
0
 20
0
 30
0
 70
128
 71
43
 72
44
 73
48
 74
47
 0
VERTEX
 8
CYLINDER_3
 10
0
 20
0
 30
0
 70
128
 71
67
 72
68
 73
72
 74
71
 0
VERTEX
 8
CYLINDER_3
 10
0
 20
0
 30
0
 70
128
 71
45
 72
49
 73
92
 74
86
 0
VERTEX
 8
CYLINDER_3
 10
0
 20
0
 30
0
 70
128
 71
45
 72
46
 73
50
 74
49
 0
VERTEX
 8
CYLINDER_3
 10
0
 20
0
 30
0
 70
128
 71
47
 72
116
 73
113
 74
113
 0
VERTEX
 8
CYLINDER_3
 10
0
 20
0
 30
0
 70
128
 71
47
 72
51
 73
101
 74
116
 0
VERTEX
 8
CYLINDER_3
 10
0
 20
0
 30
0
 70
128
 71
47
 72
113
 73
46
 74
46
 0
VERTEX
 8
CYLINDER_3
 10
0
 20
0
 30
0
 70
128
 71
113
 72
114
 73
46
 74
46
 0
VERTEX
 8
CYLINDER_3
 10
0
 20
0
 30
0
 70
128
 71
46
 72
114
 73
93
 74
50
 0
VERTEX
 8
CYLINDER_3
 10
0
 20
0
 30
0
 70
128
 71
47
 72
48
 73
52
 74
51
 0
VERTEX
 8
CYLINDER_3
 10
0
 20
0
 30
0
 70
128
 71
1
 72
73
 73
107
 74
69
 0
VERTEX
 8
CYLINDER_3
 10
0
 20
0
 30
0
 70
128
 71
92
 72
49
 73
98
 74
98
 0
VERTEX
 8
CYLINDER_3
 10
0
 20
0
 30
0
 70
128
 71
98
 72
49
 73
50
 74
94
 0
VERTEX
 8
CYLINDER_3
 10
0
 20
0
 30
0
 70
128
 71
119
 72
101
 73
51
 74
54
 0
VERTEX
 8
CYLINDER_3
 10
0
 20
0
 30
0
 70
128
 71
54
 72
96
 73
119
 74
119
 0
VERTEX
 8
CYLINDER_3
 10
0
 20
0
 30
0
 70
128
 71
94
 72
50
 73
93
 74
93
 0
VERTEX
 8
CYLINDER_3
 10
0
 20
0
 30
0
 70
128
 71
51
 72
52
 73
55
 74
54
 0
VERTEX
 8
CYLINDER_3
 10
0
 20
0
 30
0
 70
128
 71
69
 72
70
 73
2
 74
1
 0
VERTEX
 8
CYLINDER_3
 10
0
 20
0
 30
0
 70
128
 71
59
 72
60
 73
64
 74
63
 0
VERTEX
 8
CYLINDER_3
 10
0
 20
0
 30
0
 70
128
 71
96
 72
54
 73
57
 74
106
 0
VERTEX
 8
CYLINDER_3
 10
0
 20
0
 30
0
 70
128
 71
54
 72
55
 73
58
 74
57
 0
VERTEX
 8
CYLINDER_3
 10
0
 20
0
 30
0
 70
128
 71
70
 72
71
 73
3
 74
2
 0
VERTEX
 8
CYLINDER_3
 10
0
 20
0
 30
0
 70
128
 71
106
 72
57
 73
59
 74
103
 0
VERTEX
 8
CYLINDER_3
 10
0
 20
0
 30
0
 70
128
 71
57
 72
58
 73
60
 74
59
 0
VERTEX
 8
CYLINDER_3
 10
0
 20
0
 30
0
 70
128
 71
71
 72
72
 73
4
 74
3
 0
VERTEX
 8
CYLINDER_3
 10
0
 20
0
 30
0
 70
128
 71
105
 72
61
 73
99
 74
99
 0
VERTEX
 8
CYLINDER_3
 10
0
 20
0
 30
0
 70
128
 71
62
 72
61
 73
105
 74
100
 0
VERTEX
 8
CYLINDER_3
 10
0
 20
0
 30
0
 70
128
 71
63
 72
108
 73
56
 74
59
 0
VERTEX
 8
CYLINDER_3
 10
0
 20
0
 30
0
 70
128
 71
56
 72
103
 73
59
 74
59
 0
SEQEND
 0
POLYLINE
 8
CYLINDER_4
 66
1
 10
0.0
 20
0.0
 30
0.0
 70
64
 71
52
 72
32
 0
VERTEX
 8
CYLINDER_4
 10
0.104
 20
-0.178
 30
24.7036
 70
192
 0
VERTEX
 8
CYLINDER_4
 10
-0.136
 20
0.7177
 30
23.9231
 70
192
 0
VERTEX
 8
CYLINDER_4
 10
-0.376
 20
0.302
 30
24.9455
 70
192
 0
VERTEX
 8
CYLINDER_4
 10
0.344
 20
-0.1137
 30
24.7679
 70
192
 0
VERTEX
 8
CYLINDER_4
 10
0.344
 20
0.7177
 30
24.7679
 70
192
 0
VERTEX
 8
CYLINDER_4
 10
0.344
 20
0.7177
 30
23.9231
 70
192
 0
VERTEX
 8
CYLINDER_4
 10
-0.3117
 20
0.062
 30
24.8884
 70
192
 0
VERTEX
 8
CYLINDER_4
 10
-0.136
 20
-0.1137
 30
24.7679
 70
192
 0
VERTEX
 8
CYLINDER_4
 10
-0.376
 20
0.302
 30
23.7455
 70
192
 0
VERTEX
 8
CYLINDER_4
 10
0.104
 20
0.782
 30
24.7036
 70
192
 0
VERTEX
 8
CYLINDER_4
 10
0.104
 20
-0.178
 30
23.9875
 70
192
 0
VERTEX
 8
CYLINDER_4
 10
-0.3117
 20
0.542
 30
24.8884
 70
192
 0
VERTEX
 8
CYLINDER_4
 10
-0.3117
 20
0.542
 30
23.8027
 70
192
 0
VERTEX
 8
CYLINDER_4
 10
-0.136
 20
0.7177
 30
24.7679
 70
192
 0
VERTEX
 8
CYLINDER_4
 10
-0.3117
 20
0.062
 30
23.8027
 70
192
 0
VERTEX
 8
CYLINDER_4
 10
0.344
 20
-0.1137
 30
23.9231
 70
192
 0
VERTEX
 8
CYLINDER_4
 10
0.104
 20
0.782
 30
23.9875
 70
192
 0
VERTEX
 8
CYLINDER_4
 10
-0.136
 20
-0.1137
 30
23.9231
 70
192
 0
VERTEX
 8
CYLINDER_4
 10
0.4942
 20
0.0365
 30
24.8754
 70
192
 0
VERTEX
 8
CYLINDER_4
 10
0.5142
 20
0.0565
 30
24.4253
 70
192
 0
VERTEX
 8
CYLINDER_4
 10
0.5142
 20
0.0565
 30
24.5239
 70
192
 0
VERTEX
 8
CYLINDER_4
 10
0.5142
 20
0.0565
 30
24.8634
 70
192
 0
VERTEX
 8
CYLINDER_4
 10
0.5142
 20
0.0565
 30
24.6834
 70
192
 0
VERTEX
 8
CYLINDER_4
 10
0.407
 20
-0.0507
 30
24.8309
 70
192
 0
VERTEX
 8
CYLINDER_4
 10
0.407
 20
0.6547
 30
24.8309
 70
192
 0
VERTEX
 8
CYLINDER_4
 10
0.4942
 20
0.5675
 30
24.8754
 70
192
 0
VERTEX
 8
CYLINDER_4
 10
0.5142
 20
0.5475
 30
24.8634
 70
192
 0
VERTEX
 8
CYLINDER_4
 10
0.5142
 20
0.5475
 30
24.6834
 70
192
 0
VERTEX
 8
CYLINDER_4
 10
0.5142
 20
0.0565
 30
24.3455
 70
192
 0
VERTEX
 8
CYLINDER_4
 10
-0.199
 20
-0.0507
 30
24.8309
 70
192
 0
VERTEX
 8
CYLINDER_4
 10
0.5142
 20
0.5475
 30
24.3455
 70
192
 0
VERTEX
 8
CYLINDER_4
 10
0.5142
 20
0.5475
 30
24.1672
 70
192
 0
VERTEX
 8
CYLINDER_4
 10
-0.3263
 20
0.1166
 30
24.9162
 70
192
 0
VERTEX
 8
CYLINDER_4
 10
0.407
 20
0.6547
 30
23.8601
 70
192
 0
VERTEX
 8
CYLINDER_4
 10
-0.3263
 20
0.4874
 30
24.9162
 70
192
 0
VERTEX
 8
CYLINDER_4
 10
0.5142
 20
0.5475
 30
24.2658
 70
192
 0
VERTEX
 8
CYLINDER_4
 10
0.5142
 20
0.5475
 30
23.8277
 70
192
 0
VERTEX
 8
CYLINDER_4
 10
0.5142
 20
0.5475
 30
24.0077
 70
192
 0
VERTEX
 8
CYLINDER_4
 10
-0.199
 20
0.6547
 30
23.8601
 70
192
 0
VERTEX
 8
CYLINDER_4
 10
-0.199
 20
0.6547
 30
24.8309
 70
192
 0
VERTEX
 8
CYLINDER_4
 10
0.5142
 20
0.5475
 30
24.5239
 70
192
 0
VERTEX
 8
CYLINDER_4
 10
0.4942
 20
0.5675
 30
23.8157
 70
192
 0
VERTEX
 8
CYLINDER_4
 10
0.5142
 20
0.0565
 30
24.0077
 70
192
 0
VERTEX
 8
CYLINDER_4
 10
0.5142
 20
0.0565
 30
23.8277
 70
192
 0
VERTEX
 8
CYLINDER_4
 10
0.5142
 20
0.5475
 30
24.4253
 70
192
 0
VERTEX
 8
CYLINDER_4
 10
-0.3263
 20
0.4874
 30
23.7749
 70
192
 0
VERTEX
 8
CYLINDER_4
 10
-0.199
 20
-0.0507
 30
23.8601
 70
192
 0
VERTEX
 8
CYLINDER_4
 10
0.5142
 20
0.0565
 30
24.1672
 70
192
 0
VERTEX
 8
CYLINDER_4
 10
-0.3263
 20
0.1166
 30
23.7749
 70
192
 0
VERTEX
 8
CYLINDER_4
 10
0.407
 20
-0.0507
 30
23.8601
 70
192
 0
VERTEX
 8
CYLINDER_4
 10
0.4942
 20
0.0365
 30
23.8157
 70
192
 0
VERTEX
 8
CYLINDER_4
 10
0.5142
 20
0.0565
 30
24.2658
 70
192
 0
VERTEX
 8
CYLINDER_4
 10
0
 20
0
 30
0
 70
128
 71
16
 72
4
 73
1
 74
11
 0
VERTEX
 8
CYLINDER_4
 10
0
 20
0
 30
0
 70
128
 71
20
 72
4
 73
29
 74
29
 0
VERTEX
 8
CYLINDER_4
 10
0
 20
0
 30
0
 70
128
 71
4
 72
21
 73
23
 74
24
 0
VERTEX
 8
CYLINDER_4
 10
0
 20
0
 30
0
 70
128
 71
23
 72
22
 73
19
 74
24
 0
VERTEX
 8
CYLINDER_4
 10
0
 20
0
 30
0
 70
128
 71
29
 72
4
 73
16
 74
52
 0
VERTEX
 8
CYLINDER_4
 10
0
 20
0
 30
0
 70
128
 71
20
 72
21
 73
4
 74
4
 0
VERTEX
 8
CYLINDER_4
 10
0
 20
0
 30
0
 70
128
 71
43
 72
48
 73
16
 74
50
 0
VERTEX
 8
CYLINDER_4
 10
0
 20
0
 30
0
 70
128
 71
16
 72
48
 73
52
 74
52
 0
VERTEX
 8
CYLINDER_4
 10
0
 20
0
 30
0
 70
128
 71
43
 72
50
 73
51
 74
44
 0
VERTEX
 8
CYLINDER_4
 10
0
 20
0
 30
0
 70
128
 71
31
 72
36
 73
6
 74
5
 0
VERTEX
 8
CYLINDER_4
 10
0
 20
0
 30
0
 70
128
 71
6
 72
32
 73
38
 74
34
 0
VERTEX
 8
CYLINDER_4
 10
0
 20
0
 30
0
 70
128
 71
38
 72
37
 73
42
 74
34
 0
VERTEX
 8
CYLINDER_4
 10
0
 20
0
 30
0
 70
128
 71
5
 72
25
 73
28
 74
41
 0
VERTEX
 8
CYLINDER_4
 10
0
 20
0
 30
0
 70
128
 71
36
 72
32
 73
6
 74
6
 0
VERTEX
 8
CYLINDER_4
 10
0
 20
0
 30
0
 70
128
 71
5
 72
41
 73
45
 74
45
 0
VERTEX
 8
CYLINDER_4
 10
0
 20
0
 30
0
 70
128
 71
5
 72
45
 73
31
 74
31
 0
VERTEX
 8
CYLINDER_4
 10
0
 20
0
 30
0
 70
128
 71
28
 72
25
 73
26
 74
27
 0
VERTEX
 8
CYLINDER_4
 10
0
 20
0
 30
0
 70
128
 71
12
 72
14
 73
2
 74
13
 0
VERTEX
 8
CYLINDER_4
 10
0
 20
0
 30
0
 70
128
 71
2
 72
39
 73
13
 74
13
 0
VERTEX
 8
CYLINDER_4
 10
0
 20
0
 30
0
 70
128
 71
13
 72
9
 73
3
 74
12
 0
VERTEX
 8
CYLINDER_4
 10
0
 20
0
 30
0
 70
128
 71
17
 72
10
 73
5
 74
6
 0
VERTEX
 8
CYLINDER_4
 10
0
 20
0
 30
0
 70
128
 71
10
 72
17
 73
2
 74
14
 0
VERTEX
 8
CYLINDER_4
 10
0
 20
0
 30
0
 70
128
 71
12
 72
40
 73
14
 74
14
 0
VERTEX
 8
CYLINDER_4
 10
0
 20
0
 30
0
 70
128
 71
3
 72
35
 73
12
 74
12
 0
VERTEX
 8
CYLINDER_4
 10
0
 20
0
 30
0
 70
128
 71
46
 72
9
 73
13
 74
13
 0
VERTEX
 8
CYLINDER_4
 10
0
 20
0
 30
0
 70
128
 71
3
 72
7
 73
33
 74
33
 0
VERTEX
 8
CYLINDER_4
 10
0
 20
0
 30
0
 70
128
 71
3
 72
9
 73
15
 74
7
 0
VERTEX
 8
CYLINDER_4
 10
0
 20
0
 30
0
 70
128
 71
9
 72
49
 73
15
 74
15
 0
VERTEX
 8
CYLINDER_4
 10
0
 20
0
 30
0
 70
128
 71
47
 72
18
 73
15
 74
15
 0
VERTEX
 8
CYLINDER_4
 10
0
 20
0
 30
0
 70
128
 71
18
 72
8
 73
7
 74
15
 0
VERTEX
 8
CYLINDER_4
 10
0
 20
0
 30
0
 70
128
 71
1
 72
8
 73
18
 74
11
 0
VERTEX
 8
CYLINDER_4
 10
0
 20
0
 30
0
 70
128
 71
8
 72
30
 73
7
 74
7
 0
SEQEND
 0
POLYLINE
 8
CYLINDER_5
 66
1
 10
0.0
 20
0.0
 30
0.0
 70
64
 71
80
 72
60
 0
VERTEX
 8
CYLINDER_5
 10
-0.6745
 20
-0.278
 30
24.3455
 70
192
 0
VERTEX
 8
CYLINDER_5
 10
-0.6945
 20
-0.298
 30
24.3455
 70
192
 0
VERTEX
 8
CYLINDER_5
 10
-2.2545
 20
-0.298
 30
24.3455
 70
192
 0
VERTEX
 8
CYLINDER_5
 10
-2.2745
 20
-0.278
 30
24.3455
 70
192
 0
VERTEX
 8
CYLINDER_5
 10
-0.6745
 20
-0.2496
 30
24.5248
 70
192
 0
VERTEX
 8
CYLINDER_5
 10
-0.6945
 20
-0.2686
 30
24.5309
 70
192
 0
VERTEX
 8
CYLINDER_5
 10
-2.2545
 20
-0.2686
 30
24.5309
 70
192
 0
VERTEX
 8
CYLINDER_5
 10
-2.2745
 20
-0.2496
 30
24.5248
 70
192
 0
VERTEX
 8
CYLINDER_5
 10
-0.6745
 20
-0.1672
 30
24.6865
 70
192
 0
VERTEX
 8
CYLINDER_5
 10
-0.6945
 20
-0.1834
 30
24.6982
 70
192
 0
VERTEX
 8
CYLINDER_5
 10
-2.2545
 20
-0.1834
 30
24.6982
 70
192
 0
VERTEX
 8
CYLINDER_5
 10
-2.2745
 20
-0.1672
 30
24.6865
 70
192
 0
VERTEX
 8
CYLINDER_5
 10
-0.6745
 20
-0.0389
 30
24.8148
 70
192
 0
VERTEX
 8
CYLINDER_5
 10
-0.6945
 20
-0.0507
 30
24.8309
 70
192
 0
VERTEX
 8
CYLINDER_5
 10
-2.2545
 20
-0.0507
 30
24.8309
 70
192
 0
VERTEX
 8
CYLINDER_5
 10
-2.2745
 20
-0.0389
 30
24.8148
 70
192
 0
VERTEX
 8
CYLINDER_5
 10
-0.6745
 20
0.1228
 30
24.8972
 70
192
 0
VERTEX
 8
CYLINDER_5
 10
-0.6945
 20
0.1166
 30
24.9162
 70
192
 0
VERTEX
 8
CYLINDER_5
 10
-2.2545
 20
0.1166
 30
24.9162
 70
192
 0
VERTEX
 8
CYLINDER_5
 10
-2.2745
 20
0.1228
 30
24.8972
 70
192
 0
VERTEX
 8
CYLINDER_5
 10
-0.6745
 20
0.302
 30
24.9255
 70
192
 0
VERTEX
 8
CYLINDER_5
 10
-0.6945
 20
0.302
 30
24.9455
 70
192
 0
VERTEX
 8
CYLINDER_5
 10
-2.2545
 20
0.302
 30
24.9455
 70
192
 0
VERTEX
 8
CYLINDER_5
 10
-2.2745
 20
0.302
 30
24.9255
 70
192
 0
VERTEX
 8
CYLINDER_5
 10
-0.6745
 20
0.4813
 30
24.8972
 70
192
 0
VERTEX
 8
CYLINDER_5
 10
-0.6945
 20
0.4874
 30
24.9162
 70
192
 0
VERTEX
 8
CYLINDER_5
 10
-2.2545
 20
0.4874
 30
24.9162
 70
192
 0
VERTEX
 8
CYLINDER_5
 10
-2.2745
 20
0.4813
 30
24.8972
 70
192
 0
VERTEX
 8
CYLINDER_5
 10
-0.6745
 20
0.6429
 30
24.8148
 70
192
 0
VERTEX
 8
CYLINDER_5
 10
-0.6945
 20
0.6547
 30
24.8309
 70
192
 0
VERTEX
 8
CYLINDER_5
 10
-2.2545
 20
0.6547
 30
24.8309
 70
192
 0
VERTEX
 8
CYLINDER_5
 10
-2.2745
 20
0.6429
 30
24.8148
 70
192
 0
VERTEX
 8
CYLINDER_5
 10
-0.6745
 20
0.7713
 30
24.6865
 70
192
 0
VERTEX
 8
CYLINDER_5
 10
-0.6945
 20
0.7874
 30
24.6982
 70
192
 0
VERTEX
 8
CYLINDER_5
 10
-2.2545
 20
0.7874
 30
24.6982
 70
192
 0
VERTEX
 8
CYLINDER_5
 10
-2.2745
 20
0.7713
 30
24.6865
 70
192
 0
VERTEX
 8
CYLINDER_5
 10
-0.6745
 20
0.8536
 30
24.5248
 70
192
 0
VERTEX
 8
CYLINDER_5
 10
-0.6945
 20
0.8727
 30
24.5309
 70
192
 0
VERTEX
 8
CYLINDER_5
 10
-2.2545
 20
0.8727
 30
24.5309
 70
192
 0
VERTEX
 8
CYLINDER_5
 10
-2.2745
 20
0.8536
 30
24.5248
 70
192
 0
VERTEX
 8
CYLINDER_5
 10
-0.6745
 20
0.882
 30
24.3455
 70
192
 0
VERTEX
 8
CYLINDER_5
 10
-0.6945
 20
0.902
 30
24.3455
 70
192
 0
VERTEX
 8
CYLINDER_5
 10
-2.2545
 20
0.902
 30
24.3455
 70
192
 0
VERTEX
 8
CYLINDER_5
 10
-2.2745
 20
0.882
 30
24.3455
 70
192
 0
VERTEX
 8
CYLINDER_5
 10
-0.6745
 20
0.8536
 30
24.1663
 70
192
 0
VERTEX
 8
CYLINDER_5
 10
-0.6945
 20
0.8727
 30
24.1601
 70
192
 0
VERTEX
 8
CYLINDER_5
 10
-2.2545
 20
0.8727
 30
24.1601
 70
192
 0
VERTEX
 8
CYLINDER_5
 10
-2.2745
 20
0.8536
 30
24.1663
 70
192
 0
VERTEX
 8
CYLINDER_5
 10
-0.6745
 20
0.7713
 30
24.0046
 70
192
 0
VERTEX
 8
CYLINDER_5
 10
-0.6945
 20
0.7874
 30
23.9929
 70
192
 0
VERTEX
 8
CYLINDER_5
 10
-2.2545
 20
0.7874
 30
23.9929
 70
192
 0
VERTEX
 8
CYLINDER_5
 10
-2.2745
 20
0.7713
 30
24.0046
 70
192
 0
VERTEX
 8
CYLINDER_5
 10
-0.6745
 20
0.6429
 30
23.8763
 70
192
 0
VERTEX
 8
CYLINDER_5
 10
-0.6945
 20
0.6547
 30
23.8601
 70
192
 0
VERTEX
 8
CYLINDER_5
 10
-2.2545
 20
0.6547
 30
23.8601
 70
192
 0
VERTEX
 8
CYLINDER_5
 10
-2.2745
 20
0.6429
 30
23.8763
 70
192
 0
VERTEX
 8
CYLINDER_5
 10
-0.6745
 20
0.4813
 30
23.7939
 70
192
 0
VERTEX
 8
CYLINDER_5
 10
-0.6945
 20
0.4874
 30
23.7749
 70
192
 0
VERTEX
 8
CYLINDER_5
 10
-2.2545
 20
0.4874
 30
23.7749
 70
192
 0
VERTEX
 8
CYLINDER_5
 10
-2.2745
 20
0.4813
 30
23.7939
 70
192
 0
VERTEX
 8
CYLINDER_5
 10
-0.6745
 20
0.302
 30
23.7655
 70
192
 0
VERTEX
 8
CYLINDER_5
 10
-0.6945
 20
0.302
 30
23.7455
 70
192
 0
VERTEX
 8
CYLINDER_5
 10
-2.2545
 20
0.302
 30
23.7455
 70
192
 0
VERTEX
 8
CYLINDER_5
 10
-2.2745
 20
0.302
 30
23.7655
 70
192
 0
VERTEX
 8
CYLINDER_5
 10
-0.6745
 20
0.1228
 30
23.7939
 70
192
 0
VERTEX
 8
CYLINDER_5
 10
-0.6945
 20
0.1166
 30
23.7749
 70
192
 0
VERTEX
 8
CYLINDER_5
 10
-2.2545
 20
0.1166
 30
23.7749
 70
192
 0
VERTEX
 8
CYLINDER_5
 10
-2.2745
 20
0.1228
 30
23.7939
 70
192
 0
VERTEX
 8
CYLINDER_5
 10
-0.6745
 20
-0.0389
 30
23.8763
 70
192
 0
VERTEX
 8
CYLINDER_5
 10
-0.6945
 20
-0.0507
 30
23.8601
 70
192
 0
VERTEX
 8
CYLINDER_5
 10
-2.2545
 20
-0.0507
 30
23.8601
 70
192
 0
VERTEX
 8
CYLINDER_5
 10
-2.2745
 20
-0.0389
 30
23.8763
 70
192
 0
VERTEX
 8
CYLINDER_5
 10
-0.6745
 20
-0.1672
 30
24.0046
 70
192
 0
VERTEX
 8
CYLINDER_5
 10
-0.6945
 20
-0.1834
 30
23.9929
 70
192
 0
VERTEX
 8
CYLINDER_5
 10
-2.2545
 20
-0.1834
 30
23.9929
 70
192
 0
VERTEX
 8
CYLINDER_5
 10
-2.2745
 20
-0.1672
 30
24.0046
 70
192
 0
VERTEX
 8
CYLINDER_5
 10
-0.6745
 20
-0.2496
 30
24.1663
 70
192
 0
VERTEX
 8
CYLINDER_5
 10
-0.6945
 20
-0.2686
 30
24.1601
 70
192
 0
VERTEX
 8
CYLINDER_5
 10
-2.2545
 20
-0.2686
 30
24.1601
 70
192
 0
VERTEX
 8
CYLINDER_5
 10
-2.2745
 20
-0.2496
 30
24.1663
 70
192
 0
VERTEX
 8
CYLINDER_5
 10
0
 20
0
 30
0
 70
128
 71
65
 72
66
 73
70
 74
69
 0
VERTEX
 8
CYLINDER_5
 10
0
 20
0
 30
0
 70
128
 71
1
 72
2
 73
6
 74
5
 0
VERTEX
 8
CYLINDER_5
 10
0
 20
0
 30
0
 70
128
 71
2
 72
3
 73
7
 74
6
 0
VERTEX
 8
CYLINDER_5
 10
0
 20
0
 30
0
 70
128
 71
3
 72
4
 73
8
 74
7
 0
VERTEX
 8
CYLINDER_5
 10
0
 20
0
 30
0
 70
128
 71
77
 72
78
 73
2
 74
1
 0
VERTEX
 8
CYLINDER_5
 10
0
 20
0
 30
0
 70
128
 71
66
 72
67
 73
71
 74
70
 0
VERTEX
 8
CYLINDER_5
 10
0
 20
0
 30
0
 70
128
 71
5
 72
6
 73
10
 74
9
 0
VERTEX
 8
CYLINDER_5
 10
0
 20
0
 30
0
 70
128
 71
6
 72
7
 73
11
 74
10
 0
VERTEX
 8
CYLINDER_5
 10
0
 20
0
 30
0
 70
128
 71
7
 72
8
 73
12
 74
11
 0
VERTEX
 8
CYLINDER_5
 10
0
 20
0
 30
0
 70
128
 71
49
 72
50
 73
54
 74
53
 0
VERTEX
 8
CYLINDER_5
 10
0
 20
0
 30
0
 70
128
 71
67
 72
68
 73
72
 74
71
 0
VERTEX
 8
CYLINDER_5
 10
0
 20
0
 30
0
 70
128
 71
9
 72
10
 73
14
 74
13
 0
VERTEX
 8
CYLINDER_5
 10
0
 20
0
 30
0
 70
128
 71
10
 72
11
 73
15
 74
14
 0
VERTEX
 8
CYLINDER_5
 10
0
 20
0
 30
0
 70
128
 71
11
 72
12
 73
16
 74
15
 0
VERTEX
 8
CYLINDER_5
 10
0
 20
0
 30
0
 70
128
 71
50
 72
51
 73
55
 74
54
 0
VERTEX
 8
CYLINDER_5
 10
0
 20
0
 30
0
 70
128
 71
51
 72
52
 73
56
 74
55
 0
VERTEX
 8
CYLINDER_5
 10
0
 20
0
 30
0
 70
128
 71
13
 72
14
 73
18
 74
17
 0
VERTEX
 8
CYLINDER_5
 10
0
 20
0
 30
0
 70
128
 71
14
 72
15
 73
19
 74
18
 0
VERTEX
 8
CYLINDER_5
 10
0
 20
0
 30
0
 70
128
 71
15
 72
16
 73
20
 74
19
 0
VERTEX
 8
CYLINDER_5
 10
0
 20
0
 30
0
 70
128
 71
78
 72
79
 73
3
 74
2
 0
VERTEX
 8
CYLINDER_5
 10
0
 20
0
 30
0
 70
128
 71
69
 72
70
 73
74
 74
73
 0
VERTEX
 8
CYLINDER_5
 10
0
 20
0
 30
0
 70
128
 71
17
 72
18
 73
22
 74
21
 0
VERTEX
 8
CYLINDER_5
 10
0
 20
0
 30
0
 70
128
 71
18
 72
19
 73
23
 74
22
 0
VERTEX
 8
CYLINDER_5
 10
0
 20
0
 30
0
 70
128
 71
19
 72
20
 73
24
 74
23
 0
VERTEX
 8
CYLINDER_5
 10
0
 20
0
 30
0
 70
128
 71
53
 72
54
 73
58
 74
57
 0
VERTEX
 8
CYLINDER_5
 10
0
 20
0
 30
0
 70
128
 71
70
 72
71
 73
75
 74
74
 0
VERTEX
 8
CYLINDER_5
 10
0
 20
0
 30
0
 70
128
 71
21
 72
22
 73
26
 74
25
 0
VERTEX
 8
CYLINDER_5
 10
0
 20
0
 30
0
 70
128
 71
22
 72
23
 73
27
 74
26
 0
VERTEX
 8
CYLINDER_5
 10
0
 20
0
 30
0
 70
128
 71
23
 72
24
 73
28
 74
27
 0
VERTEX
 8
CYLINDER_5
 10
0
 20
0
 30
0
 70
128
 71
54
 72
55
 73
59
 74
58
 0
VERTEX
 8
CYLINDER_5
 10
0
 20
0
 30
0
 70
128
 71
71
 72
72
 73
76
 74
75
 0
VERTEX
 8
CYLINDER_5
 10
0
 20
0
 30
0
 70
128
 71
25
 72
26
 73
30
 74
29
 0
VERTEX
 8
CYLINDER_5
 10
0
 20
0
 30
0
 70
128
 71
26
 72
27
 73
31
 74
30
 0
VERTEX
 8
CYLINDER_5
 10
0
 20
0
 30
0
 70
128
 71
27
 72
28
 73
32
 74
31
 0
VERTEX
 8
CYLINDER_5
 10
0
 20
0
 30
0
 70
128
 71
55
 72
56
 73
60
 74
59
 0
VERTEX
 8
CYLINDER_5
 10
0
 20
0
 30
0
 70
128
 71
79
 72
80
 73
4
 74
3
 0
VERTEX
 8
CYLINDER_5
 10
0
 20
0
 30
0
 70
128
 71
29
 72
30
 73
34
 74
33
 0
VERTEX
 8
CYLINDER_5
 10
0
 20
0
 30
0
 70
128
 71
30
 72
31
 73
35
 74
34
 0
VERTEX
 8
CYLINDER_5
 10
0
 20
0
 30
0
 70
128
 71
31
 72
32
 73
36
 74
35
 0
VERTEX
 8
CYLINDER_5
 10
0
 20
0
 30
0
 70
128
 71
57
 72
58
 73
62
 74
61
 0
VERTEX
 8
CYLINDER_5
 10
0
 20
0
 30
0
 70
128
 71
73
 72
74
 73
78
 74
77
 0
VERTEX
 8
CYLINDER_5
 10
0
 20
0
 30
0
 70
128
 71
33
 72
34
 73
38
 74
37
 0
VERTEX
 8
CYLINDER_5
 10
0
 20
0
 30
0
 70
128
 71
34
 72
35
 73
39
 74
38
 0
VERTEX
 8
CYLINDER_5
 10
0
 20
0
 30
0
 70
128
 71
35
 72
36
 73
40
 74
39
 0
VERTEX
 8
CYLINDER_5
 10
0
 20
0
 30
0
 70
128
 71
58
 72
59
 73
63
 74
62
 0
VERTEX
 8
CYLINDER_5
 10
0
 20
0
 30
0
 70
128
 71
74
 72
75
 73
79
 74
78
 0
VERTEX
 8
CYLINDER_5
 10
0
 20
0
 30
0
 70
128
 71
37
 72
38
 73
42
 74
41
 0
VERTEX
 8
CYLINDER_5
 10
0
 20
0
 30
0
 70
128
 71
38
 72
39
 73
43
 74
42
 0
VERTEX
 8
CYLINDER_5
 10
0
 20
0
 30
0
 70
128
 71
39
 72
40
 73
44
 74
43
 0
VERTEX
 8
CYLINDER_5
 10
0
 20
0
 30
0
 70
128
 71
59
 72
60
 73
64
 74
63
 0
VERTEX
 8
CYLINDER_5
 10
0
 20
0
 30
0
 70
128
 71
75
 72
76
 73
80
 74
79
 0
VERTEX
 8
CYLINDER_5
 10
0
 20
0
 30
0
 70
128
 71
41
 72
42
 73
46
 74
45
 0
VERTEX
 8
CYLINDER_5
 10
0
 20
0
 30
0
 70
128
 71
42
 72
43
 73
47
 74
46
 0
VERTEX
 8
CYLINDER_5
 10
0
 20
0
 30
0
 70
128
 71
43
 72
44
 73
48
 74
47
 0
VERTEX
 8
CYLINDER_5
 10
0
 20
0
 30
0
 70
128
 71
61
 72
62
 73
66
 74
65
 0
VERTEX
 8
CYLINDER_5
 10
0
 20
0
 30
0
 70
128
 71
62
 72
63
 73
67
 74
66
 0
VERTEX
 8
CYLINDER_5
 10
0
 20
0
 30
0
 70
128
 71
45
 72
46
 73
50
 74
49
 0
VERTEX
 8
CYLINDER_5
 10
0
 20
0
 30
0
 70
128
 71
46
 72
47
 73
51
 74
50
 0
VERTEX
 8
CYLINDER_5
 10
0
 20
0
 30
0
 70
128
 71
47
 72
48
 73
52
 74
51
 0
VERTEX
 8
CYLINDER_5
 10
0
 20
0
 30
0
 70
128
 71
63
 72
64
 73
68
 74
67
 0
SEQEND
 0
POLYLINE
 8
CYLINDER_6
 66
1
 10
0.0
 20
0.0
 30
0.0
 70
64
 71
81
 72
80
 0
VERTEX
 8
CYLINDER_6
 10
-3.0779
 20
0.302
 30
24.3455
 70
192
 0
VERTEX
 8
CYLINDER_6
 10
-2.2779
 20
-0.278
 30
24.3455
 70
192
 0
VERTEX
 8
CYLINDER_6
 10
-2.2979
 20
-0.298
 30
24.3455
 70
192
 0
VERTEX
 8
CYLINDER_6
 10
-3.0579
 20
-0.298
 30
24.3455
 70
192
 0
VERTEX
 8
CYLINDER_6
 10
-3.0779
 20
-0.278
 30
24.3455
 70
192
 0
VERTEX
 8
CYLINDER_6
 10
-2.2779
 20
-0.2496
 30
24.5248
 70
192
 0
VERTEX
 8
CYLINDER_6
 10
-2.2979
 20
-0.2686
 30
24.5309
 70
192
 0
VERTEX
 8
CYLINDER_6
 10
-3.0579
 20
-0.2686
 30
24.5309
 70
192
 0
VERTEX
 8
CYLINDER_6
 10
-3.0779
 20
-0.2496
 30
24.5248
 70
192
 0
VERTEX
 8
CYLINDER_6
 10
-2.2779
 20
-0.1672
 30
24.6865
 70
192
 0
VERTEX
 8
CYLINDER_6
 10
-2.2979
 20
-0.1834
 30
24.6982
 70
192
 0
VERTEX
 8
CYLINDER_6
 10
-3.0579
 20
-0.1834
 30
24.6982
 70
192
 0
VERTEX
 8
CYLINDER_6
 10
-3.0779
 20
-0.1672
 30
24.6865
 70
192
 0
VERTEX
 8
CYLINDER_6
 10
-2.2779
 20
-0.0389
 30
24.8148
 70
192
 0
VERTEX
 8
CYLINDER_6
 10
-2.2979
 20
-0.0507
 30
24.8309
 70
192
 0
VERTEX
 8
CYLINDER_6
 10
-3.0579
 20
-0.0506
 30
24.8309
 70
192
 0
VERTEX
 8
CYLINDER_6
 10
-3.0779
 20
-0.0389
 30
24.8148
 70
192
 0
VERTEX
 8
CYLINDER_6
 10
-2.2779
 20
0.1228
 30
24.8972
 70
192
 0
VERTEX
 8
CYLINDER_6
 10
-2.2979
 20
0.1166
 30
24.9162
 70
192
 0
VERTEX
 8
CYLINDER_6
 10
-3.0579
 20
0.1166
 30
24.9162
 70
192
 0
VERTEX
 8
CYLINDER_6
 10
-3.0779
 20
0.1228
 30
24.8972
 70
192
 0
VERTEX
 8
CYLINDER_6
 10
-2.2779
 20
0.302
 30
24.9255
 70
192
 0
VERTEX
 8
CYLINDER_6
 10
-2.2979
 20
0.302
 30
24.9455
 70
192
 0
VERTEX
 8
CYLINDER_6
 10
-3.0579
 20
0.302
 30
24.9455
 70
192
 0
VERTEX
 8
CYLINDER_6
 10
-3.0779
 20
0.302
 30
24.9255
 70
192
 0
VERTEX
 8
CYLINDER_6
 10
-2.2779
 20
0.4813
 30
24.8972
 70
192
 0
VERTEX
 8
CYLINDER_6
 10
-2.2979
 20
0.4874
 30
24.9162
 70
192
 0
VERTEX
 8
CYLINDER_6
 10
-3.0579
 20
0.4874
 30
24.9162
 70
192
 0
VERTEX
 8
CYLINDER_6
 10
-3.0779
 20
0.4813
 30
24.8972
 70
192
 0
VERTEX
 8
CYLINDER_6
 10
-2.2779
 20
0.6429
 30
24.8148
 70
192
 0
VERTEX
 8
CYLINDER_6
 10
-2.2979
 20
0.6547
 30
24.8309
 70
192
 0
VERTEX
 8
CYLINDER_6
 10
-3.0579
 20
0.6547
 30
24.8309
 70
192
 0
VERTEX
 8
CYLINDER_6
 10
-3.0779
 20
0.6429
 30
24.8148
 70
192
 0
VERTEX
 8
CYLINDER_6
 10
-2.2779
 20
0.7713
 30
24.6865
 70
192
 0
VERTEX
 8
CYLINDER_6
 10
-2.2979
 20
0.7874
 30
24.6982
 70
192
 0
VERTEX
 8
CYLINDER_6
 10
-3.0579
 20
0.7874
 30
24.6982
 70
192
 0
VERTEX
 8
CYLINDER_6
 10
-3.0779
 20
0.7713
 30
24.6865
 70
192
 0
VERTEX
 8
CYLINDER_6
 10
-2.2779
 20
0.8536
 30
24.5248
 70
192
 0
VERTEX
 8
CYLINDER_6
 10
-2.2979
 20
0.8727
 30
24.5309
 70
192
 0
VERTEX
 8
CYLINDER_6
 10
-3.0579
 20
0.8727
 30
24.5309
 70
192
 0
VERTEX
 8
CYLINDER_6
 10
-3.0779
 20
0.8536
 30
24.5248
 70
192
 0
VERTEX
 8
CYLINDER_6
 10
-2.2779
 20
0.882
 30
24.3455
 70
192
 0
VERTEX
 8
CYLINDER_6
 10
-2.2979
 20
0.902
 30
24.3455
 70
192
 0
VERTEX
 8
CYLINDER_6
 10
-3.0579
 20
0.902
 30
24.3455
 70
192
 0
VERTEX
 8
CYLINDER_6
 10
-3.0779
 20
0.882
 30
24.3455
 70
192
 0
VERTEX
 8
CYLINDER_6
 10
-2.2779
 20
0.8536
 30
24.1663
 70
192
 0
VERTEX
 8
CYLINDER_6
 10
-2.2979
 20
0.8727
 30
24.1601
 70
192
 0
VERTEX
 8
CYLINDER_6
 10
-3.0579
 20
0.8727
 30
24.1601
 70
192
 0
VERTEX
 8
CYLINDER_6
 10
-3.0779
 20
0.8536
 30
24.1663
 70
192
 0
VERTEX
 8
CYLINDER_6
 10
-2.2779
 20
0.7713
 30
24.0046
 70
192
 0
VERTEX
 8
CYLINDER_6
 10
-2.2979
 20
0.7874
 30
23.9929
 70
192
 0
VERTEX
 8
CYLINDER_6
 10
-3.0579
 20
0.7874
 30
23.9929
 70
192
 0
VERTEX
 8
CYLINDER_6
 10
-3.0779
 20
0.7713
 30
24.0046
 70
192
 0
VERTEX
 8
CYLINDER_6
 10
-2.2779
 20
0.6429
 30
23.8763
 70
192
 0
VERTEX
 8
CYLINDER_6
 10
-2.2979
 20
0.6547
 30
23.8601
 70
192
 0
VERTEX
 8
CYLINDER_6
 10
-3.0579
 20
0.6547
 30
23.8601
 70
192
 0
VERTEX
 8
CYLINDER_6
 10
-3.0779
 20
0.6429
 30
23.8763
 70
192
 0
VERTEX
 8
CYLINDER_6
 10
-2.2779
 20
0.4813
 30
23.7939
 70
192
 0
VERTEX
 8
CYLINDER_6
 10
-2.2979
 20
0.4874
 30
23.7749
 70
192
 0
VERTEX
 8
CYLINDER_6
 10
-3.0579
 20
0.4874
 30
23.7749
 70
192
 0
VERTEX
 8
CYLINDER_6
 10
-3.0779
 20
0.4813
 30
23.7939
 70
192
 0
VERTEX
 8
CYLINDER_6
 10
-2.2779
 20
0.302
 30
23.7655
 70
192
 0
VERTEX
 8
CYLINDER_6
 10
-2.2979
 20
0.302
 30
23.7455
 70
192
 0
VERTEX
 8
CYLINDER_6
 10
-3.0579
 20
0.302
 30
23.7455
 70
192
 0
VERTEX
 8
CYLINDER_6
 10
-3.0779
 20
0.302
 30
23.7655
 70
192
 0
VERTEX
 8
CYLINDER_6
 10
-2.2779
 20
0.1228
 30
23.7939
 70
192
 0
VERTEX
 8
CYLINDER_6
 10
-2.2979
 20
0.1166
 30
23.7749
 70
192
 0
VERTEX
 8
CYLINDER_6
 10
-3.0579
 20
0.1166
 30
23.7749
 70
192
 0
VERTEX
 8
CYLINDER_6
 10
-3.0779
 20
0.1228
 30
23.7939
 70
192
 0
VERTEX
 8
CYLINDER_6
 10
-2.2779
 20
-0.0389
 30
23.8763
 70
192
 0
VERTEX
 8
CYLINDER_6
 10
-2.2979
 20
-0.0507
 30
23.8601
 70
192
 0
VERTEX
 8
CYLINDER_6
 10
-3.0579
 20
-0.0506
 30
23.8601
 70
192
 0
VERTEX
 8
CYLINDER_6
 10
-3.0779
 20
-0.0389
 30
23.8763
 70
192
 0
VERTEX
 8
CYLINDER_6
 10
-2.2779
 20
-0.1672
 30
24.0046
 70
192
 0
VERTEX
 8
CYLINDER_6
 10
-2.2979
 20
-0.1834
 30
23.9929
 70
192
 0
VERTEX
 8
CYLINDER_6
 10
-3.0579
 20
-0.1834
 30
23.9929
 70
192
 0
VERTEX
 8
CYLINDER_6
 10
-3.0779
 20
-0.1672
 30
24.0046
 70
192
 0
VERTEX
 8
CYLINDER_6
 10
-2.2779
 20
-0.2496
 30
24.1663
 70
192
 0
VERTEX
 8
CYLINDER_6
 10
-2.2979
 20
-0.2686
 30
24.1601
 70
192
 0
VERTEX
 8
CYLINDER_6
 10
-3.0579
 20
-0.2686
 30
24.1601
 70
192
 0
VERTEX
 8
CYLINDER_6
 10
-3.0779
 20
-0.2496
 30
24.1663
 70
192
 0
VERTEX
 8
CYLINDER_6
 10
0
 20
0
 30
0
 70
128
 71
66
 72
67
 73
71
 74
70
 0
VERTEX
 8
CYLINDER_6
 10
0
 20
0
 30
0
 70
128
 71
2
 72
3
 73
7
 74
6
 0
VERTEX
 8
CYLINDER_6
 10
0
 20
0
 30
0
 70
128
 71
3
 72
4
 73
8
 74
7
 0
VERTEX
 8
CYLINDER_6
 10
0
 20
0
 30
0
 70
128
 71
4
 72
5
 73
9
 74
8
 0
VERTEX
 8
CYLINDER_6
 10
0
 20
0
 30
0
 70
128
 71
5
 72
1
 73
9
 74
9
 0
VERTEX
 8
CYLINDER_6
 10
0
 20
0
 30
0
 70
128
 71
67
 72
68
 73
72
 74
71
 0
VERTEX
 8
CYLINDER_6
 10
0
 20
0
 30
0
 70
128
 71
6
 72
7
 73
11
 74
10
 0
VERTEX
 8
CYLINDER_6
 10
0
 20
0
 30
0
 70
128
 71
7
 72
8
 73
12
 74
11
 0
VERTEX
 8
CYLINDER_6
 10
0
 20
0
 30
0
 70
128
 71
8
 72
9
 73
13
 74
12
 0
VERTEX
 8
CYLINDER_6
 10
0
 20
0
 30
0
 70
128
 71
9
 72
1
 73
13
 74
13
 0
VERTEX
 8
CYLINDER_6
 10
0
 20
0
 30
0
 70
128
 71
68
 72
69
 73
73
 74
72
 0
VERTEX
 8
CYLINDER_6
 10
0
 20
0
 30
0
 70
128
 71
10
 72
11
 73
15
 74
14
 0
VERTEX
 8
CYLINDER_6
 10
0
 20
0
 30
0
 70
128
 71
11
 72
12
 73
16
 74
15
 0
VERTEX
 8
CYLINDER_6
 10
0
 20
0
 30
0
 70
128
 71
12
 72
13
 73
17
 74
16
 0
VERTEX
 8
CYLINDER_6
 10
0
 20
0
 30
0
 70
128
 71
13
 72
1
 73
17
 74
17
 0
VERTEX
 8
CYLINDER_6
 10
0
 20
0
 30
0
 70
128
 71
69
 72
1
 73
73
 74
73
 0
VERTEX
 8
CYLINDER_6
 10
0
 20
0
 30
0
 70
128
 71
14
 72
15
 73
19
 74
18
 0
VERTEX
 8
CYLINDER_6
 10
0
 20
0
 30
0
 70
128
 71
15
 72
16
 73
20
 74
19
 0
VERTEX
 8
CYLINDER_6
 10
0
 20
0
 30
0
 70
128
 71
16
 72
17
 73
21
 74
20
 0
VERTEX
 8
CYLINDER_6
 10
0
 20
0
 30
0
 70
128
 71
17
 72
1
 73
21
 74
21
 0
VERTEX
 8
CYLINDER_6
 10
0
 20
0
 30
0
 70
128
 71
70
 72
71
 73
75
 74
74
 0
VERTEX
 8
CYLINDER_6
 10
0
 20
0
 30
0
 70
128
 71
18
 72
19
 73
23
 74
22
 0
VERTEX
 8
CYLINDER_6
 10
0
 20
0
 30
0
 70
128
 71
19
 72
20
 73
24
 74
23
 0
VERTEX
 8
CYLINDER_6
 10
0
 20
0
 30
0
 70
128
 71
20
 72
21
 73
25
 74
24
 0
VERTEX
 8
CYLINDER_6
 10
0
 20
0
 30
0
 70
128
 71
21
 72
1
 73
25
 74
25
 0
VERTEX
 8
CYLINDER_6
 10
0
 20
0
 30
0
 70
128
 71
71
 72
72
 73
76
 74
75
 0
VERTEX
 8
CYLINDER_6
 10
0
 20
0
 30
0
 70
128
 71
22
 72
23
 73
27
 74
26
 0
VERTEX
 8
CYLINDER_6
 10
0
 20
0
 30
0
 70
128
 71
23
 72
24
 73
28
 74
27
 0
VERTEX
 8
CYLINDER_6
 10
0
 20
0
 30
0
 70
128
 71
24
 72
25
 73
29
 74
28
 0
VERTEX
 8
CYLINDER_6
 10
0
 20
0
 30
0
 70
128
 71
25
 72
1
 73
29
 74
29
 0
VERTEX
 8
CYLINDER_6
 10
0
 20
0
 30
0
 70
128
 71
72
 72
73
 73
77
 74
76
 0
VERTEX
 8
CYLINDER_6
 10
0
 20
0
 30
0
 70
128
 71
26
 72
27
 73
31
 74
30
 0
VERTEX
 8
CYLINDER_6
 10
0
 20
0
 30
0
 70
128
 71
27
 72
28
 73
32
 74
31
 0
VERTEX
 8
CYLINDER_6
 10
0
 20
0
 30
0
 70
128
 71
28
 72
29
 73
33
 74
32
 0
VERTEX
 8
CYLINDER_6
 10
0
 20
0
 30
0
 70
128
 71
29
 72
1
 73
33
 74
33
 0
VERTEX
 8
CYLINDER_6
 10
0
 20
0
 30
0
 70
128
 71
73
 72
1
 73
77
 74
77
 0
VERTEX
 8
CYLINDER_6
 10
0
 20
0
 30
0
 70
128
 71
30
 72
31
 73
35
 74
34
 0
VERTEX
 8
CYLINDER_6
 10
0
 20
0
 30
0
 70
128
 71
31
 72
32
 73
36
 74
35
 0
VERTEX
 8
CYLINDER_6
 10
0
 20
0
 30
0
 70
128
 71
32
 72
33
 73
37
 74
36
 0
VERTEX
 8
CYLINDER_6
 10
0
 20
0
 30
0
 70
128
 71
33
 72
1
 73
37
 74
37
 0
VERTEX
 8
CYLINDER_6
 10
0
 20
0
 30
0
 70
128
 71
74
 72
75
 73
79
 74
78
 0
VERTEX
 8
CYLINDER_6
 10
0
 20
0
 30
0
 70
128
 71
34
 72
35
 73
39
 74
38
 0
VERTEX
 8
CYLINDER_6
 10
0
 20
0
 30
0
 70
128
 71
35
 72
36
 73
40
 74
39
 0
VERTEX
 8
CYLINDER_6
 10
0
 20
0
 30
0
 70
128
 71
36
 72
37
 73
41
 74
40
 0
VERTEX
 8
CYLINDER_6
 10
0
 20
0
 30
0
 70
128
 71
37
 72
1
 73
41
 74
41
 0
VERTEX
 8
CYLINDER_6
 10
0
 20
0
 30
0
 70
128
 71
75
 72
76
 73
80
 74
79
 0
VERTEX
 8
CYLINDER_6
 10
0
 20
0
 30
0
 70
128
 71
38
 72
39
 73
43
 74
42
 0
VERTEX
 8
CYLINDER_6
 10
0
 20
0
 30
0
 70
128
 71
39
 72
40
 73
44
 74
43
 0
VERTEX
 8
CYLINDER_6
 10
0
 20
0
 30
0
 70
128
 71
40
 72
41
 73
45
 74
44
 0
VERTEX
 8
CYLINDER_6
 10
0
 20
0
 30
0
 70
128
 71
41
 72
1
 73
45
 74
45
 0
VERTEX
 8
CYLINDER_6
 10
0
 20
0
 30
0
 70
128
 71
76
 72
77
 73
81
 74
80
 0
VERTEX
 8
CYLINDER_6
 10
0
 20
0
 30
0
 70
128
 71
42
 72
43
 73
47
 74
46
 0
VERTEX
 8
CYLINDER_6
 10
0
 20
0
 30
0
 70
128
 71
43
 72
44
 73
48
 74
47
 0
VERTEX
 8
CYLINDER_6
 10
0
 20
0
 30
0
 70
128
 71
44
 72
45
 73
49
 74
48
 0
VERTEX
 8
CYLINDER_6
 10
0
 20
0
 30
0
 70
128
 71
45
 72
1
 73
49
 74
49
 0
VERTEX
 8
CYLINDER_6
 10
0
 20
0
 30
0
 70
128
 71
77
 72
1
 73
81
 74
81
 0
VERTEX
 8
CYLINDER_6
 10
0
 20
0
 30
0
 70
128
 71
46
 72
47
 73
51
 74
50
 0
VERTEX
 8
CYLINDER_6
 10
0
 20
0
 30
0
 70
128
 71
47
 72
48
 73
52
 74
51
 0
VERTEX
 8
CYLINDER_6
 10
0
 20
0
 30
0
 70
128
 71
48
 72
49
 73
53
 74
52
 0
VERTEX
 8
CYLINDER_6
 10
0
 20
0
 30
0
 70
128
 71
49
 72
1
 73
53
 74
53
 0
VERTEX
 8
CYLINDER_6
 10
0
 20
0
 30
0
 70
128
 71
78
 72
79
 73
3
 74
2
 0
VERTEX
 8
CYLINDER_6
 10
0
 20
0
 30
0
 70
128
 71
50
 72
51
 73
55
 74
54
 0
VERTEX
 8
CYLINDER_6
 10
0
 20
0
 30
0
 70
128
 71
51
 72
52
 73
56
 74
55
 0
VERTEX
 8
CYLINDER_6
 10
0
 20
0
 30
0
 70
128
 71
52
 72
53
 73
57
 74
56
 0
VERTEX
 8
CYLINDER_6
 10
0
 20
0
 30
0
 70
128
 71
53
 72
1
 73
57
 74
57
 0
VERTEX
 8
CYLINDER_6
 10
0
 20
0
 30
0
 70
128
 71
79
 72
80
 73
4
 74
3
 0
VERTEX
 8
CYLINDER_6
 10
0
 20
0
 30
0
 70
128
 71
54
 72
55
 73
59
 74
58
 0
VERTEX
 8
CYLINDER_6
 10
0
 20
0
 30
0
 70
128
 71
55
 72
56
 73
60
 74
59
 0
VERTEX
 8
CYLINDER_6
 10
0
 20
0
 30
0
 70
128
 71
56
 72
57
 73
61
 74
60
 0
VERTEX
 8
CYLINDER_6
 10
0
 20
0
 30
0
 70
128
 71
57
 72
1
 73
61
 74
61
 0
VERTEX
 8
CYLINDER_6
 10
0
 20
0
 30
0
 70
128
 71
80
 72
81
 73
5
 74
4
 0
VERTEX
 8
CYLINDER_6
 10
0
 20
0
 30
0
 70
128
 71
58
 72
59
 73
63
 74
62
 0
VERTEX
 8
CYLINDER_6
 10
0
 20
0
 30
0
 70
128
 71
59
 72
60
 73
64
 74
63
 0
VERTEX
 8
CYLINDER_6
 10
0
 20
0
 30
0
 70
128
 71
60
 72
61
 73
65
 74
64
 0
VERTEX
 8
CYLINDER_6
 10
0
 20
0
 30
0
 70
128
 71
61
 72
1
 73
65
 74
65
 0
VERTEX
 8
CYLINDER_6
 10
0
 20
0
 30
0
 70
128
 71
81
 72
1
 73
5
 74
5
 0
VERTEX
 8
CYLINDER_6
 10
0
 20
0
 30
0
 70
128
 71
62
 72
63
 73
67
 74
66
 0
VERTEX
 8
CYLINDER_6
 10
0
 20
0
 30
0
 70
128
 71
63
 72
64
 73
68
 74
67
 0
VERTEX
 8
CYLINDER_6
 10
0
 20
0
 30
0
 70
128
 71
64
 72
65
 73
69
 74
68
 0
VERTEX
 8
CYLINDER_6
 10
0
 20
0
 30
0
 70
128
 71
65
 72
1
 73
69
 74
69
 0
SEQEND
 0
POLYLINE
 8
CYLINDER_7
 66
1
 10
0.0
 20
0.0
 30
0.0
 70
64
 71
81
 72
80
 0
VERTEX
 8
CYLINDER_7
 10
-1.4748
 20
0.302
 30
-1.7478
 70
192
 0
VERTEX
 8
CYLINDER_7
 10
-1.4748
 20
-0.078
 30
-1.7478
 70
192
 0
VERTEX
 8
CYLINDER_7
 10
-1.4748
 20
-0.098
 30
-1.7278
 70
192
 0
VERTEX
 8
CYLINDER_7
 10
-1.4748
 20
-0.098
 30
-1.6878
 70
192
 0
VERTEX
 8
CYLINDER_7
 10
-1.4748
 20
-0.078
 30
-1.6678
 70
192
 0
VERTEX
 8
CYLINDER_7
 10
-1.3574
 20
-0.0594
 30
-1.7478
 70
192
 0
VERTEX
 8
CYLINDER_7
 10
-1.3512
 20
-0.0784
 30
-1.7278
 70
192
 0
VERTEX
 8
CYLINDER_7
 10
-1.3512
 20
-0.0784
 30
-1.6878
 70
192
 0
VERTEX
 8
CYLINDER_7
 10
-1.3574
 20
-0.0594
 30
-1.6678
 70
192
 0
VERTEX
 8
CYLINDER_7
 10
-1.2515
 20
-0.0054
 30
-1.7478
 70
192
 0
VERTEX
 8
CYLINDER_7
 10
-1.2397
 20
-0.0216
 30
-1.7278
 70
192
 0
VERTEX
 8
CYLINDER_7
 10
-1.2397
 20
-0.0216
 30
-1.6878
 70
192
 0
VERTEX
 8
CYLINDER_7
 10
-1.2515
 20
-0.0054
 30
-1.6678
 70
192
 0
VERTEX
 8
CYLINDER_7
 10
-1.1674
 20
0.0787
 30
-1.7478
 70
192
 0
VERTEX
 8
CYLINDER_7
 10
-1.1512
 20
0.0669
 30
-1.7278
 70
192
 0
VERTEX
 8
CYLINDER_7
 10
-1.1512
 20
0.0669
 30
-1.6878
 70
192
 0
VERTEX
 8
CYLINDER_7
 10
-1.1674
 20
0.0787
 30
-1.6678
 70
192
 0
VERTEX
 8
CYLINDER_7
 10
-1.1134
 20
0.1846
 30
-1.7478
 70
192
 0
VERTEX
 8
CYLINDER_7
 10
-1.0944
 20
0.1784
 30
-1.7278
 70
192
 0
VERTEX
 8
CYLINDER_7
 10
-1.0944
 20
0.1784
 30
-1.6878
 70
192
 0
VERTEX
 8
CYLINDER_7
 10
-1.1134
 20
0.1846
 30
-1.6678
 70
192
 0
VERTEX
 8
CYLINDER_7
 10
-1.0948
 20
0.302
 30
-1.7478
 70
192
 0
VERTEX
 8
CYLINDER_7
 10
-1.0748
 20
0.302
 30
-1.7278
 70
192
 0
VERTEX
 8
CYLINDER_7
 10
-1.0748
 20
0.302
 30
-1.6878
 70
192
 0
VERTEX
 8
CYLINDER_7
 10
-1.0948
 20
0.302
 30
-1.6678
 70
192
 0
VERTEX
 8
CYLINDER_7
 10
-1.1134
 20
0.4194
 30
-1.7478
 70
192
 0
VERTEX
 8
CYLINDER_7
 10
-1.0944
 20
0.4256
 30
-1.7278
 70
192
 0
VERTEX
 8
CYLINDER_7
 10
-1.0944
 20
0.4256
 30
-1.6878
 70
192
 0
VERTEX
 8
CYLINDER_7
 10
-1.1134
 20
0.4194
 30
-1.6678
 70
192
 0
VERTEX
 8
CYLINDER_7
 10
-1.1674
 20
0.5254
 30
-1.7478
 70
192
 0
VERTEX
 8
CYLINDER_7
 10
-1.1512
 20
0.5371
 30
-1.7278
 70
192
 0
VERTEX
 8
CYLINDER_7
 10
-1.1512
 20
0.5371
 30
-1.6878
 70
192
 0
VERTEX
 8
CYLINDER_7
 10
-1.1674
 20
0.5254
 30
-1.6678
 70
192
 0
VERTEX
 8
CYLINDER_7
 10
-1.2515
 20
0.6094
 30
-1.7478
 70
192
 0
VERTEX
 8
CYLINDER_7
 10
-1.2397
 20
0.6256
 30
-1.7278
 70
192
 0
VERTEX
 8
CYLINDER_7
 10
-1.2397
 20
0.6256
 30
-1.6878
 70
192
 0
VERTEX
 8
CYLINDER_7
 10
-1.2515
 20
0.6094
 30
-1.6678
 70
192
 0
VERTEX
 8
CYLINDER_7
 10
-1.3574
 20
0.6634
 30
-1.7478
 70
192
 0
VERTEX
 8
CYLINDER_7
 10
-1.3512
 20
0.6824
 30
-1.7278
 70
192
 0
VERTEX
 8
CYLINDER_7
 10
-1.3512
 20
0.6824
 30
-1.6878
 70
192
 0
VERTEX
 8
CYLINDER_7
 10
-1.3574
 20
0.6634
 30
-1.6678
 70
192
 0
VERTEX
 8
CYLINDER_7
 10
-1.4748
 20
0.682
 30
-1.7478
 70
192
 0
VERTEX
 8
CYLINDER_7
 10
-1.4748
 20
0.702
 30
-1.7278
 70
192
 0
VERTEX
 8
CYLINDER_7
 10
-1.4748
 20
0.702
 30
-1.6878
 70
192
 0
VERTEX
 8
CYLINDER_7
 10
-1.4748
 20
0.682
 30
-1.6678
 70
192
 0
VERTEX
 8
CYLINDER_7
 10
-1.5923
 20
0.6634
 30
-1.7478
 70
192
 0
VERTEX
 8
CYLINDER_7
 10
-1.5984
 20
0.6824
 30
-1.7278
 70
192
 0
VERTEX
 8
CYLINDER_7
 10
-1.5984
 20
0.6824
 30
-1.6878
 70
192
 0
VERTEX
 8
CYLINDER_7
 10
-1.5923
 20
0.6634
 30
-1.6678
 70
192
 0
VERTEX
 8
CYLINDER_7
 10
-1.6982
 20
0.6094
 30
-1.7478
 70
192
 0
VERTEX
 8
CYLINDER_7
 10
-1.7099
 20
0.6256
 30
-1.7278
 70
192
 0
VERTEX
 8
CYLINDER_7
 10
-1.7099
 20
0.6256
 30
-1.6878
 70
192
 0
VERTEX
 8
CYLINDER_7
 10
-1.6982
 20
0.6094
 30
-1.6678
 70
192
 0
VERTEX
 8
CYLINDER_7
 10
-1.7823
 20
0.5254
 30
-1.7478
 70
192
 0
VERTEX
 8
CYLINDER_7
 10
-1.7984
 20
0.5371
 30
-1.7278
 70
192
 0
VERTEX
 8
CYLINDER_7
 10
-1.7984
 20
0.5371
 30
-1.6878
 70
192
 0
VERTEX
 8
CYLINDER_7
 10
-1.7823
 20
0.5254
 30
-1.6678
 70
192
 0
VERTEX
 8
CYLINDER_7
 10
-1.8362
 20
0.4194
 30
-1.7478
 70
192
 0
VERTEX
 8
CYLINDER_7
 10
-1.8553
 20
0.4256
 30
-1.7278
 70
192
 0
VERTEX
 8
CYLINDER_7
 10
-1.8553
 20
0.4256
 30
-1.6878
 70
192
 0
VERTEX
 8
CYLINDER_7
 10
-1.8362
 20
0.4194
 30
-1.6678
 70
192
 0
VERTEX
 8
CYLINDER_7
 10
-1.8548
 20
0.302
 30
-1.7478
 70
192
 0
VERTEX
 8
CYLINDER_7
 10
-1.8748
 20
0.302
 30
-1.7278
 70
192
 0
VERTEX
 8
CYLINDER_7
 10
-1.8748
 20
0.302
 30
-1.6878
 70
192
 0
VERTEX
 8
CYLINDER_7
 10
-1.8548
 20
0.302
 30
-1.6678
 70
192
 0
VERTEX
 8
CYLINDER_7
 10
-1.8362
 20
0.1846
 30
-1.7478
 70
192
 0
VERTEX
 8
CYLINDER_7
 10
-1.8553
 20
0.1784
 30
-1.7278
 70
192
 0
VERTEX
 8
CYLINDER_7
 10
-1.8553
 20
0.1784
 30
-1.6878
 70
192
 0
VERTEX
 8
CYLINDER_7
 10
-1.8362
 20
0.1846
 30
-1.6678
 70
192
 0
VERTEX
 8
CYLINDER_7
 10
-1.7823
 20
0.0787
 30
-1.7478
 70
192
 0
VERTEX
 8
CYLINDER_7
 10
-1.7984
 20
0.0669
 30
-1.7278
 70
192
 0
VERTEX
 8
CYLINDER_7
 10
-1.7984
 20
0.0669
 30
-1.6878
 70
192
 0
VERTEX
 8
CYLINDER_7
 10
-1.7823
 20
0.0787
 30
-1.6678
 70
192
 0
VERTEX
 8
CYLINDER_7
 10
-1.6982
 20
-0.0054
 30
-1.7478
 70
192
 0
VERTEX
 8
CYLINDER_7
 10
-1.7099
 20
-0.0216
 30
-1.7278
 70
192
 0
VERTEX
 8
CYLINDER_7
 10
-1.7099
 20
-0.0216
 30
-1.6878
 70
192
 0
VERTEX
 8
CYLINDER_7
 10
-1.6982
 20
-0.0054
 30
-1.6678
 70
192
 0
VERTEX
 8
CYLINDER_7
 10
-1.5923
 20
-0.0594
 30
-1.7478
 70
192
 0
VERTEX
 8
CYLINDER_7
 10
-1.5984
 20
-0.0784
 30
-1.7278
 70
192
 0
VERTEX
 8
CYLINDER_7
 10
-1.5984
 20
-0.0784
 30
-1.6878
 70
192
 0
VERTEX
 8
CYLINDER_7
 10
-1.5923
 20
-0.0594
 30
-1.6678
 70
192
 0
VERTEX
 8
CYLINDER_7
 10
0
 20
0
 30
0
 70
128
 71
1
 72
2
 73
6
 74
6
 0
VERTEX
 8
CYLINDER_7
 10
0
 20
0
 30
0
 70
128
 71
2
 72
3
 73
7
 74
6
 0
VERTEX
 8
CYLINDER_7
 10
0
 20
0
 30
0
 70
128
 71
3
 72
4
 73
8
 74
7
 0
VERTEX
 8
CYLINDER_7
 10
0
 20
0
 30
0
 70
128
 71
4
 72
5
 73
9
 74
8
 0
VERTEX
 8
CYLINDER_7
 10
0
 20
0
 30
0
 70
128
 71
1
 72
66
 73
70
 74
70
 0
VERTEX
 8
CYLINDER_7
 10
0
 20
0
 30
0
 70
128
 71
1
 72
6
 73
10
 74
10
 0
VERTEX
 8
CYLINDER_7
 10
0
 20
0
 30
0
 70
128
 71
6
 72
7
 73
11
 74
10
 0
VERTEX
 8
CYLINDER_7
 10
0
 20
0
 30
0
 70
128
 71
7
 72
8
 73
12
 74
11
 0
VERTEX
 8
CYLINDER_7
 10
0
 20
0
 30
0
 70
128
 71
8
 72
9
 73
13
 74
12
 0
VERTEX
 8
CYLINDER_7
 10
0
 20
0
 30
0
 70
128
 71
66
 72
67
 73
71
 74
70
 0
VERTEX
 8
CYLINDER_7
 10
0
 20
0
 30
0
 70
128
 71
1
 72
10
 73
14
 74
14
 0
VERTEX
 8
CYLINDER_7
 10
0
 20
0
 30
0
 70
128
 71
10
 72
11
 73
15
 74
14
 0
VERTEX
 8
CYLINDER_7
 10
0
 20
0
 30
0
 70
128
 71
11
 72
12
 73
16
 74
15
 0
VERTEX
 8
CYLINDER_7
 10
0
 20
0
 30
0
 70
128
 71
12
 72
13
 73
17
 74
16
 0
VERTEX
 8
CYLINDER_7
 10
0
 20
0
 30
0
 70
128
 71
67
 72
68
 73
72
 74
71
 0
VERTEX
 8
CYLINDER_7
 10
0
 20
0
 30
0
 70
128
 71
1
 72
14
 73
18
 74
18
 0
VERTEX
 8
CYLINDER_7
 10
0
 20
0
 30
0
 70
128
 71
14
 72
15
 73
19
 74
18
 0
VERTEX
 8
CYLINDER_7
 10
0
 20
0
 30
0
 70
128
 71
15
 72
16
 73
20
 74
19
 0
VERTEX
 8
CYLINDER_7
 10
0
 20
0
 30
0
 70
128
 71
16
 72
17
 73
21
 74
20
 0
VERTEX
 8
CYLINDER_7
 10
0
 20
0
 30
0
 70
128
 71
68
 72
69
 73
73
 74
72
 0
VERTEX
 8
CYLINDER_7
 10
0
 20
0
 30
0
 70
128
 71
1
 72
18
 73
22
 74
22
 0
VERTEX
 8
CYLINDER_7
 10
0
 20
0
 30
0
 70
128
 71
18
 72
19
 73
23
 74
22
 0
VERTEX
 8
CYLINDER_7
 10
0
 20
0
 30
0
 70
128
 71
19
 72
20
 73
24
 74
23
 0
VERTEX
 8
CYLINDER_7
 10
0
 20
0
 30
0
 70
128
 71
20
 72
21
 73
25
 74
24
 0
VERTEX
 8
CYLINDER_7
 10
0
 20
0
 30
0
 70
128
 71
1
 72
70
 73
74
 74
74
 0
VERTEX
 8
CYLINDER_7
 10
0
 20
0
 30
0
 70
128
 71
1
 72
22
 73
26
 74
26
 0
VERTEX
 8
CYLINDER_7
 10
0
 20
0
 30
0
 70
128
 71
22
 72
23
 73
27
 74
26
 0
VERTEX
 8
CYLINDER_7
 10
0
 20
0
 30
0
 70
128
 71
23
 72
24
 73
28
 74
27
 0
VERTEX
 8
CYLINDER_7
 10
0
 20
0
 30
0
 70
128
 71
24
 72
25
 73
29
 74
28
 0
VERTEX
 8
CYLINDER_7
 10
0
 20
0
 30
0
 70
128
 71
70
 72
71
 73
75
 74
74
 0
VERTEX
 8
CYLINDER_7
 10
0
 20
0
 30
0
 70
128
 71
1
 72
26
 73
30
 74
30
 0
VERTEX
 8
CYLINDER_7
 10
0
 20
0
 30
0
 70
128
 71
26
 72
27
 73
31
 74
30
 0
VERTEX
 8
CYLINDER_7
 10
0
 20
0
 30
0
 70
128
 71
27
 72
28
 73
32
 74
31
 0
VERTEX
 8
CYLINDER_7
 10
0
 20
0
 30
0
 70
128
 71
28
 72
29
 73
33
 74
32
 0
VERTEX
 8
CYLINDER_7
 10
0
 20
0
 30
0
 70
128
 71
71
 72
72
 73
76
 74
75
 0
VERTEX
 8
CYLINDER_7
 10
0
 20
0
 30
0
 70
128
 71
1
 72
30
 73
34
 74
34
 0
VERTEX
 8
CYLINDER_7
 10
0
 20
0
 30
0
 70
128
 71
30
 72
31
 73
35
 74
34
 0
VERTEX
 8
CYLINDER_7
 10
0
 20
0
 30
0
 70
128
 71
31
 72
32
 73
36
 74
35
 0
VERTEX
 8
CYLINDER_7
 10
0
 20
0
 30
0
 70
128
 71
32
 72
33
 73
37
 74
36
 0
VERTEX
 8
CYLINDER_7
 10
0
 20
0
 30
0
 70
128
 71
72
 72
73
 73
77
 74
76
 0
VERTEX
 8
CYLINDER_7
 10
0
 20
0
 30
0
 70
128
 71
1
 72
34
 73
38
 74
38
 0
VERTEX
 8
CYLINDER_7
 10
0
 20
0
 30
0
 70
128
 71
34
 72
35
 73
39
 74
38
 0
VERTEX
 8
CYLINDER_7
 10
0
 20
0
 30
0
 70
128
 71
35
 72
36
 73
40
 74
39
 0
VERTEX
 8
CYLINDER_7
 10
0
 20
0
 30
0
 70
128
 71
36
 72
37
 73
41
 74
40
 0
VERTEX
 8
CYLINDER_7
 10
0
 20
0
 30
0
 70
128
 71
1
 72
74
 73
78
 74
78
 0
VERTEX
 8
CYLINDER_7
 10
0
 20
0
 30
0
 70
128
 71
1
 72
38
 73
42
 74
42
 0
VERTEX
 8
CYLINDER_7
 10
0
 20
0
 30
0
 70
128
 71
38
 72
39
 73
43
 74
42
 0
VERTEX
 8
CYLINDER_7
 10
0
 20
0
 30
0
 70
128
 71
39
 72
40
 73
44
 74
43
 0
VERTEX
 8
CYLINDER_7
 10
0
 20
0
 30
0
 70
128
 71
40
 72
41
 73
45
 74
44
 0
VERTEX
 8
CYLINDER_7
 10
0
 20
0
 30
0
 70
128
 71
74
 72
75
 73
79
 74
78
 0
VERTEX
 8
CYLINDER_7
 10
0
 20
0
 30
0
 70
128
 71
1
 72
42
 73
46
 74
46
 0
VERTEX
 8
CYLINDER_7
 10
0
 20
0
 30
0
 70
128
 71
42
 72
43
 73
47
 74
46
 0
VERTEX
 8
CYLINDER_7
 10
0
 20
0
 30
0
 70
128
 71
43
 72
44
 73
48
 74
47
 0
VERTEX
 8
CYLINDER_7
 10
0
 20
0
 30
0
 70
128
 71
44
 72
45
 73
49
 74
48
 0
VERTEX
 8
CYLINDER_7
 10
0
 20
0
 30
0
 70
128
 71
75
 72
76
 73
80
 74
79
 0
VERTEX
 8
CYLINDER_7
 10
0
 20
0
 30
0
 70
128
 71
1
 72
46
 73
50
 74
50
 0
VERTEX
 8
CYLINDER_7
 10
0
 20
0
 30
0
 70
128
 71
46
 72
47
 73
51
 74
50
 0
VERTEX
 8
CYLINDER_7
 10
0
 20
0
 30
0
 70
128
 71
47
 72
48
 73
52
 74
51
 0
VERTEX
 8
CYLINDER_7
 10
0
 20
0
 30
0
 70
128
 71
48
 72
49
 73
53
 74
52
 0
VERTEX
 8
CYLINDER_7
 10
0
 20
0
 30
0
 70
128
 71
76
 72
77
 73
81
 74
80
 0
VERTEX
 8
CYLINDER_7
 10
0
 20
0
 30
0
 70
128
 71
1
 72
50
 73
54
 74
54
 0
VERTEX
 8
CYLINDER_7
 10
0
 20
0
 30
0
 70
128
 71
50
 72
51
 73
55
 74
54
 0
VERTEX
 8
CYLINDER_7
 10
0
 20
0
 30
0
 70
128
 71
51
 72
52
 73
56
 74
55
 0
VERTEX
 8
CYLINDER_7
 10
0
 20
0
 30
0
 70
128
 71
52
 72
53
 73
57
 74
56
 0
VERTEX
 8
CYLINDER_7
 10
0
 20
0
 30
0
 70
128
 71
1
 72
78
 73
2
 74
2
 0
VERTEX
 8
CYLINDER_7
 10
0
 20
0
 30
0
 70
128
 71
1
 72
54
 73
58
 74
58
 0
VERTEX
 8
CYLINDER_7
 10
0
 20
0
 30
0
 70
128
 71
54
 72
55
 73
59
 74
58
 0
VERTEX
 8
CYLINDER_7
 10
0
 20
0
 30
0
 70
128
 71
55
 72
56
 73
60
 74
59
 0
VERTEX
 8
CYLINDER_7
 10
0
 20
0
 30
0
 70
128
 71
56
 72
57
 73
61
 74
60
 0
VERTEX
 8
CYLINDER_7
 10
0
 20
0
 30
0
 70
128
 71
78
 72
79
 73
3
 74
2
 0
VERTEX
 8
CYLINDER_7
 10
0
 20
0
 30
0
 70
128
 71
1
 72
58
 73
62
 74
62
 0
VERTEX
 8
CYLINDER_7
 10
0
 20
0
 30
0
 70
128
 71
58
 72
59
 73
63
 74
62
 0
VERTEX
 8
CYLINDER_7
 10
0
 20
0
 30
0
 70
128
 71
59
 72
60
 73
64
 74
63
 0
VERTEX
 8
CYLINDER_7
 10
0
 20
0
 30
0
 70
128
 71
60
 72
61
 73
65
 74
64
 0
VERTEX
 8
CYLINDER_7
 10
0
 20
0
 30
0
 70
128
 71
79
 72
80
 73
4
 74
3
 0
VERTEX
 8
CYLINDER_7
 10
0
 20
0
 30
0
 70
128
 71
1
 72
62
 73
66
 74
66
 0
VERTEX
 8
CYLINDER_7
 10
0
 20
0
 30
0
 70
128
 71
62
 72
63
 73
67
 74
66
 0
VERTEX
 8
CYLINDER_7
 10
0
 20
0
 30
0
 70
128
 71
63
 72
64
 73
68
 74
67
 0
VERTEX
 8
CYLINDER_7
 10
0
 20
0
 30
0
 70
128
 71
64
 72
65
 73
69
 74
68
 0
VERTEX
 8
CYLINDER_7
 10
0
 20
0
 30
0
 70
128
 71
80
 72
81
 73
5
 74
4
 0
SEQEND
 0
POLYLINE
 8
CYLINDER_8
 66
1
 10
0.0
 20
0.0
 30
0.0
 70
64
 71
81
 72
80
 0
VERTEX
 8
CYLINDER_8
 10
-1.4748
 20
0.302
 30
35.9995
 70
192
 0
VERTEX
 8
CYLINDER_8
 10
-1.4748
 20
-0.078
 30
35.9195
 70
192
 0
VERTEX
 8
CYLINDER_8
 10
-1.4748
 20
-0.098
 30
35.9395
 70
192
 0
VERTEX
 8
CYLINDER_8
 10
-1.4748
 20
-0.098
 30
35.9795
 70
192
 0
VERTEX
 8
CYLINDER_8
 10
-1.4748
 20
-0.078
 30
35.9995
 70
192
 0
VERTEX
 8
CYLINDER_8
 10
-1.3574
 20
-0.0594
 30
35.9195
 70
192
 0
VERTEX
 8
CYLINDER_8
 10
-1.3512
 20
-0.0784
 30
35.9395
 70
192
 0
VERTEX
 8
CYLINDER_8
 10
-1.3512
 20
-0.0784
 30
35.9795
 70
192
 0
VERTEX
 8
CYLINDER_8
 10
-1.3574
 20
-0.0594
 30
35.9995
 70
192
 0
VERTEX
 8
CYLINDER_8
 10
-1.2515
 20
-0.0054
 30
35.9195
 70
192
 0
VERTEX
 8
CYLINDER_8
 10
-1.2397
 20
-0.0216
 30
35.9395
 70
192
 0
VERTEX
 8
CYLINDER_8
 10
-1.2397
 20
-0.0216
 30
35.9795
 70
192
 0
VERTEX
 8
CYLINDER_8
 10
-1.2515
 20
-0.0054
 30
35.9995
 70
192
 0
VERTEX
 8
CYLINDER_8
 10
-1.1674
 20
0.0787
 30
35.9195
 70
192
 0
VERTEX
 8
CYLINDER_8
 10
-1.1512
 20
0.0669
 30
35.9395
 70
192
 0
VERTEX
 8
CYLINDER_8
 10
-1.1512
 20
0.0669
 30
35.9795
 70
192
 0
VERTEX
 8
CYLINDER_8
 10
-1.1674
 20
0.0787
 30
35.9995
 70
192
 0
VERTEX
 8
CYLINDER_8
 10
-1.1134
 20
0.1846
 30
35.9195
 70
192
 0
VERTEX
 8
CYLINDER_8
 10
-1.0944
 20
0.1784
 30
35.9395
 70
192
 0
VERTEX
 8
CYLINDER_8
 10
-1.0944
 20
0.1784
 30
35.9795
 70
192
 0
VERTEX
 8
CYLINDER_8
 10
-1.1134
 20
0.1846
 30
35.9995
 70
192
 0
VERTEX
 8
CYLINDER_8
 10
-1.0948
 20
0.302
 30
35.9195
 70
192
 0
VERTEX
 8
CYLINDER_8
 10
-1.0748
 20
0.302
 30
35.9395
 70
192
 0
VERTEX
 8
CYLINDER_8
 10
-1.0748
 20
0.302
 30
35.9795
 70
192
 0
VERTEX
 8
CYLINDER_8
 10
-1.0948
 20
0.302
 30
35.9995
 70
192
 0
VERTEX
 8
CYLINDER_8
 10
-1.1134
 20
0.4194
 30
35.9195
 70
192
 0
VERTEX
 8
CYLINDER_8
 10
-1.0944
 20
0.4256
 30
35.9395
 70
192
 0
VERTEX
 8
CYLINDER_8
 10
-1.0944
 20
0.4256
 30
35.9795
 70
192
 0
VERTEX
 8
CYLINDER_8
 10
-1.1134
 20
0.4194
 30
35.9995
 70
192
 0
VERTEX
 8
CYLINDER_8
 10
-1.1674
 20
0.5254
 30
35.9195
 70
192
 0
VERTEX
 8
CYLINDER_8
 10
-1.1512
 20
0.5371
 30
35.9395
 70
192
 0
VERTEX
 8
CYLINDER_8
 10
-1.1512
 20
0.5371
 30
35.9795
 70
192
 0
VERTEX
 8
CYLINDER_8
 10
-1.1674
 20
0.5254
 30
35.9995
 70
192
 0
VERTEX
 8
CYLINDER_8
 10
-1.2515
 20
0.6094
 30
35.9195
 70
192
 0
VERTEX
 8
CYLINDER_8
 10
-1.2397
 20
0.6256
 30
35.9395
 70
192
 0
VERTEX
 8
CYLINDER_8
 10
-1.2397
 20
0.6256
 30
35.9795
 70
192
 0
VERTEX
 8
CYLINDER_8
 10
-1.2515
 20
0.6094
 30
35.9995
 70
192
 0
VERTEX
 8
CYLINDER_8
 10
-1.3574
 20
0.6634
 30
35.9195
 70
192
 0
VERTEX
 8
CYLINDER_8
 10
-1.3512
 20
0.6824
 30
35.9395
 70
192
 0
VERTEX
 8
CYLINDER_8
 10
-1.3512
 20
0.6824
 30
35.9795
 70
192
 0
VERTEX
 8
CYLINDER_8
 10
-1.3574
 20
0.6634
 30
35.9995
 70
192
 0
VERTEX
 8
CYLINDER_8
 10
-1.4748
 20
0.682
 30
35.9195
 70
192
 0
VERTEX
 8
CYLINDER_8
 10
-1.4748
 20
0.702
 30
35.9395
 70
192
 0
VERTEX
 8
CYLINDER_8
 10
-1.4748
 20
0.702
 30
35.9795
 70
192
 0
VERTEX
 8
CYLINDER_8
 10
-1.4748
 20
0.682
 30
35.9995
 70
192
 0
VERTEX
 8
CYLINDER_8
 10
-1.5923
 20
0.6634
 30
35.9195
 70
192
 0
VERTEX
 8
CYLINDER_8
 10
-1.5984
 20
0.6824
 30
35.9395
 70
192
 0
VERTEX
 8
CYLINDER_8
 10
-1.5984
 20
0.6824
 30
35.9795
 70
192
 0
VERTEX
 8
CYLINDER_8
 10
-1.5923
 20
0.6634
 30
35.9995
 70
192
 0
VERTEX
 8
CYLINDER_8
 10
-1.6982
 20
0.6094
 30
35.9195
 70
192
 0
VERTEX
 8
CYLINDER_8
 10
-1.7099
 20
0.6256
 30
35.9395
 70
192
 0
VERTEX
 8
CYLINDER_8
 10
-1.7099
 20
0.6256
 30
35.9795
 70
192
 0
VERTEX
 8
CYLINDER_8
 10
-1.6982
 20
0.6094
 30
35.9995
 70
192
 0
VERTEX
 8
CYLINDER_8
 10
-1.7823
 20
0.5254
 30
35.9195
 70
192
 0
VERTEX
 8
CYLINDER_8
 10
-1.7984
 20
0.5371
 30
35.9395
 70
192
 0
VERTEX
 8
CYLINDER_8
 10
-1.7984
 20
0.5371
 30
35.9795
 70
192
 0
VERTEX
 8
CYLINDER_8
 10
-1.7823
 20
0.5254
 30
35.9995
 70
192
 0
VERTEX
 8
CYLINDER_8
 10
-1.8362
 20
0.4194
 30
35.9195
 70
192
 0
VERTEX
 8
CYLINDER_8
 10
-1.8553
 20
0.4256
 30
35.9395
 70
192
 0
VERTEX
 8
CYLINDER_8
 10
-1.8553
 20
0.4256
 30
35.9795
 70
192
 0
VERTEX
 8
CYLINDER_8
 10
-1.8362
 20
0.4194
 30
35.9995
 70
192
 0
VERTEX
 8
CYLINDER_8
 10
-1.8548
 20
0.302
 30
35.9195
 70
192
 0
VERTEX
 8
CYLINDER_8
 10
-1.8748
 20
0.302
 30
35.9395
 70
192
 0
VERTEX
 8
CYLINDER_8
 10
-1.8748
 20
0.302
 30
35.9795
 70
192
 0
VERTEX
 8
CYLINDER_8
 10
-1.8548
 20
0.302
 30
35.9995
 70
192
 0
VERTEX
 8
CYLINDER_8
 10
-1.8362
 20
0.1846
 30
35.9195
 70
192
 0
VERTEX
 8
CYLINDER_8
 10
-1.8553
 20
0.1784
 30
35.9395
 70
192
 0
VERTEX
 8
CYLINDER_8
 10
-1.8553
 20
0.1784
 30
35.9795
 70
192
 0
VERTEX
 8
CYLINDER_8
 10
-1.8362
 20
0.1846
 30
35.9995
 70
192
 0
VERTEX
 8
CYLINDER_8
 10
-1.7823
 20
0.0787
 30
35.9195
 70
192
 0
VERTEX
 8
CYLINDER_8
 10
-1.7984
 20
0.0669
 30
35.9395
 70
192
 0
VERTEX
 8
CYLINDER_8
 10
-1.7984
 20
0.0669
 30
35.9795
 70
192
 0
VERTEX
 8
CYLINDER_8
 10
-1.7823
 20
0.0787
 30
35.9995
 70
192
 0
VERTEX
 8
CYLINDER_8
 10
-1.6982
 20
-0.0054
 30
35.9195
 70
192
 0
VERTEX
 8
CYLINDER_8
 10
-1.7099
 20
-0.0216
 30
35.9395
 70
192
 0
VERTEX
 8
CYLINDER_8
 10
-1.7099
 20
-0.0216
 30
35.9795
 70
192
 0
VERTEX
 8
CYLINDER_8
 10
-1.6982
 20
-0.0054
 30
35.9995
 70
192
 0
VERTEX
 8
CYLINDER_8
 10
-1.5923
 20
-0.0594
 30
35.9195
 70
192
 0
VERTEX
 8
CYLINDER_8
 10
-1.5984
 20
-0.0784
 30
35.9395
 70
192
 0
VERTEX
 8
CYLINDER_8
 10
-1.5984
 20
-0.0784
 30
35.9795
 70
192
 0
VERTEX
 8
CYLINDER_8
 10
-1.5923
 20
-0.0594
 30
35.9995
 70
192
 0
VERTEX
 8
CYLINDER_8
 10
0
 20
0
 30
0
 70
128
 71
66
 72
67
 73
71
 74
70
 0
VERTEX
 8
CYLINDER_8
 10
0
 20
0
 30
0
 70
128
 71
2
 72
3
 73
7
 74
6
 0
VERTEX
 8
CYLINDER_8
 10
0
 20
0
 30
0
 70
128
 71
3
 72
4
 73
8
 74
7
 0
VERTEX
 8
CYLINDER_8
 10
0
 20
0
 30
0
 70
128
 71
4
 72
5
 73
9
 74
8
 0
VERTEX
 8
CYLINDER_8
 10
0
 20
0
 30
0
 70
128
 71
5
 72
1
 73
9
 74
9
 0
VERTEX
 8
CYLINDER_8
 10
0
 20
0
 30
0
 70
128
 71
67
 72
68
 73
72
 74
71
 0
VERTEX
 8
CYLINDER_8
 10
0
 20
0
 30
0
 70
128
 71
6
 72
7
 73
11
 74
10
 0
VERTEX
 8
CYLINDER_8
 10
0
 20
0
 30
0
 70
128
 71
7
 72
8
 73
12
 74
11
 0
VERTEX
 8
CYLINDER_8
 10
0
 20
0
 30
0
 70
128
 71
8
 72
9
 73
13
 74
12
 0
VERTEX
 8
CYLINDER_8
 10
0
 20
0
 30
0
 70
128
 71
9
 72
1
 73
13
 74
13
 0
VERTEX
 8
CYLINDER_8
 10
0
 20
0
 30
0
 70
128
 71
68
 72
69
 73
73
 74
72
 0
VERTEX
 8
CYLINDER_8
 10
0
 20
0
 30
0
 70
128
 71
10
 72
11
 73
15
 74
14
 0
VERTEX
 8
CYLINDER_8
 10
0
 20
0
 30
0
 70
128
 71
11
 72
12
 73
16
 74
15
 0
VERTEX
 8
CYLINDER_8
 10
0
 20
0
 30
0
 70
128
 71
12
 72
13
 73
17
 74
16
 0
VERTEX
 8
CYLINDER_8
 10
0
 20
0
 30
0
 70
128
 71
13
 72
1
 73
17
 74
17
 0
VERTEX
 8
CYLINDER_8
 10
0
 20
0
 30
0
 70
128
 71
69
 72
1
 73
73
 74
73
 0
VERTEX
 8
CYLINDER_8
 10
0
 20
0
 30
0
 70
128
 71
14
 72
15
 73
19
 74
18
 0
VERTEX
 8
CYLINDER_8
 10
0
 20
0
 30
0
 70
128
 71
15
 72
16
 73
20
 74
19
 0
VERTEX
 8
CYLINDER_8
 10
0
 20
0
 30
0
 70
128
 71
16
 72
17
 73
21
 74
20
 0
VERTEX
 8
CYLINDER_8
 10
0
 20
0
 30
0
 70
128
 71
17
 72
1
 73
21
 74
21
 0
VERTEX
 8
CYLINDER_8
 10
0
 20
0
 30
0
 70
128
 71
70
 72
71
 73
75
 74
74
 0
VERTEX
 8
CYLINDER_8
 10
0
 20
0
 30
0
 70
128
 71
18
 72
19
 73
23
 74
22
 0
VERTEX
 8
CYLINDER_8
 10
0
 20
0
 30
0
 70
128
 71
19
 72
20
 73
24
 74
23
 0
VERTEX
 8
CYLINDER_8
 10
0
 20
0
 30
0
 70
128
 71
20
 72
21
 73
25
 74
24
 0
VERTEX
 8
CYLINDER_8
 10
0
 20
0
 30
0
 70
128
 71
21
 72
1
 73
25
 74
25
 0
VERTEX
 8
CYLINDER_8
 10
0
 20
0
 30
0
 70
128
 71
71
 72
72
 73
76
 74
75
 0
VERTEX
 8
CYLINDER_8
 10
0
 20
0
 30
0
 70
128
 71
22
 72
23
 73
27
 74
26
 0
VERTEX
 8
CYLINDER_8
 10
0
 20
0
 30
0
 70
128
 71
23
 72
24
 73
28
 74
27
 0
VERTEX
 8
CYLINDER_8
 10
0
 20
0
 30
0
 70
128
 71
24
 72
25
 73
29
 74
28
 0
VERTEX
 8
CYLINDER_8
 10
0
 20
0
 30
0
 70
128
 71
25
 72
1
 73
29
 74
29
 0
VERTEX
 8
CYLINDER_8
 10
0
 20
0
 30
0
 70
128
 71
72
 72
73
 73
77
 74
76
 0
VERTEX
 8
CYLINDER_8
 10
0
 20
0
 30
0
 70
128
 71
26
 72
27
 73
31
 74
30
 0
VERTEX
 8
CYLINDER_8
 10
0
 20
0
 30
0
 70
128
 71
27
 72
28
 73
32
 74
31
 0
VERTEX
 8
CYLINDER_8
 10
0
 20
0
 30
0
 70
128
 71
28
 72
29
 73
33
 74
32
 0
VERTEX
 8
CYLINDER_8
 10
0
 20
0
 30
0
 70
128
 71
29
 72
1
 73
33
 74
33
 0
VERTEX
 8
CYLINDER_8
 10
0
 20
0
 30
0
 70
128
 71
73
 72
1
 73
77
 74
77
 0
VERTEX
 8
CYLINDER_8
 10
0
 20
0
 30
0
 70
128
 71
30
 72
31
 73
35
 74
34
 0
VERTEX
 8
CYLINDER_8
 10
0
 20
0
 30
0
 70
128
 71
31
 72
32
 73
36
 74
35
 0
VERTEX
 8
CYLINDER_8
 10
0
 20
0
 30
0
 70
128
 71
32
 72
33
 73
37
 74
36
 0
VERTEX
 8
CYLINDER_8
 10
0
 20
0
 30
0
 70
128
 71
33
 72
1
 73
37
 74
37
 0
VERTEX
 8
CYLINDER_8
 10
0
 20
0
 30
0
 70
128
 71
74
 72
75
 73
79
 74
78
 0
VERTEX
 8
CYLINDER_8
 10
0
 20
0
 30
0
 70
128
 71
34
 72
35
 73
39
 74
38
 0
VERTEX
 8
CYLINDER_8
 10
0
 20
0
 30
0
 70
128
 71
35
 72
36
 73
40
 74
39
 0
VERTEX
 8
CYLINDER_8
 10
0
 20
0
 30
0
 70
128
 71
36
 72
37
 73
41
 74
40
 0
VERTEX
 8
CYLINDER_8
 10
0
 20
0
 30
0
 70
128
 71
37
 72
1
 73
41
 74
41
 0
VERTEX
 8
CYLINDER_8
 10
0
 20
0
 30
0
 70
128
 71
75
 72
76
 73
80
 74
79
 0
VERTEX
 8
CYLINDER_8
 10
0
 20
0
 30
0
 70
128
 71
38
 72
39
 73
43
 74
42
 0
VERTEX
 8
CYLINDER_8
 10
0
 20
0
 30
0
 70
128
 71
39
 72
40
 73
44
 74
43
 0
VERTEX
 8
CYLINDER_8
 10
0
 20
0
 30
0
 70
128
 71
40
 72
41
 73
45
 74
44
 0
VERTEX
 8
CYLINDER_8
 10
0
 20
0
 30
0
 70
128
 71
41
 72
1
 73
45
 74
45
 0
VERTEX
 8
CYLINDER_8
 10
0
 20
0
 30
0
 70
128
 71
76
 72
77
 73
81
 74
80
 0
VERTEX
 8
CYLINDER_8
 10
0
 20
0
 30
0
 70
128
 71
42
 72
43
 73
47
 74
46
 0
VERTEX
 8
CYLINDER_8
 10
0
 20
0
 30
0
 70
128
 71
43
 72
44
 73
48
 74
47
 0
VERTEX
 8
CYLINDER_8
 10
0
 20
0
 30
0
 70
128
 71
44
 72
45
 73
49
 74
48
 0
VERTEX
 8
CYLINDER_8
 10
0
 20
0
 30
0
 70
128
 71
45
 72
1
 73
49
 74
49
 0
VERTEX
 8
CYLINDER_8
 10
0
 20
0
 30
0
 70
128
 71
77
 72
1
 73
81
 74
81
 0
VERTEX
 8
CYLINDER_8
 10
0
 20
0
 30
0
 70
128
 71
46
 72
47
 73
51
 74
50
 0
VERTEX
 8
CYLINDER_8
 10
0
 20
0
 30
0
 70
128
 71
47
 72
48
 73
52
 74
51
 0
VERTEX
 8
CYLINDER_8
 10
0
 20
0
 30
0
 70
128
 71
48
 72
49
 73
53
 74
52
 0
VERTEX
 8
CYLINDER_8
 10
0
 20
0
 30
0
 70
128
 71
49
 72
1
 73
53
 74
53
 0
VERTEX
 8
CYLINDER_8
 10
0
 20
0
 30
0
 70
128
 71
78
 72
79
 73
3
 74
2
 0
VERTEX
 8
CYLINDER_8
 10
0
 20
0
 30
0
 70
128
 71
50
 72
51
 73
55
 74
54
 0
VERTEX
 8
CYLINDER_8
 10
0
 20
0
 30
0
 70
128
 71
51
 72
52
 73
56
 74
55
 0
VERTEX
 8
CYLINDER_8
 10
0
 20
0
 30
0
 70
128
 71
52
 72
53
 73
57
 74
56
 0
VERTEX
 8
CYLINDER_8
 10
0
 20
0
 30
0
 70
128
 71
53
 72
1
 73
57
 74
57
 0
VERTEX
 8
CYLINDER_8
 10
0
 20
0
 30
0
 70
128
 71
79
 72
80
 73
4
 74
3
 0
VERTEX
 8
CYLINDER_8
 10
0
 20
0
 30
0
 70
128
 71
54
 72
55
 73
59
 74
58
 0
VERTEX
 8
CYLINDER_8
 10
0
 20
0
 30
0
 70
128
 71
55
 72
56
 73
60
 74
59
 0
VERTEX
 8
CYLINDER_8
 10
0
 20
0
 30
0
 70
128
 71
56
 72
57
 73
61
 74
60
 0
VERTEX
 8
CYLINDER_8
 10
0
 20
0
 30
0
 70
128
 71
57
 72
1
 73
61
 74
61
 0
VERTEX
 8
CYLINDER_8
 10
0
 20
0
 30
0
 70
128
 71
80
 72
81
 73
5
 74
4
 0
VERTEX
 8
CYLINDER_8
 10
0
 20
0
 30
0
 70
128
 71
58
 72
59
 73
63
 74
62
 0
VERTEX
 8
CYLINDER_8
 10
0
 20
0
 30
0
 70
128
 71
59
 72
60
 73
64
 74
63
 0
VERTEX
 8
CYLINDER_8
 10
0
 20
0
 30
0
 70
128
 71
60
 72
61
 73
65
 74
64
 0
VERTEX
 8
CYLINDER_8
 10
0
 20
0
 30
0
 70
128
 71
61
 72
1
 73
65
 74
65
 0
VERTEX
 8
CYLINDER_8
 10
0
 20
0
 30
0
 70
128
 71
81
 72
1
 73
5
 74
5
 0
VERTEX
 8
CYLINDER_8
 10
0
 20
0
 30
0
 70
128
 71
62
 72
63
 73
67
 74
66
 0
VERTEX
 8
CYLINDER_8
 10
0
 20
0
 30
0
 70
128
 71
63
 72
64
 73
68
 74
67
 0
VERTEX
 8
CYLINDER_8
 10
0
 20
0
 30
0
 70
128
 71
64
 72
65
 73
69
 74
68
 0
VERTEX
 8
CYLINDER_8
 10
0
 20
0
 30
0
 70
128
 71
65
 72
1
 73
69
 74
69
 0
SEQEND
 0
POLYLINE
 8
CYLINDER_9
 66
1
 10
0.0
 20
0.0
 30
0.0
 70
64
 71
82
 72
100
 0
VERTEX
 8
CYLINDER_9
 10
-1.4748
 20
2.7182
 30
0.0269
 70
192
 0
VERTEX
 8
CYLINDER_9
 10
-1.4748
 20
2.5182
 30
0.0269
 70
192
 0
VERTEX
 8
CYLINDER_9
 10
-1.4748
 20
2.7182
 30
-1.1331
 70
192
 0
VERTEX
 8
CYLINDER_9
 10
-1.4748
 20
2.6782
 30
-1.1731
 70
192
 0
VERTEX
 8
CYLINDER_9
 10
-1.4748
 20
2.5582
 30
-1.1731
 70
192
 0
VERTEX
 8
CYLINDER_9
 10
-1.4748
 20
2.5182
 30
-1.1331
 70
192
 0
VERTEX
 8
CYLINDER_9
 10
-1.1164
 20
2.7182
 30
-1.0763
 70
192
 0
VERTEX
 8
CYLINDER_9
 10
-1.104
 20
2.6782
 30
-1.1143
 70
192
 0
VERTEX
 8
CYLINDER_9
 10
-1.104
 20
2.5582
 30
-1.1143
 70
192
 0
VERTEX
 8
CYLINDER_9
 10
-1.1164
 20
2.5182
 30
-1.0763
 70
192
 0
VERTEX
 8
CYLINDER_9
 10
-0.793
 20
2.7182
 30
-0.9115
 70
192
 0
VERTEX
 8
CYLINDER_9
 10
-0.7695
 20
2.6782
 30
-0.9439
 70
192
 0
VERTEX
 8
CYLINDER_9
 10
-0.7695
 20
2.5582
 30
-0.9439
 70
192
 0
VERTEX
 8
CYLINDER_9
 10
-0.793
 20
2.5182
 30
-0.9115
 70
192
 0
VERTEX
 8
CYLINDER_9
 10
-0.5364
 20
2.7182
 30
-0.6549
 70
192
 0
VERTEX
 8
CYLINDER_9
 10
-0.504
 20
2.6782
 30
-0.6784
 70
192
 0
VERTEX
 8
CYLINDER_9
 10
-0.504
 20
2.5582
 30
-0.6784
 70
192
 0
VERTEX
 8
CYLINDER_9
 10
-0.5364
 20
2.5182
 30
-0.6549
 70
192
 0
VERTEX
 8
CYLINDER_9
 10
-0.3716
 20
2.7182
 30
-0.3315
 70
192
 0
VERTEX
 8
CYLINDER_9
 10
-0.3336
 20
2.6782
 30
-0.3439
 70
192
 0
VERTEX
 8
CYLINDER_9
 10
-0.3336
 20
2.5582
 30
-0.3439
 70
192
 0
VERTEX
 8
CYLINDER_9
 10
-0.3716
 20
2.5182
 30
-0.3315
 70
192
 0
VERTEX
 8
CYLINDER_9
 10
-0.3148
 20
2.7182
 30
0.0269
 70
192
 0
VERTEX
 8
CYLINDER_9
 10
-0.2748
 20
2.6782
 30
0.0269
 70
192
 0
VERTEX
 8
CYLINDER_9
 10
-0.2748
 20
2.5582
 30
0.0269
 70
192
 0
VERTEX
 8
CYLINDER_9
 10
-0.3148
 20
2.5182
 30
0.0269
 70
192
 0
VERTEX
 8
CYLINDER_9
 10
-0.3716
 20
2.7182
 30
0.3854
 70
192
 0
VERTEX
 8
CYLINDER_9
 10
-0.3336
 20
2.6782
 30
0.3977
 70
192
 0
VERTEX
 8
CYLINDER_9
 10
-0.3336
 20
2.5582
 30
0.3977
 70
192
 0
VERTEX
 8
CYLINDER_9
 10
-0.3716
 20
2.5182
 30
0.3854
 70
192
 0
VERTEX
 8
CYLINDER_9
 10
-0.5364
 20
2.7182
 30
0.7088
 70
192
 0
VERTEX
 8
CYLINDER_9
 10
-0.504
 20
2.6782
 30
0.7323
 70
192
 0
VERTEX
 8
CYLINDER_9
 10
-0.504
 20
2.5582
 30
0.7323
 70
192
 0
VERTEX
 8
CYLINDER_9
 10
-0.5364
 20
2.5182
 30
0.7088
 70
192
 0
VERTEX
 8
CYLINDER_9
 10
-0.793
 20
2.7182
 30
0.9654
 70
192
 0
VERTEX
 8
CYLINDER_9
 10
-0.7695
 20
2.6782
 30
0.9977
 70
192
 0
VERTEX
 8
CYLINDER_9
 10
-0.7695
 20
2.5582
 30
0.9977
 70
192
 0
VERTEX
 8
CYLINDER_9
 10
-0.793
 20
2.5182
 30
0.9654
 70
192
 0
VERTEX
 8
CYLINDER_9
 10
-1.1164
 20
2.7182
 30
1.1302
 70
192
 0
VERTEX
 8
CYLINDER_9
 10
-1.104
 20
2.6782
 30
1.1682
 70
192
 0
VERTEX
 8
CYLINDER_9
 10
-1.104
 20
2.5582
 30
1.1682
 70
192
 0
VERTEX
 8
CYLINDER_9
 10
-1.1164
 20
2.5182
 30
1.1302
 70
192
 0
VERTEX
 8
CYLINDER_9
 10
-1.4748
 20
2.7182
 30
1.1869
 70
192
 0
VERTEX
 8
CYLINDER_9
 10
-1.4748
 20
2.6782
 30
1.2269
 70
192
 0
VERTEX
 8
CYLINDER_9
 10
-1.4748
 20
2.5582
 30
1.2269
 70
192
 0
VERTEX
 8
CYLINDER_9
 10
-1.4748
 20
2.5182
 30
1.1869
 70
192
 0
VERTEX
 8
CYLINDER_9
 10
-1.8333
 20
2.7182
 30
1.1302
 70
192
 0
VERTEX
 8
CYLINDER_9
 10
-1.8456
 20
2.6782
 30
1.1682
 70
192
 0
VERTEX
 8
CYLINDER_9
 10
-1.8456
 20
2.5582
 30
1.1682
 70
192
 0
VERTEX
 8
CYLINDER_9
 10
-1.8333
 20
2.5182
 30
1.1302
 70
192
 0
VERTEX
 8
CYLINDER_9
 10
-2.1567
 20
2.7182
 30
0.9654
 70
192
 0
VERTEX
 8
CYLINDER_9
 10
-2.1802
 20
2.6782
 30
0.9977
 70
192
 0
VERTEX
 8
CYLINDER_9
 10
-2.1802
 20
2.5582
 30
0.9977
 70
192
 0
VERTEX
 8
CYLINDER_9
 10
-2.1567
 20
2.5182
 30
0.9654
 70
192
 0
VERTEX
 8
CYLINDER_9
 10
-2.4133
 20
2.7182
 30
0.7088
 70
192
 0
VERTEX
 8
CYLINDER_9
 10
-2.4456
 20
2.6782
 30
0.7323
 70
192
 0
VERTEX
 8
CYLINDER_9
 10
-2.4456
 20
2.5582
 30
0.7323
 70
192
 0
VERTEX
 8
CYLINDER_9
 10
-2.4133
 20
2.5182
 30
0.7088
 70
192
 0
VERTEX
 8
CYLINDER_9
 10
-2.5781
 20
2.7182
 30
0.3854
 70
192
 0
VERTEX
 8
CYLINDER_9
 10
-2.6161
 20
2.6782
 30
0.3977
 70
192
 0
VERTEX
 8
CYLINDER_9
 10
-2.6161
 20
2.5582
 30
0.3977
 70
192
 0
VERTEX
 8
CYLINDER_9
 10
-2.5781
 20
2.5182
 30
0.3854
 70
192
 0
VERTEX
 8
CYLINDER_9
 10
-2.6348
 20
2.7182
 30
0.0269
 70
192
 0
VERTEX
 8
CYLINDER_9
 10
-2.6748
 20
2.6782
 30
0.0269
 70
192
 0
VERTEX
 8
CYLINDER_9
 10
-2.6748
 20
2.5582
 30
0.0269
 70
192
 0
VERTEX
 8
CYLINDER_9
 10
-2.6348
 20
2.5182
 30
0.0269
 70
192
 0
VERTEX
 8
CYLINDER_9
 10
-2.5781
 20
2.7182
 30
-0.3315
 70
192
 0
VERTEX
 8
CYLINDER_9
 10
-2.6161
 20
2.6782
 30
-0.3439
 70
192
 0
VERTEX
 8
CYLINDER_9
 10
-2.6161
 20
2.5582
 30
-0.3439
 70
192
 0
VERTEX
 8
CYLINDER_9
 10
-2.5781
 20
2.5182
 30
-0.3315
 70
192
 0
VERTEX
 8
CYLINDER_9
 10
-2.4133
 20
2.7182
 30
-0.6549
 70
192
 0
VERTEX
 8
CYLINDER_9
 10
-2.4456
 20
2.6782
 30
-0.6784
 70
192
 0
VERTEX
 8
CYLINDER_9
 10
-2.4456
 20
2.5582
 30
-0.6784
 70
192
 0
VERTEX
 8
CYLINDER_9
 10
-2.4133
 20
2.5182
 30
-0.6549
 70
192
 0
VERTEX
 8
CYLINDER_9
 10
-2.1567
 20
2.7182
 30
-0.9115
 70
192
 0
VERTEX
 8
CYLINDER_9
 10
-2.1802
 20
2.6782
 30
-0.9439
 70
192
 0
VERTEX
 8
CYLINDER_9
 10
-2.1802
 20
2.5582
 30
-0.9439
 70
192
 0
VERTEX
 8
CYLINDER_9
 10
-2.1567
 20
2.5182
 30
-0.9115
 70
192
 0
VERTEX
 8
CYLINDER_9
 10
-1.8333
 20
2.7182
 30
-1.0763
 70
192
 0
VERTEX
 8
CYLINDER_9
 10
-1.8456
 20
2.6782
 30
-1.1143
 70
192
 0
VERTEX
 8
CYLINDER_9
 10
-1.8456
 20
2.5582
 30
-1.1143
 70
192
 0
VERTEX
 8
CYLINDER_9
 10
-1.8333
 20
2.5182
 30
-1.0763
 70
192
 0
VERTEX
 8
CYLINDER_9
 10
0
 20
0
 30
0
 70
128
 71
1
 72
3
 73
7
 74
7
 0
VERTEX
 8
CYLINDER_9
 10
0
 20
0
 30
0
 70
128
 71
3
 72
4
 73
8
 74
7
 0
VERTEX
 8
CYLINDER_9
 10
0
 20
0
 30
0
 70
128
 71
4
 72
5
 73
9
 74
8
 0
VERTEX
 8
CYLINDER_9
 10
0
 20
0
 30
0
 70
128
 71
5
 72
6
 73
10
 74
9
 0
VERTEX
 8
CYLINDER_9
 10
0
 20
0
 30
0
 70
128
 71
6
 72
2
 73
10
 74
10
 0
VERTEX
 8
CYLINDER_9
 10
0
 20
0
 30
0
 70
128
 71
1
 72
7
 73
11
 74
11
 0
VERTEX
 8
CYLINDER_9
 10
0
 20
0
 30
0
 70
128
 71
7
 72
8
 73
12
 74
11
 0
VERTEX
 8
CYLINDER_9
 10
0
 20
0
 30
0
 70
128
 71
8
 72
9
 73
13
 74
12
 0
VERTEX
 8
CYLINDER_9
 10
0
 20
0
 30
0
 70
128
 71
9
 72
10
 73
14
 74
13
 0
VERTEX
 8
CYLINDER_9
 10
0
 20
0
 30
0
 70
128
 71
10
 72
2
 73
14
 74
14
 0
VERTEX
 8
CYLINDER_9
 10
0
 20
0
 30
0
 70
128
 71
1
 72
11
 73
15
 74
15
 0
VERTEX
 8
CYLINDER_9
 10
0
 20
0
 30
0
 70
128
 71
11
 72
12
 73
16
 74
15
 0
VERTEX
 8
CYLINDER_9
 10
0
 20
0
 30
0
 70
128
 71
12
 72
13
 73
17
 74
16
 0
VERTEX
 8
CYLINDER_9
 10
0
 20
0
 30
0
 70
128
 71
13
 72
14
 73
18
 74
17
 0
VERTEX
 8
CYLINDER_9
 10
0
 20
0
 30
0
 70
128
 71
14
 72
2
 73
18
 74
18
 0
VERTEX
 8
CYLINDER_9
 10
0
 20
0
 30
0
 70
128
 71
1
 72
15
 73
19
 74
19
 0
VERTEX
 8
CYLINDER_9
 10
0
 20
0
 30
0
 70
128
 71
15
 72
16
 73
20
 74
19
 0
VERTEX
 8
CYLINDER_9
 10
0
 20
0
 30
0
 70
128
 71
16
 72
17
 73
21
 74
20
 0
VERTEX
 8
CYLINDER_9
 10
0
 20
0
 30
0
 70
128
 71
17
 72
18
 73
22
 74
21
 0
VERTEX
 8
CYLINDER_9
 10
0
 20
0
 30
0
 70
128
 71
18
 72
2
 73
22
 74
22
 0
VERTEX
 8
CYLINDER_9
 10
0
 20
0
 30
0
 70
128
 71
1
 72
19
 73
23
 74
23
 0
VERTEX
 8
CYLINDER_9
 10
0
 20
0
 30
0
 70
128
 71
19
 72
20
 73
24
 74
23
 0
VERTEX
 8
CYLINDER_9
 10
0
 20
0
 30
0
 70
128
 71
20
 72
21
 73
25
 74
24
 0
VERTEX
 8
CYLINDER_9
 10
0
 20
0
 30
0
 70
128
 71
21
 72
22
 73
26
 74
25
 0
VERTEX
 8
CYLINDER_9
 10
0
 20
0
 30
0
 70
128
 71
22
 72
2
 73
26
 74
26
 0
VERTEX
 8
CYLINDER_9
 10
0
 20
0
 30
0
 70
128
 71
1
 72
23
 73
27
 74
27
 0
VERTEX
 8
CYLINDER_9
 10
0
 20
0
 30
0
 70
128
 71
23
 72
24
 73
28
 74
27
 0
VERTEX
 8
CYLINDER_9
 10
0
 20
0
 30
0
 70
128
 71
24
 72
25
 73
29
 74
28
 0
VERTEX
 8
CYLINDER_9
 10
0
 20
0
 30
0
 70
128
 71
25
 72
26
 73
30
 74
29
 0
VERTEX
 8
CYLINDER_9
 10
0
 20
0
 30
0
 70
128
 71
26
 72
2
 73
30
 74
30
 0
VERTEX
 8
CYLINDER_9
 10
0
 20
0
 30
0
 70
128
 71
1
 72
27
 73
31
 74
31
 0
VERTEX
 8
CYLINDER_9
 10
0
 20
0
 30
0
 70
128
 71
27
 72
28
 73
32
 74
31
 0
VERTEX
 8
CYLINDER_9
 10
0
 20
0
 30
0
 70
128
 71
28
 72
29
 73
33
 74
32
 0
VERTEX
 8
CYLINDER_9
 10
0
 20
0
 30
0
 70
128
 71
29
 72
30
 73
34
 74
33
 0
VERTEX
 8
CYLINDER_9
 10
0
 20
0
 30
0
 70
128
 71
30
 72
2
 73
34
 74
34
 0
VERTEX
 8
CYLINDER_9
 10
0
 20
0
 30
0
 70
128
 71
1
 72
31
 73
35
 74
35
 0
VERTEX
 8
CYLINDER_9
 10
0
 20
0
 30
0
 70
128
 71
31
 72
32
 73
36
 74
35
 0
VERTEX
 8
CYLINDER_9
 10
0
 20
0
 30
0
 70
128
 71
32
 72
33
 73
37
 74
36
 0
VERTEX
 8
CYLINDER_9
 10
0
 20
0
 30
0
 70
128
 71
33
 72
34
 73
38
 74
37
 0
VERTEX
 8
CYLINDER_9
 10
0
 20
0
 30
0
 70
128
 71
34
 72
2
 73
38
 74
38
 0
VERTEX
 8
CYLINDER_9
 10
0
 20
0
 30
0
 70
128
 71
1
 72
35
 73
39
 74
39
 0
VERTEX
 8
CYLINDER_9
 10
0
 20
0
 30
0
 70
128
 71
35
 72
36
 73
40
 74
39
 0
VERTEX
 8
CYLINDER_9
 10
0
 20
0
 30
0
 70
128
 71
36
 72
37
 73
41
 74
40
 0
VERTEX
 8
CYLINDER_9
 10
0
 20
0
 30
0
 70
128
 71
37
 72
38
 73
42
 74
41
 0
VERTEX
 8
CYLINDER_9
 10
0
 20
0
 30
0
 70
128
 71
38
 72
2
 73
42
 74
42
 0
VERTEX
 8
CYLINDER_9
 10
0
 20
0
 30
0
 70
128
 71
1
 72
39
 73
43
 74
43
 0
VERTEX
 8
CYLINDER_9
 10
0
 20
0
 30
0
 70
128
 71
39
 72
40
 73
44
 74
43
 0
VERTEX
 8
CYLINDER_9
 10
0
 20
0
 30
0
 70
128
 71
40
 72
41
 73
45
 74
44
 0
VERTEX
 8
CYLINDER_9
 10
0
 20
0
 30
0
 70
128
 71
41
 72
42
 73
46
 74
45
 0
VERTEX
 8
CYLINDER_9
 10
0
 20
0
 30
0
 70
128
 71
42
 72
2
 73
46
 74
46
 0
VERTEX
 8
CYLINDER_9
 10
0
 20
0
 30
0
 70
128
 71
1
 72
43
 73
47
 74
47
 0
VERTEX
 8
CYLINDER_9
 10
0
 20
0
 30
0
 70
128
 71
43
 72
44
 73
48
 74
47
 0
VERTEX
 8
CYLINDER_9
 10
0
 20
0
 30
0
 70
128
 71
44
 72
45
 73
49
 74
48
 0
VERTEX
 8
CYLINDER_9
 10
0
 20
0
 30
0
 70
128
 71
45
 72
46
 73
50
 74
49
 0
VERTEX
 8
CYLINDER_9
 10
0
 20
0
 30
0
 70
128
 71
46
 72
2
 73
50
 74
50
 0
VERTEX
 8
CYLINDER_9
 10
0
 20
0
 30
0
 70
128
 71
1
 72
47
 73
51
 74
51
 0
VERTEX
 8
CYLINDER_9
 10
0
 20
0
 30
0
 70
128
 71
47
 72
48
 73
52
 74
51
 0
VERTEX
 8
CYLINDER_9
 10
0
 20
0
 30
0
 70
128
 71
48
 72
49
 73
53
 74
52
 0
VERTEX
 8
CYLINDER_9
 10
0
 20
0
 30
0
 70
128
 71
49
 72
50
 73
54
 74
53
 0
VERTEX
 8
CYLINDER_9
 10
0
 20
0
 30
0
 70
128
 71
50
 72
2
 73
54
 74
54
 0
VERTEX
 8
CYLINDER_9
 10
0
 20
0
 30
0
 70
128
 71
1
 72
51
 73
55
 74
55
 0
VERTEX
 8
CYLINDER_9
 10
0
 20
0
 30
0
 70
128
 71
51
 72
52
 73
56
 74
55
 0
VERTEX
 8
CYLINDER_9
 10
0
 20
0
 30
0
 70
128
 71
52
 72
53
 73
57
 74
56
 0
VERTEX
 8
CYLINDER_9
 10
0
 20
0
 30
0
 70
128
 71
53
 72
54
 73
58
 74
57
 0
VERTEX
 8
CYLINDER_9
 10
0
 20
0
 30
0
 70
128
 71
54
 72
2
 73
58
 74
58
 0
VERTEX
 8
CYLINDER_9
 10
0
 20
0
 30
0
 70
128
 71
1
 72
55
 73
59
 74
59
 0
VERTEX
 8
CYLINDER_9
 10
0
 20
0
 30
0
 70
128
 71
55
 72
56
 73
60
 74
59
 0
VERTEX
 8
CYLINDER_9
 10
0
 20
0
 30
0
 70
128
 71
56
 72
57
 73
61
 74
60
 0
VERTEX
 8
CYLINDER_9
 10
0
 20
0
 30
0
 70
128
 71
57
 72
58
 73
62
 74
61
 0
VERTEX
 8
CYLINDER_9
 10
0
 20
0
 30
0
 70
128
 71
58
 72
2
 73
62
 74
62
 0
VERTEX
 8
CYLINDER_9
 10
0
 20
0
 30
0
 70
128
 71
1
 72
59
 73
63
 74
63
 0
VERTEX
 8
CYLINDER_9
 10
0
 20
0
 30
0
 70
128
 71
59
 72
60
 73
64
 74
63
 0
VERTEX
 8
CYLINDER_9
 10
0
 20
0
 30
0
 70
128
 71
60
 72
61
 73
65
 74
64
 0
VERTEX
 8
CYLINDER_9
 10
0
 20
0
 30
0
 70
128
 71
61
 72
62
 73
66
 74
65
 0
VERTEX
 8
CYLINDER_9
 10
0
 20
0
 30
0
 70
128
 71
62
 72
2
 73
66
 74
66
 0
VERTEX
 8
CYLINDER_9
 10
0
 20
0
 30
0
 70
128
 71
1
 72
63
 73
67
 74
67
 0
VERTEX
 8
CYLINDER_9
 10
0
 20
0
 30
0
 70
128
 71
63
 72
64
 73
68
 74
67
 0
VERTEX
 8
CYLINDER_9
 10
0
 20
0
 30
0
 70
128
 71
64
 72
65
 73
69
 74
68
 0
VERTEX
 8
CYLINDER_9
 10
0
 20
0
 30
0
 70
128
 71
65
 72
66
 73
70
 74
69
 0
VERTEX
 8
CYLINDER_9
 10
0
 20
0
 30
0
 70
128
 71
66
 72
2
 73
70
 74
70
 0
VERTEX
 8
CYLINDER_9
 10
0
 20
0
 30
0
 70
128
 71
1
 72
67
 73
71
 74
71
 0
VERTEX
 8
CYLINDER_9
 10
0
 20
0
 30
0
 70
128
 71
67
 72
68
 73
72
 74
71
 0
VERTEX
 8
CYLINDER_9
 10
0
 20
0
 30
0
 70
128
 71
68
 72
69
 73
73
 74
72
 0
VERTEX
 8
CYLINDER_9
 10
0
 20
0
 30
0
 70
128
 71
69
 72
70
 73
74
 74
73
 0
VERTEX
 8
CYLINDER_9
 10
0
 20
0
 30
0
 70
128
 71
70
 72
2
 73
74
 74
74
 0
VERTEX
 8
CYLINDER_9
 10
0
 20
0
 30
0
 70
128
 71
1
 72
71
 73
75
 74
75
 0
VERTEX
 8
CYLINDER_9
 10
0
 20
0
 30
0
 70
128
 71
71
 72
72
 73
76
 74
75
 0
VERTEX
 8
CYLINDER_9
 10
0
 20
0
 30
0
 70
128
 71
72
 72
73
 73
77
 74
76
 0
VERTEX
 8
CYLINDER_9
 10
0
 20
0
 30
0
 70
128
 71
73
 72
74
 73
78
 74
77
 0
VERTEX
 8
CYLINDER_9
 10
0
 20
0
 30
0
 70
128
 71
74
 72
2
 73
78
 74
78
 0
VERTEX
 8
CYLINDER_9
 10
0
 20
0
 30
0
 70
128
 71
1
 72
75
 73
79
 74
79
 0
VERTEX
 8
CYLINDER_9
 10
0
 20
0
 30
0
 70
128
 71
75
 72
76
 73
80
 74
79
 0
VERTEX
 8
CYLINDER_9
 10
0
 20
0
 30
0
 70
128
 71
76
 72
77
 73
81
 74
80
 0
VERTEX
 8
CYLINDER_9
 10
0
 20
0
 30
0
 70
128
 71
77
 72
78
 73
82
 74
81
 0
VERTEX
 8
CYLINDER_9
 10
0
 20
0
 30
0
 70
128
 71
78
 72
2
 73
82
 74
82
 0
VERTEX
 8
CYLINDER_9
 10
0
 20
0
 30
0
 70
128
 71
1
 72
79
 73
3
 74
3
 0
VERTEX
 8
CYLINDER_9
 10
0
 20
0
 30
0
 70
128
 71
79
 72
80
 73
4
 74
3
 0
VERTEX
 8
CYLINDER_9
 10
0
 20
0
 30
0
 70
128
 71
80
 72
81
 73
5
 74
4
 0
VERTEX
 8
CYLINDER_9
 10
0
 20
0
 30
0
 70
128
 71
81
 72
82
 73
6
 74
5
 0
VERTEX
 8
CYLINDER_9
 10
0
 20
0
 30
0
 70
128
 71
82
 72
2
 73
6
 74
6
 0
SEQEND
 0
POLYLINE
 8
CYLINDER_10
 66
1
 10
0.0
 20
0.0
 30
0.0
 70
64
 71
82
 72
100
 0
VERTEX
 8
CYLINDER_10
 10
-1.4748
 20
2.7182
 30
34.2965
 70
192
 0
VERTEX
 8
CYLINDER_10
 10
-1.4748
 20
2.5182
 30
34.2965
 70
192
 0
VERTEX
 8
CYLINDER_10
 10
-1.4748
 20
2.7182
 30
33.1365
 70
192
 0
VERTEX
 8
CYLINDER_10
 10
-1.4748
 20
2.6782
 30
33.0965
 70
192
 0
VERTEX
 8
CYLINDER_10
 10
-1.4748
 20
2.5582
 30
33.0965
 70
192
 0
VERTEX
 8
CYLINDER_10
 10
-1.4748
 20
2.5182
 30
33.1365
 70
192
 0
VERTEX
 8
CYLINDER_10
 10
-1.1164
 20
2.7182
 30
33.1932
 70
192
 0
VERTEX
 8
CYLINDER_10
 10
-1.104
 20
2.6782
 30
33.1552
 70
192
 0
VERTEX
 8
CYLINDER_10
 10
-1.104
 20
2.5582
 30
33.1552
 70
192
 0
VERTEX
 8
CYLINDER_10
 10
-1.1164
 20
2.5182
 30
33.1932
 70
192
 0
VERTEX
 8
CYLINDER_10
 10
-0.793
 20
2.7182
 30
33.358
 70
192
 0
VERTEX
 8
CYLINDER_10
 10
-0.7695
 20
2.6782
 30
33.3256
 70
192
 0
VERTEX
 8
CYLINDER_10
 10
-0.7695
 20
2.5582
 30
33.3256
 70
192
 0
VERTEX
 8
CYLINDER_10
 10
-0.793
 20
2.5182
 30
33.358
 70
192
 0
VERTEX
 8
CYLINDER_10
 10
-0.5364
 20
2.7182
 30
33.6146
 70
192
 0
VERTEX
 8
CYLINDER_10
 10
-0.504
 20
2.6782
 30
33.5911
 70
192
 0
VERTEX
 8
CYLINDER_10
 10
-0.504
 20
2.5582
 30
33.5911
 70
192
 0
VERTEX
 8
CYLINDER_10
 10
-0.5364
 20
2.5182
 30
33.6146
 70
192
 0
VERTEX
 8
CYLINDER_10
 10
-0.3716
 20
2.7182
 30
33.938
 70
192
 0
VERTEX
 8
CYLINDER_10
 10
-0.3336
 20
2.6782
 30
33.9256
 70
192
 0
VERTEX
 8
CYLINDER_10
 10
-0.3336
 20
2.5582
 30
33.9256
 70
192
 0
VERTEX
 8
CYLINDER_10
 10
-0.3716
 20
2.5182
 30
33.938
 70
192
 0
VERTEX
 8
CYLINDER_10
 10
-0.3148
 20
2.7182
 30
34.2965
 70
192
 0
VERTEX
 8
CYLINDER_10
 10
-0.2748
 20
2.6782
 30
34.2965
 70
192
 0
VERTEX
 8
CYLINDER_10
 10
-0.2748
 20
2.5582
 30
34.2965
 70
192
 0
VERTEX
 8
CYLINDER_10
 10
-0.3148
 20
2.5182
 30
34.2965
 70
192
 0
VERTEX
 8
CYLINDER_10
 10
-0.3716
 20
2.7182
 30
34.6549
 70
192
 0
VERTEX
 8
CYLINDER_10
 10
-0.3336
 20
2.6782
 30
34.6673
 70
192
 0
VERTEX
 8
CYLINDER_10
 10
-0.3336
 20
2.5582
 30
34.6673
 70
192
 0
VERTEX
 8
CYLINDER_10
 10
-0.3716
 20
2.5182
 30
34.6549
 70
192
 0
VERTEX
 8
CYLINDER_10
 10
-0.5364
 20
2.7182
 30
34.9783
 70
192
 0
VERTEX
 8
CYLINDER_10
 10
-0.504
 20
2.6782
 30
35.0018
 70
192
 0
VERTEX
 8
CYLINDER_10
 10
-0.504
 20
2.5582
 30
35.0018
 70
192
 0
VERTEX
 8
CYLINDER_10
 10
-0.5364
 20
2.5182
 30
34.9783
 70
192
 0
VERTEX
 8
CYLINDER_10
 10
-0.793
 20
2.7182
 30
35.2349
 70
192
 0
VERTEX
 8
CYLINDER_10
 10
-0.7695
 20
2.6782
 30
35.2673
 70
192
 0
VERTEX
 8
CYLINDER_10
 10
-0.7695
 20
2.5582
 30
35.2673
 70
192
 0
VERTEX
 8
CYLINDER_10
 10
-0.793
 20
2.5182
 30
35.2349
 70
192
 0
VERTEX
 8
CYLINDER_10
 10
-1.1164
 20
2.7182
 30
35.3997
 70
192
 0
VERTEX
 8
CYLINDER_10
 10
-1.104
 20
2.6782
 30
35.4377
 70
192
 0
VERTEX
 8
CYLINDER_10
 10
-1.104
 20
2.5582
 30
35.4377
 70
192
 0
VERTEX
 8
CYLINDER_10
 10
-1.1164
 20
2.5182
 30
35.3997
 70
192
 0
VERTEX
 8
CYLINDER_10
 10
-1.4748
 20
2.7182
 30
35.4565
 70
192
 0
VERTEX
 8
CYLINDER_10
 10
-1.4748
 20
2.6782
 30
35.4965
 70
192
 0
VERTEX
 8
CYLINDER_10
 10
-1.4748
 20
2.5582
 30
35.4965
 70
192
 0
VERTEX
 8
CYLINDER_10
 10
-1.4748
 20
2.5182
 30
35.4565
 70
192
 0
VERTEX
 8
CYLINDER_10
 10
-1.8333
 20
2.7182
 30
35.3997
 70
192
 0
VERTEX
 8
CYLINDER_10
 10
-1.8456
 20
2.6782
 30
35.4377
 70
192
 0
VERTEX
 8
CYLINDER_10
 10
-1.8456
 20
2.5582
 30
35.4377
 70
192
 0
VERTEX
 8
CYLINDER_10
 10
-1.8333
 20
2.5182
 30
35.3997
 70
192
 0
VERTEX
 8
CYLINDER_10
 10
-2.1567
 20
2.7182
 30
35.2349
 70
192
 0
VERTEX
 8
CYLINDER_10
 10
-2.1802
 20
2.6782
 30
35.2673
 70
192
 0
VERTEX
 8
CYLINDER_10
 10
-2.1802
 20
2.5582
 30
35.2673
 70
192
 0
VERTEX
 8
CYLINDER_10
 10
-2.1567
 20
2.5182
 30
35.2349
 70
192
 0
VERTEX
 8
CYLINDER_10
 10
-2.4133
 20
2.7182
 30
34.9783
 70
192
 0
VERTEX
 8
CYLINDER_10
 10
-2.4456
 20
2.6782
 30
35.0018
 70
192
 0
VERTEX
 8
CYLINDER_10
 10
-2.4456
 20
2.5582
 30
35.0018
 70
192
 0
VERTEX
 8
CYLINDER_10
 10
-2.4133
 20
2.5182
 30
34.9783
 70
192
 0
VERTEX
 8
CYLINDER_10
 10
-2.5781
 20
2.7182
 30
34.6549
 70
192
 0
VERTEX
 8
CYLINDER_10
 10
-2.6161
 20
2.6782
 30
34.6673
 70
192
 0
VERTEX
 8
CYLINDER_10
 10
-2.6161
 20
2.5582
 30
34.6673
 70
192
 0
VERTEX
 8
CYLINDER_10
 10
-2.5781
 20
2.5182
 30
34.6549
 70
192
 0
VERTEX
 8
CYLINDER_10
 10
-2.6348
 20
2.7182
 30
34.2965
 70
192
 0
VERTEX
 8
CYLINDER_10
 10
-2.6748
 20
2.6782
 30
34.2965
 70
192
 0
VERTEX
 8
CYLINDER_10
 10
-2.6748
 20
2.5582
 30
34.2965
 70
192
 0
VERTEX
 8
CYLINDER_10
 10
-2.6348
 20
2.5182
 30
34.2965
 70
192
 0
VERTEX
 8
CYLINDER_10
 10
-2.5781
 20
2.7182
 30
33.938
 70
192
 0
VERTEX
 8
CYLINDER_10
 10
-2.6161
 20
2.6782
 30
33.9256
 70
192
 0
VERTEX
 8
CYLINDER_10
 10
-2.6161
 20
2.5582
 30
33.9256
 70
192
 0
VERTEX
 8
CYLINDER_10
 10
-2.5781
 20
2.5182
 30
33.938
 70
192
 0
VERTEX
 8
CYLINDER_10
 10
-2.4133
 20
2.7182
 30
33.6146
 70
192
 0
VERTEX
 8
CYLINDER_10
 10
-2.4456
 20
2.6782
 30
33.5911
 70
192
 0
VERTEX
 8
CYLINDER_10
 10
-2.4456
 20
2.5582
 30
33.5911
 70
192
 0
VERTEX
 8
CYLINDER_10
 10
-2.4133
 20
2.5182
 30
33.6146
 70
192
 0
VERTEX
 8
CYLINDER_10
 10
-2.1567
 20
2.7182
 30
33.358
 70
192
 0
VERTEX
 8
CYLINDER_10
 10
-2.1802
 20
2.6782
 30
33.3256
 70
192
 0
VERTEX
 8
CYLINDER_10
 10
-2.1802
 20
2.5582
 30
33.3256
 70
192
 0
VERTEX
 8
CYLINDER_10
 10
-2.1567
 20
2.5182
 30
33.358
 70
192
 0
VERTEX
 8
CYLINDER_10
 10
-1.8333
 20
2.7182
 30
33.1932
 70
192
 0
VERTEX
 8
CYLINDER_10
 10
-1.8456
 20
2.6782
 30
33.1552
 70
192
 0
VERTEX
 8
CYLINDER_10
 10
-1.8456
 20
2.5582
 30
33.1552
 70
192
 0
VERTEX
 8
CYLINDER_10
 10
-1.8333
 20
2.5182
 30
33.1932
 70
192
 0
VERTEX
 8
CYLINDER_10
 10
0
 20
0
 30
0
 70
128
 71
1
 72
3
 73
7
 74
7
 0
VERTEX
 8
CYLINDER_10
 10
0
 20
0
 30
0
 70
128
 71
3
 72
4
 73
8
 74
7
 0
VERTEX
 8
CYLINDER_10
 10
0
 20
0
 30
0
 70
128
 71
4
 72
5
 73
9
 74
8
 0
VERTEX
 8
CYLINDER_10
 10
0
 20
0
 30
0
 70
128
 71
5
 72
6
 73
10
 74
9
 0
VERTEX
 8
CYLINDER_10
 10
0
 20
0
 30
0
 70
128
 71
6
 72
2
 73
10
 74
10
 0
VERTEX
 8
CYLINDER_10
 10
0
 20
0
 30
0
 70
128
 71
1
 72
7
 73
11
 74
11
 0
VERTEX
 8
CYLINDER_10
 10
0
 20
0
 30
0
 70
128
 71
7
 72
8
 73
12
 74
11
 0
VERTEX
 8
CYLINDER_10
 10
0
 20
0
 30
0
 70
128
 71
8
 72
9
 73
13
 74
12
 0
VERTEX
 8
CYLINDER_10
 10
0
 20
0
 30
0
 70
128
 71
9
 72
10
 73
14
 74
13
 0
VERTEX
 8
CYLINDER_10
 10
0
 20
0
 30
0
 70
128
 71
10
 72
2
 73
14
 74
14
 0
VERTEX
 8
CYLINDER_10
 10
0
 20
0
 30
0
 70
128
 71
1
 72
11
 73
15
 74
15
 0
VERTEX
 8
CYLINDER_10
 10
0
 20
0
 30
0
 70
128
 71
11
 72
12
 73
16
 74
15
 0
VERTEX
 8
CYLINDER_10
 10
0
 20
0
 30
0
 70
128
 71
12
 72
13
 73
17
 74
16
 0
VERTEX
 8
CYLINDER_10
 10
0
 20
0
 30
0
 70
128
 71
13
 72
14
 73
18
 74
17
 0
VERTEX
 8
CYLINDER_10
 10
0
 20
0
 30
0
 70
128
 71
14
 72
2
 73
18
 74
18
 0
VERTEX
 8
CYLINDER_10
 10
0
 20
0
 30
0
 70
128
 71
1
 72
15
 73
19
 74
19
 0
VERTEX
 8
CYLINDER_10
 10
0
 20
0
 30
0
 70
128
 71
15
 72
16
 73
20
 74
19
 0
VERTEX
 8
CYLINDER_10
 10
0
 20
0
 30
0
 70
128
 71
16
 72
17
 73
21
 74
20
 0
VERTEX
 8
CYLINDER_10
 10
0
 20
0
 30
0
 70
128
 71
17
 72
18
 73
22
 74
21
 0
VERTEX
 8
CYLINDER_10
 10
0
 20
0
 30
0
 70
128
 71
18
 72
2
 73
22
 74
22
 0
VERTEX
 8
CYLINDER_10
 10
0
 20
0
 30
0
 70
128
 71
1
 72
19
 73
23
 74
23
 0
VERTEX
 8
CYLINDER_10
 10
0
 20
0
 30
0
 70
128
 71
19
 72
20
 73
24
 74
23
 0
VERTEX
 8
CYLINDER_10
 10
0
 20
0
 30
0
 70
128
 71
20
 72
21
 73
25
 74
24
 0
VERTEX
 8
CYLINDER_10
 10
0
 20
0
 30
0
 70
128
 71
21
 72
22
 73
26
 74
25
 0
VERTEX
 8
CYLINDER_10
 10
0
 20
0
 30
0
 70
128
 71
22
 72
2
 73
26
 74
26
 0
VERTEX
 8
CYLINDER_10
 10
0
 20
0
 30
0
 70
128
 71
1
 72
23
 73
27
 74
27
 0
VERTEX
 8
CYLINDER_10
 10
0
 20
0
 30
0
 70
128
 71
23
 72
24
 73
28
 74
27
 0
VERTEX
 8
CYLINDER_10
 10
0
 20
0
 30
0
 70
128
 71
24
 72
25
 73
29
 74
28
 0
VERTEX
 8
CYLINDER_10
 10
0
 20
0
 30
0
 70
128
 71
25
 72
26
 73
30
 74
29
 0
VERTEX
 8
CYLINDER_10
 10
0
 20
0
 30
0
 70
128
 71
26
 72
2
 73
30
 74
30
 0
VERTEX
 8
CYLINDER_10
 10
0
 20
0
 30
0
 70
128
 71
1
 72
27
 73
31
 74
31
 0
VERTEX
 8
CYLINDER_10
 10
0
 20
0
 30
0
 70
128
 71
27
 72
28
 73
32
 74
31
 0
VERTEX
 8
CYLINDER_10
 10
0
 20
0
 30
0
 70
128
 71
28
 72
29
 73
33
 74
32
 0
VERTEX
 8
CYLINDER_10
 10
0
 20
0
 30
0
 70
128
 71
29
 72
30
 73
34
 74
33
 0
VERTEX
 8
CYLINDER_10
 10
0
 20
0
 30
0
 70
128
 71
30
 72
2
 73
34
 74
34
 0
VERTEX
 8
CYLINDER_10
 10
0
 20
0
 30
0
 70
128
 71
1
 72
31
 73
35
 74
35
 0
VERTEX
 8
CYLINDER_10
 10
0
 20
0
 30
0
 70
128
 71
31
 72
32
 73
36
 74
35
 0
VERTEX
 8
CYLINDER_10
 10
0
 20
0
 30
0
 70
128
 71
32
 72
33
 73
37
 74
36
 0
VERTEX
 8
CYLINDER_10
 10
0
 20
0
 30
0
 70
128
 71
33
 72
34
 73
38
 74
37
 0
VERTEX
 8
CYLINDER_10
 10
0
 20
0
 30
0
 70
128
 71
34
 72
2
 73
38
 74
38
 0
VERTEX
 8
CYLINDER_10
 10
0
 20
0
 30
0
 70
128
 71
1
 72
35
 73
39
 74
39
 0
VERTEX
 8
CYLINDER_10
 10
0
 20
0
 30
0
 70
128
 71
35
 72
36
 73
40
 74
39
 0
VERTEX
 8
CYLINDER_10
 10
0
 20
0
 30
0
 70
128
 71
36
 72
37
 73
41
 74
40
 0
VERTEX
 8
CYLINDER_10
 10
0
 20
0
 30
0
 70
128
 71
37
 72
38
 73
42
 74
41
 0
VERTEX
 8
CYLINDER_10
 10
0
 20
0
 30
0
 70
128
 71
38
 72
2
 73
42
 74
42
 0
VERTEX
 8
CYLINDER_10
 10
0
 20
0
 30
0
 70
128
 71
1
 72
39
 73
43
 74
43
 0
VERTEX
 8
CYLINDER_10
 10
0
 20
0
 30
0
 70
128
 71
39
 72
40
 73
44
 74
43
 0
VERTEX
 8
CYLINDER_10
 10
0
 20
0
 30
0
 70
128
 71
40
 72
41
 73
45
 74
44
 0
VERTEX
 8
CYLINDER_10
 10
0
 20
0
 30
0
 70
128
 71
41
 72
42
 73
46
 74
45
 0
VERTEX
 8
CYLINDER_10
 10
0
 20
0
 30
0
 70
128
 71
42
 72
2
 73
46
 74
46
 0
VERTEX
 8
CYLINDER_10
 10
0
 20
0
 30
0
 70
128
 71
1
 72
43
 73
47
 74
47
 0
VERTEX
 8
CYLINDER_10
 10
0
 20
0
 30
0
 70
128
 71
43
 72
44
 73
48
 74
47
 0
VERTEX
 8
CYLINDER_10
 10
0
 20
0
 30
0
 70
128
 71
44
 72
45
 73
49
 74
48
 0
VERTEX
 8
CYLINDER_10
 10
0
 20
0
 30
0
 70
128
 71
45
 72
46
 73
50
 74
49
 0
VERTEX
 8
CYLINDER_10
 10
0
 20
0
 30
0
 70
128
 71
46
 72
2
 73
50
 74
50
 0
VERTEX
 8
CYLINDER_10
 10
0
 20
0
 30
0
 70
128
 71
1
 72
47
 73
51
 74
51
 0
VERTEX
 8
CYLINDER_10
 10
0
 20
0
 30
0
 70
128
 71
47
 72
48
 73
52
 74
51
 0
VERTEX
 8
CYLINDER_10
 10
0
 20
0
 30
0
 70
128
 71
48
 72
49
 73
53
 74
52
 0
VERTEX
 8
CYLINDER_10
 10
0
 20
0
 30
0
 70
128
 71
49
 72
50
 73
54
 74
53
 0
VERTEX
 8
CYLINDER_10
 10
0
 20
0
 30
0
 70
128
 71
50
 72
2
 73
54
 74
54
 0
VERTEX
 8
CYLINDER_10
 10
0
 20
0
 30
0
 70
128
 71
1
 72
51
 73
55
 74
55
 0
VERTEX
 8
CYLINDER_10
 10
0
 20
0
 30
0
 70
128
 71
51
 72
52
 73
56
 74
55
 0
VERTEX
 8
CYLINDER_10
 10
0
 20
0
 30
0
 70
128
 71
52
 72
53
 73
57
 74
56
 0
VERTEX
 8
CYLINDER_10
 10
0
 20
0
 30
0
 70
128
 71
53
 72
54
 73
58
 74
57
 0
VERTEX
 8
CYLINDER_10
 10
0
 20
0
 30
0
 70
128
 71
54
 72
2
 73
58
 74
58
 0
VERTEX
 8
CYLINDER_10
 10
0
 20
0
 30
0
 70
128
 71
1
 72
55
 73
59
 74
59
 0
VERTEX
 8
CYLINDER_10
 10
0
 20
0
 30
0
 70
128
 71
55
 72
56
 73
60
 74
59
 0
VERTEX
 8
CYLINDER_10
 10
0
 20
0
 30
0
 70
128
 71
56
 72
57
 73
61
 74
60
 0
VERTEX
 8
CYLINDER_10
 10
0
 20
0
 30
0
 70
128
 71
57
 72
58
 73
62
 74
61
 0
VERTEX
 8
CYLINDER_10
 10
0
 20
0
 30
0
 70
128
 71
58
 72
2
 73
62
 74
62
 0
VERTEX
 8
CYLINDER_10
 10
0
 20
0
 30
0
 70
128
 71
1
 72
59
 73
63
 74
63
 0
VERTEX
 8
CYLINDER_10
 10
0
 20
0
 30
0
 70
128
 71
59
 72
60
 73
64
 74
63
 0
VERTEX
 8
CYLINDER_10
 10
0
 20
0
 30
0
 70
128
 71
60
 72
61
 73
65
 74
64
 0
VERTEX
 8
CYLINDER_10
 10
0
 20
0
 30
0
 70
128
 71
61
 72
62
 73
66
 74
65
 0
VERTEX
 8
CYLINDER_10
 10
0
 20
0
 30
0
 70
128
 71
62
 72
2
 73
66
 74
66
 0
VERTEX
 8
CYLINDER_10
 10
0
 20
0
 30
0
 70
128
 71
1
 72
63
 73
67
 74
67
 0
VERTEX
 8
CYLINDER_10
 10
0
 20
0
 30
0
 70
128
 71
63
 72
64
 73
68
 74
67
 0
VERTEX
 8
CYLINDER_10
 10
0
 20
0
 30
0
 70
128
 71
64
 72
65
 73
69
 74
68
 0
VERTEX
 8
CYLINDER_10
 10
0
 20
0
 30
0
 70
128
 71
65
 72
66
 73
70
 74
69
 0
VERTEX
 8
CYLINDER_10
 10
0
 20
0
 30
0
 70
128
 71
66
 72
2
 73
70
 74
70
 0
VERTEX
 8
CYLINDER_10
 10
0
 20
0
 30
0
 70
128
 71
1
 72
67
 73
71
 74
71
 0
VERTEX
 8
CYLINDER_10
 10
0
 20
0
 30
0
 70
128
 71
67
 72
68
 73
72
 74
71
 0
VERTEX
 8
CYLINDER_10
 10
0
 20
0
 30
0
 70
128
 71
68
 72
69
 73
73
 74
72
 0
VERTEX
 8
CYLINDER_10
 10
0
 20
0
 30
0
 70
128
 71
69
 72
70
 73
74
 74
73
 0
VERTEX
 8
CYLINDER_10
 10
0
 20
0
 30
0
 70
128
 71
70
 72
2
 73
74
 74
74
 0
VERTEX
 8
CYLINDER_10
 10
0
 20
0
 30
0
 70
128
 71
1
 72
71
 73
75
 74
75
 0
VERTEX
 8
CYLINDER_10
 10
0
 20
0
 30
0
 70
128
 71
71
 72
72
 73
76
 74
75
 0
VERTEX
 8
CYLINDER_10
 10
0
 20
0
 30
0
 70
128
 71
72
 72
73
 73
77
 74
76
 0
VERTEX
 8
CYLINDER_10
 10
0
 20
0
 30
0
 70
128
 71
73
 72
74
 73
78
 74
77
 0
VERTEX
 8
CYLINDER_10
 10
0
 20
0
 30
0
 70
128
 71
74
 72
2
 73
78
 74
78
 0
VERTEX
 8
CYLINDER_10
 10
0
 20
0
 30
0
 70
128
 71
1
 72
75
 73
79
 74
79
 0
VERTEX
 8
CYLINDER_10
 10
0
 20
0
 30
0
 70
128
 71
75
 72
76
 73
80
 74
79
 0
VERTEX
 8
CYLINDER_10
 10
0
 20
0
 30
0
 70
128
 71
76
 72
77
 73
81
 74
80
 0
VERTEX
 8
CYLINDER_10
 10
0
 20
0
 30
0
 70
128
 71
77
 72
78
 73
82
 74
81
 0
VERTEX
 8
CYLINDER_10
 10
0
 20
0
 30
0
 70
128
 71
78
 72
2
 73
82
 74
82
 0
VERTEX
 8
CYLINDER_10
 10
0
 20
0
 30
0
 70
128
 71
1
 72
79
 73
3
 74
3
 0
VERTEX
 8
CYLINDER_10
 10
0
 20
0
 30
0
 70
128
 71
79
 72
80
 73
4
 74
3
 0
VERTEX
 8
CYLINDER_10
 10
0
 20
0
 30
0
 70
128
 71
80
 72
81
 73
5
 74
4
 0
VERTEX
 8
CYLINDER_10
 10
0
 20
0
 30
0
 70
128
 71
81
 72
82
 73
6
 74
5
 0
VERTEX
 8
CYLINDER_10
 10
0
 20
0
 30
0
 70
128
 71
82
 72
2
 73
6
 74
6
 0
SEQEND
 0
POLYLINE
 8
CYLINDER_11
 66
1
 10
0.0
 20
0.0
 30
0.0
 70
64
 71
24
 72
12
 0
VERTEX
 8
CYLINDER_11
 10
-1.4748
 20
2.605
 30
-0.2731
 70
192
 0
VERTEX
 8
CYLINDER_11
 10
-1.4748
 20
0.325
 30
-0.2731
 70
192
 0
VERTEX
 8
CYLINDER_11
 10
-1.3248
 20
2.605
 30
-0.2329
 70
192
 0
VERTEX
 8
CYLINDER_11
 10
-1.3248
 20
0.325
 30
-0.2329
 70
192
 0
VERTEX
 8
CYLINDER_11
 10
-1.215
 20
2.605
 30
-0.1231
 70
192
 0
VERTEX
 8
CYLINDER_11
 10
-1.215
 20
0.325
 30
-0.1231
 70
192
 0
VERTEX
 8
CYLINDER_11
 10
-1.1748
 20
2.605
 30
0.0269
 70
192
 0
VERTEX
 8
CYLINDER_11
 10
-1.1748
 20
0.325
 30
0.0269
 70
192
 0
VERTEX
 8
CYLINDER_11
 10
-1.215
 20
2.605
 30
0.1769
 70
192
 0
VERTEX
 8
CYLINDER_11
 10
-1.215
 20
0.325
 30
0.1769
 70
192
 0
VERTEX
 8
CYLINDER_11
 10
-1.3248
 20
2.605
 30
0.2867
 70
192
 0
VERTEX
 8
CYLINDER_11
 10
-1.3248
 20
0.325
 30
0.2867
 70
192
 0
VERTEX
 8
CYLINDER_11
 10
-1.4748
 20
2.605
 30
0.3269
 70
192
 0
VERTEX
 8
CYLINDER_11
 10
-1.4748
 20
0.325
 30
0.3269
 70
192
 0
VERTEX
 8
CYLINDER_11
 10
-1.6248
 20
2.605
 30
0.2867
 70
192
 0
VERTEX
 8
CYLINDER_11
 10
-1.6248
 20
0.325
 30
0.2867
 70
192
 0
VERTEX
 8
CYLINDER_11
 10
-1.7346
 20
2.605
 30
0.1769
 70
192
 0
VERTEX
 8
CYLINDER_11
 10
-1.7346
 20
0.325
 30
0.1769
 70
192
 0
VERTEX
 8
CYLINDER_11
 10
-1.7748
 20
2.605
 30
0.0269
 70
192
 0
VERTEX
 8
CYLINDER_11
 10
-1.7748
 20
0.325
 30
0.0269
 70
192
 0
VERTEX
 8
CYLINDER_11
 10
-1.7346
 20
2.605
 30
-0.1231
 70
192
 0
VERTEX
 8
CYLINDER_11
 10
-1.7346
 20
0.325
 30
-0.1231
 70
192
 0
VERTEX
 8
CYLINDER_11
 10
-1.6248
 20
2.605
 30
-0.2329
 70
192
 0
VERTEX
 8
CYLINDER_11
 10
-1.6248
 20
0.325
 30
-0.2329
 70
192
 0
VERTEX
 8
CYLINDER_11
 10
0
 20
0
 30
0
 70
128
 71
7
 72
8
 73
10
 74
9
 0
VERTEX
 8
CYLINDER_11
 10
0
 20
0
 30
0
 70
128
 71
15
 72
16
 73
18
 74
17
 0
VERTEX
 8
CYLINDER_11
 10
0
 20
0
 30
0
 70
128
 71
1
 72
2
 73
4
 74
3
 0
VERTEX
 8
CYLINDER_11
 10
0
 20
0
 30
0
 70
128
 71
19
 72
20
 73
22
 74
21
 0
VERTEX
 8
CYLINDER_11
 10
0
 20
0
 30
0
 70
128
 71
17
 72
18
 73
20
 74
19
 0
VERTEX
 8
CYLINDER_11
 10
0
 20
0
 30
0
 70
128
 71
9
 72
10
 73
12
 74
11
 0
VERTEX
 8
CYLINDER_11
 10
0
 20
0
 30
0
 70
128
 71
5
 72
6
 73
8
 74
7
 0
VERTEX
 8
CYLINDER_11
 10
0
 20
0
 30
0
 70
128
 71
3
 72
4
 73
6
 74
5
 0
VERTEX
 8
CYLINDER_11
 10
0
 20
0
 30
0
 70
128
 71
21
 72
22
 73
24
 74
23
 0
VERTEX
 8
CYLINDER_11
 10
0
 20
0
 30
0
 70
128
 71
11
 72
12
 73
14
 74
13
 0
VERTEX
 8
CYLINDER_11
 10
0
 20
0
 30
0
 70
128
 71
13
 72
14
 73
16
 74
15
 0
VERTEX
 8
CYLINDER_11
 10
0
 20
0
 30
0
 70
128
 71
23
 72
24
 73
2
 74
1
 0
SEQEND
 0
POLYLINE
 8
CYLINDER_12
 66
1
 10
0.0
 20
0.0
 30
0.0
 70
64
 71
24
 72
12
 0
VERTEX
 8
CYLINDER_12
 10
-1.4748
 20
2.605
 30
33.9965
 70
192
 0
VERTEX
 8
CYLINDER_12
 10
-1.4748
 20
0.325
 30
33.9965
 70
192
 0
VERTEX
 8
CYLINDER_12
 10
-1.3248
 20
2.605
 30
34.0367
 70
192
 0
VERTEX
 8
CYLINDER_12
 10
-1.3248
 20
0.325
 30
34.0367
 70
192
 0
VERTEX
 8
CYLINDER_12
 10
-1.215
 20
2.605
 30
34.1465
 70
192
 0
VERTEX
 8
CYLINDER_12
 10
-1.215
 20
0.325
 30
34.1465
 70
192
 0
VERTEX
 8
CYLINDER_12
 10
-1.1748
 20
2.605
 30
34.2965
 70
192
 0
VERTEX
 8
CYLINDER_12
 10
-1.1748
 20
0.325
 30
34.2965
 70
192
 0
VERTEX
 8
CYLINDER_12
 10
-1.215
 20
2.605
 30
34.4465
 70
192
 0
VERTEX
 8
CYLINDER_12
 10
-1.215
 20
0.325
 30
34.4465
 70
192
 0
VERTEX
 8
CYLINDER_12
 10
-1.3248
 20
2.605
 30
34.5563
 70
192
 0
VERTEX
 8
CYLINDER_12
 10
-1.3248
 20
0.325
 30
34.5563
 70
192
 0
VERTEX
 8
CYLINDER_12
 10
-1.4748
 20
2.605
 30
34.5965
 70
192
 0
VERTEX
 8
CYLINDER_12
 10
-1.4748
 20
0.325
 30
34.5965
 70
192
 0
VERTEX
 8
CYLINDER_12
 10
-1.6248
 20
2.605
 30
34.5563
 70
192
 0
VERTEX
 8
CYLINDER_12
 10
-1.6248
 20
0.325
 30
34.5563
 70
192
 0
VERTEX
 8
CYLINDER_12
 10
-1.7346
 20
2.605
 30
34.4465
 70
192
 0
VERTEX
 8
CYLINDER_12
 10
-1.7346
 20
0.325
 30
34.4465
 70
192
 0
VERTEX
 8
CYLINDER_12
 10
-1.7748
 20
2.605
 30
34.2965
 70
192
 0
VERTEX
 8
CYLINDER_12
 10
-1.7748
 20
0.325
 30
34.2965
 70
192
 0
VERTEX
 8
CYLINDER_12
 10
-1.7346
 20
2.605
 30
34.1465
 70
192
 0
VERTEX
 8
CYLINDER_12
 10
-1.7346
 20
0.325
 30
34.1465
 70
192
 0
VERTEX
 8
CYLINDER_12
 10
-1.6248
 20
2.605
 30
34.0367
 70
192
 0
VERTEX
 8
CYLINDER_12
 10
-1.6248
 20
0.325
 30
34.0367
 70
192
 0
VERTEX
 8
CYLINDER_12
 10
0
 20
0
 30
0
 70
128
 71
7
 72
8
 73
10
 74
9
 0
VERTEX
 8
CYLINDER_12
 10
0
 20
0
 30
0
 70
128
 71
19
 72
20
 73
22
 74
21
 0
VERTEX
 8
CYLINDER_12
 10
0
 20
0
 30
0
 70
128
 71
1
 72
2
 73
4
 74
3
 0
VERTEX
 8
CYLINDER_12
 10
0
 20
0
 30
0
 70
128
 71
15
 72
16
 73
18
 74
17
 0
VERTEX
 8
CYLINDER_12
 10
0
 20
0
 30
0
 70
128
 71
5
 72
6
 73
8
 74
7
 0
VERTEX
 8
CYLINDER_12
 10
0
 20
0
 30
0
 70
128
 71
9
 72
10
 73
12
 74
11
 0
VERTEX
 8
CYLINDER_12
 10
0
 20
0
 30
0
 70
128
 71
23
 72
24
 73
2
 74
1
 0
VERTEX
 8
CYLINDER_12
 10
0
 20
0
 30
0
 70
128
 71
3
 72
4
 73
6
 74
5
 0
VERTEX
 8
CYLINDER_12
 10
0
 20
0
 30
0
 70
128
 71
17
 72
18
 73
20
 74
19
 0
VERTEX
 8
CYLINDER_12
 10
0
 20
0
 30
0
 70
128
 71
13
 72
14
 73
16
 74
15
 0
VERTEX
 8
CYLINDER_12
 10
0
 20
0
 30
0
 70
128
 71
11
 72
12
 73
14
 74
13
 0
VERTEX
 8
CYLINDER_12
 10
0
 20
0
 30
0
 70
128
 71
21
 72
22
 73
24
 74
23
 0
SEQEND
 0
POLYLINE
 8
CYLINDER_13
 66
1
 10
0.0
 20
0.0
 30
0.0
 70
64
 71
80
 72
60
 0
VERTEX
 8
CYLINDER_13
 10
-1.4748
 20
-0.078
 30
-1.6715
 70
192
 0
VERTEX
 8
CYLINDER_13
 10
-1.4748
 20
-0.098
 30
-1.6515
 70
192
 0
VERTEX
 8
CYLINDER_13
 10
-1.4748
 20
-0.098
 30
35.9085
 70
192
 0
VERTEX
 8
CYLINDER_13
 10
-1.4748
 20
-0.078
 30
35.9285
 70
192
 0
VERTEX
 8
CYLINDER_13
 10
-1.3574
 20
-0.0594
 30
-1.6715
 70
192
 0
VERTEX
 8
CYLINDER_13
 10
-1.3512
 20
-0.0784
 30
-1.6515
 70
192
 0
VERTEX
 8
CYLINDER_13
 10
-1.3512
 20
-0.0784
 30
35.9085
 70
192
 0
VERTEX
 8
CYLINDER_13
 10
-1.3574
 20
-0.0594
 30
35.9285
 70
192
 0
VERTEX
 8
CYLINDER_13
 10
-1.2515
 20
-0.0054
 30
-1.6715
 70
192
 0
VERTEX
 8
CYLINDER_13
 10
-1.2397
 20
-0.0216
 30
-1.6515
 70
192
 0
VERTEX
 8
CYLINDER_13
 10
-1.2397
 20
-0.0216
 30
35.9085
 70
192
 0
VERTEX
 8
CYLINDER_13
 10
-1.2515
 20
-0.0054
 30
35.9285
 70
192
 0
VERTEX
 8
CYLINDER_13
 10
-1.1674
 20
0.0787
 30
-1.6715
 70
192
 0
VERTEX
 8
CYLINDER_13
 10
-1.1512
 20
0.0669
 30
-1.6515
 70
192
 0
VERTEX
 8
CYLINDER_13
 10
-1.1512
 20
0.0669
 30
35.9085
 70
192
 0
VERTEX
 8
CYLINDER_13
 10
-1.1674
 20
0.0787
 30
35.9285
 70
192
 0
VERTEX
 8
CYLINDER_13
 10
-1.1134
 20
0.1846
 30
-1.6715
 70
192
 0
VERTEX
 8
CYLINDER_13
 10
-1.0944
 20
0.1784
 30
-1.6515
 70
192
 0
VERTEX
 8
CYLINDER_13
 10
-1.0944
 20
0.1784
 30
35.9085
 70
192
 0
VERTEX
 8
CYLINDER_13
 10
-1.1134
 20
0.1846
 30
35.9285
 70
192
 0
VERTEX
 8
CYLINDER_13
 10
-1.0948
 20
0.302
 30
-1.6715
 70
192
 0
VERTEX
 8
CYLINDER_13
 10
-1.0748
 20
0.302
 30
-1.6515
 70
192
 0
VERTEX
 8
CYLINDER_13
 10
-1.0748
 20
0.302
 30
35.9085
 70
192
 0
VERTEX
 8
CYLINDER_13
 10
-1.0948
 20
0.302
 30
35.9285
 70
192
 0
VERTEX
 8
CYLINDER_13
 10
-1.1134
 20
0.4194
 30
-1.6715
 70
192
 0
VERTEX
 8
CYLINDER_13
 10
-1.0944
 20
0.4256
 30
-1.6515
 70
192
 0
VERTEX
 8
CYLINDER_13
 10
-1.0944
 20
0.4256
 30
35.9085
 70
192
 0
VERTEX
 8
CYLINDER_13
 10
-1.1134
 20
0.4194
 30
35.9285
 70
192
 0
VERTEX
 8
CYLINDER_13
 10
-1.1674
 20
0.5254
 30
-1.6715
 70
192
 0
VERTEX
 8
CYLINDER_13
 10
-1.1512
 20
0.5371
 30
-1.6515
 70
192
 0
VERTEX
 8
CYLINDER_13
 10
-1.1512
 20
0.5371
 30
35.9085
 70
192
 0
VERTEX
 8
CYLINDER_13
 10
-1.1674
 20
0.5254
 30
35.9285
 70
192
 0
VERTEX
 8
CYLINDER_13
 10
-1.2515
 20
0.6094
 30
-1.6715
 70
192
 0
VERTEX
 8
CYLINDER_13
 10
-1.2397
 20
0.6256
 30
-1.6515
 70
192
 0
VERTEX
 8
CYLINDER_13
 10
-1.2397
 20
0.6256
 30
35.9085
 70
192
 0
VERTEX
 8
CYLINDER_13
 10
-1.2515
 20
0.6094
 30
35.9285
 70
192
 0
VERTEX
 8
CYLINDER_13
 10
-1.3574
 20
0.6634
 30
-1.6715
 70
192
 0
VERTEX
 8
CYLINDER_13
 10
-1.3512
 20
0.6824
 30
-1.6515
 70
192
 0
VERTEX
 8
CYLINDER_13
 10
-1.3512
 20
0.6824
 30
35.9085
 70
192
 0
VERTEX
 8
CYLINDER_13
 10
-1.3574
 20
0.6634
 30
35.9285
 70
192
 0
VERTEX
 8
CYLINDER_13
 10
-1.4748
 20
0.682
 30
-1.6715
 70
192
 0
VERTEX
 8
CYLINDER_13
 10
-1.4748
 20
0.702
 30
-1.6515
 70
192
 0
VERTEX
 8
CYLINDER_13
 10
-1.4748
 20
0.702
 30
35.9085
 70
192
 0
VERTEX
 8
CYLINDER_13
 10
-1.4748
 20
0.682
 30
35.9285
 70
192
 0
VERTEX
 8
CYLINDER_13
 10
-1.5923
 20
0.6634
 30
-1.6715
 70
192
 0
VERTEX
 8
CYLINDER_13
 10
-1.5984
 20
0.6824
 30
-1.6515
 70
192
 0
VERTEX
 8
CYLINDER_13
 10
-1.5984
 20
0.6824
 30
35.9085
 70
192
 0
VERTEX
 8
CYLINDER_13
 10
-1.5923
 20
0.6634
 30
35.9285
 70
192
 0
VERTEX
 8
CYLINDER_13
 10
-1.6982
 20
0.6094
 30
-1.6715
 70
192
 0
VERTEX
 8
CYLINDER_13
 10
-1.7099
 20
0.6256
 30
-1.6515
 70
192
 0
VERTEX
 8
CYLINDER_13
 10
-1.7099
 20
0.6256
 30
35.9085
 70
192
 0
VERTEX
 8
CYLINDER_13
 10
-1.6982
 20
0.6094
 30
35.9285
 70
192
 0
VERTEX
 8
CYLINDER_13
 10
-1.7823
 20
0.5254
 30
-1.6715
 70
192
 0
VERTEX
 8
CYLINDER_13
 10
-1.7984
 20
0.5371
 30
-1.6515
 70
192
 0
VERTEX
 8
CYLINDER_13
 10
-1.7984
 20
0.5371
 30
35.9085
 70
192
 0
VERTEX
 8
CYLINDER_13
 10
-1.7823
 20
0.5254
 30
35.9285
 70
192
 0
VERTEX
 8
CYLINDER_13
 10
-1.8362
 20
0.4194
 30
-1.6715
 70
192
 0
VERTEX
 8
CYLINDER_13
 10
-1.8553
 20
0.4256
 30
-1.6515
 70
192
 0
VERTEX
 8
CYLINDER_13
 10
-1.8553
 20
0.4256
 30
35.9085
 70
192
 0
VERTEX
 8
CYLINDER_13
 10
-1.8362
 20
0.4194
 30
35.9285
 70
192
 0
VERTEX
 8
CYLINDER_13
 10
-1.8548
 20
0.302
 30
-1.6715
 70
192
 0
VERTEX
 8
CYLINDER_13
 10
-1.8748
 20
0.302
 30
-1.6515
 70
192
 0
VERTEX
 8
CYLINDER_13
 10
-1.8748
 20
0.302
 30
35.9085
 70
192
 0
VERTEX
 8
CYLINDER_13
 10
-1.8548
 20
0.302
 30
35.9285
 70
192
 0
VERTEX
 8
CYLINDER_13
 10
-1.8362
 20
0.1846
 30
-1.6715
 70
192
 0
VERTEX
 8
CYLINDER_13
 10
-1.8553
 20
0.1784
 30
-1.6515
 70
192
 0
VERTEX
 8
CYLINDER_13
 10
-1.8553
 20
0.1784
 30
35.9085
 70
192
 0
VERTEX
 8
CYLINDER_13
 10
-1.8362
 20
0.1846
 30
35.9285
 70
192
 0
VERTEX
 8
CYLINDER_13
 10
-1.7823
 20
0.0787
 30
-1.6715
 70
192
 0
VERTEX
 8
CYLINDER_13
 10
-1.7984
 20
0.0669
 30
-1.6515
 70
192
 0
VERTEX
 8
CYLINDER_13
 10
-1.7984
 20
0.0669
 30
35.9085
 70
192
 0
VERTEX
 8
CYLINDER_13
 10
-1.7823
 20
0.0787
 30
35.9285
 70
192
 0
VERTEX
 8
CYLINDER_13
 10
-1.6982
 20
-0.0054
 30
-1.6715
 70
192
 0
VERTEX
 8
CYLINDER_13
 10
-1.7099
 20
-0.0216
 30
-1.6515
 70
192
 0
VERTEX
 8
CYLINDER_13
 10
-1.7099
 20
-0.0216
 30
35.9085
 70
192
 0
VERTEX
 8
CYLINDER_13
 10
-1.6982
 20
-0.0054
 30
35.9285
 70
192
 0
VERTEX
 8
CYLINDER_13
 10
-1.5923
 20
-0.0594
 30
-1.6715
 70
192
 0
VERTEX
 8
CYLINDER_13
 10
-1.5984
 20
-0.0784
 30
-1.6515
 70
192
 0
VERTEX
 8
CYLINDER_13
 10
-1.5984
 20
-0.0784
 30
35.9085
 70
192
 0
VERTEX
 8
CYLINDER_13
 10
-1.5923
 20
-0.0594
 30
35.9285
 70
192
 0
VERTEX
 8
CYLINDER_13
 10
0
 20
0
 30
0
 70
128
 71
49
 72
50
 73
54
 74
53
 0
VERTEX
 8
CYLINDER_13
 10
0
 20
0
 30
0
 70
128
 71
1
 72
2
 73
6
 74
5
 0
VERTEX
 8
CYLINDER_13
 10
0
 20
0
 30
0
 70
128
 71
2
 72
3
 73
7
 74
6
 0
VERTEX
 8
CYLINDER_13
 10
0
 20
0
 30
0
 70
128
 71
3
 72
4
 73
8
 74
7
 0
VERTEX
 8
CYLINDER_13
 10
0
 20
0
 30
0
 70
128
 71
50
 72
51
 73
55
 74
54
 0
VERTEX
 8
CYLINDER_13
 10
0
 20
0
 30
0
 70
128
 71
51
 72
52
 73
56
 74
55
 0
VERTEX
 8
CYLINDER_13
 10
0
 20
0
 30
0
 70
128
 71
5
 72
6
 73
10
 74
9
 0
VERTEX
 8
CYLINDER_13
 10
0
 20
0
 30
0
 70
128
 71
6
 72
7
 73
11
 74
10
 0
VERTEX
 8
CYLINDER_13
 10
0
 20
0
 30
0
 70
128
 71
7
 72
8
 73
12
 74
11
 0
VERTEX
 8
CYLINDER_13
 10
0
 20
0
 30
0
 70
128
 71
65
 72
66
 73
70
 74
69
 0
VERTEX
 8
CYLINDER_13
 10
0
 20
0
 30
0
 70
128
 71
53
 72
54
 73
58
 74
57
 0
VERTEX
 8
CYLINDER_13
 10
0
 20
0
 30
0
 70
128
 71
9
 72
10
 73
14
 74
13
 0
VERTEX
 8
CYLINDER_13
 10
0
 20
0
 30
0
 70
128
 71
10
 72
11
 73
15
 74
14
 0
VERTEX
 8
CYLINDER_13
 10
0
 20
0
 30
0
 70
128
 71
11
 72
12
 73
16
 74
15
 0
VERTEX
 8
CYLINDER_13
 10
0
 20
0
 30
0
 70
128
 71
66
 72
67
 73
71
 74
70
 0
VERTEX
 8
CYLINDER_13
 10
0
 20
0
 30
0
 70
128
 71
54
 72
55
 73
59
 74
58
 0
VERTEX
 8
CYLINDER_13
 10
0
 20
0
 30
0
 70
128
 71
13
 72
14
 73
18
 74
17
 0
VERTEX
 8
CYLINDER_13
 10
0
 20
0
 30
0
 70
128
 71
14
 72
15
 73
19
 74
18
 0
VERTEX
 8
CYLINDER_13
 10
0
 20
0
 30
0
 70
128
 71
15
 72
16
 73
20
 74
19
 0
VERTEX
 8
CYLINDER_13
 10
0
 20
0
 30
0
 70
128
 71
67
 72
68
 73
72
 74
71
 0
VERTEX
 8
CYLINDER_13
 10
0
 20
0
 30
0
 70
128
 71
55
 72
56
 73
60
 74
59
 0
VERTEX
 8
CYLINDER_13
 10
0
 20
0
 30
0
 70
128
 71
17
 72
18
 73
22
 74
21
 0
VERTEX
 8
CYLINDER_13
 10
0
 20
0
 30
0
 70
128
 71
18
 72
19
 73
23
 74
22
 0
VERTEX
 8
CYLINDER_13
 10
0
 20
0
 30
0
 70
128
 71
19
 72
20
 73
24
 74
23
 0
VERTEX
 8
CYLINDER_13
 10
0
 20
0
 30
0
 70
128
 71
77
 72
78
 73
2
 74
1
 0
VERTEX
 8
CYLINDER_13
 10
0
 20
0
 30
0
 70
128
 71
57
 72
58
 73
62
 74
61
 0
VERTEX
 8
CYLINDER_13
 10
0
 20
0
 30
0
 70
128
 71
21
 72
22
 73
26
 74
25
 0
VERTEX
 8
CYLINDER_13
 10
0
 20
0
 30
0
 70
128
 71
22
 72
23
 73
27
 74
26
 0
VERTEX
 8
CYLINDER_13
 10
0
 20
0
 30
0
 70
128
 71
23
 72
24
 73
28
 74
27
 0
VERTEX
 8
CYLINDER_13
 10
0
 20
0
 30
0
 70
128
 71
69
 72
70
 73
74
 74
73
 0
VERTEX
 8
CYLINDER_13
 10
0
 20
0
 30
0
 70
128
 71
58
 72
59
 73
63
 74
62
 0
VERTEX
 8
CYLINDER_13
 10
0
 20
0
 30
0
 70
128
 71
25
 72
26
 73
30
 74
29
 0
VERTEX
 8
CYLINDER_13
 10
0
 20
0
 30
0
 70
128
 71
26
 72
27
 73
31
 74
30
 0
VERTEX
 8
CYLINDER_13
 10
0
 20
0
 30
0
 70
128
 71
27
 72
28
 73
32
 74
31
 0
VERTEX
 8
CYLINDER_13
 10
0
 20
0
 30
0
 70
128
 71
70
 72
71
 73
75
 74
74
 0
VERTEX
 8
CYLINDER_13
 10
0
 20
0
 30
0
 70
128
 71
59
 72
60
 73
64
 74
63
 0
VERTEX
 8
CYLINDER_13
 10
0
 20
0
 30
0
 70
128
 71
29
 72
30
 73
34
 74
33
 0
VERTEX
 8
CYLINDER_13
 10
0
 20
0
 30
0
 70
128
 71
30
 72
31
 73
35
 74
34
 0
VERTEX
 8
CYLINDER_13
 10
0
 20
0
 30
0
 70
128
 71
31
 72
32
 73
36
 74
35
 0
VERTEX
 8
CYLINDER_13
 10
0
 20
0
 30
0
 70
128
 71
71
 72
72
 73
76
 74
75
 0
VERTEX
 8
CYLINDER_13
 10
0
 20
0
 30
0
 70
128
 71
78
 72
79
 73
3
 74
2
 0
VERTEX
 8
CYLINDER_13
 10
0
 20
0
 30
0
 70
128
 71
33
 72
34
 73
38
 74
37
 0
VERTEX
 8
CYLINDER_13
 10
0
 20
0
 30
0
 70
128
 71
34
 72
35
 73
39
 74
38
 0
VERTEX
 8
CYLINDER_13
 10
0
 20
0
 30
0
 70
128
 71
35
 72
36
 73
40
 74
39
 0
VERTEX
 8
CYLINDER_13
 10
0
 20
0
 30
0
 70
128
 71
61
 72
62
 73
66
 74
65
 0
VERTEX
 8
CYLINDER_13
 10
0
 20
0
 30
0
 70
128
 71
62
 72
63
 73
67
 74
66
 0
VERTEX
 8
CYLINDER_13
 10
0
 20
0
 30
0
 70
128
 71
37
 72
38
 73
42
 74
41
 0
VERTEX
 8
CYLINDER_13
 10
0
 20
0
 30
0
 70
128
 71
38
 72
39
 73
43
 74
42
 0
VERTEX
 8
CYLINDER_13
 10
0
 20
0
 30
0
 70
128
 71
39
 72
40
 73
44
 74
43
 0
VERTEX
 8
CYLINDER_13
 10
0
 20
0
 30
0
 70
128
 71
73
 72
74
 73
78
 74
77
 0
VERTEX
 8
CYLINDER_13
 10
0
 20
0
 30
0
 70
128
 71
63
 72
64
 73
68
 74
67
 0
VERTEX
 8
CYLINDER_13
 10
0
 20
0
 30
0
 70
128
 71
41
 72
42
 73
46
 74
45
 0
VERTEX
 8
CYLINDER_13
 10
0
 20
0
 30
0
 70
128
 71
42
 72
43
 73
47
 74
46
 0
VERTEX
 8
CYLINDER_13
 10
0
 20
0
 30
0
 70
128
 71
43
 72
44
 73
48
 74
47
 0
VERTEX
 8
CYLINDER_13
 10
0
 20
0
 30
0
 70
128
 71
74
 72
75
 73
79
 74
78
 0
VERTEX
 8
CYLINDER_13
 10
0
 20
0
 30
0
 70
128
 71
79
 72
80
 73
4
 74
3
 0
VERTEX
 8
CYLINDER_13
 10
0
 20
0
 30
0
 70
128
 71
45
 72
46
 73
50
 74
49
 0
VERTEX
 8
CYLINDER_13
 10
0
 20
0
 30
0
 70
128
 71
46
 72
47
 73
51
 74
50
 0
VERTEX
 8
CYLINDER_13
 10
0
 20
0
 30
0
 70
128
 71
47
 72
48
 73
52
 74
51
 0
VERTEX
 8
CYLINDER_13
 10
0
 20
0
 30
0
 70
128
 71
75
 72
76
 73
80
 74
79
 0
SEQEND
 0
ENDSEC
 0
EOF
