 0
SECTION
 2
HEADER
 9
$ACADVER
 1
AC1009
 0
ENDSEC
 0
SECTION
 2
TABLES
 0
TABLE
 2
LTYPE
 70
1
 0
LTYPE
 2
CONTINUOUS
 70
64
 3
solid line
 72
65
 73
0
 40
0.0
 0
ENDTAB
 0
TABLE
 2
LAYER
 70
6
 0
LAYER
 2
0
 70
0
 62
7
 6
CONTINUOUS
 0
LAYER
 2
100_2780_M
 70
64
 62
7
 6
CONTINUOUS
 0
LAYER
 2
K_RPER_5
 70
64
 62
250
 6
CONTINUOUS
 0
LAYER
 2
K_RPER_4
 70
64
 62
250
 6
CONTINUOUS
 0
LAYER
 2
ZYLINDER_12
 70
64
 62
250
 6
CONTINUOUS
 0
LAYER
 2
ZYLINDER_11
 70
64
 62
250
 6
CONTINUOUS
 0
LAYER
 2
ZYLINDER_10
 70
64
 62
250
 6
CONTINUOUS
 0
LAYER
 2
ZYLINDER_9
 70
64
 62
250
 6
CONTINUOUS
 0
LAYER
 2
D_SEN-_ZYLINDER_
 70
64
 62
250
 6
CONTINUOUS
 0
LAYER
 2
ZYLINDER_8
 70
64
 62
250
 6
CONTINUOUS
 0
LAYER
 2
ZYLINDER_7
 70
64
 62
250
 6
CONTINUOUS
 0
LAYER
 2
SCHLAUCH_1
 70
64
 62
250
 6
CONTINUOUS
 0
LAYER
 2
HALTER_2
 70
64
 62
250
 6
CONTINUOUS
 0
LAYER
 2
ZYLINDER_6
 70
64
 62
250
 6
CONTINUOUS
 0
LAYER
 2
K_RPER_3
 70
64
 62
250
 6
CONTINUOUS
 0
LAYER
 2
K_RPER_2
 70
64
 62
250
 6
CONTINUOUS
 0
LAYER
 2
R_HRE_1
 70
64
 62
250
 6
CONTINUOUS
 0
LAYER
 2
ZYLINDER_5
 70
64
 62
250
 6
CONTINUOUS
 0
LAYER
 2
K_RPER_1
 70
64
 62
250
 6
CONTINUOUS
 0
LAYER
 2
ZYLINDER_4
 70
64
 62
250
 6
CONTINUOUS
 0
LAYER
 2
ZYLINDER_3
 70
64
 62
250
 6
CONTINUOUS
 0
LAYER
 2
ZYLINDER_2
 70
64
 62
250
 6
CONTINUOUS
 0
LAYER
 2
K_RPER
 70
64
 62
250
 6
CONTINUOUS
 0
LAYER
 2
R_HRE
 70
64
 62
250
 6
CONTINUOUS
 0
LAYER
 2
ZYLINDER_1
 70
64
 62
250
 6
CONTINUOUS
 0
LAYER
 2
ZYLINDER
 70
64
 62
250
 6
CONTINUOUS
 0
LAYER
 2
KEGEL
 70
64
 62
250
 6
CONTINUOUS
 0
ENDTAB
 0
ENDSEC
 0
SECTION
 2
BLOCKS
 0
ENDSEC
 0
SECTION
 2
ENTITIES
 0
POLYLINE
 8
K_RPER_5
 66
1
 10
0.0
 20
0.0
 30
0.0
 70
64
 71
24
 72
12
 0
VERTEX
 8
K_RPER_5
 10
-0.049
 20
0.2817
 30
3.6293
 70
192
 0
VERTEX
 8
K_RPER_5
 10
-0.049
 20
0.2817
 30
27.6293
 70
192
 0
VERTEX
 8
K_RPER_5
 10
0.201
 20
0.3487
 30
3.6293
 70
192
 0
VERTEX
 8
K_RPER_5
 10
0.201
 20
0.3487
 30
27.6293
 70
192
 0
VERTEX
 8
K_RPER_5
 10
0.3841
 20
0.5317
 30
3.6293
 70
192
 0
VERTEX
 8
K_RPER_5
 10
0.3841
 20
0.5317
 30
27.6293
 70
192
 0
VERTEX
 8
K_RPER_5
 10
0.451
 20
0.7817
 30
3.6293
 70
192
 0
VERTEX
 8
K_RPER_5
 10
0.451
 20
0.7817
 30
27.6293
 70
192
 0
VERTEX
 8
K_RPER_5
 10
0.3841
 20
1.0317
 30
3.6293
 70
192
 0
VERTEX
 8
K_RPER_5
 10
0.3841
 20
1.0317
 30
27.6293
 70
192
 0
VERTEX
 8
K_RPER_5
 10
0.201
 20
1.2147
 30
3.6293
 70
192
 0
VERTEX
 8
K_RPER_5
 10
0.201
 20
1.2147
 30
27.6293
 70
192
 0
VERTEX
 8
K_RPER_5
 10
-0.049
 20
1.2817
 30
3.6293
 70
192
 0
VERTEX
 8
K_RPER_5
 10
-0.049
 20
1.2817
 30
27.6293
 70
192
 0
VERTEX
 8
K_RPER_5
 10
-0.299
 20
1.2147
 30
3.6293
 70
192
 0
VERTEX
 8
K_RPER_5
 10
-0.299
 20
1.2147
 30
27.6293
 70
192
 0
VERTEX
 8
K_RPER_5
 10
-0.482
 20
1.0317
 30
3.6293
 70
192
 0
VERTEX
 8
K_RPER_5
 10
-0.482
 20
1.0317
 30
27.6293
 70
192
 0
VERTEX
 8
K_RPER_5
 10
-0.549
 20
0.7817
 30
3.6293
 70
192
 0
VERTEX
 8
K_RPER_5
 10
-0.549
 20
0.7817
 30
27.6293
 70
192
 0
VERTEX
 8
K_RPER_5
 10
-0.482
 20
0.5317
 30
3.6293
 70
192
 0
VERTEX
 8
K_RPER_5
 10
-0.482
 20
0.5317
 30
27.6293
 70
192
 0
VERTEX
 8
K_RPER_5
 10
-0.299
 20
0.3487
 30
3.6293
 70
192
 0
VERTEX
 8
K_RPER_5
 10
-0.299
 20
0.3487
 30
27.6293
 70
192
 0
VERTEX
 8
K_RPER_5
 10
0
 20
0
 30
0
 70
128
 71
1
 72
2
 73
4
 74
3
 0
VERTEX
 8
K_RPER_5
 10
0
 20
0
 30
0
 70
128
 71
3
 72
4
 73
6
 74
5
 0
VERTEX
 8
K_RPER_5
 10
0
 20
0
 30
0
 70
128
 71
5
 72
6
 73
8
 74
7
 0
VERTEX
 8
K_RPER_5
 10
0
 20
0
 30
0
 70
128
 71
7
 72
8
 73
10
 74
9
 0
VERTEX
 8
K_RPER_5
 10
0
 20
0
 30
0
 70
128
 71
9
 72
10
 73
12
 74
11
 0
VERTEX
 8
K_RPER_5
 10
0
 20
0
 30
0
 70
128
 71
11
 72
12
 73
14
 74
13
 0
VERTEX
 8
K_RPER_5
 10
0
 20
0
 30
0
 70
128
 71
13
 72
14
 73
16
 74
15
 0
VERTEX
 8
K_RPER_5
 10
0
 20
0
 30
0
 70
128
 71
15
 72
16
 73
18
 74
17
 0
VERTEX
 8
K_RPER_5
 10
0
 20
0
 30
0
 70
128
 71
17
 72
18
 73
20
 74
19
 0
VERTEX
 8
K_RPER_5
 10
0
 20
0
 30
0
 70
128
 71
19
 72
20
 73
22
 74
21
 0
VERTEX
 8
K_RPER_5
 10
0
 20
0
 30
0
 70
128
 71
21
 72
22
 73
24
 74
23
 0
VERTEX
 8
K_RPER_5
 10
0
 20
0
 30
0
 70
128
 71
23
 72
24
 73
2
 74
1
 0
SEQEND
 0
POLYLINE
 8
K_RPER_4
 66
1
 10
0.0
 20
0.0
 30
0.0
 70
64
 71
156
 72
144
 0
VERTEX
 8
K_RPER_4
 10
0.151
 20
1.1281
 30
26.0818
 70
192
 0
VERTEX
 8
K_RPER_4
 10
-0.249
 20
-12.5631
 30
40.8385
 70
192
 0
VERTEX
 8
K_RPER_4
 10
0.151
 20
1.127
 30
40.2228
 70
192
 0
VERTEX
 8
K_RPER_4
 10
0.151
 20
0.9274
 30
41.0646
 70
192
 0
VERTEX
 8
K_RPER_4
 10
0.151
 20
0.4136
 30
41.7607
 70
192
 0
VERTEX
 8
K_RPER_4
 10
0.151
 20
-0.3322
 30
42.1993
 70
192
 0
VERTEX
 8
K_RPER_4
 10
0.151
 20
-1.1069
 30
42.316
 70
192
 0
VERTEX
 8
K_RPER_4
 10
0.151
 20
-1.5176
 30
42.316
 70
192
 0
VERTEX
 8
K_RPER_4
 10
0.2975
 20
0.3156
 30
41.6519
 70
192
 0
VERTEX
 8
K_RPER_4
 10
0.2975
 20
-0.3796
 30
42.0608
 70
192
 0
VERTEX
 8
K_RPER_4
 10
-0.249
 20
-12.6743
 30
40.0715
 70
192
 0
VERTEX
 8
K_RPER_4
 10
-0.3954
 20
0.9817
 30
26.0818
 70
192
 0
VERTEX
 8
K_RPER_4
 10
-0.3954
 20
0.9807
 30
40.2182
 70
192
 0
VERTEX
 8
K_RPER_4
 10
-0.3954
 20
0.7946
 30
41.003
 70
192
 0
VERTEX
 8
K_RPER_4
 10
-0.3954
 20
0.3156
 30
41.6519
 70
192
 0
VERTEX
 8
K_RPER_4
 10
-0.3954
 20
-0.3796
 30
42.0608
 70
192
 0
VERTEX
 8
K_RPER_4
 10
-0.3954
 20
-1.1069
 30
42.1696
 70
192
 0
VERTEX
 8
K_RPER_4
 10
-0.3954
 20
-1.5176
 30
42.1696
 70
192
 0
VERTEX
 8
K_RPER_4
 10
-0.3954
 20
-10.1416
 30
42.1696
 70
192
 0
VERTEX
 8
K_RPER_4
 10
-0.3954
 20
-10.5913
 30
42.168
 70
192
 0
VERTEX
 8
K_RPER_4
 10
-0.3954
 20
-11.3751
 30
41.9756
 70
192
 0
VERTEX
 8
K_RPER_4
 10
-0.3954
 20
-12.0206
 30
41.4911
 70
192
 0
VERTEX
 8
K_RPER_4
 10
0.2975
 20
0.5817
 30
26.0818
 70
192
 0
VERTEX
 8
K_RPER_4
 10
0.2975
 20
0.5809
 30
40.2057
 70
192
 0
VERTEX
 8
K_RPER_4
 10
0.2975
 20
0.4318
 30
40.8347
 70
192
 0
VERTEX
 8
K_RPER_4
 10
0.2975
 20
-10.1416
 30
42.1696
 70
192
 0
VERTEX
 8
K_RPER_4
 10
0.2975
 20
-10.5913
 30
42.168
 70
192
 0
VERTEX
 8
K_RPER_4
 10
0.151
 20
-10.1416
 30
42.316
 70
192
 0
VERTEX
 8
K_RPER_4
 10
0.151
 20
-10.597
 30
42.3143
 70
192
 0
VERTEX
 8
K_RPER_4
 10
0.151
 20
-11.4378
 30
42.1079
 70
192
 0
VERTEX
 8
K_RPER_4
 10
0.151
 20
-12.1302
 30
41.5882
 70
192
 0
VERTEX
 8
K_RPER_4
 10
0.151
 20
-12.5631
 30
40.8385
 70
192
 0
VERTEX
 8
K_RPER_4
 10
0.151
 20
-12.6743
 30
40.0715
 70
192
 0
VERTEX
 8
K_RPER_4
 10
-0.049
 20
1.1817
 30
26.0818
 70
192
 0
VERTEX
 8
K_RPER_4
 10
-0.049
 20
1.1806
 30
40.2244
 70
192
 0
VERTEX
 8
K_RPER_4
 10
-0.049
 20
0.9761
 30
41.0872
 70
192
 0
VERTEX
 8
K_RPER_4
 10
-0.049
 20
0.4494
 30
41.8005
 70
192
 0
VERTEX
 8
K_RPER_4
 10
-0.049
 20
-0.3148
 30
42.25
 70
192
 0
VERTEX
 8
K_RPER_4
 10
-0.049
 20
-1.1069
 30
42.3696
 70
192
 0
VERTEX
 8
K_RPER_4
 10
-0.049
 20
-1.5176
 30
42.3696
 70
192
 0
VERTEX
 8
K_RPER_4
 10
0.2975
 20
-1.1069
 30
42.1696
 70
192
 0
VERTEX
 8
K_RPER_4
 10
0.2975
 20
-1.5176
 30
42.1696
 70
192
 0
VERTEX
 8
K_RPER_4
 10
0.2975
 20
0.0479
 30
41.3547
 70
192
 0
VERTEX
 8
K_RPER_4
 10
0.2975
 20
-0.5093
 30
41.6824
 70
192
 0
VERTEX
 8
K_RPER_4
 10
-0.049
 20
0.3817
 30
26.0818
 70
192
 0
VERTEX
 8
K_RPER_4
 10
-0.049
 20
0.381
 30
40.1995
 70
192
 0
VERTEX
 8
K_RPER_4
 10
-0.049
 20
0.2503
 30
40.7505
 70
192
 0
VERTEX
 8
K_RPER_4
 10
-0.049
 20
-0.086
 30
41.2061
 70
192
 0
VERTEX
 8
K_RPER_4
 10
-0.049
 20
-0.5741
 30
41.4932
 70
192
 0
VERTEX
 8
K_RPER_4
 10
-0.049
 20
-1.1069
 30
41.5696
 70
192
 0
VERTEX
 8
K_RPER_4
 10
-0.049
 20
-1.5176
 30
41.5696
 70
192
 0
VERTEX
 8
K_RPER_4
 10
0.2975
 20
-1.1069
 30
41.7696
 70
192
 0
VERTEX
 8
K_RPER_4
 10
0.2975
 20
-1.5176
 30
41.7696
 70
192
 0
VERTEX
 8
K_RPER_4
 10
0.2975
 20
-10.1416
 30
41.7696
 70
192
 0
VERTEX
 8
K_RPER_4
 10
0.2975
 20
-10.5756
 30
41.7683
 70
192
 0
VERTEX
 8
K_RPER_4
 10
0.2975
 20
-11.2039
 30
41.6141
 70
192
 0
VERTEX
 8
K_RPER_4
 10
0.2975
 20
-11.7213
 30
41.2257
 70
192
 0
VERTEX
 8
K_RPER_4
 10
0.2975
 20
-12.0448
 30
40.6655
 70
192
 0
VERTEX
 8
K_RPER_4
 10
0.2975
 20
-12.1279
 30
40.0715
 70
192
 0
VERTEX
 8
K_RPER_4
 10
-0.3954
 20
-12.4242
 30
40.7921
 70
192
 0
VERTEX
 8
K_RPER_4
 10
-0.3954
 20
-12.5279
 30
40.0715
 70
192
 0
VERTEX
 8
K_RPER_4
 10
-0.449
 20
0.7817
 30
26.0818
 70
192
 0
VERTEX
 8
K_RPER_4
 10
-0.449
 20
0.7808
 30
40.212
 70
192
 0
VERTEX
 8
K_RPER_4
 10
-0.449
 20
0.6132
 30
40.9189
 70
192
 0
VERTEX
 8
K_RPER_4
 10
-0.449
 20
0.1817
 30
41.5033
 70
192
 0
VERTEX
 8
K_RPER_4
 10
-0.449
 20
-0.4445
 30
41.8716
 70
192
 0
VERTEX
 8
K_RPER_4
 10
-0.449
 20
-1.1069
 30
41.9696
 70
192
 0
VERTEX
 8
K_RPER_4
 10
0.2975
 20
-11.3751
 30
41.9756
 70
192
 0
VERTEX
 8
K_RPER_4
 10
0.2975
 20
-12.0206
 30
41.4911
 70
192
 0
VERTEX
 8
K_RPER_4
 10
-0.049
 20
-10.1416
 30
41.5696
 70
192
 0
VERTEX
 8
K_RPER_4
 10
-0.049
 20
-10.5678
 30
41.5685
 70
192
 0
VERTEX
 8
K_RPER_4
 10
-0.049
 20
-11.1183
 30
41.4333
 70
192
 0
VERTEX
 8
K_RPER_4
 10
-0.049
 20
-11.5716
 30
41.093
 70
192
 0
VERTEX
 8
K_RPER_4
 10
-0.049
 20
-11.8551
 30
40.6022
 70
192
 0
VERTEX
 8
K_RPER_4
 10
-0.049
 20
-11.9279
 30
40.0715
 70
192
 0
VERTEX
 8
K_RPER_4
 10
-0.449
 20
-1.5176
 30
41.9696
 70
192
 0
VERTEX
 8
K_RPER_4
 10
-0.249
 20
-10.1416
 30
41.6232
 70
192
 0
VERTEX
 8
K_RPER_4
 10
-0.449
 20
-10.1416
 30
41.9696
 70
192
 0
VERTEX
 8
K_RPER_4
 10
-0.449
 20
-10.5835
 30
41.9682
 70
192
 0
VERTEX
 8
K_RPER_4
 10
-0.449
 20
-11.2895
 30
41.7948
 70
192
 0
VERTEX
 8
K_RPER_4
 10
-0.449
 20
-11.8709
 30
41.3584
 70
192
 0
VERTEX
 8
K_RPER_4
 10
-0.449
 20
-12.2345
 30
40.7288
 70
192
 0
VERTEX
 8
K_RPER_4
 10
-0.449
 20
-12.3279
 30
40.0715
 70
192
 0
VERTEX
 8
K_RPER_4
 10
-0.3954
 20
0.5817
 30
26.0818
 70
192
 0
VERTEX
 8
K_RPER_4
 10
-0.3954
 20
0.5809
 30
40.2057
 70
192
 0
VERTEX
 8
K_RPER_4
 10
-0.3954
 20
0.4318
 30
40.8347
 70
192
 0
VERTEX
 8
K_RPER_4
 10
-0.3954
 20
0.0479
 30
41.3547
 70
192
 0
VERTEX
 8
K_RPER_4
 10
-0.3954
 20
-0.5093
 30
41.6824
 70
192
 0
VERTEX
 8
K_RPER_4
 10
0.2975
 20
-12.4242
 30
40.7921
 70
192
 0
VERTEX
 8
K_RPER_4
 10
-0.049
 20
-10.1416
 30
42.3696
 70
192
 0
VERTEX
 8
K_RPER_4
 10
-0.049
 20
-10.5991
 30
42.3679
 70
192
 0
VERTEX
 8
K_RPER_4
 10
-0.049
 20
-11.4607
 30
42.1563
 70
192
 0
VERTEX
 8
K_RPER_4
 10
-0.049
 20
-12.1703
 30
41.6237
 70
192
 0
VERTEX
 8
K_RPER_4
 10
-0.049
 20
-12.6139
 30
40.8554
 70
192
 0
VERTEX
 8
K_RPER_4
 10
-0.049
 20
-12.7279
 30
40.0715
 70
192
 0
VERTEX
 8
K_RPER_4
 10
-0.249
 20
1.1281
 30
26.0818
 70
192
 0
VERTEX
 8
K_RPER_4
 10
-0.249
 20
1.127
 30
40.2228
 70
192
 0
VERTEX
 8
K_RPER_4
 10
-0.249
 20
0.9274
 30
41.0646
 70
192
 0
VERTEX
 8
K_RPER_4
 10
-0.249
 20
0.4136
 30
41.7607
 70
192
 0
VERTEX
 8
K_RPER_4
 10
-0.249
 20
-0.3322
 30
42.1993
 70
192
 0
VERTEX
 8
K_RPER_4
 10
-0.249
 20
-1.1069
 30
42.316
 70
192
 0
VERTEX
 8
K_RPER_4
 10
-0.249
 20
-1.5176
 30
42.316
 70
192
 0
VERTEX
 8
K_RPER_4
 10
-0.3954
 20
-1.1069
 30
41.7696
 70
192
 0
VERTEX
 8
K_RPER_4
 10
-0.3954
 20
-1.5176
 30
41.7696
 70
192
 0
VERTEX
 8
K_RPER_4
 10
0.351
 20
0.7817
 30
26.0818
 70
192
 0
VERTEX
 8
K_RPER_4
 10
0.351
 20
0.7808
 30
40.212
 70
192
 0
VERTEX
 8
K_RPER_4
 10
0.351
 20
0.6132
 30
40.9189
 70
192
 0
VERTEX
 8
K_RPER_4
 10
0.351
 20
0.1817
 30
41.5033
 70
192
 0
VERTEX
 8
K_RPER_4
 10
0.351
 20
-0.4445
 30
41.8716
 70
192
 0
VERTEX
 8
K_RPER_4
 10
0.351
 20
-1.1069
 30
41.9696
 70
192
 0
VERTEX
 8
K_RPER_4
 10
0.351
 20
-1.5176
 30
41.9696
 70
192
 0
VERTEX
 8
K_RPER_4
 10
-0.249
 20
-10.5699
 30
41.622
 70
192
 0
VERTEX
 8
K_RPER_4
 10
-0.249
 20
-11.1412
 30
41.4818
 70
192
 0
VERTEX
 8
K_RPER_4
 10
0.351
 20
-10.1416
 30
41.9696
 70
192
 0
VERTEX
 8
K_RPER_4
 10
0.351
 20
-10.5835
 30
41.9682
 70
192
 0
VERTEX
 8
K_RPER_4
 10
0.351
 20
-11.2895
 30
41.7948
 70
192
 0
VERTEX
 8
K_RPER_4
 10
0.151
 20
0.4353
 30
26.0818
 70
192
 0
VERTEX
 8
K_RPER_4
 10
0.151
 20
0.4345
 30
40.2012
 70
192
 0
VERTEX
 8
K_RPER_4
 10
0.151
 20
0.299
 30
40.7731
 70
192
 0
VERTEX
 8
K_RPER_4
 10
0.151
 20
-0.0501
 30
41.2459
 70
192
 0
VERTEX
 8
K_RPER_4
 10
0.151
 20
-0.5568
 30
41.5439
 70
192
 0
VERTEX
 8
K_RPER_4
 10
0.151
 20
-1.1069
 30
41.6232
 70
192
 0
VERTEX
 8
K_RPER_4
 10
0.151
 20
-1.5176
 30
41.6232
 70
192
 0
VERTEX
 8
K_RPER_4
 10
0.351
 20
-11.8709
 30
41.3584
 70
192
 0
VERTEX
 8
K_RPER_4
 10
0.351
 20
-12.2345
 30
40.7288
 70
192
 0
VERTEX
 8
K_RPER_4
 10
0.351
 20
-12.3279
 30
40.0715
 70
192
 0
VERTEX
 8
K_RPER_4
 10
-0.249
 20
-11.6117
 30
41.1286
 70
192
 0
VERTEX
 8
K_RPER_4
 10
-0.249
 20
-11.9059
 30
40.6191
 70
192
 0
VERTEX
 8
K_RPER_4
 10
-0.3954
 20
-10.1416
 30
41.7696
 70
192
 0
VERTEX
 8
K_RPER_4
 10
-0.3954
 20
-10.5756
 30
41.7683
 70
192
 0
VERTEX
 8
K_RPER_4
 10
-0.3954
 20
-11.2039
 30
41.6141
 70
192
 0
VERTEX
 8
K_RPER_4
 10
-0.3954
 20
-11.7213
 30
41.2257
 70
192
 0
VERTEX
 8
K_RPER_4
 10
-0.3954
 20
-12.0448
 30
40.6655
 70
192
 0
VERTEX
 8
K_RPER_4
 10
-0.3954
 20
-12.1279
 30
40.0715
 70
192
 0
VERTEX
 8
K_RPER_4
 10
-0.249
 20
0.4353
 30
26.0818
 70
192
 0
VERTEX
 8
K_RPER_4
 10
-0.249
 20
0.4345
 30
40.2012
 70
192
 0
VERTEX
 8
K_RPER_4
 10
-0.249
 20
0.299
 30
40.7731
 70
192
 0
VERTEX
 8
K_RPER_4
 10
-0.249
 20
-0.0501
 30
41.2459
 70
192
 0
VERTEX
 8
K_RPER_4
 10
-0.249
 20
-0.5568
 30
41.5439
 70
192
 0
VERTEX
 8
K_RPER_4
 10
0.2975
 20
-12.5279
 30
40.0715
 70
192
 0
VERTEX
 8
K_RPER_4
 10
-0.249
 20
-1.1069
 30
41.6232
 70
192
 0
VERTEX
 8
K_RPER_4
 10
0.151
 20
-10.1416
 30
41.6232
 70
192
 0
VERTEX
 8
K_RPER_4
 10
0.151
 20
-10.5699
 30
41.622
 70
192
 0
VERTEX
 8
K_RPER_4
 10
0.151
 20
-11.1412
 30
41.4818
 70
192
 0
VERTEX
 8
K_RPER_4
 10
0.151
 20
-11.6117
 30
41.1286
 70
192
 0
VERTEX
 8
K_RPER_4
 10
0.151
 20
-11.9059
 30
40.6191
 70
192
 0
VERTEX
 8
K_RPER_4
 10
0.151
 20
-11.9815
 30
40.0715
 70
192
 0
VERTEX
 8
K_RPER_4
 10
-0.249
 20
-1.5176
 30
41.6232
 70
192
 0
VERTEX
 8
K_RPER_4
 10
-0.249
 20
-11.9815
 30
40.0715
 70
192
 0
VERTEX
 8
K_RPER_4
 10
0.2975
 20
0.9817
 30
26.0818
 70
192
 0
VERTEX
 8
K_RPER_4
 10
0.2975
 20
0.9807
 30
40.2182
 70
192
 0
VERTEX
 8
K_RPER_4
 10
0.2975
 20
0.7946
 30
41.003
 70
192
 0
VERTEX
 8
K_RPER_4
 10
-0.249
 20
-10.1416
 30
42.316
 70
192
 0
VERTEX
 8
K_RPER_4
 10
-0.249
 20
-10.597
 30
42.3143
 70
192
 0
VERTEX
 8
K_RPER_4
 10
-0.249
 20
-11.4378
 30
42.1079
 70
192
 0
VERTEX
 8
K_RPER_4
 10
-0.249
 20
-12.1302
 30
41.5882
 70
192
 0
VERTEX
 8
K_RPER_4
 10
0
 20
0
 30
0
 70
128
 71
1
 72
3
 73
35
 74
34
 0
VERTEX
 8
K_RPER_4
 10
0
 20
0
 30
0
 70
128
 71
3
 72
4
 73
36
 74
35
 0
VERTEX
 8
K_RPER_4
 10
0
 20
0
 30
0
 70
128
 71
4
 72
5
 73
37
 74
36
 0
VERTEX
 8
K_RPER_4
 10
0
 20
0
 30
0
 70
128
 71
5
 72
6
 73
38
 74
37
 0
VERTEX
 8
K_RPER_4
 10
0
 20
0
 30
0
 70
128
 71
6
 72
7
 73
39
 74
38
 0
VERTEX
 8
K_RPER_4
 10
0
 20
0
 30
0
 70
128
 71
7
 72
8
 73
40
 74
39
 0
VERTEX
 8
K_RPER_4
 10
0
 20
0
 30
0
 70
128
 71
129
 72
130
 73
112
 74
77
 0
VERTEX
 8
K_RPER_4
 10
0
 20
0
 30
0
 70
128
 71
130
 72
131
 73
113
 74
112
 0
VERTEX
 8
K_RPER_4
 10
0
 20
0
 30
0
 70
128
 71
131
 72
132
 73
127
 74
113
 0
VERTEX
 8
K_RPER_4
 10
0
 20
0
 30
0
 70
128
 71
142
 72
143
 73
55
 74
54
 0
VERTEX
 8
K_RPER_4
 10
0
 20
0
 30
0
 70
128
 71
143
 72
144
 73
56
 74
55
 0
VERTEX
 8
K_RPER_4
 10
0
 20
0
 30
0
 70
128
 71
144
 72
145
 73
57
 74
56
 0
VERTEX
 8
K_RPER_4
 10
0
 20
0
 30
0
 70
128
 71
145
 72
146
 73
58
 74
57
 0
VERTEX
 8
K_RPER_4
 10
0
 20
0
 30
0
 70
128
 71
146
 72
147
 73
59
 74
58
 0
VERTEX
 8
K_RPER_4
 10
0
 20
0
 30
0
 70
128
 71
78
 72
129
 73
104
 74
76
 0
VERTEX
 8
K_RPER_4
 10
0
 20
0
 30
0
 70
128
 71
153
 72
154
 73
20
 74
19
 0
VERTEX
 8
K_RPER_4
 10
0
 20
0
 30
0
 70
128
 71
154
 72
155
 73
21
 74
20
 0
VERTEX
 8
K_RPER_4
 10
0
 20
0
 30
0
 70
128
 71
155
 72
156
 73
22
 74
21
 0
VERTEX
 8
K_RPER_4
 10
0
 20
0
 30
0
 70
128
 71
156
 72
2
 73
60
 74
22
 0
VERTEX
 8
K_RPER_4
 10
0
 20
0
 30
0
 70
128
 71
2
 72
11
 73
61
 74
60
 0
VERTEX
 8
K_RPER_4
 10
0
 20
0
 30
0
 70
128
 71
76
 72
18
 73
19
 74
78
 0
VERTEX
 8
K_RPER_4
 10
0
 20
0
 30
0
 70
128
 71
12
 72
13
 73
63
 74
62
 0
VERTEX
 8
K_RPER_4
 10
0
 20
0
 30
0
 70
128
 71
13
 72
14
 73
64
 74
63
 0
VERTEX
 8
K_RPER_4
 10
0
 20
0
 30
0
 70
128
 71
14
 72
15
 73
65
 74
64
 0
VERTEX
 8
K_RPER_4
 10
0
 20
0
 30
0
 70
128
 71
132
 72
133
 73
128
 74
127
 0
VERTEX
 8
K_RPER_4
 10
0
 20
0
 30
0
 70
128
 71
15
 72
16
 73
66
 74
65
 0
VERTEX
 8
K_RPER_4
 10
0
 20
0
 30
0
 70
128
 71
16
 72
17
 73
67
 74
66
 0
VERTEX
 8
K_RPER_4
 10
0
 20
0
 30
0
 70
128
 71
28
 72
29
 73
91
 74
90
 0
VERTEX
 8
K_RPER_4
 10
0
 20
0
 30
0
 70
128
 71
29
 72
30
 73
92
 74
91
 0
VERTEX
 8
K_RPER_4
 10
0
 20
0
 30
0
 70
128
 71
30
 72
31
 73
93
 74
92
 0
VERTEX
 8
K_RPER_4
 10
0
 20
0
 30
0
 70
128
 71
31
 72
32
 73
94
 74
93
 0
VERTEX
 8
K_RPER_4
 10
0
 20
0
 30
0
 70
128
 71
32
 72
33
 73
95
 74
94
 0
VERTEX
 8
K_RPER_4
 10
0
 20
0
 30
0
 70
128
 71
153
 72
19
 73
18
 74
102
 0
VERTEX
 8
K_RPER_4
 10
0
 20
0
 30
0
 70
128
 71
34
 72
35
 73
97
 74
96
 0
VERTEX
 8
K_RPER_4
 10
0
 20
0
 30
0
 70
128
 71
35
 72
36
 73
98
 74
97
 0
VERTEX
 8
K_RPER_4
 10
0
 20
0
 30
0
 70
128
 71
36
 72
37
 73
99
 74
98
 0
VERTEX
 8
K_RPER_4
 10
0
 20
0
 30
0
 70
128
 71
37
 72
38
 73
100
 74
99
 0
VERTEX
 8
K_RPER_4
 10
0
 20
0
 30
0
 70
128
 71
38
 72
39
 73
101
 74
100
 0
VERTEX
 8
K_RPER_4
 10
0
 20
0
 30
0
 70
128
 71
39
 72
40
 73
102
 74
101
 0
VERTEX
 8
K_RPER_4
 10
0
 20
0
 30
0
 70
128
 71
133
 72
134
 73
149
 74
128
 0
VERTEX
 8
K_RPER_4
 10
0
 20
0
 30
0
 70
128
 71
148
 72
104
 73
129
 74
77
 0
VERTEX
 8
K_RPER_4
 10
0
 20
0
 30
0
 70
128
 71
135
 72
136
 73
46
 74
45
 0
VERTEX
 8
K_RPER_4
 10
0
 20
0
 30
0
 70
128
 71
17
 72
18
 73
76
 74
67
 0
VERTEX
 8
K_RPER_4
 10
0
 20
0
 30
0
 70
128
 71
26
 72
27
 73
29
 74
28
 0
VERTEX
 8
K_RPER_4
 10
0
 20
0
 30
0
 70
128
 71
45
 72
46
 73
118
 74
117
 0
VERTEX
 8
K_RPER_4
 10
0
 20
0
 30
0
 70
128
 71
46
 72
47
 73
119
 74
118
 0
VERTEX
 8
K_RPER_4
 10
0
 20
0
 30
0
 70
128
 71
47
 72
48
 73
120
 74
119
 0
VERTEX
 8
K_RPER_4
 10
0
 20
0
 30
0
 70
128
 71
48
 72
49
 73
121
 74
120
 0
VERTEX
 8
K_RPER_4
 10
0
 20
0
 30
0
 70
128
 71
49
 72
50
 73
122
 74
121
 0
VERTEX
 8
K_RPER_4
 10
0
 20
0
 30
0
 70
128
 71
50
 72
51
 73
123
 74
122
 0
VERTEX
 8
K_RPER_4
 10
0
 20
0
 30
0
 70
128
 71
136
 72
137
 73
47
 74
46
 0
VERTEX
 8
K_RPER_4
 10
0
 20
0
 30
0
 70
128
 71
137
 72
138
 73
48
 74
47
 0
VERTEX
 8
K_RPER_4
 10
0
 20
0
 30
0
 70
128
 71
138
 72
139
 73
49
 74
48
 0
VERTEX
 8
K_RPER_4
 10
0
 20
0
 30
0
 70
128
 71
27
 72
68
 73
30
 74
29
 0
VERTEX
 8
K_RPER_4
 10
0
 20
0
 30
0
 70
128
 71
19
 72
20
 73
79
 74
78
 0
VERTEX
 8
K_RPER_4
 10
0
 20
0
 30
0
 70
128
 71
20
 72
21
 73
80
 74
79
 0
VERTEX
 8
K_RPER_4
 10
0
 20
0
 30
0
 70
128
 71
21
 72
22
 73
81
 74
80
 0
VERTEX
 8
K_RPER_4
 10
0
 20
0
 30
0
 70
128
 71
22
 72
60
 73
82
 74
81
 0
VERTEX
 8
K_RPER_4
 10
0
 20
0
 30
0
 70
128
 71
60
 72
61
 73
83
 74
82
 0
VERTEX
 8
K_RPER_4
 10
0
 20
0
 30
0
 70
128
 71
77
 72
70
 73
51
 74
148
 0
VERTEX
 8
K_RPER_4
 10
0
 20
0
 30
0
 70
128
 71
23
 72
24
 73
106
 74
105
 0
VERTEX
 8
K_RPER_4
 10
0
 20
0
 30
0
 70
128
 71
24
 72
25
 73
107
 74
106
 0
VERTEX
 8
K_RPER_4
 10
0
 20
0
 30
0
 70
128
 71
25
 72
43
 73
108
 74
107
 0
VERTEX
 8
K_RPER_4
 10
0
 20
0
 30
0
 70
128
 71
43
 72
44
 73
109
 74
108
 0
VERTEX
 8
K_RPER_4
 10
0
 20
0
 30
0
 70
128
 71
44
 72
52
 73
110
 74
109
 0
VERTEX
 8
K_RPER_4
 10
0
 20
0
 30
0
 70
128
 71
52
 72
53
 73
111
 74
110
 0
VERTEX
 8
K_RPER_4
 10
0
 20
0
 30
0
 70
128
 71
68
 72
69
 73
31
 74
30
 0
VERTEX
 8
K_RPER_4
 10
0
 20
0
 30
0
 70
128
 71
69
 72
89
 73
32
 74
31
 0
VERTEX
 8
K_RPER_4
 10
0
 20
0
 30
0
 70
128
 71
89
 72
140
 73
33
 74
32
 0
VERTEX
 8
K_RPER_4
 10
0
 20
0
 30
0
 70
128
 71
54
 72
55
 73
115
 74
114
 0
VERTEX
 8
K_RPER_4
 10
0
 20
0
 30
0
 70
128
 71
55
 72
56
 73
116
 74
115
 0
VERTEX
 8
K_RPER_4
 10
0
 20
0
 30
0
 70
128
 71
70
 72
71
 73
143
 74
142
 0
VERTEX
 8
K_RPER_4
 10
0
 20
0
 30
0
 70
128
 71
71
 72
72
 73
144
 74
143
 0
VERTEX
 8
K_RPER_4
 10
0
 20
0
 30
0
 70
128
 71
72
 72
73
 73
145
 74
144
 0
VERTEX
 8
K_RPER_4
 10
0
 20
0
 30
0
 70
128
 71
73
 72
74
 73
146
 74
145
 0
VERTEX
 8
K_RPER_4
 10
0
 20
0
 30
0
 70
128
 71
74
 72
75
 73
147
 74
146
 0
VERTEX
 8
K_RPER_4
 10
0
 20
0
 30
0
 70
128
 71
123
 72
51
 73
70
 74
142
 0
VERTEX
 8
K_RPER_4
 10
0
 20
0
 30
0
 70
128
 71
56
 72
57
 73
124
 74
116
 0
VERTEX
 8
K_RPER_4
 10
0
 20
0
 30
0
 70
128
 71
57
 72
58
 73
125
 74
124
 0
VERTEX
 8
K_RPER_4
 10
0
 20
0
 30
0
 70
128
 71
58
 72
59
 73
126
 74
125
 0
VERTEX
 8
K_RPER_4
 10
0
 20
0
 30
0
 70
128
 71
142
 72
54
 73
53
 74
123
 0
VERTEX
 8
K_RPER_4
 10
0
 20
0
 30
0
 70
128
 71
62
 72
63
 73
85
 74
84
 0
VERTEX
 8
K_RPER_4
 10
0
 20
0
 30
0
 70
128
 71
63
 72
64
 73
86
 74
85
 0
VERTEX
 8
K_RPER_4
 10
0
 20
0
 30
0
 70
128
 71
64
 72
65
 73
87
 74
86
 0
VERTEX
 8
K_RPER_4
 10
0
 20
0
 30
0
 70
128
 71
65
 72
66
 73
88
 74
87
 0
VERTEX
 8
K_RPER_4
 10
0
 20
0
 30
0
 70
128
 71
66
 72
67
 73
103
 74
88
 0
VERTEX
 8
K_RPER_4
 10
0
 20
0
 30
0
 70
128
 71
67
 72
76
 73
104
 74
103
 0
VERTEX
 8
K_RPER_4
 10
0
 20
0
 30
0
 70
128
 71
90
 72
153
 73
102
 74
40
 0
VERTEX
 8
K_RPER_4
 10
0
 20
0
 30
0
 70
128
 71
78
 72
79
 73
130
 74
129
 0
VERTEX
 8
K_RPER_4
 10
0
 20
0
 30
0
 70
128
 71
79
 72
80
 73
131
 74
130
 0
VERTEX
 8
K_RPER_4
 10
0
 20
0
 30
0
 70
128
 71
80
 72
81
 73
132
 74
131
 0
VERTEX
 8
K_RPER_4
 10
0
 20
0
 30
0
 70
128
 71
81
 72
82
 73
133
 74
132
 0
VERTEX
 8
K_RPER_4
 10
0
 20
0
 30
0
 70
128
 71
82
 72
83
 73
134
 74
133
 0
VERTEX
 8
K_RPER_4
 10
0
 20
0
 30
0
 70
128
 71
90
 72
91
 73
154
 74
153
 0
VERTEX
 8
K_RPER_4
 10
0
 20
0
 30
0
 70
128
 71
91
 72
92
 73
155
 74
154
 0
VERTEX
 8
K_RPER_4
 10
0
 20
0
 30
0
 70
128
 71
92
 72
93
 73
156
 74
155
 0
VERTEX
 8
K_RPER_4
 10
0
 20
0
 30
0
 70
128
 71
93
 72
94
 73
2
 74
156
 0
VERTEX
 8
K_RPER_4
 10
0
 20
0
 30
0
 70
128
 71
94
 72
95
 73
11
 74
2
 0
VERTEX
 8
K_RPER_4
 10
0
 20
0
 30
0
 70
128
 71
40
 72
8
 73
28
 74
90
 0
VERTEX
 8
K_RPER_4
 10
0
 20
0
 30
0
 70
128
 71
96
 72
97
 73
13
 74
12
 0
VERTEX
 8
K_RPER_4
 10
0
 20
0
 30
0
 70
128
 71
97
 72
98
 73
14
 74
13
 0
VERTEX
 8
K_RPER_4
 10
0
 20
0
 30
0
 70
128
 71
98
 72
99
 73
15
 74
14
 0
VERTEX
 8
K_RPER_4
 10
0
 20
0
 30
0
 70
128
 71
99
 72
100
 73
16
 74
15
 0
VERTEX
 8
K_RPER_4
 10
0
 20
0
 30
0
 70
128
 71
100
 72
101
 73
17
 74
16
 0
VERTEX
 8
K_RPER_4
 10
0
 20
0
 30
0
 70
128
 71
101
 72
102
 73
18
 74
17
 0
VERTEX
 8
K_RPER_4
 10
0
 20
0
 30
0
 70
128
 71
139
 72
141
 73
50
 74
49
 0
VERTEX
 8
K_RPER_4
 10
0
 20
0
 30
0
 70
128
 71
141
 72
148
 73
51
 74
50
 0
VERTEX
 8
K_RPER_4
 10
0
 20
0
 30
0
 70
128
 71
114
 72
26
 73
42
 74
111
 0
VERTEX
 8
K_RPER_4
 10
0
 20
0
 30
0
 70
128
 71
84
 72
85
 73
136
 74
135
 0
VERTEX
 8
K_RPER_4
 10
0
 20
0
 30
0
 70
128
 71
85
 72
86
 73
137
 74
136
 0
VERTEX
 8
K_RPER_4
 10
0
 20
0
 30
0
 70
128
 71
86
 72
87
 73
138
 74
137
 0
VERTEX
 8
K_RPER_4
 10
0
 20
0
 30
0
 70
128
 71
87
 72
88
 73
139
 74
138
 0
VERTEX
 8
K_RPER_4
 10
0
 20
0
 30
0
 70
128
 71
88
 72
103
 73
141
 74
139
 0
VERTEX
 8
K_RPER_4
 10
0
 20
0
 30
0
 70
128
 71
103
 72
104
 73
148
 74
141
 0
VERTEX
 8
K_RPER_4
 10
0
 20
0
 30
0
 70
128
 71
150
 72
151
 73
3
 74
1
 0
VERTEX
 8
K_RPER_4
 10
0
 20
0
 30
0
 70
128
 71
151
 72
152
 73
4
 74
3
 0
VERTEX
 8
K_RPER_4
 10
0
 20
0
 30
0
 70
128
 71
152
 72
9
 73
5
 74
4
 0
VERTEX
 8
K_RPER_4
 10
0
 20
0
 30
0
 70
128
 71
105
 72
106
 73
151
 74
150
 0
VERTEX
 8
K_RPER_4
 10
0
 20
0
 30
0
 70
128
 71
106
 72
107
 73
152
 74
151
 0
VERTEX
 8
K_RPER_4
 10
0
 20
0
 30
0
 70
128
 71
107
 72
108
 73
9
 74
152
 0
VERTEX
 8
K_RPER_4
 10
0
 20
0
 30
0
 70
128
 71
108
 72
109
 73
10
 74
9
 0
VERTEX
 8
K_RPER_4
 10
0
 20
0
 30
0
 70
128
 71
117
 72
118
 73
24
 74
23
 0
VERTEX
 8
K_RPER_4
 10
0
 20
0
 30
0
 70
128
 71
118
 72
119
 73
25
 74
24
 0
VERTEX
 8
K_RPER_4
 10
0
 20
0
 30
0
 70
128
 71
119
 72
120
 73
43
 74
25
 0
VERTEX
 8
K_RPER_4
 10
0
 20
0
 30
0
 70
128
 71
120
 72
121
 73
44
 74
43
 0
VERTEX
 8
K_RPER_4
 10
0
 20
0
 30
0
 70
128
 71
121
 72
122
 73
52
 74
44
 0
VERTEX
 8
K_RPER_4
 10
0
 20
0
 30
0
 70
128
 71
122
 72
123
 73
53
 74
52
 0
VERTEX
 8
K_RPER_4
 10
0
 20
0
 30
0
 70
128
 71
109
 72
110
 73
41
 74
10
 0
VERTEX
 8
K_RPER_4
 10
0
 20
0
 30
0
 70
128
 71
110
 72
111
 73
42
 74
41
 0
VERTEX
 8
K_RPER_4
 10
0
 20
0
 30
0
 70
128
 71
9
 72
10
 73
6
 74
5
 0
VERTEX
 8
K_RPER_4
 10
0
 20
0
 30
0
 70
128
 71
10
 72
41
 73
7
 74
6
 0
VERTEX
 8
K_RPER_4
 10
0
 20
0
 30
0
 70
128
 71
41
 72
42
 73
8
 74
7
 0
VERTEX
 8
K_RPER_4
 10
0
 20
0
 30
0
 70
128
 71
77
 72
112
 73
71
 74
70
 0
VERTEX
 8
K_RPER_4
 10
0
 20
0
 30
0
 70
128
 71
112
 72
113
 73
72
 74
71
 0
VERTEX
 8
K_RPER_4
 10
0
 20
0
 30
0
 70
128
 71
113
 72
127
 73
73
 74
72
 0
VERTEX
 8
K_RPER_4
 10
0
 20
0
 30
0
 70
128
 71
114
 72
115
 73
27
 74
26
 0
VERTEX
 8
K_RPER_4
 10
0
 20
0
 30
0
 70
128
 71
115
 72
116
 73
68
 74
27
 0
VERTEX
 8
K_RPER_4
 10
0
 20
0
 30
0
 70
128
 71
116
 72
124
 73
69
 74
68
 0
VERTEX
 8
K_RPER_4
 10
0
 20
0
 30
0
 70
128
 71
124
 72
125
 73
89
 74
69
 0
VERTEX
 8
K_RPER_4
 10
0
 20
0
 30
0
 70
128
 71
125
 72
126
 73
140
 74
89
 0
VERTEX
 8
K_RPER_4
 10
0
 20
0
 30
0
 70
128
 71
8
 72
42
 73
26
 74
28
 0
VERTEX
 8
K_RPER_4
 10
0
 20
0
 30
0
 70
128
 71
127
 72
128
 73
74
 74
73
 0
VERTEX
 8
K_RPER_4
 10
0
 20
0
 30
0
 70
128
 71
128
 72
149
 73
75
 74
74
 0
VERTEX
 8
K_RPER_4
 10
0
 20
0
 30
0
 70
128
 71
54
 72
114
 73
111
 74
53
 0
SEQEND
 0
POLYLINE
 8
ZYLINDER_12
 66
1
 10
0.0
 20
0.0
 30
0.0
 70
64
 71
26
 72
36
 0
VERTEX
 8
ZYLINDER_12
 10
-0.0508
 20
-12.3256
 30
38.9304
 70
192
 0
VERTEX
 8
ZYLINDER_12
 10
-0.0508
 20
-12.3256
 30
40.0504
 70
192
 0
VERTEX
 8
ZYLINDER_12
 10
-0.0508
 20
-12.7256
 30
38.9304
 70
192
 0
VERTEX
 8
ZYLINDER_12
 10
-0.0508
 20
-12.7256
 30
40.0504
 70
192
 0
VERTEX
 8
ZYLINDER_12
 10
0.1492
 20
-12.672
 30
38.9304
 70
192
 0
VERTEX
 8
ZYLINDER_12
 10
0.1492
 20
-12.672
 30
40.0504
 70
192
 0
VERTEX
 8
ZYLINDER_12
 10
0.2956
 20
-12.5256
 30
38.9304
 70
192
 0
VERTEX
 8
ZYLINDER_12
 10
0.2956
 20
-12.5256
 30
40.0504
 70
192
 0
VERTEX
 8
ZYLINDER_12
 10
0.3492
 20
-12.3256
 30
38.9304
 70
192
 0
VERTEX
 8
ZYLINDER_12
 10
0.3492
 20
-12.3256
 30
40.0504
 70
192
 0
VERTEX
 8
ZYLINDER_12
 10
0.2956
 20
-12.1256
 30
38.9304
 70
192
 0
VERTEX
 8
ZYLINDER_12
 10
0.2956
 20
-12.1256
 30
40.0504
 70
192
 0
VERTEX
 8
ZYLINDER_12
 10
0.1492
 20
-11.9792
 30
38.9304
 70
192
 0
VERTEX
 8
ZYLINDER_12
 10
0.1492
 20
-11.9792
 30
40.0504
 70
192
 0
VERTEX
 8
ZYLINDER_12
 10
-0.0508
 20
-11.9256
 30
38.9304
 70
192
 0
VERTEX
 8
ZYLINDER_12
 10
-0.0508
 20
-11.9256
 30
40.0504
 70
192
 0
VERTEX
 8
ZYLINDER_12
 10
-0.2508
 20
-11.9792
 30
38.9304
 70
192
 0
VERTEX
 8
ZYLINDER_12
 10
-0.2508
 20
-11.9792
 30
40.0504
 70
192
 0
VERTEX
 8
ZYLINDER_12
 10
-0.3972
 20
-12.1256
 30
38.9304
 70
192
 0
VERTEX
 8
ZYLINDER_12
 10
-0.3972
 20
-12.1256
 30
40.0504
 70
192
 0
VERTEX
 8
ZYLINDER_12
 10
-0.4508
 20
-12.3256
 30
38.9304
 70
192
 0
VERTEX
 8
ZYLINDER_12
 10
-0.4508
 20
-12.3256
 30
40.0504
 70
192
 0
VERTEX
 8
ZYLINDER_12
 10
-0.3972
 20
-12.5256
 30
38.9304
 70
192
 0
VERTEX
 8
ZYLINDER_12
 10
-0.3972
 20
-12.5256
 30
40.0504
 70
192
 0
VERTEX
 8
ZYLINDER_12
 10
-0.2508
 20
-12.672
 30
38.9304
 70
192
 0
VERTEX
 8
ZYLINDER_12
 10
-0.2508
 20
-12.672
 30
40.0504
 70
192
 0
VERTEX
 8
ZYLINDER_12
 10
0
 20
0
 30
0
 70
128
 71
1
 72
3
 73
5
 74
5
 0
VERTEX
 8
ZYLINDER_12
 10
0
 20
0
 30
0
 70
128
 71
3
 72
4
 73
6
 74
5
 0
VERTEX
 8
ZYLINDER_12
 10
0
 20
0
 30
0
 70
128
 71
4
 72
2
 73
6
 74
6
 0
VERTEX
 8
ZYLINDER_12
 10
0
 20
0
 30
0
 70
128
 71
1
 72
5
 73
7
 74
7
 0
VERTEX
 8
ZYLINDER_12
 10
0
 20
0
 30
0
 70
128
 71
5
 72
6
 73
8
 74
7
 0
VERTEX
 8
ZYLINDER_12
 10
0
 20
0
 30
0
 70
128
 71
6
 72
2
 73
8
 74
8
 0
VERTEX
 8
ZYLINDER_12
 10
0
 20
0
 30
0
 70
128
 71
1
 72
7
 73
9
 74
9
 0
VERTEX
 8
ZYLINDER_12
 10
0
 20
0
 30
0
 70
128
 71
7
 72
8
 73
10
 74
9
 0
VERTEX
 8
ZYLINDER_12
 10
0
 20
0
 30
0
 70
128
 71
8
 72
2
 73
10
 74
10
 0
VERTEX
 8
ZYLINDER_12
 10
0
 20
0
 30
0
 70
128
 71
1
 72
9
 73
11
 74
11
 0
VERTEX
 8
ZYLINDER_12
 10
0
 20
0
 30
0
 70
128
 71
9
 72
10
 73
12
 74
11
 0
VERTEX
 8
ZYLINDER_12
 10
0
 20
0
 30
0
 70
128
 71
10
 72
2
 73
12
 74
12
 0
VERTEX
 8
ZYLINDER_12
 10
0
 20
0
 30
0
 70
128
 71
1
 72
11
 73
13
 74
13
 0
VERTEX
 8
ZYLINDER_12
 10
0
 20
0
 30
0
 70
128
 71
11
 72
12
 73
14
 74
13
 0
VERTEX
 8
ZYLINDER_12
 10
0
 20
0
 30
0
 70
128
 71
12
 72
2
 73
14
 74
14
 0
VERTEX
 8
ZYLINDER_12
 10
0
 20
0
 30
0
 70
128
 71
1
 72
13
 73
15
 74
15
 0
VERTEX
 8
ZYLINDER_12
 10
0
 20
0
 30
0
 70
128
 71
13
 72
14
 73
16
 74
15
 0
VERTEX
 8
ZYLINDER_12
 10
0
 20
0
 30
0
 70
128
 71
14
 72
2
 73
16
 74
16
 0
VERTEX
 8
ZYLINDER_12
 10
0
 20
0
 30
0
 70
128
 71
1
 72
15
 73
17
 74
17
 0
VERTEX
 8
ZYLINDER_12
 10
0
 20
0
 30
0
 70
128
 71
15
 72
16
 73
18
 74
17
 0
VERTEX
 8
ZYLINDER_12
 10
0
 20
0
 30
0
 70
128
 71
16
 72
2
 73
18
 74
18
 0
VERTEX
 8
ZYLINDER_12
 10
0
 20
0
 30
0
 70
128
 71
1
 72
17
 73
19
 74
19
 0
VERTEX
 8
ZYLINDER_12
 10
0
 20
0
 30
0
 70
128
 71
17
 72
18
 73
20
 74
19
 0
VERTEX
 8
ZYLINDER_12
 10
0
 20
0
 30
0
 70
128
 71
18
 72
2
 73
20
 74
20
 0
VERTEX
 8
ZYLINDER_12
 10
0
 20
0
 30
0
 70
128
 71
1
 72
19
 73
21
 74
21
 0
VERTEX
 8
ZYLINDER_12
 10
0
 20
0
 30
0
 70
128
 71
19
 72
20
 73
22
 74
21
 0
VERTEX
 8
ZYLINDER_12
 10
0
 20
0
 30
0
 70
128
 71
20
 72
2
 73
22
 74
22
 0
VERTEX
 8
ZYLINDER_12
 10
0
 20
0
 30
0
 70
128
 71
1
 72
21
 73
23
 74
23
 0
VERTEX
 8
ZYLINDER_12
 10
0
 20
0
 30
0
 70
128
 71
21
 72
22
 73
24
 74
23
 0
VERTEX
 8
ZYLINDER_12
 10
0
 20
0
 30
0
 70
128
 71
22
 72
2
 73
24
 74
24
 0
VERTEX
 8
ZYLINDER_12
 10
0
 20
0
 30
0
 70
128
 71
1
 72
23
 73
25
 74
25
 0
VERTEX
 8
ZYLINDER_12
 10
0
 20
0
 30
0
 70
128
 71
23
 72
24
 73
26
 74
25
 0
VERTEX
 8
ZYLINDER_12
 10
0
 20
0
 30
0
 70
128
 71
24
 72
2
 73
26
 74
26
 0
VERTEX
 8
ZYLINDER_12
 10
0
 20
0
 30
0
 70
128
 71
1
 72
25
 73
3
 74
3
 0
VERTEX
 8
ZYLINDER_12
 10
0
 20
0
 30
0
 70
128
 71
25
 72
26
 73
4
 74
3
 0
VERTEX
 8
ZYLINDER_12
 10
0
 20
0
 30
0
 70
128
 71
26
 72
2
 73
4
 74
4
 0
SEQEND
 0
POLYLINE
 8
ZYLINDER_11
 66
1
 10
0.0
 20
0.0
 30
0.0
 70
64
 71
25
 72
24
 0
VERTEX
 8
ZYLINDER_11
 10
-0.0508
 20
-12.3256
 30
38.6881
 70
192
 0
VERTEX
 8
ZYLINDER_11
 10
-0.0508
 20
-13.1256
 30
38.2481
 70
192
 0
VERTEX
 8
ZYLINDER_11
 10
-0.0508
 20
-13.1256
 30
38.6881
 70
192
 0
VERTEX
 8
ZYLINDER_11
 10
0.3492
 20
-13.0184
 30
38.2481
 70
192
 0
VERTEX
 8
ZYLINDER_11
 10
0.3492
 20
-13.0184
 30
38.6881
 70
192
 0
VERTEX
 8
ZYLINDER_11
 10
0.6421
 20
-12.7256
 30
38.2481
 70
192
 0
VERTEX
 8
ZYLINDER_11
 10
0.6421
 20
-12.7256
 30
38.6881
 70
192
 0
VERTEX
 8
ZYLINDER_11
 10
0.7492
 20
-12.3256
 30
38.2481
 70
192
 0
VERTEX
 8
ZYLINDER_11
 10
0.7492
 20
-12.3256
 30
38.6881
 70
192
 0
VERTEX
 8
ZYLINDER_11
 10
0.6421
 20
-11.9256
 30
38.2481
 70
192
 0
VERTEX
 8
ZYLINDER_11
 10
0.6421
 20
-11.9256
 30
38.6881
 70
192
 0
VERTEX
 8
ZYLINDER_11
 10
0.3492
 20
-11.6328
 30
38.2481
 70
192
 0
VERTEX
 8
ZYLINDER_11
 10
0.3492
 20
-11.6328
 30
38.6881
 70
192
 0
VERTEX
 8
ZYLINDER_11
 10
-0.0508
 20
-11.5256
 30
38.2481
 70
192
 0
VERTEX
 8
ZYLINDER_11
 10
-0.0508
 20
-11.5256
 30
38.6881
 70
192
 0
VERTEX
 8
ZYLINDER_11
 10
-0.4508
 20
-11.6328
 30
38.2481
 70
192
 0
VERTEX
 8
ZYLINDER_11
 10
-0.4508
 20
-11.6328
 30
38.6881
 70
192
 0
VERTEX
 8
ZYLINDER_11
 10
-0.7436
 20
-11.9256
 30
38.2481
 70
192
 0
VERTEX
 8
ZYLINDER_11
 10
-0.7436
 20
-11.9256
 30
38.6881
 70
192
 0
VERTEX
 8
ZYLINDER_11
 10
-0.8508
 20
-12.3256
 30
38.2481
 70
192
 0
VERTEX
 8
ZYLINDER_11
 10
-0.8508
 20
-12.3256
 30
38.6881
 70
192
 0
VERTEX
 8
ZYLINDER_11
 10
-0.7436
 20
-12.7256
 30
38.2481
 70
192
 0
VERTEX
 8
ZYLINDER_11
 10
-0.7436
 20
-12.7256
 30
38.6881
 70
192
 0
VERTEX
 8
ZYLINDER_11
 10
-0.4508
 20
-13.0184
 30
38.2481
 70
192
 0
VERTEX
 8
ZYLINDER_11
 10
-0.4508
 20
-13.0184
 30
38.6881
 70
192
 0
VERTEX
 8
ZYLINDER_11
 10
0
 20
0
 30
0
 70
128
 71
18
 72
19
 73
21
 74
20
 0
VERTEX
 8
ZYLINDER_11
 10
0
 20
0
 30
0
 70
128
 71
2
 72
3
 73
5
 74
4
 0
VERTEX
 8
ZYLINDER_11
 10
0
 20
0
 30
0
 70
128
 71
3
 72
1
 73
5
 74
5
 0
VERTEX
 8
ZYLINDER_11
 10
0
 20
0
 30
0
 70
128
 71
19
 72
1
 73
21
 74
21
 0
VERTEX
 8
ZYLINDER_11
 10
0
 20
0
 30
0
 70
128
 71
4
 72
5
 73
7
 74
6
 0
VERTEX
 8
ZYLINDER_11
 10
0
 20
0
 30
0
 70
128
 71
5
 72
1
 73
7
 74
7
 0
VERTEX
 8
ZYLINDER_11
 10
0
 20
0
 30
0
 70
128
 71
20
 72
21
 73
23
 74
22
 0
VERTEX
 8
ZYLINDER_11
 10
0
 20
0
 30
0
 70
128
 71
6
 72
7
 73
9
 74
8
 0
VERTEX
 8
ZYLINDER_11
 10
0
 20
0
 30
0
 70
128
 71
7
 72
1
 73
9
 74
9
 0
VERTEX
 8
ZYLINDER_11
 10
0
 20
0
 30
0
 70
128
 71
21
 72
1
 73
23
 74
23
 0
VERTEX
 8
ZYLINDER_11
 10
0
 20
0
 30
0
 70
128
 71
8
 72
9
 73
11
 74
10
 0
VERTEX
 8
ZYLINDER_11
 10
0
 20
0
 30
0
 70
128
 71
9
 72
1
 73
11
 74
11
 0
VERTEX
 8
ZYLINDER_11
 10
0
 20
0
 30
0
 70
128
 71
22
 72
23
 73
25
 74
24
 0
VERTEX
 8
ZYLINDER_11
 10
0
 20
0
 30
0
 70
128
 71
10
 72
11
 73
13
 74
12
 0
VERTEX
 8
ZYLINDER_11
 10
0
 20
0
 30
0
 70
128
 71
11
 72
1
 73
13
 74
13
 0
VERTEX
 8
ZYLINDER_11
 10
0
 20
0
 30
0
 70
128
 71
23
 72
1
 73
25
 74
25
 0
VERTEX
 8
ZYLINDER_11
 10
0
 20
0
 30
0
 70
128
 71
12
 72
13
 73
15
 74
14
 0
VERTEX
 8
ZYLINDER_11
 10
0
 20
0
 30
0
 70
128
 71
13
 72
1
 73
15
 74
15
 0
VERTEX
 8
ZYLINDER_11
 10
0
 20
0
 30
0
 70
128
 71
24
 72
25
 73
3
 74
2
 0
VERTEX
 8
ZYLINDER_11
 10
0
 20
0
 30
0
 70
128
 71
14
 72
15
 73
17
 74
16
 0
VERTEX
 8
ZYLINDER_11
 10
0
 20
0
 30
0
 70
128
 71
15
 72
1
 73
17
 74
17
 0
VERTEX
 8
ZYLINDER_11
 10
0
 20
0
 30
0
 70
128
 71
25
 72
1
 73
3
 74
3
 0
VERTEX
 8
ZYLINDER_11
 10
0
 20
0
 30
0
 70
128
 71
16
 72
17
 73
19
 74
18
 0
VERTEX
 8
ZYLINDER_11
 10
0
 20
0
 30
0
 70
128
 71
17
 72
1
 73
19
 74
19
 0
SEQEND
 0
POLYLINE
 8
ZYLINDER_10
 66
1
 10
0.0
 20
0.0
 30
0.0
 70
64
 71
16
 72
8
 0
VERTEX
 8
ZYLINDER_10
 10
-0.0508
 20
-12.5256
 30
38.4835
 70
192
 0
VERTEX
 8
ZYLINDER_10
 10
-0.0508
 20
-12.5256
 30
39.2835
 70
192
 0
VERTEX
 8
ZYLINDER_10
 10
0.0907
 20
-12.467
 30
38.4835
 70
192
 0
VERTEX
 8
ZYLINDER_10
 10
0.0907
 20
-12.467
 30
39.2835
 70
192
 0
VERTEX
 8
ZYLINDER_10
 10
0.1492
 20
-12.3256
 30
38.4835
 70
192
 0
VERTEX
 8
ZYLINDER_10
 10
0.1492
 20
-12.3256
 30
39.2835
 70
192
 0
VERTEX
 8
ZYLINDER_10
 10
0.0907
 20
-12.1842
 30
38.4835
 70
192
 0
VERTEX
 8
ZYLINDER_10
 10
0.0907
 20
-12.1842
 30
39.2835
 70
192
 0
VERTEX
 8
ZYLINDER_10
 10
-0.0508
 20
-12.1256
 30
38.4835
 70
192
 0
VERTEX
 8
ZYLINDER_10
 10
-0.0508
 20
-12.1256
 30
39.2835
 70
192
 0
VERTEX
 8
ZYLINDER_10
 10
-0.1922
 20
-12.1842
 30
38.4835
 70
192
 0
VERTEX
 8
ZYLINDER_10
 10
-0.1922
 20
-12.1842
 30
39.2835
 70
192
 0
VERTEX
 8
ZYLINDER_10
 10
-0.2508
 20
-12.3256
 30
38.4835
 70
192
 0
VERTEX
 8
ZYLINDER_10
 10
-0.2508
 20
-12.3256
 30
39.2835
 70
192
 0
VERTEX
 8
ZYLINDER_10
 10
-0.1922
 20
-12.467
 30
38.4835
 70
192
 0
VERTEX
 8
ZYLINDER_10
 10
-0.1922
 20
-12.467
 30
39.2835
 70
192
 0
VERTEX
 8
ZYLINDER_10
 10
0
 20
0
 30
0
 70
128
 71
1
 72
2
 73
4
 74
3
 0
VERTEX
 8
ZYLINDER_10
 10
0
 20
0
 30
0
 70
128
 71
3
 72
4
 73
6
 74
5
 0
VERTEX
 8
ZYLINDER_10
 10
0
 20
0
 30
0
 70
128
 71
5
 72
6
 73
8
 74
7
 0
VERTEX
 8
ZYLINDER_10
 10
0
 20
0
 30
0
 70
128
 71
7
 72
8
 73
10
 74
9
 0
VERTEX
 8
ZYLINDER_10
 10
0
 20
0
 30
0
 70
128
 71
9
 72
10
 73
12
 74
11
 0
VERTEX
 8
ZYLINDER_10
 10
0
 20
0
 30
0
 70
128
 71
11
 72
12
 73
14
 74
13
 0
VERTEX
 8
ZYLINDER_10
 10
0
 20
0
 30
0
 70
128
 71
13
 72
14
 73
16
 74
15
 0
VERTEX
 8
ZYLINDER_10
 10
0
 20
0
 30
0
 70
128
 71
15
 72
16
 73
2
 74
1
 0
SEQEND
 0
POLYLINE
 8
ZYLINDER_9
 66
1
 10
0.0
 20
0.0
 30
0.0
 70
64
 71
110
 72
135
 0
VERTEX
 8
ZYLINDER_9
 10
-0.0445
 20
-12.3227
 30
37.9821
 70
192
 0
VERTEX
 8
ZYLINDER_9
 10
-0.0445
 20
-12.3227
 30
38.3021
 70
192
 0
VERTEX
 8
ZYLINDER_9
 10
-0.0445
 20
-15.9947
 30
37.9821
 70
192
 0
VERTEX
 8
ZYLINDER_9
 10
-0.0445
 20
-16.0227
 30
38.0101
 70
192
 0
VERTEX
 8
ZYLINDER_9
 10
-0.0445
 20
-16.0227
 30
38.2741
 70
192
 0
VERTEX
 8
ZYLINDER_9
 10
-0.0445
 20
-15.9947
 30
38.3021
 70
192
 0
VERTEX
 8
ZYLINDER_9
 10
0.8023
 20
-15.8957
 30
37.9821
 70
192
 0
VERTEX
 8
ZYLINDER_9
 10
0.8088
 20
-15.9229
 30
38.0101
 70
192
 0
VERTEX
 8
ZYLINDER_9
 10
0.8088
 20
-15.9229
 30
38.2741
 70
192
 0
VERTEX
 8
ZYLINDER_9
 10
0.8023
 20
-15.8957
 30
38.3021
 70
192
 0
VERTEX
 8
ZYLINDER_9
 10
1.6035
 20
-15.6041
 30
37.9821
 70
192
 0
VERTEX
 8
ZYLINDER_9
 10
1.6161
 20
-15.6291
 30
38.0101
 70
192
 0
VERTEX
 8
ZYLINDER_9
 10
1.6161
 20
-15.6291
 30
38.2741
 70
192
 0
VERTEX
 8
ZYLINDER_9
 10
1.6035
 20
-15.6041
 30
38.3021
 70
192
 0
VERTEX
 8
ZYLINDER_9
 10
2.3158
 20
-15.1356
 30
37.9821
 70
192
 0
VERTEX
 8
ZYLINDER_9
 10
2.3338
 20
-15.157
 30
38.0101
 70
192
 0
VERTEX
 8
ZYLINDER_9
 10
2.3338
 20
-15.157
 30
38.2741
 70
192
 0
VERTEX
 8
ZYLINDER_9
 10
2.3158
 20
-15.1356
 30
38.3021
 70
192
 0
VERTEX
 8
ZYLINDER_9
 10
2.9009
 20
-14.5154
 30
37.9821
 70
192
 0
VERTEX
 8
ZYLINDER_9
 10
2.9234
 20
-14.5322
 30
38.0101
 70
192
 0
VERTEX
 8
ZYLINDER_9
 10
2.9234
 20
-14.5322
 30
38.2741
 70
192
 0
VERTEX
 8
ZYLINDER_9
 10
2.9009
 20
-14.5154
 30
38.3021
 70
192
 0
VERTEX
 8
ZYLINDER_9
 10
3.3272
 20
-13.7771
 30
37.9821
 70
192
 0
VERTEX
 8
ZYLINDER_9
 10
3.3529
 20
-13.7882
 30
38.0101
 70
192
 0
VERTEX
 8
ZYLINDER_9
 10
3.3529
 20
-13.7882
 30
38.2741
 70
192
 0
VERTEX
 8
ZYLINDER_9
 10
3.3272
 20
-13.7771
 30
38.3021
 70
192
 0
VERTEX
 8
ZYLINDER_9
 10
3.5717
 20
-12.9603
 30
37.9821
 70
192
 0
VERTEX
 8
ZYLINDER_9
 10
3.5993
 20
-12.9652
 30
38.0101
 70
192
 0
VERTEX
 8
ZYLINDER_9
 10
3.5993
 20
-12.9652
 30
38.2741
 70
192
 0
VERTEX
 8
ZYLINDER_9
 10
3.5717
 20
-12.9603
 30
38.3021
 70
192
 0
VERTEX
 8
ZYLINDER_9
 10
3.6213
 20
-12.1092
 30
37.9821
 70
192
 0
VERTEX
 8
ZYLINDER_9
 10
3.6493
 20
-12.1075
 30
38.0101
 70
192
 0
VERTEX
 8
ZYLINDER_9
 10
3.6493
 20
-12.1075
 30
38.2741
 70
192
 0
VERTEX
 8
ZYLINDER_9
 10
3.6213
 20
-12.1092
 30
38.3021
 70
192
 0
VERTEX
 8
ZYLINDER_9
 10
3.4733
 20
-11.2695
 30
37.9821
 70
192
 0
VERTEX
 8
ZYLINDER_9
 10
3.5001
 20
-11.2615
 30
38.0101
 70
192
 0
VERTEX
 8
ZYLINDER_9
 10
3.5001
 20
-11.2615
 30
38.2741
 70
192
 0
VERTEX
 8
ZYLINDER_9
 10
3.4733
 20
-11.2695
 30
38.3021
 70
192
 0
VERTEX
 8
ZYLINDER_9
 10
3.1356
 20
-10.4867
 30
37.9821
 70
192
 0
VERTEX
 8
ZYLINDER_9
 10
3.1598
 20
-10.4727
 30
38.0101
 70
192
 0
VERTEX
 8
ZYLINDER_9
 10
3.1598
 20
-10.4727
 30
38.2741
 70
192
 0
VERTEX
 8
ZYLINDER_9
 10
3.1356
 20
-10.4867
 30
38.3021
 70
192
 0
VERTEX
 8
ZYLINDER_9
 10
2.6264
 20
-9.8028
 30
37.9821
 70
192
 0
VERTEX
 8
ZYLINDER_9
 10
2.6468
 20
-9.7836
 30
38.0101
 70
192
 0
VERTEX
 8
ZYLINDER_9
 10
2.6468
 20
-9.7836
 30
38.2741
 70
192
 0
VERTEX
 8
ZYLINDER_9
 10
2.6264
 20
-9.8028
 30
38.3021
 70
192
 0
VERTEX
 8
ZYLINDER_9
 10
1.9733
 20
-9.2548
 30
37.9821
 70
192
 0
VERTEX
 8
ZYLINDER_9
 10
1.9887
 20
-9.2314
 30
38.0101
 70
192
 0
VERTEX
 8
ZYLINDER_9
 10
1.9887
 20
-9.2314
 30
38.2741
 70
192
 0
VERTEX
 8
ZYLINDER_9
 10
1.9733
 20
-9.2548
 30
38.3021
 70
192
 0
VERTEX
 8
ZYLINDER_9
 10
1.2114
 20
-8.8721
 30
37.9821
 70
192
 0
VERTEX
 8
ZYLINDER_9
 10
1.221
 20
-8.8458
 30
38.0101
 70
192
 0
VERTEX
 8
ZYLINDER_9
 10
1.221
 20
-8.8458
 30
38.2741
 70
192
 0
VERTEX
 8
ZYLINDER_9
 10
1.2114
 20
-8.8721
 30
38.3021
 70
192
 0
VERTEX
 8
ZYLINDER_9
 10
0.3818
 20
-8.6755
 30
37.9821
 70
192
 0
VERTEX
 8
ZYLINDER_9
 10
0.3851
 20
-8.6477
 30
38.0101
 70
192
 0
VERTEX
 8
ZYLINDER_9
 10
0.3851
 20
-8.6477
 30
38.2741
 70
192
 0
VERTEX
 8
ZYLINDER_9
 10
0.3818
 20
-8.6755
 30
38.3021
 70
192
 0
VERTEX
 8
ZYLINDER_9
 10
-0.4708
 20
-8.6755
 30
37.9821
 70
192
 0
VERTEX
 8
ZYLINDER_9
 10
-0.474
 20
-8.6477
 30
38.0101
 70
192
 0
VERTEX
 8
ZYLINDER_9
 10
-0.474
 20
-8.6477
 30
38.2741
 70
192
 0
VERTEX
 8
ZYLINDER_9
 10
-0.4708
 20
-8.6755
 30
38.3021
 70
192
 0
VERTEX
 8
ZYLINDER_9
 10
-1.3004
 20
-8.8721
 30
37.9821
 70
192
 0
VERTEX
 8
ZYLINDER_9
 10
-1.31
 20
-8.8458
 30
38.0101
 70
192
 0
VERTEX
 8
ZYLINDER_9
 10
-1.31
 20
-8.8458
 30
38.2741
 70
192
 0
VERTEX
 8
ZYLINDER_9
 10
-1.3004
 20
-8.8721
 30
38.3021
 70
192
 0
VERTEX
 8
ZYLINDER_9
 10
-2.0623
 20
-9.2548
 30
37.9821
 70
192
 0
VERTEX
 8
ZYLINDER_9
 10
-2.0777
 20
-9.2314
 30
38.0101
 70
192
 0
VERTEX
 8
ZYLINDER_9
 10
-2.0777
 20
-9.2314
 30
38.2741
 70
192
 0
VERTEX
 8
ZYLINDER_9
 10
-2.0623
 20
-9.2548
 30
38.3021
 70
192
 0
VERTEX
 8
ZYLINDER_9
 10
-2.7154
 20
-9.8028
 30
37.9821
 70
192
 0
VERTEX
 8
ZYLINDER_9
 10
-2.7358
 20
-9.7836
 30
38.0101
 70
192
 0
VERTEX
 8
ZYLINDER_9
 10
-2.7358
 20
-9.7836
 30
38.2741
 70
192
 0
VERTEX
 8
ZYLINDER_9
 10
-2.7154
 20
-9.8028
 30
38.3021
 70
192
 0
VERTEX
 8
ZYLINDER_9
 10
-3.2245
 20
-10.4867
 30
37.9821
 70
192
 0
VERTEX
 8
ZYLINDER_9
 10
-3.2488
 20
-10.4727
 30
38.0101
 70
192
 0
VERTEX
 8
ZYLINDER_9
 10
-3.2488
 20
-10.4727
 30
38.2741
 70
192
 0
VERTEX
 8
ZYLINDER_9
 10
-3.2245
 20
-10.4867
 30
38.3021
 70
192
 0
VERTEX
 8
ZYLINDER_9
 10
-3.5622
 20
-11.2695
 30
37.9821
 70
192
 0
VERTEX
 8
ZYLINDER_9
 10
-3.589
 20
-11.2615
 30
38.0101
 70
192
 0
VERTEX
 8
ZYLINDER_9
 10
-3.589
 20
-11.2615
 30
38.2741
 70
192
 0
VERTEX
 8
ZYLINDER_9
 10
-3.5622
 20
-11.2695
 30
38.3021
 70
192
 0
VERTEX
 8
ZYLINDER_9
 10
-3.7103
 20
-12.1092
 30
37.9821
 70
192
 0
VERTEX
 8
ZYLINDER_9
 10
-3.7382
 20
-12.1075
 30
38.0101
 70
192
 0
VERTEX
 8
ZYLINDER_9
 10
-3.7382
 20
-12.1075
 30
38.2741
 70
192
 0
VERTEX
 8
ZYLINDER_9
 10
-3.7103
 20
-12.1092
 30
38.3021
 70
192
 0
VERTEX
 8
ZYLINDER_9
 10
-3.6607
 20
-12.9603
 30
37.9821
 70
192
 0
VERTEX
 8
ZYLINDER_9
 10
-3.6883
 20
-12.9652
 30
38.0101
 70
192
 0
VERTEX
 8
ZYLINDER_9
 10
-3.6883
 20
-12.9652
 30
38.2741
 70
192
 0
VERTEX
 8
ZYLINDER_9
 10
-3.6607
 20
-12.9603
 30
38.3021
 70
192
 0
VERTEX
 8
ZYLINDER_9
 10
-3.4162
 20
-13.7771
 30
37.9821
 70
192
 0
VERTEX
 8
ZYLINDER_9
 10
-3.4419
 20
-13.7882
 30
38.0101
 70
192
 0
VERTEX
 8
ZYLINDER_9
 10
-3.4419
 20
-13.7882
 30
38.2741
 70
192
 0
VERTEX
 8
ZYLINDER_9
 10
-3.4162
 20
-13.7771
 30
38.3021
 70
192
 0
VERTEX
 8
ZYLINDER_9
 10
-2.9899
 20
-14.5154
 30
37.9821
 70
192
 0
VERTEX
 8
ZYLINDER_9
 10
-3.0123
 20
-14.5322
 30
38.0101
 70
192
 0
VERTEX
 8
ZYLINDER_9
 10
-3.0123
 20
-14.5322
 30
38.2741
 70
192
 0
VERTEX
 8
ZYLINDER_9
 10
-2.9899
 20
-14.5154
 30
38.3021
 70
192
 0
VERTEX
 8
ZYLINDER_9
 10
-2.4048
 20
-15.1356
 30
37.9821
 70
192
 0
VERTEX
 8
ZYLINDER_9
 10
-2.4228
 20
-15.157
 30
38.0101
 70
192
 0
VERTEX
 8
ZYLINDER_9
 10
-2.4228
 20
-15.157
 30
38.2741
 70
192
 0
VERTEX
 8
ZYLINDER_9
 10
-2.4048
 20
-15.1356
 30
38.3021
 70
192
 0
VERTEX
 8
ZYLINDER_9
 10
-1.6925
 20
-15.6041
 30
37.9821
 70
192
 0
VERTEX
 8
ZYLINDER_9
 10
-1.705
 20
-15.6291
 30
38.0101
 70
192
 0
VERTEX
 8
ZYLINDER_9
 10
-1.705
 20
-15.6291
 30
38.2741
 70
192
 0
VERTEX
 8
ZYLINDER_9
 10
-1.6925
 20
-15.6041
 30
38.3021
 70
192
 0
VERTEX
 8
ZYLINDER_9
 10
-0.8913
 20
-15.8957
 30
37.9821
 70
192
 0
VERTEX
 8
ZYLINDER_9
 10
-0.8978
 20
-15.9229
 30
38.0101
 70
192
 0
VERTEX
 8
ZYLINDER_9
 10
-0.8978
 20
-15.9229
 30
38.2741
 70
192
 0
VERTEX
 8
ZYLINDER_9
 10
-0.8913
 20
-15.8957
 30
38.3021
 70
192
 0
VERTEX
 8
ZYLINDER_9
 10
0
 20
0
 30
0
 70
128
 71
1
 72
3
 73
7
 74
7
 0
VERTEX
 8
ZYLINDER_9
 10
0
 20
0
 30
0
 70
128
 71
3
 72
4
 73
8
 74
7
 0
VERTEX
 8
ZYLINDER_9
 10
0
 20
0
 30
0
 70
128
 71
4
 72
5
 73
9
 74
8
 0
VERTEX
 8
ZYLINDER_9
 10
0
 20
0
 30
0
 70
128
 71
5
 72
6
 73
10
 74
9
 0
VERTEX
 8
ZYLINDER_9
 10
0
 20
0
 30
0
 70
128
 71
6
 72
2
 73
10
 74
10
 0
VERTEX
 8
ZYLINDER_9
 10
0
 20
0
 30
0
 70
128
 71
1
 72
7
 73
11
 74
11
 0
VERTEX
 8
ZYLINDER_9
 10
0
 20
0
 30
0
 70
128
 71
7
 72
8
 73
12
 74
11
 0
VERTEX
 8
ZYLINDER_9
 10
0
 20
0
 30
0
 70
128
 71
8
 72
9
 73
13
 74
12
 0
VERTEX
 8
ZYLINDER_9
 10
0
 20
0
 30
0
 70
128
 71
9
 72
10
 73
14
 74
13
 0
VERTEX
 8
ZYLINDER_9
 10
0
 20
0
 30
0
 70
128
 71
10
 72
2
 73
14
 74
14
 0
VERTEX
 8
ZYLINDER_9
 10
0
 20
0
 30
0
 70
128
 71
1
 72
11
 73
15
 74
15
 0
VERTEX
 8
ZYLINDER_9
 10
0
 20
0
 30
0
 70
128
 71
11
 72
12
 73
16
 74
15
 0
VERTEX
 8
ZYLINDER_9
 10
0
 20
0
 30
0
 70
128
 71
12
 72
13
 73
17
 74
16
 0
VERTEX
 8
ZYLINDER_9
 10
0
 20
0
 30
0
 70
128
 71
13
 72
14
 73
18
 74
17
 0
VERTEX
 8
ZYLINDER_9
 10
0
 20
0
 30
0
 70
128
 71
14
 72
2
 73
18
 74
18
 0
VERTEX
 8
ZYLINDER_9
 10
0
 20
0
 30
0
 70
128
 71
1
 72
15
 73
19
 74
19
 0
VERTEX
 8
ZYLINDER_9
 10
0
 20
0
 30
0
 70
128
 71
15
 72
16
 73
20
 74
19
 0
VERTEX
 8
ZYLINDER_9
 10
0
 20
0
 30
0
 70
128
 71
16
 72
17
 73
21
 74
20
 0
VERTEX
 8
ZYLINDER_9
 10
0
 20
0
 30
0
 70
128
 71
17
 72
18
 73
22
 74
21
 0
VERTEX
 8
ZYLINDER_9
 10
0
 20
0
 30
0
 70
128
 71
18
 72
2
 73
22
 74
22
 0
VERTEX
 8
ZYLINDER_9
 10
0
 20
0
 30
0
 70
128
 71
1
 72
19
 73
23
 74
23
 0
VERTEX
 8
ZYLINDER_9
 10
0
 20
0
 30
0
 70
128
 71
19
 72
20
 73
24
 74
23
 0
VERTEX
 8
ZYLINDER_9
 10
0
 20
0
 30
0
 70
128
 71
20
 72
21
 73
25
 74
24
 0
VERTEX
 8
ZYLINDER_9
 10
0
 20
0
 30
0
 70
128
 71
21
 72
22
 73
26
 74
25
 0
VERTEX
 8
ZYLINDER_9
 10
0
 20
0
 30
0
 70
128
 71
22
 72
2
 73
26
 74
26
 0
VERTEX
 8
ZYLINDER_9
 10
0
 20
0
 30
0
 70
128
 71
1
 72
23
 73
27
 74
27
 0
VERTEX
 8
ZYLINDER_9
 10
0
 20
0
 30
0
 70
128
 71
23
 72
24
 73
28
 74
27
 0
VERTEX
 8
ZYLINDER_9
 10
0
 20
0
 30
0
 70
128
 71
24
 72
25
 73
29
 74
28
 0
VERTEX
 8
ZYLINDER_9
 10
0
 20
0
 30
0
 70
128
 71
25
 72
26
 73
30
 74
29
 0
VERTEX
 8
ZYLINDER_9
 10
0
 20
0
 30
0
 70
128
 71
26
 72
2
 73
30
 74
30
 0
VERTEX
 8
ZYLINDER_9
 10
0
 20
0
 30
0
 70
128
 71
1
 72
27
 73
31
 74
31
 0
VERTEX
 8
ZYLINDER_9
 10
0
 20
0
 30
0
 70
128
 71
27
 72
28
 73
32
 74
31
 0
VERTEX
 8
ZYLINDER_9
 10
0
 20
0
 30
0
 70
128
 71
28
 72
29
 73
33
 74
32
 0
VERTEX
 8
ZYLINDER_9
 10
0
 20
0
 30
0
 70
128
 71
29
 72
30
 73
34
 74
33
 0
VERTEX
 8
ZYLINDER_9
 10
0
 20
0
 30
0
 70
128
 71
30
 72
2
 73
34
 74
34
 0
VERTEX
 8
ZYLINDER_9
 10
0
 20
0
 30
0
 70
128
 71
1
 72
31
 73
35
 74
35
 0
VERTEX
 8
ZYLINDER_9
 10
0
 20
0
 30
0
 70
128
 71
31
 72
32
 73
36
 74
35
 0
VERTEX
 8
ZYLINDER_9
 10
0
 20
0
 30
0
 70
128
 71
32
 72
33
 73
37
 74
36
 0
VERTEX
 8
ZYLINDER_9
 10
0
 20
0
 30
0
 70
128
 71
33
 72
34
 73
38
 74
37
 0
VERTEX
 8
ZYLINDER_9
 10
0
 20
0
 30
0
 70
128
 71
34
 72
2
 73
38
 74
38
 0
VERTEX
 8
ZYLINDER_9
 10
0
 20
0
 30
0
 70
128
 71
1
 72
35
 73
39
 74
39
 0
VERTEX
 8
ZYLINDER_9
 10
0
 20
0
 30
0
 70
128
 71
35
 72
36
 73
40
 74
39
 0
VERTEX
 8
ZYLINDER_9
 10
0
 20
0
 30
0
 70
128
 71
36
 72
37
 73
41
 74
40
 0
VERTEX
 8
ZYLINDER_9
 10
0
 20
0
 30
0
 70
128
 71
37
 72
38
 73
42
 74
41
 0
VERTEX
 8
ZYLINDER_9
 10
0
 20
0
 30
0
 70
128
 71
38
 72
2
 73
42
 74
42
 0
VERTEX
 8
ZYLINDER_9
 10
0
 20
0
 30
0
 70
128
 71
1
 72
39
 73
43
 74
43
 0
VERTEX
 8
ZYLINDER_9
 10
0
 20
0
 30
0
 70
128
 71
39
 72
40
 73
44
 74
43
 0
VERTEX
 8
ZYLINDER_9
 10
0
 20
0
 30
0
 70
128
 71
40
 72
41
 73
45
 74
44
 0
VERTEX
 8
ZYLINDER_9
 10
0
 20
0
 30
0
 70
128
 71
41
 72
42
 73
46
 74
45
 0
VERTEX
 8
ZYLINDER_9
 10
0
 20
0
 30
0
 70
128
 71
42
 72
2
 73
46
 74
46
 0
VERTEX
 8
ZYLINDER_9
 10
0
 20
0
 30
0
 70
128
 71
1
 72
43
 73
47
 74
47
 0
VERTEX
 8
ZYLINDER_9
 10
0
 20
0
 30
0
 70
128
 71
43
 72
44
 73
48
 74
47
 0
VERTEX
 8
ZYLINDER_9
 10
0
 20
0
 30
0
 70
128
 71
44
 72
45
 73
49
 74
48
 0
VERTEX
 8
ZYLINDER_9
 10
0
 20
0
 30
0
 70
128
 71
45
 72
46
 73
50
 74
49
 0
VERTEX
 8
ZYLINDER_9
 10
0
 20
0
 30
0
 70
128
 71
46
 72
2
 73
50
 74
50
 0
VERTEX
 8
ZYLINDER_9
 10
0
 20
0
 30
0
 70
128
 71
1
 72
47
 73
51
 74
51
 0
VERTEX
 8
ZYLINDER_9
 10
0
 20
0
 30
0
 70
128
 71
47
 72
48
 73
52
 74
51
 0
VERTEX
 8
ZYLINDER_9
 10
0
 20
0
 30
0
 70
128
 71
48
 72
49
 73
53
 74
52
 0
VERTEX
 8
ZYLINDER_9
 10
0
 20
0
 30
0
 70
128
 71
49
 72
50
 73
54
 74
53
 0
VERTEX
 8
ZYLINDER_9
 10
0
 20
0
 30
0
 70
128
 71
50
 72
2
 73
54
 74
54
 0
VERTEX
 8
ZYLINDER_9
 10
0
 20
0
 30
0
 70
128
 71
1
 72
51
 73
55
 74
55
 0
VERTEX
 8
ZYLINDER_9
 10
0
 20
0
 30
0
 70
128
 71
51
 72
52
 73
56
 74
55
 0
VERTEX
 8
ZYLINDER_9
 10
0
 20
0
 30
0
 70
128
 71
52
 72
53
 73
57
 74
56
 0
VERTEX
 8
ZYLINDER_9
 10
0
 20
0
 30
0
 70
128
 71
53
 72
54
 73
58
 74
57
 0
VERTEX
 8
ZYLINDER_9
 10
0
 20
0
 30
0
 70
128
 71
54
 72
2
 73
58
 74
58
 0
VERTEX
 8
ZYLINDER_9
 10
0
 20
0
 30
0
 70
128
 71
1
 72
55
 73
59
 74
59
 0
VERTEX
 8
ZYLINDER_9
 10
0
 20
0
 30
0
 70
128
 71
55
 72
56
 73
60
 74
59
 0
VERTEX
 8
ZYLINDER_9
 10
0
 20
0
 30
0
 70
128
 71
56
 72
57
 73
61
 74
60
 0
VERTEX
 8
ZYLINDER_9
 10
0
 20
0
 30
0
 70
128
 71
57
 72
58
 73
62
 74
61
 0
VERTEX
 8
ZYLINDER_9
 10
0
 20
0
 30
0
 70
128
 71
58
 72
2
 73
62
 74
62
 0
VERTEX
 8
ZYLINDER_9
 10
0
 20
0
 30
0
 70
128
 71
1
 72
59
 73
63
 74
63
 0
VERTEX
 8
ZYLINDER_9
 10
0
 20
0
 30
0
 70
128
 71
59
 72
60
 73
64
 74
63
 0
VERTEX
 8
ZYLINDER_9
 10
0
 20
0
 30
0
 70
128
 71
60
 72
61
 73
65
 74
64
 0
VERTEX
 8
ZYLINDER_9
 10
0
 20
0
 30
0
 70
128
 71
61
 72
62
 73
66
 74
65
 0
VERTEX
 8
ZYLINDER_9
 10
0
 20
0
 30
0
 70
128
 71
62
 72
2
 73
66
 74
66
 0
VERTEX
 8
ZYLINDER_9
 10
0
 20
0
 30
0
 70
128
 71
1
 72
63
 73
67
 74
67
 0
VERTEX
 8
ZYLINDER_9
 10
0
 20
0
 30
0
 70
128
 71
63
 72
64
 73
68
 74
67
 0
VERTEX
 8
ZYLINDER_9
 10
0
 20
0
 30
0
 70
128
 71
64
 72
65
 73
69
 74
68
 0
VERTEX
 8
ZYLINDER_9
 10
0
 20
0
 30
0
 70
128
 71
65
 72
66
 73
70
 74
69
 0
VERTEX
 8
ZYLINDER_9
 10
0
 20
0
 30
0
 70
128
 71
66
 72
2
 73
70
 74
70
 0
VERTEX
 8
ZYLINDER_9
 10
0
 20
0
 30
0
 70
128
 71
1
 72
67
 73
71
 74
71
 0
VERTEX
 8
ZYLINDER_9
 10
0
 20
0
 30
0
 70
128
 71
67
 72
68
 73
72
 74
71
 0
VERTEX
 8
ZYLINDER_9
 10
0
 20
0
 30
0
 70
128
 71
68
 72
69
 73
73
 74
72
 0
VERTEX
 8
ZYLINDER_9
 10
0
 20
0
 30
0
 70
128
 71
69
 72
70
 73
74
 74
73
 0
VERTEX
 8
ZYLINDER_9
 10
0
 20
0
 30
0
 70
128
 71
70
 72
2
 73
74
 74
74
 0
VERTEX
 8
ZYLINDER_9
 10
0
 20
0
 30
0
 70
128
 71
1
 72
71
 73
75
 74
75
 0
VERTEX
 8
ZYLINDER_9
 10
0
 20
0
 30
0
 70
128
 71
71
 72
72
 73
76
 74
75
 0
VERTEX
 8
ZYLINDER_9
 10
0
 20
0
 30
0
 70
128
 71
72
 72
73
 73
77
 74
76
 0
VERTEX
 8
ZYLINDER_9
 10
0
 20
0
 30
0
 70
128
 71
73
 72
74
 73
78
 74
77
 0
VERTEX
 8
ZYLINDER_9
 10
0
 20
0
 30
0
 70
128
 71
74
 72
2
 73
78
 74
78
 0
VERTEX
 8
ZYLINDER_9
 10
0
 20
0
 30
0
 70
128
 71
1
 72
75
 73
79
 74
79
 0
VERTEX
 8
ZYLINDER_9
 10
0
 20
0
 30
0
 70
128
 71
75
 72
76
 73
80
 74
79
 0
VERTEX
 8
ZYLINDER_9
 10
0
 20
0
 30
0
 70
128
 71
76
 72
77
 73
81
 74
80
 0
VERTEX
 8
ZYLINDER_9
 10
0
 20
0
 30
0
 70
128
 71
77
 72
78
 73
82
 74
81
 0
VERTEX
 8
ZYLINDER_9
 10
0
 20
0
 30
0
 70
128
 71
78
 72
2
 73
82
 74
82
 0
VERTEX
 8
ZYLINDER_9
 10
0
 20
0
 30
0
 70
128
 71
1
 72
79
 73
83
 74
83
 0
VERTEX
 8
ZYLINDER_9
 10
0
 20
0
 30
0
 70
128
 71
79
 72
80
 73
84
 74
83
 0
VERTEX
 8
ZYLINDER_9
 10
0
 20
0
 30
0
 70
128
 71
80
 72
81
 73
85
 74
84
 0
VERTEX
 8
ZYLINDER_9
 10
0
 20
0
 30
0
 70
128
 71
81
 72
82
 73
86
 74
85
 0
VERTEX
 8
ZYLINDER_9
 10
0
 20
0
 30
0
 70
128
 71
82
 72
2
 73
86
 74
86
 0
VERTEX
 8
ZYLINDER_9
 10
0
 20
0
 30
0
 70
128
 71
1
 72
83
 73
87
 74
87
 0
VERTEX
 8
ZYLINDER_9
 10
0
 20
0
 30
0
 70
128
 71
83
 72
84
 73
88
 74
87
 0
VERTEX
 8
ZYLINDER_9
 10
0
 20
0
 30
0
 70
128
 71
84
 72
85
 73
89
 74
88
 0
VERTEX
 8
ZYLINDER_9
 10
0
 20
0
 30
0
 70
128
 71
85
 72
86
 73
90
 74
89
 0
VERTEX
 8
ZYLINDER_9
 10
0
 20
0
 30
0
 70
128
 71
86
 72
2
 73
90
 74
90
 0
VERTEX
 8
ZYLINDER_9
 10
0
 20
0
 30
0
 70
128
 71
1
 72
87
 73
91
 74
91
 0
VERTEX
 8
ZYLINDER_9
 10
0
 20
0
 30
0
 70
128
 71
87
 72
88
 73
92
 74
91
 0
VERTEX
 8
ZYLINDER_9
 10
0
 20
0
 30
0
 70
128
 71
88
 72
89
 73
93
 74
92
 0
VERTEX
 8
ZYLINDER_9
 10
0
 20
0
 30
0
 70
128
 71
89
 72
90
 73
94
 74
93
 0
VERTEX
 8
ZYLINDER_9
 10
0
 20
0
 30
0
 70
128
 71
90
 72
2
 73
94
 74
94
 0
VERTEX
 8
ZYLINDER_9
 10
0
 20
0
 30
0
 70
128
 71
1
 72
91
 73
95
 74
95
 0
VERTEX
 8
ZYLINDER_9
 10
0
 20
0
 30
0
 70
128
 71
91
 72
92
 73
96
 74
95
 0
VERTEX
 8
ZYLINDER_9
 10
0
 20
0
 30
0
 70
128
 71
92
 72
93
 73
97
 74
96
 0
VERTEX
 8
ZYLINDER_9
 10
0
 20
0
 30
0
 70
128
 71
93
 72
94
 73
98
 74
97
 0
VERTEX
 8
ZYLINDER_9
 10
0
 20
0
 30
0
 70
128
 71
94
 72
2
 73
98
 74
98
 0
VERTEX
 8
ZYLINDER_9
 10
0
 20
0
 30
0
 70
128
 71
1
 72
95
 73
99
 74
99
 0
VERTEX
 8
ZYLINDER_9
 10
0
 20
0
 30
0
 70
128
 71
95
 72
96
 73
100
 74
99
 0
VERTEX
 8
ZYLINDER_9
 10
0
 20
0
 30
0
 70
128
 71
96
 72
97
 73
101
 74
100
 0
VERTEX
 8
ZYLINDER_9
 10
0
 20
0
 30
0
 70
128
 71
97
 72
98
 73
102
 74
101
 0
VERTEX
 8
ZYLINDER_9
 10
0
 20
0
 30
0
 70
128
 71
98
 72
2
 73
102
 74
102
 0
VERTEX
 8
ZYLINDER_9
 10
0
 20
0
 30
0
 70
128
 71
1
 72
99
 73
103
 74
103
 0
VERTEX
 8
ZYLINDER_9
 10
0
 20
0
 30
0
 70
128
 71
99
 72
100
 73
104
 74
103
 0
VERTEX
 8
ZYLINDER_9
 10
0
 20
0
 30
0
 70
128
 71
100
 72
101
 73
105
 74
104
 0
VERTEX
 8
ZYLINDER_9
 10
0
 20
0
 30
0
 70
128
 71
101
 72
102
 73
106
 74
105
 0
VERTEX
 8
ZYLINDER_9
 10
0
 20
0
 30
0
 70
128
 71
102
 72
2
 73
106
 74
106
 0
VERTEX
 8
ZYLINDER_9
 10
0
 20
0
 30
0
 70
128
 71
1
 72
103
 73
107
 74
107
 0
VERTEX
 8
ZYLINDER_9
 10
0
 20
0
 30
0
 70
128
 71
103
 72
104
 73
108
 74
107
 0
VERTEX
 8
ZYLINDER_9
 10
0
 20
0
 30
0
 70
128
 71
104
 72
105
 73
109
 74
108
 0
VERTEX
 8
ZYLINDER_9
 10
0
 20
0
 30
0
 70
128
 71
105
 72
106
 73
110
 74
109
 0
VERTEX
 8
ZYLINDER_9
 10
0
 20
0
 30
0
 70
128
 71
106
 72
2
 73
110
 74
110
 0
VERTEX
 8
ZYLINDER_9
 10
0
 20
0
 30
0
 70
128
 71
1
 72
107
 73
3
 74
3
 0
VERTEX
 8
ZYLINDER_9
 10
0
 20
0
 30
0
 70
128
 71
107
 72
108
 73
4
 74
3
 0
VERTEX
 8
ZYLINDER_9
 10
0
 20
0
 30
0
 70
128
 71
108
 72
109
 73
5
 74
4
 0
VERTEX
 8
ZYLINDER_9
 10
0
 20
0
 30
0
 70
128
 71
109
 72
110
 73
6
 74
5
 0
VERTEX
 8
ZYLINDER_9
 10
0
 20
0
 30
0
 70
128
 71
110
 72
2
 73
6
 74
6
 0
SEQEND
 0
POLYLINE
 8
D_SEN-_ZYLINDER_
 66
1
 10
0.0
 20
0.0
 30
0.0
 70
64
 71
1003
 72
744
 0
VERTEX
 8
D_SEN-_ZYLINDER_
 10
1.2447
 20
-9.5192
 30
37.9584
 70
192
 0
VERTEX
 8
D_SEN-_ZYLINDER_
 10
1.2447
 20
-9.5672
 30
37.9584
 70
192
 0
VERTEX
 8
D_SEN-_ZYLINDER_
 10
1.2887
 20
-9.5672
 30
37.9584
 70
192
 0
VERTEX
 8
D_SEN-_ZYLINDER_
 10
1.2887
 20
-9.5192
 30
37.9584
 70
192
 0
VERTEX
 8
D_SEN-_ZYLINDER_
 10
1.2185
 20
-9.5192
 30
37.9821
 70
192
 0
VERTEX
 8
D_SEN-_ZYLINDER_
 10
1.2185
 20
-9.5672
 30
37.9821
 70
192
 0
VERTEX
 8
D_SEN-_ZYLINDER_
 10
1.2447
 20
-9.5958
 30
37.9821
 70
192
 0
VERTEX
 8
D_SEN-_ZYLINDER_
 10
1.2887
 20
-9.5958
 30
37.9821
 70
192
 0
VERTEX
 8
D_SEN-_ZYLINDER_
 10
1.3148
 20
-9.5672
 30
37.9821
 70
192
 0
VERTEX
 8
D_SEN-_ZYLINDER_
 10
1.3148
 20
-9.5192
 30
37.9821
 70
192
 0
VERTEX
 8
D_SEN-_ZYLINDER_
 10
1.2887
 20
-9.4907
 30
37.9821
 70
192
 0
VERTEX
 8
D_SEN-_ZYLINDER_
 10
1.2447
 20
-9.4907
 30
37.9821
 70
192
 0
VERTEX
 8
D_SEN-_ZYLINDER_
 10
0.5628
 20
-9.5192
 30
37.9584
 70
192
 0
VERTEX
 8
D_SEN-_ZYLINDER_
 10
0.5628
 20
-9.5672
 30
37.9584
 70
192
 0
VERTEX
 8
D_SEN-_ZYLINDER_
 10
0.6068
 20
-9.5672
 30
37.9584
 70
192
 0
VERTEX
 8
D_SEN-_ZYLINDER_
 10
0.6068
 20
-9.5192
 30
37.9584
 70
192
 0
VERTEX
 8
D_SEN-_ZYLINDER_
 10
0.5366
 20
-9.5192
 30
37.9821
 70
192
 0
VERTEX
 8
D_SEN-_ZYLINDER_
 10
0.5366
 20
-9.5672
 30
37.9821
 70
192
 0
VERTEX
 8
D_SEN-_ZYLINDER_
 10
0.5628
 20
-9.5958
 30
37.9821
 70
192
 0
VERTEX
 8
D_SEN-_ZYLINDER_
 10
0.6068
 20
-9.5958
 30
37.9821
 70
192
 0
VERTEX
 8
D_SEN-_ZYLINDER_
 10
0.6329
 20
-9.5672
 30
37.9821
 70
192
 0
VERTEX
 8
D_SEN-_ZYLINDER_
 10
0.6329
 20
-9.5192
 30
37.9821
 70
192
 0
VERTEX
 8
D_SEN-_ZYLINDER_
 10
0.6068
 20
-9.4907
 30
37.9821
 70
192
 0
VERTEX
 8
D_SEN-_ZYLINDER_
 10
0.5628
 20
-9.4907
 30
37.9821
 70
192
 0
VERTEX
 8
D_SEN-_ZYLINDER_
 10
-0.0991
 20
-9.5192
 30
37.9584
 70
192
 0
VERTEX
 8
D_SEN-_ZYLINDER_
 10
-0.0991
 20
-9.5672
 30
37.9584
 70
192
 0
VERTEX
 8
D_SEN-_ZYLINDER_
 10
-0.0551
 20
-9.5672
 30
37.9584
 70
192
 0
VERTEX
 8
D_SEN-_ZYLINDER_
 10
-0.0551
 20
-9.5192
 30
37.9584
 70
192
 0
VERTEX
 8
D_SEN-_ZYLINDER_
 10
-0.1252
 20
-9.5192
 30
37.9821
 70
192
 0
VERTEX
 8
D_SEN-_ZYLINDER_
 10
-0.1252
 20
-9.5672
 30
37.9821
 70
192
 0
VERTEX
 8
D_SEN-_ZYLINDER_
 10
-0.0991
 20
-9.5958
 30
37.9821
 70
192
 0
VERTEX
 8
D_SEN-_ZYLINDER_
 10
-0.0551
 20
-9.5958
 30
37.9821
 70
192
 0
VERTEX
 8
D_SEN-_ZYLINDER_
 10
-0.0289
 20
-9.5672
 30
37.9821
 70
192
 0
VERTEX
 8
D_SEN-_ZYLINDER_
 10
-0.0289
 20
-9.5192
 30
37.9821
 70
192
 0
VERTEX
 8
D_SEN-_ZYLINDER_
 10
-0.0551
 20
-9.4907
 30
37.9821
 70
192
 0
VERTEX
 8
D_SEN-_ZYLINDER_
 10
-0.0991
 20
-9.4907
 30
37.9821
 70
192
 0
VERTEX
 8
D_SEN-_ZYLINDER_
 10
-0.7722
 20
-9.5192
 30
37.9584
 70
192
 0
VERTEX
 8
D_SEN-_ZYLINDER_
 10
-0.7722
 20
-9.5672
 30
37.9584
 70
192
 0
VERTEX
 8
D_SEN-_ZYLINDER_
 10
-0.7282
 20
-9.5672
 30
37.9584
 70
192
 0
VERTEX
 8
D_SEN-_ZYLINDER_
 10
-0.7282
 20
-9.5192
 30
37.9584
 70
192
 0
VERTEX
 8
D_SEN-_ZYLINDER_
 10
-0.7983
 20
-9.5192
 30
37.9821
 70
192
 0
VERTEX
 8
D_SEN-_ZYLINDER_
 10
-0.7983
 20
-9.5672
 30
37.9821
 70
192
 0
VERTEX
 8
D_SEN-_ZYLINDER_
 10
-0.7722
 20
-9.5958
 30
37.9821
 70
192
 0
VERTEX
 8
D_SEN-_ZYLINDER_
 10
-0.7282
 20
-9.5958
 30
37.9821
 70
192
 0
VERTEX
 8
D_SEN-_ZYLINDER_
 10
-0.702
 20
-9.5672
 30
37.9821
 70
192
 0
VERTEX
 8
D_SEN-_ZYLINDER_
 10
-0.702
 20
-9.5192
 30
37.9821
 70
192
 0
VERTEX
 8
D_SEN-_ZYLINDER_
 10
-0.7282
 20
-9.4907
 30
37.9821
 70
192
 0
VERTEX
 8
D_SEN-_ZYLINDER_
 10
-0.7722
 20
-9.4907
 30
37.9821
 70
192
 0
VERTEX
 8
D_SEN-_ZYLINDER_
 10
-1.4453
 20
-9.5192
 30
37.9584
 70
192
 0
VERTEX
 8
D_SEN-_ZYLINDER_
 10
-1.4453
 20
-9.5672
 30
37.9584
 70
192
 0
VERTEX
 8
D_SEN-_ZYLINDER_
 10
-1.4013
 20
-9.5672
 30
37.9584
 70
192
 0
VERTEX
 8
D_SEN-_ZYLINDER_
 10
-1.4013
 20
-9.5192
 30
37.9584
 70
192
 0
VERTEX
 8
D_SEN-_ZYLINDER_
 10
-1.4714
 20
-9.5192
 30
37.9821
 70
192
 0
VERTEX
 8
D_SEN-_ZYLINDER_
 10
-1.4714
 20
-9.5672
 30
37.9821
 70
192
 0
VERTEX
 8
D_SEN-_ZYLINDER_
 10
-1.4453
 20
-9.5958
 30
37.9821
 70
192
 0
VERTEX
 8
D_SEN-_ZYLINDER_
 10
-1.4013
 20
-9.5958
 30
37.9821
 70
192
 0
VERTEX
 8
D_SEN-_ZYLINDER_
 10
-1.3751
 20
-9.5672
 30
37.9821
 70
192
 0
VERTEX
 8
D_SEN-_ZYLINDER_
 10
-1.3751
 20
-9.5192
 30
37.9821
 70
192
 0
VERTEX
 8
D_SEN-_ZYLINDER_
 10
-1.4013
 20
-9.4907
 30
37.9821
 70
192
 0
VERTEX
 8
D_SEN-_ZYLINDER_
 10
-1.4453
 20
-9.4907
 30
37.9821
 70
192
 0
VERTEX
 8
D_SEN-_ZYLINDER_
 10
-2.0891
 20
-9.5192
 30
37.9584
 70
192
 0
VERTEX
 8
D_SEN-_ZYLINDER_
 10
-2.0891
 20
-9.5672
 30
37.9584
 70
192
 0
VERTEX
 8
D_SEN-_ZYLINDER_
 10
-2.0451
 20
-9.5672
 30
37.9584
 70
192
 0
VERTEX
 8
D_SEN-_ZYLINDER_
 10
-2.0451
 20
-9.5192
 30
37.9584
 70
192
 0
VERTEX
 8
D_SEN-_ZYLINDER_
 10
-2.1153
 20
-9.5192
 30
37.9821
 70
192
 0
VERTEX
 8
D_SEN-_ZYLINDER_
 10
-2.1153
 20
-9.5672
 30
37.9821
 70
192
 0
VERTEX
 8
D_SEN-_ZYLINDER_
 10
-2.0891
 20
-9.5958
 30
37.9821
 70
192
 0
VERTEX
 8
D_SEN-_ZYLINDER_
 10
-2.0451
 20
-9.5958
 30
37.9821
 70
192
 0
VERTEX
 8
D_SEN-_ZYLINDER_
 10
-2.019
 20
-9.5672
 30
37.9821
 70
192
 0
VERTEX
 8
D_SEN-_ZYLINDER_
 10
-2.019
 20
-9.5192
 30
37.9821
 70
192
 0
VERTEX
 8
D_SEN-_ZYLINDER_
 10
-2.0451
 20
-9.4907
 30
37.9821
 70
192
 0
VERTEX
 8
D_SEN-_ZYLINDER_
 10
-2.0891
 20
-9.4907
 30
37.9821
 70
192
 0
VERTEX
 8
D_SEN-_ZYLINDER_
 10
1.2447
 20
-15.1225
 30
37.9584
 70
192
 0
VERTEX
 8
D_SEN-_ZYLINDER_
 10
1.2447
 20
-15.1705
 30
37.9584
 70
192
 0
VERTEX
 8
D_SEN-_ZYLINDER_
 10
1.2887
 20
-15.1705
 30
37.9584
 70
192
 0
VERTEX
 8
D_SEN-_ZYLINDER_
 10
1.2887
 20
-15.1225
 30
37.9584
 70
192
 0
VERTEX
 8
D_SEN-_ZYLINDER_
 10
1.2185
 20
-15.1225
 30
37.9821
 70
192
 0
VERTEX
 8
D_SEN-_ZYLINDER_
 10
1.2185
 20
-15.1705
 30
37.9821
 70
192
 0
VERTEX
 8
D_SEN-_ZYLINDER_
 10
1.2447
 20
-15.1991
 30
37.9821
 70
192
 0
VERTEX
 8
D_SEN-_ZYLINDER_
 10
1.2887
 20
-15.1991
 30
37.9821
 70
192
 0
VERTEX
 8
D_SEN-_ZYLINDER_
 10
1.3148
 20
-15.1705
 30
37.9821
 70
192
 0
VERTEX
 8
D_SEN-_ZYLINDER_
 10
1.3148
 20
-15.1225
 30
37.9821
 70
192
 0
VERTEX
 8
D_SEN-_ZYLINDER_
 10
1.2887
 20
-15.094
 30
37.9821
 70
192
 0
VERTEX
 8
D_SEN-_ZYLINDER_
 10
1.2447
 20
-15.094
 30
37.9821
 70
192
 0
VERTEX
 8
D_SEN-_ZYLINDER_
 10
0.5628
 20
-15.1225
 30
37.9584
 70
192
 0
VERTEX
 8
D_SEN-_ZYLINDER_
 10
0.5628
 20
-15.1705
 30
37.9584
 70
192
 0
VERTEX
 8
D_SEN-_ZYLINDER_
 10
0.6068
 20
-15.1705
 30
37.9584
 70
192
 0
VERTEX
 8
D_SEN-_ZYLINDER_
 10
0.6068
 20
-15.1225
 30
37.9584
 70
192
 0
VERTEX
 8
D_SEN-_ZYLINDER_
 10
0.5366
 20
-15.1225
 30
37.9821
 70
192
 0
VERTEX
 8
D_SEN-_ZYLINDER_
 10
0.5366
 20
-15.1705
 30
37.9821
 70
192
 0
VERTEX
 8
D_SEN-_ZYLINDER_
 10
0.5628
 20
-15.1991
 30
37.9821
 70
192
 0
VERTEX
 8
D_SEN-_ZYLINDER_
 10
0.6068
 20
-15.1991
 30
37.9821
 70
192
 0
VERTEX
 8
D_SEN-_ZYLINDER_
 10
0.6329
 20
-15.1225
 30
37.9821
 70
192
 0
VERTEX
 8
D_SEN-_ZYLINDER_
 10
0.6068
 20
-15.094
 30
37.9821
 70
192
 0
VERTEX
 8
D_SEN-_ZYLINDER_
 10
-3.3456
 20
-12.2893
 30
37.9821
 70
192
 0
VERTEX
 8
D_SEN-_ZYLINDER_
 10
0.5628
 20
-15.094
 30
37.9821
 70
192
 0
VERTEX
 8
D_SEN-_ZYLINDER_
 10
0.631
 20
-15.1727
 30
37.9821
 70
192
 0
VERTEX
 8
D_SEN-_ZYLINDER_
 10
0.6143
 20
-15.1022
 30
37.9821
 70
192
 0
VERTEX
 8
D_SEN-_ZYLINDER_
 10
-0.0991
 20
-15.1225
 30
37.9584
 70
192
 0
VERTEX
 8
D_SEN-_ZYLINDER_
 10
-0.0991
 20
-15.1705
 30
37.9584
 70
192
 0
VERTEX
 8
D_SEN-_ZYLINDER_
 10
-0.0551
 20
-15.1705
 30
37.9584
 70
192
 0
VERTEX
 8
D_SEN-_ZYLINDER_
 10
-0.0551
 20
-15.1225
 30
37.9584
 70
192
 0
VERTEX
 8
D_SEN-_ZYLINDER_
 10
-0.1252
 20
-15.1225
 30
37.9821
 70
192
 0
VERTEX
 8
D_SEN-_ZYLINDER_
 10
-0.1252
 20
-15.1705
 30
37.9821
 70
192
 0
VERTEX
 8
D_SEN-_ZYLINDER_
 10
-0.0991
 20
-15.1991
 30
37.9821
 70
192
 0
VERTEX
 8
D_SEN-_ZYLINDER_
 10
-0.0551
 20
-15.1991
 30
37.9821
 70
192
 0
VERTEX
 8
D_SEN-_ZYLINDER_
 10
-0.0289
 20
-15.1705
 30
37.9821
 70
192
 0
VERTEX
 8
D_SEN-_ZYLINDER_
 10
-0.0991
 20
-15.094
 30
37.9821
 70
192
 0
VERTEX
 8
D_SEN-_ZYLINDER_
 10
-0.0289
 20
-15.1225
 30
37.9821
 70
192
 0
VERTEX
 8
D_SEN-_ZYLINDER_
 10
-0.0551
 20
-15.094
 30
37.9821
 70
192
 0
VERTEX
 8
D_SEN-_ZYLINDER_
 10
-0.0445
 20
-15.1875
 30
37.9821
 70
192
 0
VERTEX
 8
D_SEN-_ZYLINDER_
 10
-0.0445
 20
-15.1056
 30
37.9821
 70
192
 0
VERTEX
 8
D_SEN-_ZYLINDER_
 10
-0.7722
 20
-15.1225
 30
37.9584
 70
192
 0
VERTEX
 8
D_SEN-_ZYLINDER_
 10
-0.7722
 20
-15.1705
 30
37.9584
 70
192
 0
VERTEX
 8
D_SEN-_ZYLINDER_
 10
-0.7282
 20
-15.1705
 30
37.9584
 70
192
 0
VERTEX
 8
D_SEN-_ZYLINDER_
 10
-0.7282
 20
-15.1225
 30
37.9584
 70
192
 0
VERTEX
 8
D_SEN-_ZYLINDER_
 10
-0.7983
 20
-15.1225
 30
37.9821
 70
192
 0
VERTEX
 8
D_SEN-_ZYLINDER_
 10
-0.7983
 20
-15.1705
 30
37.9821
 70
192
 0
VERTEX
 8
D_SEN-_ZYLINDER_
 10
-0.7722
 20
-15.1991
 30
37.9821
 70
192
 0
VERTEX
 8
D_SEN-_ZYLINDER_
 10
-0.7282
 20
-15.1991
 30
37.9821
 70
192
 0
VERTEX
 8
D_SEN-_ZYLINDER_
 10
-0.702
 20
-15.1225
 30
37.9821
 70
192
 0
VERTEX
 8
D_SEN-_ZYLINDER_
 10
-0.7282
 20
-15.094
 30
37.9821
 70
192
 0
VERTEX
 8
D_SEN-_ZYLINDER_
 10
-0.702
 20
-15.1705
 30
37.9821
 70
192
 0
VERTEX
 8
D_SEN-_ZYLINDER_
 10
-0.7722
 20
-15.094
 30
37.9821
 70
192
 0
VERTEX
 8
D_SEN-_ZYLINDER_
 10
-0.7255
 20
-15.1962
 30
37.9821
 70
192
 0
VERTEX
 8
D_SEN-_ZYLINDER_
 10
-0.7068
 20
-15.1173
 30
37.9821
 70
192
 0
VERTEX
 8
D_SEN-_ZYLINDER_
 10
-1.4453
 20
-15.1225
 30
37.9584
 70
192
 0
VERTEX
 8
D_SEN-_ZYLINDER_
 10
-1.4453
 20
-15.1705
 30
37.9584
 70
192
 0
VERTEX
 8
D_SEN-_ZYLINDER_
 10
-1.4013
 20
-15.1705
 30
37.9584
 70
192
 0
VERTEX
 8
D_SEN-_ZYLINDER_
 10
-1.4013
 20
-15.1225
 30
37.9584
 70
192
 0
VERTEX
 8
D_SEN-_ZYLINDER_
 10
-1.4714
 20
-15.1225
 30
37.9821
 70
192
 0
VERTEX
 8
D_SEN-_ZYLINDER_
 10
-1.4714
 20
-15.1639
 30
37.9821
 70
192
 0
VERTEX
 8
D_SEN-_ZYLINDER_
 10
-1.4013
 20
-15.1991
 30
37.9821
 70
192
 0
VERTEX
 8
D_SEN-_ZYLINDER_
 10
-1.4453
 20
-15.1991
 30
37.9821
 70
192
 0
VERTEX
 8
D_SEN-_ZYLINDER_
 10
-1.3751
 20
-15.1705
 30
37.9821
 70
192
 0
VERTEX
 8
D_SEN-_ZYLINDER_
 10
-1.3751
 20
-15.1225
 30
37.9821
 70
192
 0
VERTEX
 8
D_SEN-_ZYLINDER_
 10
-1.4013
 20
-15.094
 30
37.9821
 70
192
 0
VERTEX
 8
D_SEN-_ZYLINDER_
 10
-1.4363
 20
-15.094
 30
37.9821
 70
192
 0
VERTEX
 8
D_SEN-_ZYLINDER_
 10
-2.0891
 20
-15.1225
 30
37.9584
 70
192
 0
VERTEX
 8
D_SEN-_ZYLINDER_
 10
-2.0891
 20
-15.1705
 30
37.9584
 70
192
 0
VERTEX
 8
D_SEN-_ZYLINDER_
 10
-2.0451
 20
-15.1705
 30
37.9584
 70
192
 0
VERTEX
 8
D_SEN-_ZYLINDER_
 10
-2.0451
 20
-15.1225
 30
37.9584
 70
192
 0
VERTEX
 8
D_SEN-_ZYLINDER_
 10
-2.1153
 20
-15.1225
 30
37.9821
 70
192
 0
VERTEX
 8
D_SEN-_ZYLINDER_
 10
-2.1153
 20
-15.1705
 30
37.9821
 70
192
 0
VERTEX
 8
D_SEN-_ZYLINDER_
 10
-2.0891
 20
-15.1991
 30
37.9821
 70
192
 0
VERTEX
 8
D_SEN-_ZYLINDER_
 10
-2.0451
 20
-15.1991
 30
37.9821
 70
192
 0
VERTEX
 8
D_SEN-_ZYLINDER_
 10
-2.019
 20
-15.1705
 30
37.9821
 70
192
 0
VERTEX
 8
D_SEN-_ZYLINDER_
 10
-2.019
 20
-15.1225
 30
37.9821
 70
192
 0
VERTEX
 8
D_SEN-_ZYLINDER_
 10
-2.0451
 20
-15.094
 30
37.9821
 70
192
 0
VERTEX
 8
D_SEN-_ZYLINDER_
 10
-2.0891
 20
-15.094
 30
37.9821
 70
192
 0
VERTEX
 8
D_SEN-_ZYLINDER_
 10
3.2101
 20
-11.5674
 30
37.9584
 70
192
 0
VERTEX
 8
D_SEN-_ZYLINDER_
 10
3.2101
 20
-11.6154
 30
37.9584
 70
192
 0
VERTEX
 8
D_SEN-_ZYLINDER_
 10
3.2541
 20
-11.6154
 30
37.9584
 70
192
 0
VERTEX
 8
D_SEN-_ZYLINDER_
 10
3.2541
 20
-11.5674
 30
37.9584
 70
192
 0
VERTEX
 8
D_SEN-_ZYLINDER_
 10
3.184
 20
-11.5674
 30
37.9821
 70
192
 0
VERTEX
 8
D_SEN-_ZYLINDER_
 10
3.184
 20
-11.6154
 30
37.9821
 70
192
 0
VERTEX
 8
D_SEN-_ZYLINDER_
 10
3.2101
 20
-11.6439
 30
37.9821
 70
192
 0
VERTEX
 8
D_SEN-_ZYLINDER_
 10
3.2541
 20
-11.6439
 30
37.9821
 70
192
 0
VERTEX
 8
D_SEN-_ZYLINDER_
 10
3.2803
 20
-11.6154
 30
37.9821
 70
192
 0
VERTEX
 8
D_SEN-_ZYLINDER_
 10
3.2803
 20
-11.5674
 30
37.9821
 70
192
 0
VERTEX
 8
D_SEN-_ZYLINDER_
 10
3.2541
 20
-11.5389
 30
37.9821
 70
192
 0
VERTEX
 8
D_SEN-_ZYLINDER_
 10
3.2101
 20
-11.5389
 30
37.9821
 70
192
 0
VERTEX
 8
D_SEN-_ZYLINDER_
 10
3.2101
 20
-12.2893
 30
37.9584
 70
192
 0
VERTEX
 8
D_SEN-_ZYLINDER_
 10
3.2101
 20
-12.3373
 30
37.9584
 70
192
 0
VERTEX
 8
D_SEN-_ZYLINDER_
 10
3.2541
 20
-12.3373
 30
37.9584
 70
192
 0
VERTEX
 8
D_SEN-_ZYLINDER_
 10
3.2541
 20
-12.2893
 30
37.9584
 70
192
 0
VERTEX
 8
D_SEN-_ZYLINDER_
 10
3.184
 20
-12.2893
 30
37.9821
 70
192
 0
VERTEX
 8
D_SEN-_ZYLINDER_
 10
3.184
 20
-12.3373
 30
37.9821
 70
192
 0
VERTEX
 8
D_SEN-_ZYLINDER_
 10
3.2101
 20
-12.3659
 30
37.9821
 70
192
 0
VERTEX
 8
D_SEN-_ZYLINDER_
 10
3.2541
 20
-12.3659
 30
37.9821
 70
192
 0
VERTEX
 8
D_SEN-_ZYLINDER_
 10
3.2803
 20
-12.3373
 30
37.9821
 70
192
 0
VERTEX
 8
D_SEN-_ZYLINDER_
 10
3.2803
 20
-12.2893
 30
37.9821
 70
192
 0
VERTEX
 8
D_SEN-_ZYLINDER_
 10
3.2541
 20
-12.2608
 30
37.9821
 70
192
 0
VERTEX
 8
D_SEN-_ZYLINDER_
 10
3.2101
 20
-12.2608
 30
37.9821
 70
192
 0
VERTEX
 8
D_SEN-_ZYLINDER_
 10
3.2101
 20
-13.0249
 30
37.9584
 70
192
 0
VERTEX
 8
D_SEN-_ZYLINDER_
 10
3.2101
 20
-13.0729
 30
37.9584
 70
192
 0
VERTEX
 8
D_SEN-_ZYLINDER_
 10
3.2541
 20
-13.0729
 30
37.9584
 70
192
 0
VERTEX
 8
D_SEN-_ZYLINDER_
 10
3.2541
 20
-13.0249
 30
37.9584
 70
192
 0
VERTEX
 8
D_SEN-_ZYLINDER_
 10
3.184
 20
-13.0249
 30
37.9821
 70
192
 0
VERTEX
 8
D_SEN-_ZYLINDER_
 10
3.184
 20
-13.0729
 30
37.9821
 70
192
 0
VERTEX
 8
D_SEN-_ZYLINDER_
 10
3.2101
 20
-13.1014
 30
37.9821
 70
192
 0
VERTEX
 8
D_SEN-_ZYLINDER_
 10
3.2541
 20
-13.1014
 30
37.9821
 70
192
 0
VERTEX
 8
D_SEN-_ZYLINDER_
 10
3.2803
 20
-13.0729
 30
37.9821
 70
192
 0
VERTEX
 8
D_SEN-_ZYLINDER_
 10
3.2803
 20
-13.0249
 30
37.9821
 70
192
 0
VERTEX
 8
D_SEN-_ZYLINDER_
 10
3.2541
 20
-12.9964
 30
37.9821
 70
192
 0
VERTEX
 8
D_SEN-_ZYLINDER_
 10
3.2101
 20
-12.9964
 30
37.9821
 70
192
 0
VERTEX
 8
D_SEN-_ZYLINDER_
 10
2.5483
 20
-10.1235
 30
37.9584
 70
192
 0
VERTEX
 8
D_SEN-_ZYLINDER_
 10
2.5483
 20
-10.1715
 30
37.9584
 70
192
 0
VERTEX
 8
D_SEN-_ZYLINDER_
 10
2.5923
 20
-10.1715
 30
37.9584
 70
192
 0
VERTEX
 8
D_SEN-_ZYLINDER_
 10
2.5923
 20
-10.1235
 30
37.9584
 70
192
 0
VERTEX
 8
D_SEN-_ZYLINDER_
 10
2.5221
 20
-10.1235
 30
37.9821
 70
192
 0
VERTEX
 8
D_SEN-_ZYLINDER_
 10
2.5221
 20
-10.1715
 30
37.9821
 70
192
 0
VERTEX
 8
D_SEN-_ZYLINDER_
 10
2.5483
 20
-10.2
 30
37.9821
 70
192
 0
VERTEX
 8
D_SEN-_ZYLINDER_
 10
2.5923
 20
-10.2
 30
37.9821
 70
192
 0
VERTEX
 8
D_SEN-_ZYLINDER_
 10
2.6184
 20
-10.1715
 30
37.9821
 70
192
 0
VERTEX
 8
D_SEN-_ZYLINDER_
 10
2.6184
 20
-10.1235
 30
37.9821
 70
192
 0
VERTEX
 8
D_SEN-_ZYLINDER_
 10
2.5923
 20
-10.095
 30
37.9821
 70
192
 0
VERTEX
 8
D_SEN-_ZYLINDER_
 10
2.5483
 20
-10.095
 30
37.9821
 70
192
 0
VERTEX
 8
D_SEN-_ZYLINDER_
 10
2.5483
 20
-10.8318
 30
37.9584
 70
192
 0
VERTEX
 8
D_SEN-_ZYLINDER_
 10
2.5483
 20
-10.8798
 30
37.9584
 70
192
 0
VERTEX
 8
D_SEN-_ZYLINDER_
 10
2.5923
 20
-10.8798
 30
37.9584
 70
192
 0
VERTEX
 8
D_SEN-_ZYLINDER_
 10
2.5923
 20
-10.8318
 30
37.9584
 70
192
 0
VERTEX
 8
D_SEN-_ZYLINDER_
 10
2.5483
 20
-10.9084
 30
37.9821
 70
192
 0
VERTEX
 8
D_SEN-_ZYLINDER_
 10
2.5221
 20
-10.8798
 30
37.9821
 70
192
 0
VERTEX
 8
D_SEN-_ZYLINDER_
 10
2.5221
 20
-10.8408
 30
37.9821
 70
192
 0
VERTEX
 8
D_SEN-_ZYLINDER_
 10
2.5923
 20
-10.9084
 30
37.9821
 70
192
 0
VERTEX
 8
D_SEN-_ZYLINDER_
 10
2.6184
 20
-10.8798
 30
37.9821
 70
192
 0
VERTEX
 8
D_SEN-_ZYLINDER_
 10
2.6184
 20
-10.8318
 30
37.9821
 70
192
 0
VERTEX
 8
D_SEN-_ZYLINDER_
 10
2.5483
 20
-10.8033
 30
37.9821
 70
192
 0
VERTEX
 8
D_SEN-_ZYLINDER_
 10
2.5871
 20
-10.8033
 30
37.9821
 70
192
 0
VERTEX
 8
D_SEN-_ZYLINDER_
 10
2.5483
 20
-11.5674
 30
37.9584
 70
192
 0
VERTEX
 8
D_SEN-_ZYLINDER_
 10
2.5483
 20
-11.6154
 30
37.9584
 70
192
 0
VERTEX
 8
D_SEN-_ZYLINDER_
 10
2.5923
 20
-11.6154
 30
37.9584
 70
192
 0
VERTEX
 8
D_SEN-_ZYLINDER_
 10
2.5923
 20
-11.5674
 30
37.9584
 70
192
 0
VERTEX
 8
D_SEN-_ZYLINDER_
 10
2.5221
 20
-11.5674
 30
37.9821
 70
192
 0
VERTEX
 8
D_SEN-_ZYLINDER_
 10
2.5221
 20
-11.6154
 30
37.9821
 70
192
 0
VERTEX
 8
D_SEN-_ZYLINDER_
 10
2.5483
 20
-11.6439
 30
37.9821
 70
192
 0
VERTEX
 8
D_SEN-_ZYLINDER_
 10
2.5923
 20
-11.6439
 30
37.9821
 70
192
 0
VERTEX
 8
D_SEN-_ZYLINDER_
 10
2.6184
 20
-11.6154
 30
37.9821
 70
192
 0
VERTEX
 8
D_SEN-_ZYLINDER_
 10
2.6184
 20
-11.5674
 30
37.9821
 70
192
 0
VERTEX
 8
D_SEN-_ZYLINDER_
 10
2.5923
 20
-11.5389
 30
37.9821
 70
192
 0
VERTEX
 8
D_SEN-_ZYLINDER_
 10
2.5483
 20
-11.5389
 30
37.9821
 70
192
 0
VERTEX
 8
D_SEN-_ZYLINDER_
 10
2.5736
 20
-11.5389
 30
37.9821
 70
192
 0
VERTEX
 8
D_SEN-_ZYLINDER_
 10
2.5387
 20
-11.5493
 30
37.9821
 70
192
 0
VERTEX
 8
D_SEN-_ZYLINDER_
 10
2.5483
 20
-12.2893
 30
37.9584
 70
192
 0
VERTEX
 8
D_SEN-_ZYLINDER_
 10
2.5483
 20
-12.3373
 30
37.9584
 70
192
 0
VERTEX
 8
D_SEN-_ZYLINDER_
 10
2.5923
 20
-12.3373
 30
37.9584
 70
192
 0
VERTEX
 8
D_SEN-_ZYLINDER_
 10
2.5923
 20
-12.2893
 30
37.9584
 70
192
 0
VERTEX
 8
D_SEN-_ZYLINDER_
 10
2.5221
 20
-12.2893
 30
37.9821
 70
192
 0
VERTEX
 8
D_SEN-_ZYLINDER_
 10
2.5221
 20
-12.3373
 30
37.9821
 70
192
 0
VERTEX
 8
D_SEN-_ZYLINDER_
 10
2.5483
 20
-12.3659
 30
37.9821
 70
192
 0
VERTEX
 8
D_SEN-_ZYLINDER_
 10
2.5923
 20
-12.3659
 30
37.9821
 70
192
 0
VERTEX
 8
D_SEN-_ZYLINDER_
 10
2.6184
 20
-12.3373
 30
37.9821
 70
192
 0
VERTEX
 8
D_SEN-_ZYLINDER_
 10
2.6184
 20
-12.2893
 30
37.9821
 70
192
 0
VERTEX
 8
D_SEN-_ZYLINDER_
 10
2.5923
 20
-12.2608
 30
37.9821
 70
192
 0
VERTEX
 8
D_SEN-_ZYLINDER_
 10
2.5483
 20
-12.2608
 30
37.9821
 70
192
 0
VERTEX
 8
D_SEN-_ZYLINDER_
 10
2.5483
 20
-13.0249
 30
37.9584
 70
192
 0
VERTEX
 8
D_SEN-_ZYLINDER_
 10
2.5483
 20
-13.0729
 30
37.9584
 70
192
 0
VERTEX
 8
D_SEN-_ZYLINDER_
 10
2.5923
 20
-13.0729
 30
37.9584
 70
192
 0
VERTEX
 8
D_SEN-_ZYLINDER_
 10
2.5923
 20
-13.0249
 30
37.9584
 70
192
 0
VERTEX
 8
D_SEN-_ZYLINDER_
 10
2.5221
 20
-13.0249
 30
37.9821
 70
192
 0
VERTEX
 8
D_SEN-_ZYLINDER_
 10
2.5221
 20
-13.0729
 30
37.9821
 70
192
 0
VERTEX
 8
D_SEN-_ZYLINDER_
 10
2.5483
 20
-13.1014
 30
37.9821
 70
192
 0
VERTEX
 8
D_SEN-_ZYLINDER_
 10
2.5923
 20
-13.1014
 30
37.9821
 70
192
 0
VERTEX
 8
D_SEN-_ZYLINDER_
 10
2.6184
 20
-13.0729
 30
37.9821
 70
192
 0
VERTEX
 8
D_SEN-_ZYLINDER_
 10
2.6184
 20
-13.0249
 30
37.9821
 70
192
 0
VERTEX
 8
D_SEN-_ZYLINDER_
 10
2.5923
 20
-12.9964
 30
37.9821
 70
192
 0
VERTEX
 8
D_SEN-_ZYLINDER_
 10
2.5483
 20
-12.9964
 30
37.9821
 70
192
 0
VERTEX
 8
D_SEN-_ZYLINDER_
 10
2.5483
 20
-13.7332
 30
37.9584
 70
192
 0
VERTEX
 8
D_SEN-_ZYLINDER_
 10
2.5483
 20
-13.7812
 30
37.9584
 70
192
 0
VERTEX
 8
D_SEN-_ZYLINDER_
 10
2.5923
 20
-13.7812
 30
37.9584
 70
192
 0
VERTEX
 8
D_SEN-_ZYLINDER_
 10
2.5923
 20
-13.7332
 30
37.9584
 70
192
 0
VERTEX
 8
D_SEN-_ZYLINDER_
 10
2.5221
 20
-13.7332
 30
37.9821
 70
192
 0
VERTEX
 8
D_SEN-_ZYLINDER_
 10
2.5221
 20
-13.7812
 30
37.9821
 70
192
 0
VERTEX
 8
D_SEN-_ZYLINDER_
 10
2.5483
 20
-13.8097
 30
37.9821
 70
192
 0
VERTEX
 8
D_SEN-_ZYLINDER_
 10
2.5923
 20
-13.8097
 30
37.9821
 70
192
 0
VERTEX
 8
D_SEN-_ZYLINDER_
 10
2.6184
 20
-13.7812
 30
37.9821
 70
192
 0
VERTEX
 8
D_SEN-_ZYLINDER_
 10
2.6184
 20
-13.7332
 30
37.9821
 70
192
 0
VERTEX
 8
D_SEN-_ZYLINDER_
 10
2.5923
 20
-13.7047
 30
37.9821
 70
192
 0
VERTEX
 8
D_SEN-_ZYLINDER_
 10
2.5483
 20
-13.7047
 30
37.9821
 70
192
 0
VERTEX
 8
D_SEN-_ZYLINDER_
 10
2.5483
 20
-14.4552
 30
37.9584
 70
192
 0
VERTEX
 8
D_SEN-_ZYLINDER_
 10
2.5483
 20
-14.5032
 30
37.9584
 70
192
 0
VERTEX
 8
D_SEN-_ZYLINDER_
 10
2.5923
 20
-14.5032
 30
37.9584
 70
192
 0
VERTEX
 8
D_SEN-_ZYLINDER_
 10
2.5923
 20
-14.4552
 30
37.9584
 70
192
 0
VERTEX
 8
D_SEN-_ZYLINDER_
 10
2.5221
 20
-14.4552
 30
37.9821
 70
192
 0
VERTEX
 8
D_SEN-_ZYLINDER_
 10
2.5221
 20
-14.5032
 30
37.9821
 70
192
 0
VERTEX
 8
D_SEN-_ZYLINDER_
 10
2.5483
 20
-14.5317
 30
37.9821
 70
192
 0
VERTEX
 8
D_SEN-_ZYLINDER_
 10
2.5923
 20
-14.5317
 30
37.9821
 70
192
 0
VERTEX
 8
D_SEN-_ZYLINDER_
 10
2.6184
 20
-14.5032
 30
37.9821
 70
192
 0
VERTEX
 8
D_SEN-_ZYLINDER_
 10
2.6184
 20
-14.4552
 30
37.9821
 70
192
 0
VERTEX
 8
D_SEN-_ZYLINDER_
 10
2.5923
 20
-14.4266
 30
37.9821
 70
192
 0
VERTEX
 8
D_SEN-_ZYLINDER_
 10
2.5483
 20
-14.4266
 30
37.9821
 70
192
 0
VERTEX
 8
D_SEN-_ZYLINDER_
 10
1.9065
 20
-10.1235
 30
37.9584
 70
192
 0
VERTEX
 8
D_SEN-_ZYLINDER_
 10
1.9065
 20
-10.1715
 30
37.9584
 70
192
 0
VERTEX
 8
D_SEN-_ZYLINDER_
 10
1.9505
 20
-10.1715
 30
37.9584
 70
192
 0
VERTEX
 8
D_SEN-_ZYLINDER_
 10
1.9505
 20
-10.1235
 30
37.9584
 70
192
 0
VERTEX
 8
D_SEN-_ZYLINDER_
 10
1.8803
 20
-10.1235
 30
37.9821
 70
192
 0
VERTEX
 8
D_SEN-_ZYLINDER_
 10
1.8803
 20
-10.1715
 30
37.9821
 70
192
 0
VERTEX
 8
D_SEN-_ZYLINDER_
 10
1.9065
 20
-10.2
 30
37.9821
 70
192
 0
VERTEX
 8
D_SEN-_ZYLINDER_
 10
1.9505
 20
-10.2
 30
37.9821
 70
192
 0
VERTEX
 8
D_SEN-_ZYLINDER_
 10
1.9766
 20
-10.1715
 30
37.9821
 70
192
 0
VERTEX
 8
D_SEN-_ZYLINDER_
 10
1.9766
 20
-10.1235
 30
37.9821
 70
192
 0
VERTEX
 8
D_SEN-_ZYLINDER_
 10
1.9505
 20
-10.095
 30
37.9821
 70
192
 0
VERTEX
 8
D_SEN-_ZYLINDER_
 10
1.9065
 20
-10.095
 30
37.9821
 70
192
 0
VERTEX
 8
D_SEN-_ZYLINDER_
 10
1.9065
 20
-10.8318
 30
37.9584
 70
192
 0
VERTEX
 8
D_SEN-_ZYLINDER_
 10
1.9065
 20
-10.8798
 30
37.9584
 70
192
 0
VERTEX
 8
D_SEN-_ZYLINDER_
 10
1.9505
 20
-10.8798
 30
37.9584
 70
192
 0
VERTEX
 8
D_SEN-_ZYLINDER_
 10
1.9505
 20
-10.8318
 30
37.9584
 70
192
 0
VERTEX
 8
D_SEN-_ZYLINDER_
 10
1.8803
 20
-10.8318
 30
37.9821
 70
192
 0
VERTEX
 8
D_SEN-_ZYLINDER_
 10
1.8803
 20
-10.8798
 30
37.9821
 70
192
 0
VERTEX
 8
D_SEN-_ZYLINDER_
 10
1.9065
 20
-10.9084
 30
37.9821
 70
192
 0
VERTEX
 8
D_SEN-_ZYLINDER_
 10
1.9505
 20
-10.9084
 30
37.9821
 70
192
 0
VERTEX
 8
D_SEN-_ZYLINDER_
 10
1.9766
 20
-10.8798
 30
37.9821
 70
192
 0
VERTEX
 8
D_SEN-_ZYLINDER_
 10
1.9766
 20
-10.8318
 30
37.9821
 70
192
 0
VERTEX
 8
D_SEN-_ZYLINDER_
 10
1.9505
 20
-10.8033
 30
37.9821
 70
192
 0
VERTEX
 8
D_SEN-_ZYLINDER_
 10
1.9065
 20
-10.8033
 30
37.9821
 70
192
 0
VERTEX
 8
D_SEN-_ZYLINDER_
 10
1.9065
 20
-11.5674
 30
37.9584
 70
192
 0
VERTEX
 8
D_SEN-_ZYLINDER_
 10
1.9065
 20
-11.6154
 30
37.9584
 70
192
 0
VERTEX
 8
D_SEN-_ZYLINDER_
 10
1.9505
 20
-11.6154
 30
37.9584
 70
192
 0
VERTEX
 8
D_SEN-_ZYLINDER_
 10
1.9505
 20
-11.5674
 30
37.9584
 70
192
 0
VERTEX
 8
D_SEN-_ZYLINDER_
 10
1.8803
 20
-11.5674
 30
37.9821
 70
192
 0
VERTEX
 8
D_SEN-_ZYLINDER_
 10
1.8803
 20
-11.6154
 30
37.9821
 70
192
 0
VERTEX
 8
D_SEN-_ZYLINDER_
 10
1.9065
 20
-11.6439
 30
37.9821
 70
192
 0
VERTEX
 8
D_SEN-_ZYLINDER_
 10
1.9505
 20
-11.6439
 30
37.9821
 70
192
 0
VERTEX
 8
D_SEN-_ZYLINDER_
 10
1.9766
 20
-11.6154
 30
37.9821
 70
192
 0
VERTEX
 8
D_SEN-_ZYLINDER_
 10
1.9766
 20
-11.5674
 30
37.9821
 70
192
 0
VERTEX
 8
D_SEN-_ZYLINDER_
 10
1.9505
 20
-11.5389
 30
37.9821
 70
192
 0
VERTEX
 8
D_SEN-_ZYLINDER_
 10
1.9065
 20
-11.5389
 30
37.9821
 70
192
 0
VERTEX
 8
D_SEN-_ZYLINDER_
 10
1.9065
 20
-12.2893
 30
37.9584
 70
192
 0
VERTEX
 8
D_SEN-_ZYLINDER_
 10
1.9065
 20
-12.3373
 30
37.9584
 70
192
 0
VERTEX
 8
D_SEN-_ZYLINDER_
 10
1.9505
 20
-12.3373
 30
37.9584
 70
192
 0
VERTEX
 8
D_SEN-_ZYLINDER_
 10
1.9505
 20
-12.2893
 30
37.9584
 70
192
 0
VERTEX
 8
D_SEN-_ZYLINDER_
 10
1.8803
 20
-12.2893
 30
37.9821
 70
192
 0
VERTEX
 8
D_SEN-_ZYLINDER_
 10
1.8803
 20
-12.3373
 30
37.9821
 70
192
 0
VERTEX
 8
D_SEN-_ZYLINDER_
 10
1.9065
 20
-12.3659
 30
37.9821
 70
192
 0
VERTEX
 8
D_SEN-_ZYLINDER_
 10
1.9505
 20
-12.3659
 30
37.9821
 70
192
 0
VERTEX
 8
D_SEN-_ZYLINDER_
 10
1.9766
 20
-12.3373
 30
37.9821
 70
192
 0
VERTEX
 8
D_SEN-_ZYLINDER_
 10
1.9766
 20
-12.2893
 30
37.9821
 70
192
 0
VERTEX
 8
D_SEN-_ZYLINDER_
 10
1.9505
 20
-12.2608
 30
37.9821
 70
192
 0
VERTEX
 8
D_SEN-_ZYLINDER_
 10
1.9065
 20
-12.2608
 30
37.9821
 70
192
 0
VERTEX
 8
D_SEN-_ZYLINDER_
 10
1.9065
 20
-13.0249
 30
37.9584
 70
192
 0
VERTEX
 8
D_SEN-_ZYLINDER_
 10
1.9065
 20
-13.0729
 30
37.9584
 70
192
 0
VERTEX
 8
D_SEN-_ZYLINDER_
 10
1.9505
 20
-13.0729
 30
37.9584
 70
192
 0
VERTEX
 8
D_SEN-_ZYLINDER_
 10
1.9505
 20
-13.0249
 30
37.9584
 70
192
 0
VERTEX
 8
D_SEN-_ZYLINDER_
 10
1.8803
 20
-13.0249
 30
37.9821
 70
192
 0
VERTEX
 8
D_SEN-_ZYLINDER_
 10
1.8803
 20
-13.0729
 30
37.9821
 70
192
 0
VERTEX
 8
D_SEN-_ZYLINDER_
 10
1.9065
 20
-13.1014
 30
37.9821
 70
192
 0
VERTEX
 8
D_SEN-_ZYLINDER_
 10
1.9505
 20
-13.1014
 30
37.9821
 70
192
 0
VERTEX
 8
D_SEN-_ZYLINDER_
 10
1.9766
 20
-13.0729
 30
37.9821
 70
192
 0
VERTEX
 8
D_SEN-_ZYLINDER_
 10
1.9766
 20
-13.0249
 30
37.9821
 70
192
 0
VERTEX
 8
D_SEN-_ZYLINDER_
 10
1.9505
 20
-12.9964
 30
37.9821
 70
192
 0
VERTEX
 8
D_SEN-_ZYLINDER_
 10
1.9065
 20
-12.9964
 30
37.9821
 70
192
 0
VERTEX
 8
D_SEN-_ZYLINDER_
 10
1.9065
 20
-13.7332
 30
37.9584
 70
192
 0
VERTEX
 8
D_SEN-_ZYLINDER_
 10
1.9065
 20
-13.7812
 30
37.9584
 70
192
 0
VERTEX
 8
D_SEN-_ZYLINDER_
 10
1.9505
 20
-13.7812
 30
37.9584
 70
192
 0
VERTEX
 8
D_SEN-_ZYLINDER_
 10
1.9505
 20
-13.7332
 30
37.9584
 70
192
 0
VERTEX
 8
D_SEN-_ZYLINDER_
 10
1.9065
 20
-13.8097
 30
37.9821
 70
192
 0
VERTEX
 8
D_SEN-_ZYLINDER_
 10
1.8803
 20
-13.7812
 30
37.9821
 70
192
 0
VERTEX
 8
D_SEN-_ZYLINDER_
 10
1.8803
 20
-13.7332
 30
37.9821
 70
192
 0
VERTEX
 8
D_SEN-_ZYLINDER_
 10
-3.3718
 20
-12.2608
 30
37.9821
 70
192
 0
VERTEX
 8
D_SEN-_ZYLINDER_
 10
1.9766
 20
-13.7332
 30
37.9821
 70
192
 0
VERTEX
 8
D_SEN-_ZYLINDER_
 10
1.9766
 20
-13.7812
 30
37.9821
 70
192
 0
VERTEX
 8
D_SEN-_ZYLINDER_
 10
1.9505
 20
-13.7047
 30
37.9821
 70
192
 0
VERTEX
 8
D_SEN-_ZYLINDER_
 10
1.9065
 20
-13.7047
 30
37.9821
 70
192
 0
VERTEX
 8
D_SEN-_ZYLINDER_
 10
1.8803
 20
-13.7557
 30
37.9821
 70
192
 0
VERTEX
 8
D_SEN-_ZYLINDER_
 10
1.9515
 20
-13.8086
 30
37.9821
 70
192
 0
VERTEX
 8
D_SEN-_ZYLINDER_
 10
1.9065
 20
-14.4552
 30
37.9584
 70
192
 0
VERTEX
 8
D_SEN-_ZYLINDER_
 10
1.9065
 20
-14.5032
 30
37.9584
 70
192
 0
VERTEX
 8
D_SEN-_ZYLINDER_
 10
1.9505
 20
-14.5032
 30
37.9584
 70
192
 0
VERTEX
 8
D_SEN-_ZYLINDER_
 10
1.9505
 20
-14.4552
 30
37.9584
 70
192
 0
VERTEX
 8
D_SEN-_ZYLINDER_
 10
1.8803
 20
-14.4552
 30
37.9821
 70
192
 0
VERTEX
 8
D_SEN-_ZYLINDER_
 10
1.8803
 20
-14.5032
 30
37.9821
 70
192
 0
VERTEX
 8
D_SEN-_ZYLINDER_
 10
1.9065
 20
-14.5317
 30
37.9821
 70
192
 0
VERTEX
 8
D_SEN-_ZYLINDER_
 10
1.9505
 20
-14.5317
 30
37.9821
 70
192
 0
VERTEX
 8
D_SEN-_ZYLINDER_
 10
1.9766
 20
-14.5032
 30
37.9821
 70
192
 0
VERTEX
 8
D_SEN-_ZYLINDER_
 10
1.9766
 20
-14.4552
 30
37.9821
 70
192
 0
VERTEX
 8
D_SEN-_ZYLINDER_
 10
1.9505
 20
-14.4266
 30
37.9821
 70
192
 0
VERTEX
 8
D_SEN-_ZYLINDER_
 10
1.9065
 20
-14.4266
 30
37.9821
 70
192
 0
VERTEX
 8
D_SEN-_ZYLINDER_
 10
1.2447
 20
-10.1235
 30
37.9584
 70
192
 0
VERTEX
 8
D_SEN-_ZYLINDER_
 10
1.2447
 20
-10.1715
 30
37.9584
 70
192
 0
VERTEX
 8
D_SEN-_ZYLINDER_
 10
1.2887
 20
-10.1715
 30
37.9584
 70
192
 0
VERTEX
 8
D_SEN-_ZYLINDER_
 10
1.2887
 20
-10.1235
 30
37.9584
 70
192
 0
VERTEX
 8
D_SEN-_ZYLINDER_
 10
1.2185
 20
-10.1235
 30
37.9821
 70
192
 0
VERTEX
 8
D_SEN-_ZYLINDER_
 10
1.2185
 20
-10.1715
 30
37.9821
 70
192
 0
VERTEX
 8
D_SEN-_ZYLINDER_
 10
1.2447
 20
-10.2
 30
37.9821
 70
192
 0
VERTEX
 8
D_SEN-_ZYLINDER_
 10
1.2887
 20
-10.2
 30
37.9821
 70
192
 0
VERTEX
 8
D_SEN-_ZYLINDER_
 10
1.3148
 20
-10.1715
 30
37.9821
 70
192
 0
VERTEX
 8
D_SEN-_ZYLINDER_
 10
1.3148
 20
-10.1235
 30
37.9821
 70
192
 0
VERTEX
 8
D_SEN-_ZYLINDER_
 10
1.2887
 20
-10.095
 30
37.9821
 70
192
 0
VERTEX
 8
D_SEN-_ZYLINDER_
 10
1.2447
 20
-10.095
 30
37.9821
 70
192
 0
VERTEX
 8
D_SEN-_ZYLINDER_
 10
1.2447
 20
-10.8318
 30
37.9584
 70
192
 0
VERTEX
 8
D_SEN-_ZYLINDER_
 10
1.2447
 20
-10.8798
 30
37.9584
 70
192
 0
VERTEX
 8
D_SEN-_ZYLINDER_
 10
1.2887
 20
-10.8798
 30
37.9584
 70
192
 0
VERTEX
 8
D_SEN-_ZYLINDER_
 10
1.2887
 20
-10.8318
 30
37.9584
 70
192
 0
VERTEX
 8
D_SEN-_ZYLINDER_
 10
1.2185
 20
-10.8318
 30
37.9821
 70
192
 0
VERTEX
 8
D_SEN-_ZYLINDER_
 10
1.2185
 20
-10.8798
 30
37.9821
 70
192
 0
VERTEX
 8
D_SEN-_ZYLINDER_
 10
1.2447
 20
-10.9084
 30
37.9821
 70
192
 0
VERTEX
 8
D_SEN-_ZYLINDER_
 10
1.2887
 20
-10.9084
 30
37.9821
 70
192
 0
VERTEX
 8
D_SEN-_ZYLINDER_
 10
1.3148
 20
-10.8798
 30
37.9821
 70
192
 0
VERTEX
 8
D_SEN-_ZYLINDER_
 10
1.3148
 20
-10.8318
 30
37.9821
 70
192
 0
VERTEX
 8
D_SEN-_ZYLINDER_
 10
1.2887
 20
-10.8033
 30
37.9821
 70
192
 0
VERTEX
 8
D_SEN-_ZYLINDER_
 10
1.2447
 20
-10.8033
 30
37.9821
 70
192
 0
VERTEX
 8
D_SEN-_ZYLINDER_
 10
1.2447
 20
-11.5674
 30
37.9584
 70
192
 0
VERTEX
 8
D_SEN-_ZYLINDER_
 10
1.2447
 20
-11.6154
 30
37.9584
 70
192
 0
VERTEX
 8
D_SEN-_ZYLINDER_
 10
1.2887
 20
-11.6154
 30
37.9584
 70
192
 0
VERTEX
 8
D_SEN-_ZYLINDER_
 10
1.2887
 20
-11.5674
 30
37.9584
 70
192
 0
VERTEX
 8
D_SEN-_ZYLINDER_
 10
1.2447
 20
-11.6439
 30
37.9821
 70
192
 0
VERTEX
 8
D_SEN-_ZYLINDER_
 10
1.2185
 20
-11.6154
 30
37.9821
 70
192
 0
VERTEX
 8
D_SEN-_ZYLINDER_
 10
1.2185
 20
-11.5674
 30
37.9821
 70
192
 0
VERTEX
 8
D_SEN-_ZYLINDER_
 10
1.2887
 20
-11.6439
 30
37.9821
 70
192
 0
VERTEX
 8
D_SEN-_ZYLINDER_
 10
1.3148
 20
-11.6154
 30
37.9821
 70
192
 0
VERTEX
 8
D_SEN-_ZYLINDER_
 10
1.3148
 20
-11.5674
 30
37.9821
 70
192
 0
VERTEX
 8
D_SEN-_ZYLINDER_
 10
1.2887
 20
-11.5389
 30
37.9821
 70
192
 0
VERTEX
 8
D_SEN-_ZYLINDER_
 10
1.2447
 20
-11.5389
 30
37.9821
 70
192
 0
VERTEX
 8
D_SEN-_ZYLINDER_
 10
1.2185
 20
-11.5935
 30
37.9821
 70
192
 0
VERTEX
 8
D_SEN-_ZYLINDER_
 10
1.2971
 20
-11.5481
 30
37.9821
 70
192
 0
VERTEX
 8
D_SEN-_ZYLINDER_
 10
1.2447
 20
-12.2893
 30
37.9584
 70
192
 0
VERTEX
 8
D_SEN-_ZYLINDER_
 10
1.2447
 20
-12.3373
 30
37.9584
 70
192
 0
VERTEX
 8
D_SEN-_ZYLINDER_
 10
1.2887
 20
-12.3373
 30
37.9584
 70
192
 0
VERTEX
 8
D_SEN-_ZYLINDER_
 10
1.2887
 20
-12.2893
 30
37.9584
 70
192
 0
VERTEX
 8
D_SEN-_ZYLINDER_
 10
1.2185
 20
-12.2893
 30
37.9821
 70
192
 0
VERTEX
 8
D_SEN-_ZYLINDER_
 10
1.2185
 20
-12.3373
 30
37.9821
 70
192
 0
VERTEX
 8
D_SEN-_ZYLINDER_
 10
1.2447
 20
-12.3659
 30
37.9821
 70
192
 0
VERTEX
 8
D_SEN-_ZYLINDER_
 10
1.2887
 20
-12.3659
 30
37.9821
 70
192
 0
VERTEX
 8
D_SEN-_ZYLINDER_
 10
1.3148
 20
-12.3373
 30
37.9821
 70
192
 0
VERTEX
 8
D_SEN-_ZYLINDER_
 10
1.3148
 20
-12.2893
 30
37.9821
 70
192
 0
VERTEX
 8
D_SEN-_ZYLINDER_
 10
1.2887
 20
-12.2608
 30
37.9821
 70
192
 0
VERTEX
 8
D_SEN-_ZYLINDER_
 10
1.2447
 20
-12.2608
 30
37.9821
 70
192
 0
VERTEX
 8
D_SEN-_ZYLINDER_
 10
1.2447
 20
-13.0249
 30
37.9584
 70
192
 0
VERTEX
 8
D_SEN-_ZYLINDER_
 10
1.2447
 20
-13.0729
 30
37.9584
 70
192
 0
VERTEX
 8
D_SEN-_ZYLINDER_
 10
1.2887
 20
-13.0729
 30
37.9584
 70
192
 0
VERTEX
 8
D_SEN-_ZYLINDER_
 10
1.2887
 20
-13.0249
 30
37.9584
 70
192
 0
VERTEX
 8
D_SEN-_ZYLINDER_
 10
1.2185
 20
-13.0249
 30
37.9821
 70
192
 0
VERTEX
 8
D_SEN-_ZYLINDER_
 10
1.2185
 20
-13.0729
 30
37.9821
 70
192
 0
VERTEX
 8
D_SEN-_ZYLINDER_
 10
1.2447
 20
-13.1014
 30
37.9821
 70
192
 0
VERTEX
 8
D_SEN-_ZYLINDER_
 10
1.2887
 20
-13.1014
 30
37.9821
 70
192
 0
VERTEX
 8
D_SEN-_ZYLINDER_
 10
1.3148
 20
-13.0729
 30
37.9821
 70
192
 0
VERTEX
 8
D_SEN-_ZYLINDER_
 10
1.3148
 20
-13.0249
 30
37.9821
 70
192
 0
VERTEX
 8
D_SEN-_ZYLINDER_
 10
1.2887
 20
-12.9964
 30
37.9821
 70
192
 0
VERTEX
 8
D_SEN-_ZYLINDER_
 10
1.2447
 20
-12.9964
 30
37.9821
 70
192
 0
VERTEX
 8
D_SEN-_ZYLINDER_
 10
1.2447
 20
-13.7332
 30
37.9584
 70
192
 0
VERTEX
 8
D_SEN-_ZYLINDER_
 10
1.2447
 20
-13.7812
 30
37.9584
 70
192
 0
VERTEX
 8
D_SEN-_ZYLINDER_
 10
1.2887
 20
-13.7812
 30
37.9584
 70
192
 0
VERTEX
 8
D_SEN-_ZYLINDER_
 10
1.2887
 20
-13.7332
 30
37.9584
 70
192
 0
VERTEX
 8
D_SEN-_ZYLINDER_
 10
1.2185
 20
-13.7332
 30
37.9821
 70
192
 0
VERTEX
 8
D_SEN-_ZYLINDER_
 10
1.2185
 20
-13.7812
 30
37.9821
 70
192
 0
VERTEX
 8
D_SEN-_ZYLINDER_
 10
1.2447
 20
-13.8097
 30
37.9821
 70
192
 0
VERTEX
 8
D_SEN-_ZYLINDER_
 10
1.2887
 20
-13.8097
 30
37.9821
 70
192
 0
VERTEX
 8
D_SEN-_ZYLINDER_
 10
1.3148
 20
-13.7812
 30
37.9821
 70
192
 0
VERTEX
 8
D_SEN-_ZYLINDER_
 10
1.3148
 20
-13.7332
 30
37.9821
 70
192
 0
VERTEX
 8
D_SEN-_ZYLINDER_
 10
1.2887
 20
-13.7047
 30
37.9821
 70
192
 0
VERTEX
 8
D_SEN-_ZYLINDER_
 10
1.2447
 20
-13.7047
 30
37.9821
 70
192
 0
VERTEX
 8
D_SEN-_ZYLINDER_
 10
1.2447
 20
-14.4552
 30
37.9584
 70
192
 0
VERTEX
 8
D_SEN-_ZYLINDER_
 10
1.2447
 20
-14.5032
 30
37.9584
 70
192
 0
VERTEX
 8
D_SEN-_ZYLINDER_
 10
1.2887
 20
-14.5032
 30
37.9584
 70
192
 0
VERTEX
 8
D_SEN-_ZYLINDER_
 10
1.2887
 20
-14.4552
 30
37.9584
 70
192
 0
VERTEX
 8
D_SEN-_ZYLINDER_
 10
1.2185
 20
-14.4552
 30
37.9821
 70
192
 0
VERTEX
 8
D_SEN-_ZYLINDER_
 10
1.2185
 20
-14.5032
 30
37.9821
 70
192
 0
VERTEX
 8
D_SEN-_ZYLINDER_
 10
1.2447
 20
-14.5317
 30
37.9821
 70
192
 0
VERTEX
 8
D_SEN-_ZYLINDER_
 10
1.2887
 20
-14.5317
 30
37.9821
 70
192
 0
VERTEX
 8
D_SEN-_ZYLINDER_
 10
1.3148
 20
-14.5032
 30
37.9821
 70
192
 0
VERTEX
 8
D_SEN-_ZYLINDER_
 10
1.3148
 20
-14.4552
 30
37.9821
 70
192
 0
VERTEX
 8
D_SEN-_ZYLINDER_
 10
1.2887
 20
-14.4266
 30
37.9821
 70
192
 0
VERTEX
 8
D_SEN-_ZYLINDER_
 10
1.2447
 20
-14.4266
 30
37.9821
 70
192
 0
VERTEX
 8
D_SEN-_ZYLINDER_
 10
0.5628
 20
-10.1235
 30
37.9584
 70
192
 0
VERTEX
 8
D_SEN-_ZYLINDER_
 10
0.5628
 20
-10.1715
 30
37.9584
 70
192
 0
VERTEX
 8
D_SEN-_ZYLINDER_
 10
0.6068
 20
-10.1715
 30
37.9584
 70
192
 0
VERTEX
 8
D_SEN-_ZYLINDER_
 10
0.6068
 20
-10.1235
 30
37.9584
 70
192
 0
VERTEX
 8
D_SEN-_ZYLINDER_
 10
0.5366
 20
-10.1235
 30
37.9821
 70
192
 0
VERTEX
 8
D_SEN-_ZYLINDER_
 10
0.5366
 20
-10.1715
 30
37.9821
 70
192
 0
VERTEX
 8
D_SEN-_ZYLINDER_
 10
0.5628
 20
-10.2
 30
37.9821
 70
192
 0
VERTEX
 8
D_SEN-_ZYLINDER_
 10
0.6068
 20
-10.2
 30
37.9821
 70
192
 0
VERTEX
 8
D_SEN-_ZYLINDER_
 10
0.6329
 20
-10.1715
 30
37.9821
 70
192
 0
VERTEX
 8
D_SEN-_ZYLINDER_
 10
0.6329
 20
-10.1235
 30
37.9821
 70
192
 0
VERTEX
 8
D_SEN-_ZYLINDER_
 10
0.6068
 20
-10.095
 30
37.9821
 70
192
 0
VERTEX
 8
D_SEN-_ZYLINDER_
 10
0.5628
 20
-10.095
 30
37.9821
 70
192
 0
VERTEX
 8
D_SEN-_ZYLINDER_
 10
0.5628
 20
-10.8318
 30
37.9584
 70
192
 0
VERTEX
 8
D_SEN-_ZYLINDER_
 10
0.5628
 20
-10.8798
 30
37.9584
 70
192
 0
VERTEX
 8
D_SEN-_ZYLINDER_
 10
0.6068
 20
-10.8798
 30
37.9584
 70
192
 0
VERTEX
 8
D_SEN-_ZYLINDER_
 10
0.6068
 20
-10.8318
 30
37.9584
 70
192
 0
VERTEX
 8
D_SEN-_ZYLINDER_
 10
0.5366
 20
-10.8318
 30
37.9821
 70
192
 0
VERTEX
 8
D_SEN-_ZYLINDER_
 10
0.5366
 20
-10.8798
 30
37.9821
 70
192
 0
VERTEX
 8
D_SEN-_ZYLINDER_
 10
0.5628
 20
-10.9084
 30
37.9821
 70
192
 0
VERTEX
 8
D_SEN-_ZYLINDER_
 10
0.6068
 20
-10.9084
 30
37.9821
 70
192
 0
VERTEX
 8
D_SEN-_ZYLINDER_
 10
0.6329
 20
-10.8798
 30
37.9821
 70
192
 0
VERTEX
 8
D_SEN-_ZYLINDER_
 10
0.6329
 20
-10.8318
 30
37.9821
 70
192
 0
VERTEX
 8
D_SEN-_ZYLINDER_
 10
0.6068
 20
-10.8033
 30
37.9821
 70
192
 0
VERTEX
 8
D_SEN-_ZYLINDER_
 10
0.5628
 20
-10.8033
 30
37.9821
 70
192
 0
VERTEX
 8
D_SEN-_ZYLINDER_
 10
0.5628
 20
-11.5674
 30
37.9584
 70
192
 0
VERTEX
 8
D_SEN-_ZYLINDER_
 10
0.5628
 20
-11.6154
 30
37.9584
 70
192
 0
VERTEX
 8
D_SEN-_ZYLINDER_
 10
0.6068
 20
-11.6154
 30
37.9584
 70
192
 0
VERTEX
 8
D_SEN-_ZYLINDER_
 10
0.6068
 20
-11.5674
 30
37.9584
 70
192
 0
VERTEX
 8
D_SEN-_ZYLINDER_
 10
0.5366
 20
-11.5674
 30
37.9821
 70
192
 0
VERTEX
 8
D_SEN-_ZYLINDER_
 10
0.5366
 20
-11.6154
 30
37.9821
 70
192
 0
VERTEX
 8
D_SEN-_ZYLINDER_
 10
0.5628
 20
-11.6439
 30
37.9821
 70
192
 0
VERTEX
 8
D_SEN-_ZYLINDER_
 10
0.6068
 20
-11.6439
 30
37.9821
 70
192
 0
VERTEX
 8
D_SEN-_ZYLINDER_
 10
0.6329
 20
-11.6154
 30
37.9821
 70
192
 0
VERTEX
 8
D_SEN-_ZYLINDER_
 10
0.6329
 20
-11.5674
 30
37.9821
 70
192
 0
VERTEX
 8
D_SEN-_ZYLINDER_
 10
0.6068
 20
-11.5389
 30
37.9821
 70
192
 0
VERTEX
 8
D_SEN-_ZYLINDER_
 10
0.5628
 20
-11.5389
 30
37.9821
 70
192
 0
VERTEX
 8
D_SEN-_ZYLINDER_
 10
0.5628
 20
-12.2893
 30
37.9584
 70
192
 0
VERTEX
 8
D_SEN-_ZYLINDER_
 10
0.5628
 20
-12.3373
 30
37.9584
 70
192
 0
VERTEX
 8
D_SEN-_ZYLINDER_
 10
0.6068
 20
-12.3373
 30
37.9584
 70
192
 0
VERTEX
 8
D_SEN-_ZYLINDER_
 10
0.6068
 20
-12.2893
 30
37.9584
 70
192
 0
VERTEX
 8
D_SEN-_ZYLINDER_
 10
0.5366
 20
-12.2893
 30
37.9821
 70
192
 0
VERTEX
 8
D_SEN-_ZYLINDER_
 10
0.5366
 20
-12.3373
 30
37.9821
 70
192
 0
VERTEX
 8
D_SEN-_ZYLINDER_
 10
0.5628
 20
-12.3659
 30
37.9821
 70
192
 0
VERTEX
 8
D_SEN-_ZYLINDER_
 10
0.6068
 20
-12.3659
 30
37.9821
 70
192
 0
VERTEX
 8
D_SEN-_ZYLINDER_
 10
0.6329
 20
-12.3373
 30
37.9821
 70
192
 0
VERTEX
 8
D_SEN-_ZYLINDER_
 10
0.6276
 20
-12.2835
 30
37.9821
 70
192
 0
VERTEX
 8
D_SEN-_ZYLINDER_
 10
0.5628
 20
-12.2608
 30
37.9821
 70
192
 0
VERTEX
 8
D_SEN-_ZYLINDER_
 10
0.6068
 20
-12.2608
 30
37.9821
 70
192
 0
VERTEX
 8
D_SEN-_ZYLINDER_
 10
-3.4158
 20
-12.2608
 30
37.9821
 70
192
 0
VERTEX
 8
D_SEN-_ZYLINDER_
 10
0.5628
 20
-13.0249
 30
37.9584
 70
192
 0
VERTEX
 8
D_SEN-_ZYLINDER_
 10
0.5628
 20
-13.0729
 30
37.9584
 70
192
 0
VERTEX
 8
D_SEN-_ZYLINDER_
 10
0.6068
 20
-13.0729
 30
37.9584
 70
192
 0
VERTEX
 8
D_SEN-_ZYLINDER_
 10
0.6068
 20
-13.0249
 30
37.9584
 70
192
 0
VERTEX
 8
D_SEN-_ZYLINDER_
 10
0.5366
 20
-13.0729
 30
37.9821
 70
192
 0
VERTEX
 8
D_SEN-_ZYLINDER_
 10
0.5628
 20
-13.1014
 30
37.9821
 70
192
 0
VERTEX
 8
D_SEN-_ZYLINDER_
 10
-3.4158
 20
-13.0249
 30
37.9584
 70
192
 0
VERTEX
 8
D_SEN-_ZYLINDER_
 10
0.6329
 20
-13.0249
 30
37.9821
 70
192
 0
VERTEX
 8
D_SEN-_ZYLINDER_
 10
0.6329
 20
-13.0729
 30
37.9821
 70
192
 0
VERTEX
 8
D_SEN-_ZYLINDER_
 10
0.5628
 20
-12.9964
 30
37.9821
 70
192
 0
VERTEX
 8
D_SEN-_ZYLINDER_
 10
0.6068
 20
-12.9964
 30
37.9821
 70
192
 0
VERTEX
 8
D_SEN-_ZYLINDER_
 10
0.6079
 20
-13.1002
 30
37.9821
 70
192
 0
VERTEX
 8
D_SEN-_ZYLINDER_
 10
0.5409
 20
-13.0203
 30
37.9821
 70
192
 0
VERTEX
 8
D_SEN-_ZYLINDER_
 10
0.5628
 20
-13.7332
 30
37.9584
 70
192
 0
VERTEX
 8
D_SEN-_ZYLINDER_
 10
0.5628
 20
-13.7812
 30
37.9584
 70
192
 0
VERTEX
 8
D_SEN-_ZYLINDER_
 10
0.6068
 20
-13.7812
 30
37.9584
 70
192
 0
VERTEX
 8
D_SEN-_ZYLINDER_
 10
0.6068
 20
-13.7332
 30
37.9584
 70
192
 0
VERTEX
 8
D_SEN-_ZYLINDER_
 10
0.5366
 20
-13.7332
 30
37.9821
 70
192
 0
VERTEX
 8
D_SEN-_ZYLINDER_
 10
0.5366
 20
-13.7812
 30
37.9821
 70
192
 0
VERTEX
 8
D_SEN-_ZYLINDER_
 10
0.5628
 20
-13.8097
 30
37.9821
 70
192
 0
VERTEX
 8
D_SEN-_ZYLINDER_
 10
0.6068
 20
-13.8097
 30
37.9821
 70
192
 0
VERTEX
 8
D_SEN-_ZYLINDER_
 10
0.6329
 20
-13.7812
 30
37.9821
 70
192
 0
VERTEX
 8
D_SEN-_ZYLINDER_
 10
0.6329
 20
-13.7332
 30
37.9821
 70
192
 0
VERTEX
 8
D_SEN-_ZYLINDER_
 10
0.6068
 20
-13.7047
 30
37.9821
 70
192
 0
VERTEX
 8
D_SEN-_ZYLINDER_
 10
0.5628
 20
-13.7047
 30
37.9821
 70
192
 0
VERTEX
 8
D_SEN-_ZYLINDER_
 10
0.5628
 20
-14.4552
 30
37.9584
 70
192
 0
VERTEX
 8
D_SEN-_ZYLINDER_
 10
0.5628
 20
-14.5032
 30
37.9584
 70
192
 0
VERTEX
 8
D_SEN-_ZYLINDER_
 10
0.6068
 20
-14.5032
 30
37.9584
 70
192
 0
VERTEX
 8
D_SEN-_ZYLINDER_
 10
0.6068
 20
-14.4552
 30
37.9584
 70
192
 0
VERTEX
 8
D_SEN-_ZYLINDER_
 10
0.5366
 20
-14.4552
 30
37.9821
 70
192
 0
VERTEX
 8
D_SEN-_ZYLINDER_
 10
0.5366
 20
-14.5032
 30
37.9821
 70
192
 0
VERTEX
 8
D_SEN-_ZYLINDER_
 10
0.5628
 20
-14.5317
 30
37.9821
 70
192
 0
VERTEX
 8
D_SEN-_ZYLINDER_
 10
0.6068
 20
-14.5317
 30
37.9821
 70
192
 0
VERTEX
 8
D_SEN-_ZYLINDER_
 10
0.6329
 20
-14.5032
 30
37.9821
 70
192
 0
VERTEX
 8
D_SEN-_ZYLINDER_
 10
0.6329
 20
-14.4552
 30
37.9821
 70
192
 0
VERTEX
 8
D_SEN-_ZYLINDER_
 10
0.6068
 20
-14.4266
 30
37.9821
 70
192
 0
VERTEX
 8
D_SEN-_ZYLINDER_
 10
0.5628
 20
-14.4266
 30
37.9821
 70
192
 0
VERTEX
 8
D_SEN-_ZYLINDER_
 10
-0.0991
 20
-10.1235
 30
37.9584
 70
192
 0
VERTEX
 8
D_SEN-_ZYLINDER_
 10
-0.0991
 20
-10.1715
 30
37.9584
 70
192
 0
VERTEX
 8
D_SEN-_ZYLINDER_
 10
-0.0551
 20
-10.1715
 30
37.9584
 70
192
 0
VERTEX
 8
D_SEN-_ZYLINDER_
 10
-0.0551
 20
-10.1235
 30
37.9584
 70
192
 0
VERTEX
 8
D_SEN-_ZYLINDER_
 10
-0.1252
 20
-10.1235
 30
37.9821
 70
192
 0
VERTEX
 8
D_SEN-_ZYLINDER_
 10
-0.1252
 20
-10.1715
 30
37.9821
 70
192
 0
VERTEX
 8
D_SEN-_ZYLINDER_
 10
-0.0991
 20
-10.2
 30
37.9821
 70
192
 0
VERTEX
 8
D_SEN-_ZYLINDER_
 10
-0.0551
 20
-10.2
 30
37.9821
 70
192
 0
VERTEX
 8
D_SEN-_ZYLINDER_
 10
-0.0289
 20
-10.1715
 30
37.9821
 70
192
 0
VERTEX
 8
D_SEN-_ZYLINDER_
 10
-0.0289
 20
-10.1235
 30
37.9821
 70
192
 0
VERTEX
 8
D_SEN-_ZYLINDER_
 10
-0.0551
 20
-10.095
 30
37.9821
 70
192
 0
VERTEX
 8
D_SEN-_ZYLINDER_
 10
-0.0991
 20
-10.095
 30
37.9821
 70
192
 0
VERTEX
 8
D_SEN-_ZYLINDER_
 10
-0.0991
 20
-10.8318
 30
37.9584
 70
192
 0
VERTEX
 8
D_SEN-_ZYLINDER_
 10
-0.0991
 20
-10.8798
 30
37.9584
 70
192
 0
VERTEX
 8
D_SEN-_ZYLINDER_
 10
-0.0551
 20
-10.8798
 30
37.9584
 70
192
 0
VERTEX
 8
D_SEN-_ZYLINDER_
 10
-0.0551
 20
-10.8318
 30
37.9584
 70
192
 0
VERTEX
 8
D_SEN-_ZYLINDER_
 10
-0.1252
 20
-10.8318
 30
37.9821
 70
192
 0
VERTEX
 8
D_SEN-_ZYLINDER_
 10
-0.1252
 20
-10.8798
 30
37.9821
 70
192
 0
VERTEX
 8
D_SEN-_ZYLINDER_
 10
-0.0991
 20
-10.9084
 30
37.9821
 70
192
 0
VERTEX
 8
D_SEN-_ZYLINDER_
 10
-0.0551
 20
-10.9084
 30
37.9821
 70
192
 0
VERTEX
 8
D_SEN-_ZYLINDER_
 10
-0.0289
 20
-10.8798
 30
37.9821
 70
192
 0
VERTEX
 8
D_SEN-_ZYLINDER_
 10
-0.0289
 20
-10.8318
 30
37.9821
 70
192
 0
VERTEX
 8
D_SEN-_ZYLINDER_
 10
-0.0551
 20
-10.8033
 30
37.9821
 70
192
 0
VERTEX
 8
D_SEN-_ZYLINDER_
 10
-0.0991
 20
-10.8033
 30
37.9821
 70
192
 0
VERTEX
 8
D_SEN-_ZYLINDER_
 10
-0.0991
 20
-11.5674
 30
37.9584
 70
192
 0
VERTEX
 8
D_SEN-_ZYLINDER_
 10
-0.0991
 20
-11.6154
 30
37.9584
 70
192
 0
VERTEX
 8
D_SEN-_ZYLINDER_
 10
-0.0551
 20
-11.6154
 30
37.9584
 70
192
 0
VERTEX
 8
D_SEN-_ZYLINDER_
 10
-0.0551
 20
-11.5674
 30
37.9584
 70
192
 0
VERTEX
 8
D_SEN-_ZYLINDER_
 10
-0.1252
 20
-11.5674
 30
37.9821
 70
192
 0
VERTEX
 8
D_SEN-_ZYLINDER_
 10
-0.1252
 20
-11.6154
 30
37.9821
 70
192
 0
VERTEX
 8
D_SEN-_ZYLINDER_
 10
-0.0991
 20
-11.6439
 30
37.9821
 70
192
 0
VERTEX
 8
D_SEN-_ZYLINDER_
 10
-0.0551
 20
-11.6439
 30
37.9821
 70
192
 0
VERTEX
 8
D_SEN-_ZYLINDER_
 10
-0.0289
 20
-11.6154
 30
37.9821
 70
192
 0
VERTEX
 8
D_SEN-_ZYLINDER_
 10
-0.0289
 20
-11.5674
 30
37.9821
 70
192
 0
VERTEX
 8
D_SEN-_ZYLINDER_
 10
-0.0551
 20
-11.5389
 30
37.9821
 70
192
 0
VERTEX
 8
D_SEN-_ZYLINDER_
 10
-0.0991
 20
-11.5389
 30
37.9821
 70
192
 0
VERTEX
 8
D_SEN-_ZYLINDER_
 10
-0.0991
 20
-12.2893
 30
37.9584
 70
192
 0
VERTEX
 8
D_SEN-_ZYLINDER_
 10
-0.0991
 20
-12.3373
 30
37.9584
 70
192
 0
VERTEX
 8
D_SEN-_ZYLINDER_
 10
-0.0551
 20
-12.3373
 30
37.9584
 70
192
 0
VERTEX
 8
D_SEN-_ZYLINDER_
 10
-0.0551
 20
-12.2893
 30
37.9584
 70
192
 0
VERTEX
 8
D_SEN-_ZYLINDER_
 10
-0.1042
 20
-12.2664
 30
37.9821
 70
192
 0
VERTEX
 8
D_SEN-_ZYLINDER_
 10
-0.0551
 20
-12.3659
 30
37.9821
 70
192
 0
VERTEX
 8
D_SEN-_ZYLINDER_
 10
-3.4158
 20
-13.0729
 30
37.9584
 70
192
 0
VERTEX
 8
D_SEN-_ZYLINDER_
 10
-0.1252
 20
-12.3373
 30
37.9821
 70
192
 0
VERTEX
 8
D_SEN-_ZYLINDER_
 10
-3.3718
 20
-13.0729
 30
37.9584
 70
192
 0
VERTEX
 8
D_SEN-_ZYLINDER_
 10
-3.3718
 20
-13.0249
 30
37.9584
 70
192
 0
VERTEX
 8
D_SEN-_ZYLINDER_
 10
-0.1252
 20
-12.2985
 30
37.9821
 70
192
 0
VERTEX
 8
D_SEN-_ZYLINDER_
 10
-0.112
 20
-12.3518
 30
37.9821
 70
192
 0
VERTEX
 8
D_SEN-_ZYLINDER_
 10
-0.0662
 20
-12.3659
 30
37.9821
 70
192
 0
VERTEX
 8
D_SEN-_ZYLINDER_
 10
-0.1252
 20
-12.318
 30
37.9821
 70
192
 0
VERTEX
 8
D_SEN-_ZYLINDER_
 10
-3.4419
 20
-13.0249
 30
37.9821
 70
192
 0
VERTEX
 8
D_SEN-_ZYLINDER_
 10
-0.1005
 20
-12.3643
 30
37.9821
 70
192
 0
VERTEX
 8
D_SEN-_ZYLINDER_
 10
-0.0807
 20
-12.3659
 30
37.9821
 70
192
 0
VERTEX
 8
D_SEN-_ZYLINDER_
 10
-3.4419
 20
-13.0729
 30
37.9821
 70
192
 0
VERTEX
 8
D_SEN-_ZYLINDER_
 10
-0.0445
 20
-12.3543
 30
37.9821
 70
192
 0
VERTEX
 8
D_SEN-_ZYLINDER_
 10
-3.4158
 20
-13.1014
 30
37.9821
 70
192
 0
VERTEX
 8
D_SEN-_ZYLINDER_
 10
-0.0342
 20
-12.3431
 30
37.9821
 70
192
 0
VERTEX
 8
D_SEN-_ZYLINDER_
 10
-3.3718
 20
-13.1014
 30
37.9821
 70
192
 0
VERTEX
 8
D_SEN-_ZYLINDER_
 10
-0.0289
 20
-12.3137
 30
37.9821
 70
192
 0
VERTEX
 8
D_SEN-_ZYLINDER_
 10
-3.3456
 20
-13.0729
 30
37.9821
 70
192
 0
VERTEX
 8
D_SEN-_ZYLINDER_
 10
-0.0289
 20
-12.299
 30
37.9821
 70
192
 0
VERTEX
 8
D_SEN-_ZYLINDER_
 10
-0.0314
 20
-12.2867
 30
37.9821
 70
192
 0
VERTEX
 8
D_SEN-_ZYLINDER_
 10
-0.0393
 20
-12.278
 30
37.9821
 70
192
 0
VERTEX
 8
D_SEN-_ZYLINDER_
 10
-0.0512
 20
-12.265
 30
37.9821
 70
192
 0
VERTEX
 8
D_SEN-_ZYLINDER_
 10
-0.067
 20
-12.2608
 30
37.9821
 70
192
 0
VERTEX
 8
D_SEN-_ZYLINDER_
 10
-0.0852
 20
-12.2608
 30
37.9821
 70
192
 0
VERTEX
 8
D_SEN-_ZYLINDER_
 10
-0.1173
 20
-12.2807
 30
37.9821
 70
192
 0
VERTEX
 8
D_SEN-_ZYLINDER_
 10
-0.0991
 20
-13.0249
 30
37.9584
 70
192
 0
VERTEX
 8
D_SEN-_ZYLINDER_
 10
-0.0991
 20
-13.0729
 30
37.9584
 70
192
 0
VERTEX
 8
D_SEN-_ZYLINDER_
 10
-0.0551
 20
-13.0729
 30
37.9584
 70
192
 0
VERTEX
 8
D_SEN-_ZYLINDER_
 10
-0.0551
 20
-13.0249
 30
37.9584
 70
192
 0
VERTEX
 8
D_SEN-_ZYLINDER_
 10
-0.1252
 20
-13.0249
 30
37.9821
 70
192
 0
VERTEX
 8
D_SEN-_ZYLINDER_
 10
-0.1252
 20
-13.0729
 30
37.9821
 70
192
 0
VERTEX
 8
D_SEN-_ZYLINDER_
 10
-0.0991
 20
-13.1014
 30
37.9821
 70
192
 0
VERTEX
 8
D_SEN-_ZYLINDER_
 10
-0.0551
 20
-13.1014
 30
37.9821
 70
192
 0
VERTEX
 8
D_SEN-_ZYLINDER_
 10
-0.0289
 20
-13.0729
 30
37.9821
 70
192
 0
VERTEX
 8
D_SEN-_ZYLINDER_
 10
-0.0991
 20
-12.9964
 30
37.9821
 70
192
 0
VERTEX
 8
D_SEN-_ZYLINDER_
 10
-0.0289
 20
-13.0249
 30
37.9821
 70
192
 0
VERTEX
 8
D_SEN-_ZYLINDER_
 10
-0.0551
 20
-12.9964
 30
37.9821
 70
192
 0
VERTEX
 8
D_SEN-_ZYLINDER_
 10
-0.0445
 20
-13.0899
 30
37.9821
 70
192
 0
VERTEX
 8
D_SEN-_ZYLINDER_
 10
-0.0445
 20
-13.0079
 30
37.9821
 70
192
 0
VERTEX
 8
D_SEN-_ZYLINDER_
 10
-0.0991
 20
-13.7332
 30
37.9584
 70
192
 0
VERTEX
 8
D_SEN-_ZYLINDER_
 10
-0.0991
 20
-13.7812
 30
37.9584
 70
192
 0
VERTEX
 8
D_SEN-_ZYLINDER_
 10
-0.0551
 20
-13.7812
 30
37.9584
 70
192
 0
VERTEX
 8
D_SEN-_ZYLINDER_
 10
-0.0551
 20
-13.7332
 30
37.9584
 70
192
 0
VERTEX
 8
D_SEN-_ZYLINDER_
 10
-0.1252
 20
-13.7332
 30
37.9821
 70
192
 0
VERTEX
 8
D_SEN-_ZYLINDER_
 10
-0.1252
 20
-13.7812
 30
37.9821
 70
192
 0
VERTEX
 8
D_SEN-_ZYLINDER_
 10
-0.0991
 20
-13.8097
 30
37.9821
 70
192
 0
VERTEX
 8
D_SEN-_ZYLINDER_
 10
-0.0551
 20
-13.8097
 30
37.9821
 70
192
 0
VERTEX
 8
D_SEN-_ZYLINDER_
 10
-0.0289
 20
-13.7812
 30
37.9821
 70
192
 0
VERTEX
 8
D_SEN-_ZYLINDER_
 10
-0.0991
 20
-13.7047
 30
37.9821
 70
192
 0
VERTEX
 8
D_SEN-_ZYLINDER_
 10
-0.0289
 20
-13.7332
 30
37.9821
 70
192
 0
VERTEX
 8
D_SEN-_ZYLINDER_
 10
-0.0551
 20
-13.7047
 30
37.9821
 70
192
 0
VERTEX
 8
D_SEN-_ZYLINDER_
 10
-0.0445
 20
-13.7982
 30
37.9821
 70
192
 0
VERTEX
 8
D_SEN-_ZYLINDER_
 10
-0.0445
 20
-13.7162
 30
37.9821
 70
192
 0
VERTEX
 8
D_SEN-_ZYLINDER_
 10
-0.0991
 20
-14.4552
 30
37.9584
 70
192
 0
VERTEX
 8
D_SEN-_ZYLINDER_
 10
-0.0991
 20
-14.5032
 30
37.9584
 70
192
 0
VERTEX
 8
D_SEN-_ZYLINDER_
 10
-0.0551
 20
-14.5032
 30
37.9584
 70
192
 0
VERTEX
 8
D_SEN-_ZYLINDER_
 10
-0.0551
 20
-14.4552
 30
37.9584
 70
192
 0
VERTEX
 8
D_SEN-_ZYLINDER_
 10
-0.1252
 20
-14.4552
 30
37.9821
 70
192
 0
VERTEX
 8
D_SEN-_ZYLINDER_
 10
-0.1252
 20
-14.5032
 30
37.9821
 70
192
 0
VERTEX
 8
D_SEN-_ZYLINDER_
 10
-0.0991
 20
-14.5317
 30
37.9821
 70
192
 0
VERTEX
 8
D_SEN-_ZYLINDER_
 10
-0.0551
 20
-14.5317
 30
37.9821
 70
192
 0
VERTEX
 8
D_SEN-_ZYLINDER_
 10
-0.0289
 20
-14.5032
 30
37.9821
 70
192
 0
VERTEX
 8
D_SEN-_ZYLINDER_
 10
-0.0991
 20
-14.4266
 30
37.9821
 70
192
 0
VERTEX
 8
D_SEN-_ZYLINDER_
 10
-0.0289
 20
-14.4552
 30
37.9821
 70
192
 0
VERTEX
 8
D_SEN-_ZYLINDER_
 10
-0.0551
 20
-14.4266
 30
37.9821
 70
192
 0
VERTEX
 8
D_SEN-_ZYLINDER_
 10
-0.0445
 20
-14.5201
 30
37.9821
 70
192
 0
VERTEX
 8
D_SEN-_ZYLINDER_
 10
-0.0445
 20
-14.4382
 30
37.9821
 70
192
 0
VERTEX
 8
D_SEN-_ZYLINDER_
 10
-0.7722
 20
-10.1235
 30
37.9584
 70
192
 0
VERTEX
 8
D_SEN-_ZYLINDER_
 10
-0.7722
 20
-10.1715
 30
37.9584
 70
192
 0
VERTEX
 8
D_SEN-_ZYLINDER_
 10
-0.7282
 20
-10.1715
 30
37.9584
 70
192
 0
VERTEX
 8
D_SEN-_ZYLINDER_
 10
-0.7282
 20
-10.1235
 30
37.9584
 70
192
 0
VERTEX
 8
D_SEN-_ZYLINDER_
 10
-0.7983
 20
-10.1235
 30
37.9821
 70
192
 0
VERTEX
 8
D_SEN-_ZYLINDER_
 10
-0.7983
 20
-10.1715
 30
37.9821
 70
192
 0
VERTEX
 8
D_SEN-_ZYLINDER_
 10
-0.7722
 20
-10.2
 30
37.9821
 70
192
 0
VERTEX
 8
D_SEN-_ZYLINDER_
 10
-0.7282
 20
-10.2
 30
37.9821
 70
192
 0
VERTEX
 8
D_SEN-_ZYLINDER_
 10
-0.702
 20
-10.1715
 30
37.9821
 70
192
 0
VERTEX
 8
D_SEN-_ZYLINDER_
 10
-0.702
 20
-10.1235
 30
37.9821
 70
192
 0
VERTEX
 8
D_SEN-_ZYLINDER_
 10
-0.7282
 20
-10.095
 30
37.9821
 70
192
 0
VERTEX
 8
D_SEN-_ZYLINDER_
 10
-0.7722
 20
-10.095
 30
37.9821
 70
192
 0
VERTEX
 8
D_SEN-_ZYLINDER_
 10
-0.7722
 20
-10.8318
 30
37.9584
 70
192
 0
VERTEX
 8
D_SEN-_ZYLINDER_
 10
-0.7722
 20
-10.8798
 30
37.9584
 70
192
 0
VERTEX
 8
D_SEN-_ZYLINDER_
 10
-0.7282
 20
-10.8798
 30
37.9584
 70
192
 0
VERTEX
 8
D_SEN-_ZYLINDER_
 10
-0.7282
 20
-10.8318
 30
37.9584
 70
192
 0
VERTEX
 8
D_SEN-_ZYLINDER_
 10
-0.7983
 20
-10.8318
 30
37.9821
 70
192
 0
VERTEX
 8
D_SEN-_ZYLINDER_
 10
-0.7983
 20
-10.8798
 30
37.9821
 70
192
 0
VERTEX
 8
D_SEN-_ZYLINDER_
 10
-0.7722
 20
-10.9084
 30
37.9821
 70
192
 0
VERTEX
 8
D_SEN-_ZYLINDER_
 10
-0.7282
 20
-10.9084
 30
37.9821
 70
192
 0
VERTEX
 8
D_SEN-_ZYLINDER_
 10
-0.702
 20
-10.8798
 30
37.9821
 70
192
 0
VERTEX
 8
D_SEN-_ZYLINDER_
 10
-0.702
 20
-10.8318
 30
37.9821
 70
192
 0
VERTEX
 8
D_SEN-_ZYLINDER_
 10
-0.7282
 20
-10.8033
 30
37.9821
 70
192
 0
VERTEX
 8
D_SEN-_ZYLINDER_
 10
-0.7722
 20
-10.8033
 30
37.9821
 70
192
 0
VERTEX
 8
D_SEN-_ZYLINDER_
 10
-0.7722
 20
-11.5674
 30
37.9584
 70
192
 0
VERTEX
 8
D_SEN-_ZYLINDER_
 10
-0.7722
 20
-11.6154
 30
37.9584
 70
192
 0
VERTEX
 8
D_SEN-_ZYLINDER_
 10
-0.7282
 20
-11.6154
 30
37.9584
 70
192
 0
VERTEX
 8
D_SEN-_ZYLINDER_
 10
-0.7282
 20
-11.5674
 30
37.9584
 70
192
 0
VERTEX
 8
D_SEN-_ZYLINDER_
 10
-0.7983
 20
-11.5674
 30
37.9821
 70
192
 0
VERTEX
 8
D_SEN-_ZYLINDER_
 10
-3.3456
 20
-13.0249
 30
37.9821
 70
192
 0
VERTEX
 8
D_SEN-_ZYLINDER_
 10
-0.7282
 20
-11.6439
 30
37.9821
 70
192
 0
VERTEX
 8
D_SEN-_ZYLINDER_
 10
-0.7639
 20
-11.6439
 30
37.9821
 70
192
 0
VERTEX
 8
D_SEN-_ZYLINDER_
 10
-0.702
 20
-11.5674
 30
37.9821
 70
192
 0
VERTEX
 8
D_SEN-_ZYLINDER_
 10
-0.702
 20
-11.6154
 30
37.9821
 70
192
 0
VERTEX
 8
D_SEN-_ZYLINDER_
 10
-0.7722
 20
-11.5389
 30
37.9821
 70
192
 0
VERTEX
 8
D_SEN-_ZYLINDER_
 10
-0.7282
 20
-11.5389
 30
37.9821
 70
192
 0
VERTEX
 8
D_SEN-_ZYLINDER_
 10
-0.7983
 20
-11.6115
 30
37.9821
 70
192
 0
VERTEX
 8
D_SEN-_ZYLINDER_
 10
-0.7722
 20
-12.2893
 30
37.9584
 70
192
 0
VERTEX
 8
D_SEN-_ZYLINDER_
 10
-0.7722
 20
-12.3373
 30
37.9584
 70
192
 0
VERTEX
 8
D_SEN-_ZYLINDER_
 10
-0.7282
 20
-12.3373
 30
37.9584
 70
192
 0
VERTEX
 8
D_SEN-_ZYLINDER_
 10
-0.7282
 20
-12.2893
 30
37.9584
 70
192
 0
VERTEX
 8
D_SEN-_ZYLINDER_
 10
-0.7983
 20
-12.2893
 30
37.9821
 70
192
 0
VERTEX
 8
D_SEN-_ZYLINDER_
 10
-0.7983
 20
-12.3373
 30
37.9821
 70
192
 0
VERTEX
 8
D_SEN-_ZYLINDER_
 10
-0.7722
 20
-12.3659
 30
37.9821
 70
192
 0
VERTEX
 8
D_SEN-_ZYLINDER_
 10
-0.7282
 20
-12.3659
 30
37.9821
 70
192
 0
VERTEX
 8
D_SEN-_ZYLINDER_
 10
-0.702
 20
-12.3373
 30
37.9821
 70
192
 0
VERTEX
 8
D_SEN-_ZYLINDER_
 10
-0.7282
 20
-12.2608
 30
37.9821
 70
192
 0
VERTEX
 8
D_SEN-_ZYLINDER_
 10
-0.7722
 20
-12.2608
 30
37.9821
 70
192
 0
VERTEX
 8
D_SEN-_ZYLINDER_
 10
-0.7891
 20
-12.2793
 30
37.9821
 70
192
 0
VERTEX
 8
D_SEN-_ZYLINDER_
 10
-0.7068
 20
-12.2841
 30
37.9821
 70
192
 0
VERTEX
 8
D_SEN-_ZYLINDER_
 10
-0.7722
 20
-13.0249
 30
37.9584
 70
192
 0
VERTEX
 8
D_SEN-_ZYLINDER_
 10
-0.7722
 20
-13.0729
 30
37.9584
 70
192
 0
VERTEX
 8
D_SEN-_ZYLINDER_
 10
-0.7282
 20
-13.0729
 30
37.9584
 70
192
 0
VERTEX
 8
D_SEN-_ZYLINDER_
 10
-0.7282
 20
-13.0249
 30
37.9584
 70
192
 0
VERTEX
 8
D_SEN-_ZYLINDER_
 10
-0.7983
 20
-13.0249
 30
37.9821
 70
192
 0
VERTEX
 8
D_SEN-_ZYLINDER_
 10
-0.7983
 20
-13.0729
 30
37.9821
 70
192
 0
VERTEX
 8
D_SEN-_ZYLINDER_
 10
-0.7722
 20
-13.1014
 30
37.9821
 70
192
 0
VERTEX
 8
D_SEN-_ZYLINDER_
 10
-0.7282
 20
-13.1014
 30
37.9821
 70
192
 0
VERTEX
 8
D_SEN-_ZYLINDER_
 10
-0.702
 20
-13.0729
 30
37.9821
 70
192
 0
VERTEX
 8
D_SEN-_ZYLINDER_
 10
-0.702
 20
-13.0249
 30
37.9821
 70
192
 0
VERTEX
 8
D_SEN-_ZYLINDER_
 10
-0.7282
 20
-12.9964
 30
37.9821
 70
192
 0
VERTEX
 8
D_SEN-_ZYLINDER_
 10
-0.7722
 20
-12.9964
 30
37.9821
 70
192
 0
VERTEX
 8
D_SEN-_ZYLINDER_
 10
-0.7722
 20
-13.7332
 30
37.9584
 70
192
 0
VERTEX
 8
D_SEN-_ZYLINDER_
 10
-0.7722
 20
-13.7812
 30
37.9584
 70
192
 0
VERTEX
 8
D_SEN-_ZYLINDER_
 10
-0.7282
 20
-13.7812
 30
37.9584
 70
192
 0
VERTEX
 8
D_SEN-_ZYLINDER_
 10
-0.7282
 20
-13.7332
 30
37.9584
 70
192
 0
VERTEX
 8
D_SEN-_ZYLINDER_
 10
-0.7983
 20
-13.7332
 30
37.9821
 70
192
 0
VERTEX
 8
D_SEN-_ZYLINDER_
 10
-0.7983
 20
-13.7812
 30
37.9821
 70
192
 0
VERTEX
 8
D_SEN-_ZYLINDER_
 10
-0.7722
 20
-13.8097
 30
37.9821
 70
192
 0
VERTEX
 8
D_SEN-_ZYLINDER_
 10
-0.702
 20
-13.7812
 30
37.9821
 70
192
 0
VERTEX
 8
D_SEN-_ZYLINDER_
 10
-0.7282
 20
-13.8097
 30
37.9821
 70
192
 0
VERTEX
 8
D_SEN-_ZYLINDER_
 10
-0.7282
 20
-13.7047
 30
37.9821
 70
192
 0
VERTEX
 8
D_SEN-_ZYLINDER_
 10
-0.702
 20
-13.7332
 30
37.9821
 70
192
 0
VERTEX
 8
D_SEN-_ZYLINDER_
 10
-0.7722
 20
-13.7047
 30
37.9821
 70
192
 0
VERTEX
 8
D_SEN-_ZYLINDER_
 10
-0.7845
 20
-13.7962
 30
37.9821
 70
192
 0
VERTEX
 8
D_SEN-_ZYLINDER_
 10
-0.7386
 20
-13.7047
 30
37.9821
 70
192
 0
VERTEX
 8
D_SEN-_ZYLINDER_
 10
-0.7722
 20
-14.4552
 30
37.9584
 70
192
 0
VERTEX
 8
D_SEN-_ZYLINDER_
 10
-0.7722
 20
-14.5032
 30
37.9584
 70
192
 0
VERTEX
 8
D_SEN-_ZYLINDER_
 10
-0.7282
 20
-14.5032
 30
37.9584
 70
192
 0
VERTEX
 8
D_SEN-_ZYLINDER_
 10
-0.7282
 20
-14.4552
 30
37.9584
 70
192
 0
VERTEX
 8
D_SEN-_ZYLINDER_
 10
-0.7983
 20
-14.4552
 30
37.9821
 70
192
 0
VERTEX
 8
D_SEN-_ZYLINDER_
 10
-0.7983
 20
-14.5032
 30
37.9821
 70
192
 0
VERTEX
 8
D_SEN-_ZYLINDER_
 10
-0.7722
 20
-14.5317
 30
37.9821
 70
192
 0
VERTEX
 8
D_SEN-_ZYLINDER_
 10
-0.7282
 20
-14.5317
 30
37.9821
 70
192
 0
VERTEX
 8
D_SEN-_ZYLINDER_
 10
-0.702
 20
-14.5032
 30
37.9821
 70
192
 0
VERTEX
 8
D_SEN-_ZYLINDER_
 10
-0.702
 20
-14.4552
 30
37.9821
 70
192
 0
VERTEX
 8
D_SEN-_ZYLINDER_
 10
-0.7282
 20
-14.4266
 30
37.9821
 70
192
 0
VERTEX
 8
D_SEN-_ZYLINDER_
 10
-0.7722
 20
-14.4266
 30
37.9821
 70
192
 0
VERTEX
 8
D_SEN-_ZYLINDER_
 10
-1.4453
 20
-10.1235
 30
37.9584
 70
192
 0
VERTEX
 8
D_SEN-_ZYLINDER_
 10
-1.4453
 20
-10.1715
 30
37.9584
 70
192
 0
VERTEX
 8
D_SEN-_ZYLINDER_
 10
-1.4013
 20
-10.1715
 30
37.9584
 70
192
 0
VERTEX
 8
D_SEN-_ZYLINDER_
 10
-1.4013
 20
-10.1235
 30
37.9584
 70
192
 0
VERTEX
 8
D_SEN-_ZYLINDER_
 10
-1.4714
 20
-10.1235
 30
37.9821
 70
192
 0
VERTEX
 8
D_SEN-_ZYLINDER_
 10
-1.4714
 20
-10.1715
 30
37.9821
 70
192
 0
VERTEX
 8
D_SEN-_ZYLINDER_
 10
-1.4013
 20
-10.2
 30
37.9821
 70
192
 0
VERTEX
 8
D_SEN-_ZYLINDER_
 10
-1.4406
 20
-10.2
 30
37.9821
 70
192
 0
VERTEX
 8
D_SEN-_ZYLINDER_
 10
-1.3751
 20
-10.1235
 30
37.9821
 70
192
 0
VERTEX
 8
D_SEN-_ZYLINDER_
 10
-1.3751
 20
-10.1715
 30
37.9821
 70
192
 0
VERTEX
 8
D_SEN-_ZYLINDER_
 10
-1.4453
 20
-10.095
 30
37.9821
 70
192
 0
VERTEX
 8
D_SEN-_ZYLINDER_
 10
-1.4013
 20
-10.095
 30
37.9821
 70
192
 0
VERTEX
 8
D_SEN-_ZYLINDER_
 10
-1.4714
 20
-10.1531
 30
37.9821
 70
192
 0
VERTEX
 8
D_SEN-_ZYLINDER_
 10
-1.4453
 20
-10.8318
 30
37.9584
 70
192
 0
VERTEX
 8
D_SEN-_ZYLINDER_
 10
-1.4453
 20
-10.8798
 30
37.9584
 70
192
 0
VERTEX
 8
D_SEN-_ZYLINDER_
 10
-1.4013
 20
-10.8798
 30
37.9584
 70
192
 0
VERTEX
 8
D_SEN-_ZYLINDER_
 10
-1.4013
 20
-10.8318
 30
37.9584
 70
192
 0
VERTEX
 8
D_SEN-_ZYLINDER_
 10
-1.4714
 20
-10.8318
 30
37.9821
 70
192
 0
VERTEX
 8
D_SEN-_ZYLINDER_
 10
-1.4714
 20
-10.8798
 30
37.9821
 70
192
 0
VERTEX
 8
D_SEN-_ZYLINDER_
 10
-1.4453
 20
-10.9084
 30
37.9821
 70
192
 0
VERTEX
 8
D_SEN-_ZYLINDER_
 10
-1.4013
 20
-10.9084
 30
37.9821
 70
192
 0
VERTEX
 8
D_SEN-_ZYLINDER_
 10
-1.3751
 20
-10.8798
 30
37.9821
 70
192
 0
VERTEX
 8
D_SEN-_ZYLINDER_
 10
-1.3751
 20
-10.8318
 30
37.9821
 70
192
 0
VERTEX
 8
D_SEN-_ZYLINDER_
 10
-1.4013
 20
-10.8033
 30
37.9821
 70
192
 0
VERTEX
 8
D_SEN-_ZYLINDER_
 10
-1.4453
 20
-10.8033
 30
37.9821
 70
192
 0
VERTEX
 8
D_SEN-_ZYLINDER_
 10
-1.4453
 20
-11.5674
 30
37.9584
 70
192
 0
VERTEX
 8
D_SEN-_ZYLINDER_
 10
-1.4453
 20
-11.6154
 30
37.9584
 70
192
 0
VERTEX
 8
D_SEN-_ZYLINDER_
 10
-1.4013
 20
-11.6154
 30
37.9584
 70
192
 0
VERTEX
 8
D_SEN-_ZYLINDER_
 10
-1.4013
 20
-11.5674
 30
37.9584
 70
192
 0
VERTEX
 8
D_SEN-_ZYLINDER_
 10
-1.4714
 20
-11.5674
 30
37.9821
 70
192
 0
VERTEX
 8
D_SEN-_ZYLINDER_
 10
-1.4714
 20
-11.6154
 30
37.9821
 70
192
 0
VERTEX
 8
D_SEN-_ZYLINDER_
 10
-1.4453
 20
-11.6439
 30
37.9821
 70
192
 0
VERTEX
 8
D_SEN-_ZYLINDER_
 10
-1.4013
 20
-11.6439
 30
37.9821
 70
192
 0
VERTEX
 8
D_SEN-_ZYLINDER_
 10
-1.3751
 20
-11.6154
 30
37.9821
 70
192
 0
VERTEX
 8
D_SEN-_ZYLINDER_
 10
-1.3751
 20
-11.5674
 30
37.9821
 70
192
 0
VERTEX
 8
D_SEN-_ZYLINDER_
 10
-3.3718
 20
-12.9964
 30
37.9821
 70
192
 0
VERTEX
 8
D_SEN-_ZYLINDER_
 10
-1.4453
 20
-11.5389
 30
37.9821
 70
192
 0
VERTEX
 8
D_SEN-_ZYLINDER_
 10
-3.4158
 20
-12.9964
 30
37.9821
 70
192
 0
VERTEX
 8
D_SEN-_ZYLINDER_
 10
-1.4021
 20
-11.5389
 30
37.9821
 70
192
 0
VERTEX
 8
D_SEN-_ZYLINDER_
 10
-1.4453
 20
-12.2893
 30
37.9584
 70
192
 0
VERTEX
 8
D_SEN-_ZYLINDER_
 10
-1.4453
 20
-12.3373
 30
37.9584
 70
192
 0
VERTEX
 8
D_SEN-_ZYLINDER_
 10
-1.4013
 20
-12.3373
 30
37.9584
 70
192
 0
VERTEX
 8
D_SEN-_ZYLINDER_
 10
-1.4013
 20
-12.2893
 30
37.9584
 70
192
 0
VERTEX
 8
D_SEN-_ZYLINDER_
 10
-1.4714
 20
-12.2893
 30
37.9821
 70
192
 0
VERTEX
 8
D_SEN-_ZYLINDER_
 10
-1.4714
 20
-12.3373
 30
37.9821
 70
192
 0
VERTEX
 8
D_SEN-_ZYLINDER_
 10
-1.4453
 20
-12.3659
 30
37.9821
 70
192
 0
VERTEX
 8
D_SEN-_ZYLINDER_
 10
-1.4013
 20
-12.3659
 30
37.9821
 70
192
 0
VERTEX
 8
D_SEN-_ZYLINDER_
 10
-1.3751
 20
-12.3373
 30
37.9821
 70
192
 0
VERTEX
 8
D_SEN-_ZYLINDER_
 10
-1.3751
 20
-12.2893
 30
37.9821
 70
192
 0
VERTEX
 8
D_SEN-_ZYLINDER_
 10
-1.4013
 20
-12.2608
 30
37.9821
 70
192
 0
VERTEX
 8
D_SEN-_ZYLINDER_
 10
-1.4453
 20
-12.2608
 30
37.9821
 70
192
 0
VERTEX
 8
D_SEN-_ZYLINDER_
 10
-1.4453
 20
-13.0249
 30
37.9584
 70
192
 0
VERTEX
 8
D_SEN-_ZYLINDER_
 10
-1.4453
 20
-13.0729
 30
37.9584
 70
192
 0
VERTEX
 8
D_SEN-_ZYLINDER_
 10
-1.4013
 20
-13.0729
 30
37.9584
 70
192
 0
VERTEX
 8
D_SEN-_ZYLINDER_
 10
-1.4013
 20
-13.0249
 30
37.9584
 70
192
 0
VERTEX
 8
D_SEN-_ZYLINDER_
 10
-1.4714
 20
-13.0249
 30
37.9821
 70
192
 0
VERTEX
 8
D_SEN-_ZYLINDER_
 10
-1.4714
 20
-13.0729
 30
37.9821
 70
192
 0
VERTEX
 8
D_SEN-_ZYLINDER_
 10
-1.4453
 20
-13.1014
 30
37.9821
 70
192
 0
VERTEX
 8
D_SEN-_ZYLINDER_
 10
-1.4013
 20
-13.1014
 30
37.9821
 70
192
 0
VERTEX
 8
D_SEN-_ZYLINDER_
 10
-1.3751
 20
-13.0729
 30
37.9821
 70
192
 0
VERTEX
 8
D_SEN-_ZYLINDER_
 10
-1.3751
 20
-13.0249
 30
37.9821
 70
192
 0
VERTEX
 8
D_SEN-_ZYLINDER_
 10
-1.4013
 20
-12.9964
 30
37.9821
 70
192
 0
VERTEX
 8
D_SEN-_ZYLINDER_
 10
-1.4453
 20
-12.9964
 30
37.9821
 70
192
 0
VERTEX
 8
D_SEN-_ZYLINDER_
 10
-1.4453
 20
-13.7332
 30
37.9584
 70
192
 0
VERTEX
 8
D_SEN-_ZYLINDER_
 10
-1.4453
 20
-13.7812
 30
37.9584
 70
192
 0
VERTEX
 8
D_SEN-_ZYLINDER_
 10
-1.4013
 20
-13.7812
 30
37.9584
 70
192
 0
VERTEX
 8
D_SEN-_ZYLINDER_
 10
-1.4013
 20
-13.7332
 30
37.9584
 70
192
 0
VERTEX
 8
D_SEN-_ZYLINDER_
 10
-1.4714
 20
-13.7332
 30
37.9821
 70
192
 0
VERTEX
 8
D_SEN-_ZYLINDER_
 10
-1.4714
 20
-13.7812
 30
37.9821
 70
192
 0
VERTEX
 8
D_SEN-_ZYLINDER_
 10
-1.4453
 20
-13.8097
 30
37.9821
 70
192
 0
VERTEX
 8
D_SEN-_ZYLINDER_
 10
-1.4013
 20
-13.8097
 30
37.9821
 70
192
 0
VERTEX
 8
D_SEN-_ZYLINDER_
 10
-1.3751
 20
-13.7812
 30
37.9821
 70
192
 0
VERTEX
 8
D_SEN-_ZYLINDER_
 10
-1.3751
 20
-13.7332
 30
37.9821
 70
192
 0
VERTEX
 8
D_SEN-_ZYLINDER_
 10
-1.4013
 20
-13.7047
 30
37.9821
 70
192
 0
VERTEX
 8
D_SEN-_ZYLINDER_
 10
-1.4453
 20
-13.7047
 30
37.9821
 70
192
 0
VERTEX
 8
D_SEN-_ZYLINDER_
 10
-1.4453
 20
-14.4552
 30
37.9584
 70
192
 0
VERTEX
 8
D_SEN-_ZYLINDER_
 10
-1.4453
 20
-14.5032
 30
37.9584
 70
192
 0
VERTEX
 8
D_SEN-_ZYLINDER_
 10
-1.4013
 20
-14.5032
 30
37.9584
 70
192
 0
VERTEX
 8
D_SEN-_ZYLINDER_
 10
-1.4013
 20
-14.4552
 30
37.9584
 70
192
 0
VERTEX
 8
D_SEN-_ZYLINDER_
 10
-1.4714
 20
-14.4552
 30
37.9821
 70
192
 0
VERTEX
 8
D_SEN-_ZYLINDER_
 10
-1.4714
 20
-14.5032
 30
37.9821
 70
192
 0
VERTEX
 8
D_SEN-_ZYLINDER_
 10
-1.4453
 20
-14.5317
 30
37.9821
 70
192
 0
VERTEX
 8
D_SEN-_ZYLINDER_
 10
-1.4013
 20
-14.5317
 30
37.9821
 70
192
 0
VERTEX
 8
D_SEN-_ZYLINDER_
 10
-1.3751
 20
-14.5032
 30
37.9821
 70
192
 0
VERTEX
 8
D_SEN-_ZYLINDER_
 10
-1.3751
 20
-14.4552
 30
37.9821
 70
192
 0
VERTEX
 8
D_SEN-_ZYLINDER_
 10
-1.4013
 20
-14.4266
 30
37.9821
 70
192
 0
VERTEX
 8
D_SEN-_ZYLINDER_
 10
-1.4453
 20
-14.4266
 30
37.9821
 70
192
 0
VERTEX
 8
D_SEN-_ZYLINDER_
 10
-2.0891
 20
-10.1235
 30
37.9584
 70
192
 0
VERTEX
 8
D_SEN-_ZYLINDER_
 10
-2.0891
 20
-10.1715
 30
37.9584
 70
192
 0
VERTEX
 8
D_SEN-_ZYLINDER_
 10
-2.0451
 20
-10.1715
 30
37.9584
 70
192
 0
VERTEX
 8
D_SEN-_ZYLINDER_
 10
-2.0451
 20
-10.1235
 30
37.9584
 70
192
 0
VERTEX
 8
D_SEN-_ZYLINDER_
 10
-2.1153
 20
-10.1235
 30
37.9821
 70
192
 0
VERTEX
 8
D_SEN-_ZYLINDER_
 10
-2.1153
 20
-10.1715
 30
37.9821
 70
192
 0
VERTEX
 8
D_SEN-_ZYLINDER_
 10
-2.0891
 20
-10.2
 30
37.9821
 70
192
 0
VERTEX
 8
D_SEN-_ZYLINDER_
 10
-2.0451
 20
-10.2
 30
37.9821
 70
192
 0
VERTEX
 8
D_SEN-_ZYLINDER_
 10
-2.019
 20
-10.1715
 30
37.9821
 70
192
 0
VERTEX
 8
D_SEN-_ZYLINDER_
 10
-2.019
 20
-10.1235
 30
37.9821
 70
192
 0
VERTEX
 8
D_SEN-_ZYLINDER_
 10
-2.0451
 20
-10.095
 30
37.9821
 70
192
 0
VERTEX
 8
D_SEN-_ZYLINDER_
 10
-2.0891
 20
-10.095
 30
37.9821
 70
192
 0
VERTEX
 8
D_SEN-_ZYLINDER_
 10
-2.0891
 20
-10.8318
 30
37.9584
 70
192
 0
VERTEX
 8
D_SEN-_ZYLINDER_
 10
-2.0891
 20
-10.8798
 30
37.9584
 70
192
 0
VERTEX
 8
D_SEN-_ZYLINDER_
 10
-2.0451
 20
-10.8798
 30
37.9584
 70
192
 0
VERTEX
 8
D_SEN-_ZYLINDER_
 10
-2.0451
 20
-10.8318
 30
37.9584
 70
192
 0
VERTEX
 8
D_SEN-_ZYLINDER_
 10
-2.1153
 20
-10.8318
 30
37.9821
 70
192
 0
VERTEX
 8
D_SEN-_ZYLINDER_
 10
-2.1153
 20
-10.8798
 30
37.9821
 70
192
 0
VERTEX
 8
D_SEN-_ZYLINDER_
 10
-2.0891
 20
-10.9084
 30
37.9821
 70
192
 0
VERTEX
 8
D_SEN-_ZYLINDER_
 10
-2.0451
 20
-10.9084
 30
37.9821
 70
192
 0
VERTEX
 8
D_SEN-_ZYLINDER_
 10
-2.019
 20
-10.8798
 30
37.9821
 70
192
 0
VERTEX
 8
D_SEN-_ZYLINDER_
 10
-2.019
 20
-10.8318
 30
37.9821
 70
192
 0
VERTEX
 8
D_SEN-_ZYLINDER_
 10
-2.0451
 20
-10.8033
 30
37.9821
 70
192
 0
VERTEX
 8
D_SEN-_ZYLINDER_
 10
-2.0891
 20
-10.8033
 30
37.9821
 70
192
 0
VERTEX
 8
D_SEN-_ZYLINDER_
 10
-2.0891
 20
-11.5674
 30
37.9584
 70
192
 0
VERTEX
 8
D_SEN-_ZYLINDER_
 10
-2.0891
 20
-11.6154
 30
37.9584
 70
192
 0
VERTEX
 8
D_SEN-_ZYLINDER_
 10
-2.0451
 20
-11.6154
 30
37.9584
 70
192
 0
VERTEX
 8
D_SEN-_ZYLINDER_
 10
-2.0451
 20
-11.5674
 30
37.9584
 70
192
 0
VERTEX
 8
D_SEN-_ZYLINDER_
 10
-2.1153
 20
-11.5674
 30
37.9821
 70
192
 0
VERTEX
 8
D_SEN-_ZYLINDER_
 10
-2.1153
 20
-11.6154
 30
37.9821
 70
192
 0
VERTEX
 8
D_SEN-_ZYLINDER_
 10
-2.0891
 20
-11.6439
 30
37.9821
 70
192
 0
VERTEX
 8
D_SEN-_ZYLINDER_
 10
-2.0451
 20
-11.6439
 30
37.9821
 70
192
 0
VERTEX
 8
D_SEN-_ZYLINDER_
 10
-2.019
 20
-11.6154
 30
37.9821
 70
192
 0
VERTEX
 8
D_SEN-_ZYLINDER_
 10
-2.019
 20
-11.5674
 30
37.9821
 70
192
 0
VERTEX
 8
D_SEN-_ZYLINDER_
 10
-2.0451
 20
-11.5389
 30
37.9821
 70
192
 0
VERTEX
 8
D_SEN-_ZYLINDER_
 10
-2.0891
 20
-11.5389
 30
37.9821
 70
192
 0
VERTEX
 8
D_SEN-_ZYLINDER_
 10
-2.0891
 20
-12.2893
 30
37.9584
 70
192
 0
VERTEX
 8
D_SEN-_ZYLINDER_
 10
-2.0891
 20
-12.3373
 30
37.9584
 70
192
 0
VERTEX
 8
D_SEN-_ZYLINDER_
 10
-2.0451
 20
-12.3373
 30
37.9584
 70
192
 0
VERTEX
 8
D_SEN-_ZYLINDER_
 10
-2.0451
 20
-12.2893
 30
37.9584
 70
192
 0
VERTEX
 8
D_SEN-_ZYLINDER_
 10
-2.1153
 20
-12.2893
 30
37.9821
 70
192
 0
VERTEX
 8
D_SEN-_ZYLINDER_
 10
-2.1153
 20
-12.3373
 30
37.9821
 70
192
 0
VERTEX
 8
D_SEN-_ZYLINDER_
 10
-2.0891
 20
-12.3659
 30
37.9821
 70
192
 0
VERTEX
 8
D_SEN-_ZYLINDER_
 10
-2.0451
 20
-12.3659
 30
37.9821
 70
192
 0
VERTEX
 8
D_SEN-_ZYLINDER_
 10
-2.019
 20
-12.3373
 30
37.9821
 70
192
 0
VERTEX
 8
D_SEN-_ZYLINDER_
 10
-2.019
 20
-12.2893
 30
37.9821
 70
192
 0
VERTEX
 8
D_SEN-_ZYLINDER_
 10
-2.0451
 20
-12.2608
 30
37.9821
 70
192
 0
VERTEX
 8
D_SEN-_ZYLINDER_
 10
-2.0891
 20
-12.2608
 30
37.9821
 70
192
 0
VERTEX
 8
D_SEN-_ZYLINDER_
 10
-2.0891
 20
-13.0249
 30
37.9584
 70
192
 0
VERTEX
 8
D_SEN-_ZYLINDER_
 10
-2.0891
 20
-13.0729
 30
37.9584
 70
192
 0
VERTEX
 8
D_SEN-_ZYLINDER_
 10
-2.0451
 20
-13.0729
 30
37.9584
 70
192
 0
VERTEX
 8
D_SEN-_ZYLINDER_
 10
-2.0451
 20
-13.0249
 30
37.9584
 70
192
 0
VERTEX
 8
D_SEN-_ZYLINDER_
 10
-2.1153
 20
-13.0249
 30
37.9821
 70
192
 0
VERTEX
 8
D_SEN-_ZYLINDER_
 10
-2.1153
 20
-13.0729
 30
37.9821
 70
192
 0
VERTEX
 8
D_SEN-_ZYLINDER_
 10
-2.0891
 20
-13.1014
 30
37.9821
 70
192
 0
VERTEX
 8
D_SEN-_ZYLINDER_
 10
-2.0451
 20
-13.1014
 30
37.9821
 70
192
 0
VERTEX
 8
D_SEN-_ZYLINDER_
 10
-2.019
 20
-13.0729
 30
37.9821
 70
192
 0
VERTEX
 8
D_SEN-_ZYLINDER_
 10
-2.019
 20
-13.0249
 30
37.9821
 70
192
 0
VERTEX
 8
D_SEN-_ZYLINDER_
 10
-2.0451
 20
-12.9964
 30
37.9821
 70
192
 0
VERTEX
 8
D_SEN-_ZYLINDER_
 10
-2.0891
 20
-12.9964
 30
37.9821
 70
192
 0
VERTEX
 8
D_SEN-_ZYLINDER_
 10
-2.0891
 20
-13.7332
 30
37.9584
 70
192
 0
VERTEX
 8
D_SEN-_ZYLINDER_
 10
-2.0891
 20
-13.7812
 30
37.9584
 70
192
 0
VERTEX
 8
D_SEN-_ZYLINDER_
 10
-2.0451
 20
-13.7812
 30
37.9584
 70
192
 0
VERTEX
 8
D_SEN-_ZYLINDER_
 10
-2.0451
 20
-13.7332
 30
37.9584
 70
192
 0
VERTEX
 8
D_SEN-_ZYLINDER_
 10
-2.1153
 20
-13.7332
 30
37.9821
 70
192
 0
VERTEX
 8
D_SEN-_ZYLINDER_
 10
-2.1153
 20
-13.7812
 30
37.9821
 70
192
 0
VERTEX
 8
D_SEN-_ZYLINDER_
 10
-2.0891
 20
-13.8097
 30
37.9821
 70
192
 0
VERTEX
 8
D_SEN-_ZYLINDER_
 10
-2.0451
 20
-13.8097
 30
37.9821
 70
192
 0
VERTEX
 8
D_SEN-_ZYLINDER_
 10
-2.019
 20
-13.7812
 30
37.9821
 70
192
 0
VERTEX
 8
D_SEN-_ZYLINDER_
 10
-2.019
 20
-13.7332
 30
37.9821
 70
192
 0
VERTEX
 8
D_SEN-_ZYLINDER_
 10
-2.0451
 20
-13.7047
 30
37.9821
 70
192
 0
VERTEX
 8
D_SEN-_ZYLINDER_
 10
-2.0891
 20
-13.7047
 30
37.9821
 70
192
 0
VERTEX
 8
D_SEN-_ZYLINDER_
 10
-2.0891
 20
-14.4552
 30
37.9584
 70
192
 0
VERTEX
 8
D_SEN-_ZYLINDER_
 10
-2.0891
 20
-14.5032
 30
37.9584
 70
192
 0
VERTEX
 8
D_SEN-_ZYLINDER_
 10
-2.0451
 20
-14.5032
 30
37.9584
 70
192
 0
VERTEX
 8
D_SEN-_ZYLINDER_
 10
-2.0451
 20
-14.4552
 30
37.9584
 70
192
 0
VERTEX
 8
D_SEN-_ZYLINDER_
 10
-2.1153
 20
-14.4552
 30
37.9821
 70
192
 0
VERTEX
 8
D_SEN-_ZYLINDER_
 10
-2.1153
 20
-14.5032
 30
37.9821
 70
192
 0
VERTEX
 8
D_SEN-_ZYLINDER_
 10
-2.0891
 20
-14.5317
 30
37.9821
 70
192
 0
VERTEX
 8
D_SEN-_ZYLINDER_
 10
-2.0451
 20
-14.5317
 30
37.9821
 70
192
 0
VERTEX
 8
D_SEN-_ZYLINDER_
 10
-2.019
 20
-14.5032
 30
37.9821
 70
192
 0
VERTEX
 8
D_SEN-_ZYLINDER_
 10
-2.019
 20
-14.4552
 30
37.9821
 70
192
 0
VERTEX
 8
D_SEN-_ZYLINDER_
 10
-2.0451
 20
-14.4266
 30
37.9821
 70
192
 0
VERTEX
 8
D_SEN-_ZYLINDER_
 10
-2.0891
 20
-14.4266
 30
37.9821
 70
192
 0
VERTEX
 8
D_SEN-_ZYLINDER_
 10
-2.7525
 20
-10.1235
 30
37.9584
 70
192
 0
VERTEX
 8
D_SEN-_ZYLINDER_
 10
-2.7525
 20
-10.1715
 30
37.9584
 70
192
 0
VERTEX
 8
D_SEN-_ZYLINDER_
 10
-2.7085
 20
-10.1715
 30
37.9584
 70
192
 0
VERTEX
 8
D_SEN-_ZYLINDER_
 10
-2.7085
 20
-10.1235
 30
37.9584
 70
192
 0
VERTEX
 8
D_SEN-_ZYLINDER_
 10
-2.7786
 20
-10.1235
 30
37.9821
 70
192
 0
VERTEX
 8
D_SEN-_ZYLINDER_
 10
-2.7786
 20
-10.1715
 30
37.9821
 70
192
 0
VERTEX
 8
D_SEN-_ZYLINDER_
 10
-2.7525
 20
-10.2
 30
37.9821
 70
192
 0
VERTEX
 8
D_SEN-_ZYLINDER_
 10
-2.7085
 20
-10.2
 30
37.9821
 70
192
 0
VERTEX
 8
D_SEN-_ZYLINDER_
 10
-2.6823
 20
-10.1715
 30
37.9821
 70
192
 0
VERTEX
 8
D_SEN-_ZYLINDER_
 10
-2.6823
 20
-10.1235
 30
37.9821
 70
192
 0
VERTEX
 8
D_SEN-_ZYLINDER_
 10
-2.7085
 20
-10.095
 30
37.9821
 70
192
 0
VERTEX
 8
D_SEN-_ZYLINDER_
 10
-2.7525
 20
-10.095
 30
37.9821
 70
192
 0
VERTEX
 8
D_SEN-_ZYLINDER_
 10
-2.7525
 20
-10.8318
 30
37.9584
 70
192
 0
VERTEX
 8
D_SEN-_ZYLINDER_
 10
-2.7525
 20
-10.8798
 30
37.9584
 70
192
 0
VERTEX
 8
D_SEN-_ZYLINDER_
 10
-2.7085
 20
-10.8798
 30
37.9584
 70
192
 0
VERTEX
 8
D_SEN-_ZYLINDER_
 10
-2.7085
 20
-10.8318
 30
37.9584
 70
192
 0
VERTEX
 8
D_SEN-_ZYLINDER_
 10
-2.7786
 20
-10.8318
 30
37.9821
 70
192
 0
VERTEX
 8
D_SEN-_ZYLINDER_
 10
-2.7786
 20
-10.8798
 30
37.9821
 70
192
 0
VERTEX
 8
D_SEN-_ZYLINDER_
 10
-2.7525
 20
-10.9084
 30
37.9821
 70
192
 0
VERTEX
 8
D_SEN-_ZYLINDER_
 10
-2.7085
 20
-10.9084
 30
37.9821
 70
192
 0
VERTEX
 8
D_SEN-_ZYLINDER_
 10
-2.6823
 20
-10.8798
 30
37.9821
 70
192
 0
VERTEX
 8
D_SEN-_ZYLINDER_
 10
-2.6823
 20
-10.8318
 30
37.9821
 70
192
 0
VERTEX
 8
D_SEN-_ZYLINDER_
 10
-2.7085
 20
-10.8033
 30
37.9821
 70
192
 0
VERTEX
 8
D_SEN-_ZYLINDER_
 10
-2.7525
 20
-10.8033
 30
37.9821
 70
192
 0
VERTEX
 8
D_SEN-_ZYLINDER_
 10
-2.7525
 20
-11.5674
 30
37.9584
 70
192
 0
VERTEX
 8
D_SEN-_ZYLINDER_
 10
-2.7525
 20
-11.6154
 30
37.9584
 70
192
 0
VERTEX
 8
D_SEN-_ZYLINDER_
 10
-2.7085
 20
-11.6154
 30
37.9584
 70
192
 0
VERTEX
 8
D_SEN-_ZYLINDER_
 10
-2.7085
 20
-11.5674
 30
37.9584
 70
192
 0
VERTEX
 8
D_SEN-_ZYLINDER_
 10
-2.7786
 20
-11.5674
 30
37.9821
 70
192
 0
VERTEX
 8
D_SEN-_ZYLINDER_
 10
-2.7786
 20
-11.6154
 30
37.9821
 70
192
 0
VERTEX
 8
D_SEN-_ZYLINDER_
 10
-2.7525
 20
-11.6439
 30
37.9821
 70
192
 0
VERTEX
 8
D_SEN-_ZYLINDER_
 10
-2.7085
 20
-11.6439
 30
37.9821
 70
192
 0
VERTEX
 8
D_SEN-_ZYLINDER_
 10
-2.6823
 20
-11.6154
 30
37.9821
 70
192
 0
VERTEX
 8
D_SEN-_ZYLINDER_
 10
-2.6823
 20
-11.5674
 30
37.9821
 70
192
 0
VERTEX
 8
D_SEN-_ZYLINDER_
 10
-2.7085
 20
-11.5389
 30
37.9821
 70
192
 0
VERTEX
 8
D_SEN-_ZYLINDER_
 10
-2.7525
 20
-11.5389
 30
37.9821
 70
192
 0
VERTEX
 8
D_SEN-_ZYLINDER_
 10
-2.7525
 20
-12.2893
 30
37.9584
 70
192
 0
VERTEX
 8
D_SEN-_ZYLINDER_
 10
-2.7525
 20
-12.3373
 30
37.9584
 70
192
 0
VERTEX
 8
D_SEN-_ZYLINDER_
 10
-2.7085
 20
-12.3373
 30
37.9584
 70
192
 0
VERTEX
 8
D_SEN-_ZYLINDER_
 10
-2.7085
 20
-12.2893
 30
37.9584
 70
192
 0
VERTEX
 8
D_SEN-_ZYLINDER_
 10
-2.7786
 20
-12.2893
 30
37.9821
 70
192
 0
VERTEX
 8
D_SEN-_ZYLINDER_
 10
-2.7786
 20
-12.3373
 30
37.9821
 70
192
 0
VERTEX
 8
D_SEN-_ZYLINDER_
 10
-2.7525
 20
-12.3659
 30
37.9821
 70
192
 0
VERTEX
 8
D_SEN-_ZYLINDER_
 10
-2.7085
 20
-12.3659
 30
37.9821
 70
192
 0
VERTEX
 8
D_SEN-_ZYLINDER_
 10
-2.6823
 20
-12.3373
 30
37.9821
 70
192
 0
VERTEX
 8
D_SEN-_ZYLINDER_
 10
-2.6823
 20
-12.2893
 30
37.9821
 70
192
 0
VERTEX
 8
D_SEN-_ZYLINDER_
 10
-2.7085
 20
-12.2608
 30
37.9821
 70
192
 0
VERTEX
 8
D_SEN-_ZYLINDER_
 10
-2.7525
 20
-12.2608
 30
37.9821
 70
192
 0
VERTEX
 8
D_SEN-_ZYLINDER_
 10
-2.7525
 20
-13.0249
 30
37.9584
 70
192
 0
VERTEX
 8
D_SEN-_ZYLINDER_
 10
-2.7525
 20
-13.0729
 30
37.9584
 70
192
 0
VERTEX
 8
D_SEN-_ZYLINDER_
 10
-2.7085
 20
-13.0729
 30
37.9584
 70
192
 0
VERTEX
 8
D_SEN-_ZYLINDER_
 10
-2.7085
 20
-13.0249
 30
37.9584
 70
192
 0
VERTEX
 8
D_SEN-_ZYLINDER_
 10
-2.7786
 20
-13.0249
 30
37.9821
 70
192
 0
VERTEX
 8
D_SEN-_ZYLINDER_
 10
-2.7786
 20
-13.0729
 30
37.9821
 70
192
 0
VERTEX
 8
D_SEN-_ZYLINDER_
 10
-2.7525
 20
-13.1014
 30
37.9821
 70
192
 0
VERTEX
 8
D_SEN-_ZYLINDER_
 10
-2.7085
 20
-13.1014
 30
37.9821
 70
192
 0
VERTEX
 8
D_SEN-_ZYLINDER_
 10
-2.6823
 20
-13.0729
 30
37.9821
 70
192
 0
VERTEX
 8
D_SEN-_ZYLINDER_
 10
-2.6823
 20
-13.0249
 30
37.9821
 70
192
 0
VERTEX
 8
D_SEN-_ZYLINDER_
 10
-2.7085
 20
-12.9964
 30
37.9821
 70
192
 0
VERTEX
 8
D_SEN-_ZYLINDER_
 10
-2.7525
 20
-12.9964
 30
37.9821
 70
192
 0
VERTEX
 8
D_SEN-_ZYLINDER_
 10
-2.7525
 20
-13.7332
 30
37.9584
 70
192
 0
VERTEX
 8
D_SEN-_ZYLINDER_
 10
-2.7525
 20
-13.7812
 30
37.9584
 70
192
 0
VERTEX
 8
D_SEN-_ZYLINDER_
 10
-2.7085
 20
-13.7812
 30
37.9584
 70
192
 0
VERTEX
 8
D_SEN-_ZYLINDER_
 10
-2.7085
 20
-13.7332
 30
37.9584
 70
192
 0
VERTEX
 8
D_SEN-_ZYLINDER_
 10
-2.7786
 20
-13.7332
 30
37.9821
 70
192
 0
VERTEX
 8
D_SEN-_ZYLINDER_
 10
-2.7786
 20
-13.7812
 30
37.9821
 70
192
 0
VERTEX
 8
D_SEN-_ZYLINDER_
 10
-2.7525
 20
-13.8097
 30
37.9821
 70
192
 0
VERTEX
 8
D_SEN-_ZYLINDER_
 10
-2.7085
 20
-13.8097
 30
37.9821
 70
192
 0
VERTEX
 8
D_SEN-_ZYLINDER_
 10
-2.6823
 20
-13.7812
 30
37.9821
 70
192
 0
VERTEX
 8
D_SEN-_ZYLINDER_
 10
-2.6823
 20
-13.7332
 30
37.9821
 70
192
 0
VERTEX
 8
D_SEN-_ZYLINDER_
 10
-2.7085
 20
-13.7047
 30
37.9821
 70
192
 0
VERTEX
 8
D_SEN-_ZYLINDER_
 10
-2.7525
 20
-13.7047
 30
37.9821
 70
192
 0
VERTEX
 8
D_SEN-_ZYLINDER_
 10
-2.7525
 20
-14.4552
 30
37.9584
 70
192
 0
VERTEX
 8
D_SEN-_ZYLINDER_
 10
-2.7525
 20
-14.5032
 30
37.9584
 70
192
 0
VERTEX
 8
D_SEN-_ZYLINDER_
 10
-2.7085
 20
-14.5032
 30
37.9584
 70
192
 0
VERTEX
 8
D_SEN-_ZYLINDER_
 10
-2.7085
 20
-14.4552
 30
37.9584
 70
192
 0
VERTEX
 8
D_SEN-_ZYLINDER_
 10
-2.7786
 20
-14.4552
 30
37.9821
 70
192
 0
VERTEX
 8
D_SEN-_ZYLINDER_
 10
-2.7786
 20
-14.5032
 30
37.9821
 70
192
 0
VERTEX
 8
D_SEN-_ZYLINDER_
 10
-2.7525
 20
-14.5317
 30
37.9821
 70
192
 0
VERTEX
 8
D_SEN-_ZYLINDER_
 10
-2.7085
 20
-14.5317
 30
37.9821
 70
192
 0
VERTEX
 8
D_SEN-_ZYLINDER_
 10
-2.6823
 20
-14.5032
 30
37.9821
 70
192
 0
VERTEX
 8
D_SEN-_ZYLINDER_
 10
-2.6823
 20
-14.4552
 30
37.9821
 70
192
 0
VERTEX
 8
D_SEN-_ZYLINDER_
 10
-2.7085
 20
-14.4266
 30
37.9821
 70
192
 0
VERTEX
 8
D_SEN-_ZYLINDER_
 10
-2.7525
 20
-14.4266
 30
37.9821
 70
192
 0
VERTEX
 8
D_SEN-_ZYLINDER_
 10
-3.4158
 20
-11.5674
 30
37.9584
 70
192
 0
VERTEX
 8
D_SEN-_ZYLINDER_
 10
-3.4158
 20
-11.6154
 30
37.9584
 70
192
 0
VERTEX
 8
D_SEN-_ZYLINDER_
 10
-3.3718
 20
-11.6154
 30
37.9584
 70
192
 0
VERTEX
 8
D_SEN-_ZYLINDER_
 10
-3.3718
 20
-11.5674
 30
37.9584
 70
192
 0
VERTEX
 8
D_SEN-_ZYLINDER_
 10
-3.4419
 20
-11.5674
 30
37.9821
 70
192
 0
VERTEX
 8
D_SEN-_ZYLINDER_
 10
-3.4419
 20
-11.6154
 30
37.9821
 70
192
 0
VERTEX
 8
D_SEN-_ZYLINDER_
 10
-3.4158
 20
-11.6439
 30
37.9821
 70
192
 0
VERTEX
 8
D_SEN-_ZYLINDER_
 10
-3.3718
 20
-11.6439
 30
37.9821
 70
192
 0
VERTEX
 8
D_SEN-_ZYLINDER_
 10
-3.3456
 20
-11.6154
 30
37.9821
 70
192
 0
VERTEX
 8
D_SEN-_ZYLINDER_
 10
-3.3456
 20
-11.5674
 30
37.9821
 70
192
 0
VERTEX
 8
D_SEN-_ZYLINDER_
 10
-3.3718
 20
-11.5389
 30
37.9821
 70
192
 0
VERTEX
 8
D_SEN-_ZYLINDER_
 10
-3.4158
 20
-11.5389
 30
37.9821
 70
192
 0
VERTEX
 8
D_SEN-_ZYLINDER_
 10
-3.4158
 20
-12.2893
 30
37.9584
 70
192
 0
VERTEX
 8
D_SEN-_ZYLINDER_
 10
-3.4158
 20
-12.3373
 30
37.9584
 70
192
 0
VERTEX
 8
D_SEN-_ZYLINDER_
 10
-3.3718
 20
-12.3373
 30
37.9584
 70
192
 0
VERTEX
 8
D_SEN-_ZYLINDER_
 10
-3.3718
 20
-12.2893
 30
37.9584
 70
192
 0
VERTEX
 8
D_SEN-_ZYLINDER_
 10
-3.4419
 20
-12.2893
 30
37.9821
 70
192
 0
VERTEX
 8
D_SEN-_ZYLINDER_
 10
-3.4419
 20
-12.3373
 30
37.9821
 70
192
 0
VERTEX
 8
D_SEN-_ZYLINDER_
 10
-3.4158
 20
-12.3659
 30
37.9821
 70
192
 0
VERTEX
 8
D_SEN-_ZYLINDER_
 10
-3.3718
 20
-12.3659
 30
37.9821
 70
192
 0
VERTEX
 8
D_SEN-_ZYLINDER_
 10
-3.3456
 20
-12.3373
 30
37.9821
 70
192
 0
VERTEX
 8
D_SEN-_ZYLINDER_
 10
0
 20
0
 30
0
 70
128
 71
6
 72
2
 73
1
 74
5
 0
VERTEX
 8
D_SEN-_ZYLINDER_
 10
0
 20
0
 30
0
 70
128
 71
7
 72
2
 73
6
 74
6
 0
VERTEX
 8
D_SEN-_ZYLINDER_
 10
0
 20
0
 30
0
 70
128
 71
8
 72
3
 73
2
 74
7
 0
VERTEX
 8
D_SEN-_ZYLINDER_
 10
0
 20
0
 30
0
 70
128
 71
9
 72
3
 73
8
 74
8
 0
VERTEX
 8
D_SEN-_ZYLINDER_
 10
0
 20
0
 30
0
 70
128
 71
10
 72
4
 73
3
 74
9
 0
VERTEX
 8
D_SEN-_ZYLINDER_
 10
0
 20
0
 30
0
 70
128
 71
11
 72
4
 73
10
 74
10
 0
VERTEX
 8
D_SEN-_ZYLINDER_
 10
0
 20
0
 30
0
 70
128
 71
12
 72
1
 73
4
 74
11
 0
VERTEX
 8
D_SEN-_ZYLINDER_
 10
0
 20
0
 30
0
 70
128
 71
5
 72
1
 73
12
 74
12
 0
VERTEX
 8
D_SEN-_ZYLINDER_
 10
0
 20
0
 30
0
 70
128
 71
1
 72
2
 73
3
 74
4
 0
VERTEX
 8
D_SEN-_ZYLINDER_
 10
0
 20
0
 30
0
 70
128
 71
18
 72
14
 73
13
 74
17
 0
VERTEX
 8
D_SEN-_ZYLINDER_
 10
0
 20
0
 30
0
 70
128
 71
19
 72
14
 73
18
 74
18
 0
VERTEX
 8
D_SEN-_ZYLINDER_
 10
0
 20
0
 30
0
 70
128
 71
20
 72
15
 73
14
 74
19
 0
VERTEX
 8
D_SEN-_ZYLINDER_
 10
0
 20
0
 30
0
 70
128
 71
21
 72
15
 73
20
 74
20
 0
VERTEX
 8
D_SEN-_ZYLINDER_
 10
0
 20
0
 30
0
 70
128
 71
22
 72
16
 73
15
 74
21
 0
VERTEX
 8
D_SEN-_ZYLINDER_
 10
0
 20
0
 30
0
 70
128
 71
23
 72
16
 73
22
 74
22
 0
VERTEX
 8
D_SEN-_ZYLINDER_
 10
0
 20
0
 30
0
 70
128
 71
24
 72
13
 73
16
 74
23
 0
VERTEX
 8
D_SEN-_ZYLINDER_
 10
0
 20
0
 30
0
 70
128
 71
17
 72
13
 73
24
 74
24
 0
VERTEX
 8
D_SEN-_ZYLINDER_
 10
0
 20
0
 30
0
 70
128
 71
13
 72
14
 73
15
 74
16
 0
VERTEX
 8
D_SEN-_ZYLINDER_
 10
0
 20
0
 30
0
 70
128
 71
30
 72
26
 73
25
 74
29
 0
VERTEX
 8
D_SEN-_ZYLINDER_
 10
0
 20
0
 30
0
 70
128
 71
31
 72
26
 73
30
 74
30
 0
VERTEX
 8
D_SEN-_ZYLINDER_
 10
0
 20
0
 30
0
 70
128
 71
32
 72
27
 73
26
 74
31
 0
VERTEX
 8
D_SEN-_ZYLINDER_
 10
0
 20
0
 30
0
 70
128
 71
33
 72
27
 73
32
 74
32
 0
VERTEX
 8
D_SEN-_ZYLINDER_
 10
0
 20
0
 30
0
 70
128
 71
34
 72
28
 73
27
 74
33
 0
VERTEX
 8
D_SEN-_ZYLINDER_
 10
0
 20
0
 30
0
 70
128
 71
35
 72
28
 73
34
 74
34
 0
VERTEX
 8
D_SEN-_ZYLINDER_
 10
0
 20
0
 30
0
 70
128
 71
36
 72
25
 73
28
 74
35
 0
VERTEX
 8
D_SEN-_ZYLINDER_
 10
0
 20
0
 30
0
 70
128
 71
29
 72
25
 73
36
 74
36
 0
VERTEX
 8
D_SEN-_ZYLINDER_
 10
0
 20
0
 30
0
 70
128
 71
25
 72
26
 73
27
 74
28
 0
VERTEX
 8
D_SEN-_ZYLINDER_
 10
0
 20
0
 30
0
 70
128
 71
42
 72
38
 73
37
 74
41
 0
VERTEX
 8
D_SEN-_ZYLINDER_
 10
0
 20
0
 30
0
 70
128
 71
43
 72
38
 73
42
 74
42
 0
VERTEX
 8
D_SEN-_ZYLINDER_
 10
0
 20
0
 30
0
 70
128
 71
44
 72
39
 73
38
 74
43
 0
VERTEX
 8
D_SEN-_ZYLINDER_
 10
0
 20
0
 30
0
 70
128
 71
45
 72
39
 73
44
 74
44
 0
VERTEX
 8
D_SEN-_ZYLINDER_
 10
0
 20
0
 30
0
 70
128
 71
46
 72
40
 73
39
 74
45
 0
VERTEX
 8
D_SEN-_ZYLINDER_
 10
0
 20
0
 30
0
 70
128
 71
47
 72
40
 73
46
 74
46
 0
VERTEX
 8
D_SEN-_ZYLINDER_
 10
0
 20
0
 30
0
 70
128
 71
48
 72
37
 73
40
 74
47
 0
VERTEX
 8
D_SEN-_ZYLINDER_
 10
0
 20
0
 30
0
 70
128
 71
41
 72
37
 73
48
 74
48
 0
VERTEX
 8
D_SEN-_ZYLINDER_
 10
0
 20
0
 30
0
 70
128
 71
37
 72
38
 73
39
 74
40
 0
VERTEX
 8
D_SEN-_ZYLINDER_
 10
0
 20
0
 30
0
 70
128
 71
54
 72
50
 73
49
 74
53
 0
VERTEX
 8
D_SEN-_ZYLINDER_
 10
0
 20
0
 30
0
 70
128
 71
55
 72
50
 73
54
 74
54
 0
VERTEX
 8
D_SEN-_ZYLINDER_
 10
0
 20
0
 30
0
 70
128
 71
56
 72
51
 73
50
 74
55
 0
VERTEX
 8
D_SEN-_ZYLINDER_
 10
0
 20
0
 30
0
 70
128
 71
57
 72
51
 73
56
 74
56
 0
VERTEX
 8
D_SEN-_ZYLINDER_
 10
0
 20
0
 30
0
 70
128
 71
58
 72
52
 73
51
 74
57
 0
VERTEX
 8
D_SEN-_ZYLINDER_
 10
0
 20
0
 30
0
 70
128
 71
59
 72
52
 73
58
 74
58
 0
VERTEX
 8
D_SEN-_ZYLINDER_
 10
0
 20
0
 30
0
 70
128
 71
60
 72
49
 73
52
 74
59
 0
VERTEX
 8
D_SEN-_ZYLINDER_
 10
0
 20
0
 30
0
 70
128
 71
53
 72
49
 73
60
 74
60
 0
VERTEX
 8
D_SEN-_ZYLINDER_
 10
0
 20
0
 30
0
 70
128
 71
49
 72
50
 73
51
 74
52
 0
VERTEX
 8
D_SEN-_ZYLINDER_
 10
0
 20
0
 30
0
 70
128
 71
66
 72
62
 73
61
 74
65
 0
VERTEX
 8
D_SEN-_ZYLINDER_
 10
0
 20
0
 30
0
 70
128
 71
67
 72
62
 73
66
 74
66
 0
VERTEX
 8
D_SEN-_ZYLINDER_
 10
0
 20
0
 30
0
 70
128
 71
68
 72
63
 73
62
 74
67
 0
VERTEX
 8
D_SEN-_ZYLINDER_
 10
0
 20
0
 30
0
 70
128
 71
69
 72
63
 73
68
 74
68
 0
VERTEX
 8
D_SEN-_ZYLINDER_
 10
0
 20
0
 30
0
 70
128
 71
70
 72
64
 73
63
 74
69
 0
VERTEX
 8
D_SEN-_ZYLINDER_
 10
0
 20
0
 30
0
 70
128
 71
71
 72
64
 73
70
 74
70
 0
VERTEX
 8
D_SEN-_ZYLINDER_
 10
0
 20
0
 30
0
 70
128
 71
72
 72
61
 73
64
 74
71
 0
VERTEX
 8
D_SEN-_ZYLINDER_
 10
0
 20
0
 30
0
 70
128
 71
65
 72
61
 73
72
 74
72
 0
VERTEX
 8
D_SEN-_ZYLINDER_
 10
0
 20
0
 30
0
 70
128
 71
61
 72
62
 73
63
 74
64
 0
VERTEX
 8
D_SEN-_ZYLINDER_
 10
0
 20
0
 30
0
 70
128
 71
78
 72
74
 73
73
 74
77
 0
VERTEX
 8
D_SEN-_ZYLINDER_
 10
0
 20
0
 30
0
 70
128
 71
79
 72
74
 73
78
 74
78
 0
VERTEX
 8
D_SEN-_ZYLINDER_
 10
0
 20
0
 30
0
 70
128
 71
80
 72
75
 73
74
 74
79
 0
VERTEX
 8
D_SEN-_ZYLINDER_
 10
0
 20
0
 30
0
 70
128
 71
81
 72
75
 73
80
 74
80
 0
VERTEX
 8
D_SEN-_ZYLINDER_
 10
0
 20
0
 30
0
 70
128
 71
82
 72
76
 73
75
 74
81
 0
VERTEX
 8
D_SEN-_ZYLINDER_
 10
0
 20
0
 30
0
 70
128
 71
83
 72
76
 73
82
 74
82
 0
VERTEX
 8
D_SEN-_ZYLINDER_
 10
0
 20
0
 30
0
 70
128
 71
84
 72
73
 73
76
 74
83
 0
VERTEX
 8
D_SEN-_ZYLINDER_
 10
0
 20
0
 30
0
 70
128
 71
77
 72
73
 73
84
 74
84
 0
VERTEX
 8
D_SEN-_ZYLINDER_
 10
0
 20
0
 30
0
 70
128
 71
73
 72
74
 73
75
 74
76
 0
VERTEX
 8
D_SEN-_ZYLINDER_
 10
0
 20
0
 30
0
 70
128
 71
90
 72
86
 73
85
 74
89
 0
VERTEX
 8
D_SEN-_ZYLINDER_
 10
0
 20
0
 30
0
 70
128
 71
91
 72
86
 73
90
 74
90
 0
VERTEX
 8
D_SEN-_ZYLINDER_
 10
0
 20
0
 30
0
 70
128
 71
92
 72
87
 73
86
 74
91
 0
VERTEX
 8
D_SEN-_ZYLINDER_
 10
0
 20
0
 30
0
 70
128
 71
87
 72
92
 73
97
 74
97
 0
VERTEX
 8
D_SEN-_ZYLINDER_
 10
0
 20
0
 30
0
 70
128
 71
85
 72
86
 73
87
 74
88
 0
VERTEX
 8
D_SEN-_ZYLINDER_
 10
0
 20
0
 30
0
 70
128
 71
93
 72
88
 73
87
 74
97
 0
VERTEX
 8
D_SEN-_ZYLINDER_
 10
0
 20
0
 30
0
 70
128
 71
88
 72
93
 73
98
 74
94
 0
VERTEX
 8
D_SEN-_ZYLINDER_
 10
0
 20
0
 30
0
 70
128
 71
89
 72
85
 73
96
 74
96
 0
VERTEX
 8
D_SEN-_ZYLINDER_
 10
0
 20
0
 30
0
 70
128
 71
96
 72
85
 73
88
 74
94
 0
VERTEX
 8
D_SEN-_ZYLINDER_
 10
0
 20
0
 30
0
 70
128
 71
104
 72
100
 73
99
 74
103
 0
VERTEX
 8
D_SEN-_ZYLINDER_
 10
0
 20
0
 30
0
 70
128
 71
105
 72
100
 73
104
 74
104
 0
VERTEX
 8
D_SEN-_ZYLINDER_
 10
0
 20
0
 30
0
 70
128
 71
106
 72
101
 73
100
 74
105
 0
VERTEX
 8
D_SEN-_ZYLINDER_
 10
0
 20
0
 30
0
 70
128
 71
101
 72
106
 73
111
 74
107
 0
VERTEX
 8
D_SEN-_ZYLINDER_
 10
0
 20
0
 30
0
 70
128
 71
99
 72
100
 73
101
 74
102
 0
VERTEX
 8
D_SEN-_ZYLINDER_
 10
0
 20
0
 30
0
 70
128
 71
109
 72
102
 73
101
 74
107
 0
VERTEX
 8
D_SEN-_ZYLINDER_
 10
0
 20
0
 30
0
 70
128
 71
102
 72
109
 73
112
 74
110
 0
VERTEX
 8
D_SEN-_ZYLINDER_
 10
0
 20
0
 30
0
 70
128
 71
103
 72
99
 73
108
 74
108
 0
VERTEX
 8
D_SEN-_ZYLINDER_
 10
0
 20
0
 30
0
 70
128
 71
108
 72
99
 73
102
 74
110
 0
VERTEX
 8
D_SEN-_ZYLINDER_
 10
0
 20
0
 30
0
 70
128
 71
118
 72
114
 73
113
 74
117
 0
VERTEX
 8
D_SEN-_ZYLINDER_
 10
0
 20
0
 30
0
 70
128
 71
119
 72
114
 73
118
 74
118
 0
VERTEX
 8
D_SEN-_ZYLINDER_
 10
0
 20
0
 30
0
 70
128
 71
120
 72
115
 73
114
 74
119
 0
VERTEX
 8
D_SEN-_ZYLINDER_
 10
0
 20
0
 30
0
 70
128
 71
125
 72
123
 73
115
 74
120
 0
VERTEX
 8
D_SEN-_ZYLINDER_
 10
0
 20
0
 30
0
 70
128
 71
113
 72
114
 73
115
 74
116
 0
VERTEX
 8
D_SEN-_ZYLINDER_
 10
0
 20
0
 30
0
 70
128
 71
121
 72
116
 73
115
 74
123
 0
VERTEX
 8
D_SEN-_ZYLINDER_
 10
0
 20
0
 30
0
 70
128
 71
126
 72
122
 73
116
 74
121
 0
VERTEX
 8
D_SEN-_ZYLINDER_
 10
0
 20
0
 30
0
 70
128
 71
117
 72
113
 73
124
 74
124
 0
VERTEX
 8
D_SEN-_ZYLINDER_
 10
0
 20
0
 30
0
 70
128
 71
124
 72
113
 73
116
 74
122
 0
VERTEX
 8
D_SEN-_ZYLINDER_
 10
0
 20
0
 30
0
 70
128
 71
132
 72
128
 73
127
 74
131
 0
VERTEX
 8
D_SEN-_ZYLINDER_
 10
0
 20
0
 30
0
 70
128
 71
134
 72
128
 73
132
 74
132
 0
VERTEX
 8
D_SEN-_ZYLINDER_
 10
0
 20
0
 30
0
 70
128
 71
133
 72
129
 73
128
 74
134
 0
VERTEX
 8
D_SEN-_ZYLINDER_
 10
0
 20
0
 30
0
 70
128
 71
135
 72
129
 73
133
 74
133
 0
VERTEX
 8
D_SEN-_ZYLINDER_
 10
0
 20
0
 30
0
 70
128
 71
136
 72
130
 73
129
 74
135
 0
VERTEX
 8
D_SEN-_ZYLINDER_
 10
0
 20
0
 30
0
 70
128
 71
137
 72
130
 73
136
 74
136
 0
VERTEX
 8
D_SEN-_ZYLINDER_
 10
0
 20
0
 30
0
 70
128
 71
138
 72
127
 73
130
 74
137
 0
VERTEX
 8
D_SEN-_ZYLINDER_
 10
0
 20
0
 30
0
 70
128
 71
131
 72
127
 73
138
 74
138
 0
VERTEX
 8
D_SEN-_ZYLINDER_
 10
0
 20
0
 30
0
 70
128
 71
127
 72
128
 73
129
 74
130
 0
VERTEX
 8
D_SEN-_ZYLINDER_
 10
0
 20
0
 30
0
 70
128
 71
144
 72
140
 73
139
 74
143
 0
VERTEX
 8
D_SEN-_ZYLINDER_
 10
0
 20
0
 30
0
 70
128
 71
145
 72
140
 73
144
 74
144
 0
VERTEX
 8
D_SEN-_ZYLINDER_
 10
0
 20
0
 30
0
 70
128
 71
146
 72
141
 73
140
 74
145
 0
VERTEX
 8
D_SEN-_ZYLINDER_
 10
0
 20
0
 30
0
 70
128
 71
147
 72
141
 73
146
 74
146
 0
VERTEX
 8
D_SEN-_ZYLINDER_
 10
0
 20
0
 30
0
 70
128
 71
148
 72
142
 73
141
 74
147
 0
VERTEX
 8
D_SEN-_ZYLINDER_
 10
0
 20
0
 30
0
 70
128
 71
149
 72
142
 73
148
 74
148
 0
VERTEX
 8
D_SEN-_ZYLINDER_
 10
0
 20
0
 30
0
 70
128
 71
150
 72
139
 73
142
 74
149
 0
VERTEX
 8
D_SEN-_ZYLINDER_
 10
0
 20
0
 30
0
 70
128
 71
143
 72
139
 73
150
 74
150
 0
VERTEX
 8
D_SEN-_ZYLINDER_
 10
0
 20
0
 30
0
 70
128
 71
139
 72
140
 73
141
 74
142
 0
VERTEX
 8
D_SEN-_ZYLINDER_
 10
0
 20
0
 30
0
 70
128
 71
156
 72
152
 73
151
 74
155
 0
VERTEX
 8
D_SEN-_ZYLINDER_
 10
0
 20
0
 30
0
 70
128
 71
157
 72
152
 73
156
 74
156
 0
VERTEX
 8
D_SEN-_ZYLINDER_
 10
0
 20
0
 30
0
 70
128
 71
158
 72
153
 73
152
 74
157
 0
VERTEX
 8
D_SEN-_ZYLINDER_
 10
0
 20
0
 30
0
 70
128
 71
159
 72
153
 73
158
 74
158
 0
VERTEX
 8
D_SEN-_ZYLINDER_
 10
0
 20
0
 30
0
 70
128
 71
160
 72
154
 73
153
 74
159
 0
VERTEX
 8
D_SEN-_ZYLINDER_
 10
0
 20
0
 30
0
 70
128
 71
161
 72
154
 73
160
 74
160
 0
VERTEX
 8
D_SEN-_ZYLINDER_
 10
0
 20
0
 30
0
 70
128
 71
162
 72
151
 73
154
 74
161
 0
VERTEX
 8
D_SEN-_ZYLINDER_
 10
0
 20
0
 30
0
 70
128
 71
155
 72
151
 73
162
 74
162
 0
VERTEX
 8
D_SEN-_ZYLINDER_
 10
0
 20
0
 30
0
 70
128
 71
151
 72
152
 73
153
 74
154
 0
VERTEX
 8
D_SEN-_ZYLINDER_
 10
0
 20
0
 30
0
 70
128
 71
168
 72
164
 73
163
 74
167
 0
VERTEX
 8
D_SEN-_ZYLINDER_
 10
0
 20
0
 30
0
 70
128
 71
169
 72
164
 73
168
 74
168
 0
VERTEX
 8
D_SEN-_ZYLINDER_
 10
0
 20
0
 30
0
 70
128
 71
170
 72
165
 73
164
 74
169
 0
VERTEX
 8
D_SEN-_ZYLINDER_
 10
0
 20
0
 30
0
 70
128
 71
171
 72
165
 73
170
 74
170
 0
VERTEX
 8
D_SEN-_ZYLINDER_
 10
0
 20
0
 30
0
 70
128
 71
172
 72
166
 73
165
 74
171
 0
VERTEX
 8
D_SEN-_ZYLINDER_
 10
0
 20
0
 30
0
 70
128
 71
173
 72
166
 73
172
 74
172
 0
VERTEX
 8
D_SEN-_ZYLINDER_
 10
0
 20
0
 30
0
 70
128
 71
174
 72
163
 73
166
 74
173
 0
VERTEX
 8
D_SEN-_ZYLINDER_
 10
0
 20
0
 30
0
 70
128
 71
167
 72
163
 73
174
 74
174
 0
VERTEX
 8
D_SEN-_ZYLINDER_
 10
0
 20
0
 30
0
 70
128
 71
163
 72
164
 73
165
 74
166
 0
VERTEX
 8
D_SEN-_ZYLINDER_
 10
0
 20
0
 30
0
 70
128
 71
180
 72
176
 73
175
 74
179
 0
VERTEX
 8
D_SEN-_ZYLINDER_
 10
0
 20
0
 30
0
 70
128
 71
181
 72
176
 73
180
 74
180
 0
VERTEX
 8
D_SEN-_ZYLINDER_
 10
0
 20
0
 30
0
 70
128
 71
182
 72
177
 73
176
 74
181
 0
VERTEX
 8
D_SEN-_ZYLINDER_
 10
0
 20
0
 30
0
 70
128
 71
183
 72
177
 73
182
 74
182
 0
VERTEX
 8
D_SEN-_ZYLINDER_
 10
0
 20
0
 30
0
 70
128
 71
184
 72
178
 73
177
 74
183
 0
VERTEX
 8
D_SEN-_ZYLINDER_
 10
0
 20
0
 30
0
 70
128
 71
185
 72
178
 73
184
 74
184
 0
VERTEX
 8
D_SEN-_ZYLINDER_
 10
0
 20
0
 30
0
 70
128
 71
186
 72
175
 73
178
 74
185
 0
VERTEX
 8
D_SEN-_ZYLINDER_
 10
0
 20
0
 30
0
 70
128
 71
179
 72
175
 73
186
 74
186
 0
VERTEX
 8
D_SEN-_ZYLINDER_
 10
0
 20
0
 30
0
 70
128
 71
175
 72
176
 73
177
 74
178
 0
VERTEX
 8
D_SEN-_ZYLINDER_
 10
0
 20
0
 30
0
 70
128
 71
192
 72
188
 73
187
 74
191
 0
VERTEX
 8
D_SEN-_ZYLINDER_
 10
0
 20
0
 30
0
 70
128
 71
193
 72
188
 73
192
 74
192
 0
VERTEX
 8
D_SEN-_ZYLINDER_
 10
0
 20
0
 30
0
 70
128
 71
194
 72
189
 73
188
 74
193
 0
VERTEX
 8
D_SEN-_ZYLINDER_
 10
0
 20
0
 30
0
 70
128
 71
195
 72
189
 73
194
 74
194
 0
VERTEX
 8
D_SEN-_ZYLINDER_
 10
0
 20
0
 30
0
 70
128
 71
196
 72
190
 73
189
 74
195
 0
VERTEX
 8
D_SEN-_ZYLINDER_
 10
0
 20
0
 30
0
 70
128
 71
197
 72
190
 73
196
 74
196
 0
VERTEX
 8
D_SEN-_ZYLINDER_
 10
0
 20
0
 30
0
 70
128
 71
198
 72
187
 73
190
 74
197
 0
VERTEX
 8
D_SEN-_ZYLINDER_
 10
0
 20
0
 30
0
 70
128
 71
191
 72
187
 73
198
 74
198
 0
VERTEX
 8
D_SEN-_ZYLINDER_
 10
0
 20
0
 30
0
 70
128
 71
187
 72
188
 73
189
 74
190
 0
VERTEX
 8
D_SEN-_ZYLINDER_
 10
0
 20
0
 30
0
 70
128
 71
205
 72
204
 73
200
 74
199
 0
VERTEX
 8
D_SEN-_ZYLINDER_
 10
0
 20
0
 30
0
 70
128
 71
203
 72
200
 73
204
 74
204
 0
VERTEX
 8
D_SEN-_ZYLINDER_
 10
0
 20
0
 30
0
 70
128
 71
206
 72
201
 73
200
 74
203
 0
VERTEX
 8
D_SEN-_ZYLINDER_
 10
0
 20
0
 30
0
 70
128
 71
207
 72
201
 73
206
 74
206
 0
VERTEX
 8
D_SEN-_ZYLINDER_
 10
0
 20
0
 30
0
 70
128
 71
208
 72
202
 73
201
 74
207
 0
VERTEX
 8
D_SEN-_ZYLINDER_
 10
0
 20
0
 30
0
 70
128
 71
210
 72
202
 73
208
 74
208
 0
VERTEX
 8
D_SEN-_ZYLINDER_
 10
0
 20
0
 30
0
 70
128
 71
210
 72
209
 73
199
 74
202
 0
VERTEX
 8
D_SEN-_ZYLINDER_
 10
0
 20
0
 30
0
 70
128
 71
205
 72
199
 73
209
 74
209
 0
VERTEX
 8
D_SEN-_ZYLINDER_
 10
0
 20
0
 30
0
 70
128
 71
199
 72
200
 73
201
 74
202
 0
VERTEX
 8
D_SEN-_ZYLINDER_
 10
0
 20
0
 30
0
 70
128
 71
216
 72
212
 73
211
 74
215
 0
VERTEX
 8
D_SEN-_ZYLINDER_
 10
0
 20
0
 30
0
 70
128
 71
217
 72
212
 73
216
 74
216
 0
VERTEX
 8
D_SEN-_ZYLINDER_
 10
0
 20
0
 30
0
 70
128
 71
218
 72
213
 73
212
 74
217
 0
VERTEX
 8
D_SEN-_ZYLINDER_
 10
0
 20
0
 30
0
 70
128
 71
219
 72
213
 73
218
 74
218
 0
VERTEX
 8
D_SEN-_ZYLINDER_
 10
0
 20
0
 30
0
 70
128
 71
220
 72
214
 73
213
 74
219
 0
VERTEX
 8
D_SEN-_ZYLINDER_
 10
0
 20
0
 30
0
 70
128
 71
221
 72
214
 73
220
 74
220
 0
VERTEX
 8
D_SEN-_ZYLINDER_
 10
0
 20
0
 30
0
 70
128
 71
223
 72
214
 73
221
 74
221
 0
VERTEX
 8
D_SEN-_ZYLINDER_
 10
0
 20
0
 30
0
 70
128
 71
223
 72
222
 73
211
 74
214
 0
VERTEX
 8
D_SEN-_ZYLINDER_
 10
0
 20
0
 30
0
 70
128
 71
224
 72
215
 73
211
 74
222
 0
VERTEX
 8
D_SEN-_ZYLINDER_
 10
0
 20
0
 30
0
 70
128
 71
211
 72
212
 73
213
 74
214
 0
VERTEX
 8
D_SEN-_ZYLINDER_
 10
0
 20
0
 30
0
 70
128
 71
230
 72
226
 73
225
 74
229
 0
VERTEX
 8
D_SEN-_ZYLINDER_
 10
0
 20
0
 30
0
 70
128
 71
231
 72
226
 73
230
 74
230
 0
VERTEX
 8
D_SEN-_ZYLINDER_
 10
0
 20
0
 30
0
 70
128
 71
232
 72
227
 73
226
 74
231
 0
VERTEX
 8
D_SEN-_ZYLINDER_
 10
0
 20
0
 30
0
 70
128
 71
233
 72
227
 73
232
 74
232
 0
VERTEX
 8
D_SEN-_ZYLINDER_
 10
0
 20
0
 30
0
 70
128
 71
234
 72
228
 73
227
 74
233
 0
VERTEX
 8
D_SEN-_ZYLINDER_
 10
0
 20
0
 30
0
 70
128
 71
235
 72
228
 73
234
 74
234
 0
VERTEX
 8
D_SEN-_ZYLINDER_
 10
0
 20
0
 30
0
 70
128
 71
236
 72
225
 73
228
 74
235
 0
VERTEX
 8
D_SEN-_ZYLINDER_
 10
0
 20
0
 30
0
 70
128
 71
229
 72
225
 73
236
 74
236
 0
VERTEX
 8
D_SEN-_ZYLINDER_
 10
0
 20
0
 30
0
 70
128
 71
225
 72
226
 73
227
 74
228
 0
VERTEX
 8
D_SEN-_ZYLINDER_
 10
0
 20
0
 30
0
 70
128
 71
242
 72
238
 73
237
 74
241
 0
VERTEX
 8
D_SEN-_ZYLINDER_
 10
0
 20
0
 30
0
 70
128
 71
243
 72
238
 73
242
 74
242
 0
VERTEX
 8
D_SEN-_ZYLINDER_
 10
0
 20
0
 30
0
 70
128
 71
244
 72
239
 73
238
 74
243
 0
VERTEX
 8
D_SEN-_ZYLINDER_
 10
0
 20
0
 30
0
 70
128
 71
245
 72
239
 73
244
 74
244
 0
VERTEX
 8
D_SEN-_ZYLINDER_
 10
0
 20
0
 30
0
 70
128
 71
246
 72
240
 73
239
 74
245
 0
VERTEX
 8
D_SEN-_ZYLINDER_
 10
0
 20
0
 30
0
 70
128
 71
247
 72
240
 73
246
 74
246
 0
VERTEX
 8
D_SEN-_ZYLINDER_
 10
0
 20
0
 30
0
 70
128
 71
248
 72
237
 73
240
 74
247
 0
VERTEX
 8
D_SEN-_ZYLINDER_
 10
0
 20
0
 30
0
 70
128
 71
241
 72
237
 73
248
 74
248
 0
VERTEX
 8
D_SEN-_ZYLINDER_
 10
0
 20
0
 30
0
 70
128
 71
237
 72
238
 73
239
 74
240
 0
VERTEX
 8
D_SEN-_ZYLINDER_
 10
0
 20
0
 30
0
 70
128
 71
254
 72
250
 73
249
 74
253
 0
VERTEX
 8
D_SEN-_ZYLINDER_
 10
0
 20
0
 30
0
 70
128
 71
255
 72
250
 73
254
 74
254
 0
VERTEX
 8
D_SEN-_ZYLINDER_
 10
0
 20
0
 30
0
 70
128
 71
256
 72
251
 73
250
 74
255
 0
VERTEX
 8
D_SEN-_ZYLINDER_
 10
0
 20
0
 30
0
 70
128
 71
257
 72
251
 73
256
 74
256
 0
VERTEX
 8
D_SEN-_ZYLINDER_
 10
0
 20
0
 30
0
 70
128
 71
258
 72
252
 73
251
 74
257
 0
VERTEX
 8
D_SEN-_ZYLINDER_
 10
0
 20
0
 30
0
 70
128
 71
259
 72
252
 73
258
 74
258
 0
VERTEX
 8
D_SEN-_ZYLINDER_
 10
0
 20
0
 30
0
 70
128
 71
260
 72
249
 73
252
 74
259
 0
VERTEX
 8
D_SEN-_ZYLINDER_
 10
0
 20
0
 30
0
 70
128
 71
253
 72
249
 73
260
 74
260
 0
VERTEX
 8
D_SEN-_ZYLINDER_
 10
0
 20
0
 30
0
 70
128
 71
249
 72
250
 73
251
 74
252
 0
VERTEX
 8
D_SEN-_ZYLINDER_
 10
0
 20
0
 30
0
 70
128
 71
266
 72
262
 73
261
 74
265
 0
VERTEX
 8
D_SEN-_ZYLINDER_
 10
0
 20
0
 30
0
 70
128
 71
267
 72
262
 73
266
 74
266
 0
VERTEX
 8
D_SEN-_ZYLINDER_
 10
0
 20
0
 30
0
 70
128
 71
268
 72
263
 73
262
 74
267
 0
VERTEX
 8
D_SEN-_ZYLINDER_
 10
0
 20
0
 30
0
 70
128
 71
269
 72
263
 73
268
 74
268
 0
VERTEX
 8
D_SEN-_ZYLINDER_
 10
0
 20
0
 30
0
 70
128
 71
270
 72
264
 73
263
 74
269
 0
VERTEX
 8
D_SEN-_ZYLINDER_
 10
0
 20
0
 30
0
 70
128
 71
271
 72
264
 73
270
 74
270
 0
VERTEX
 8
D_SEN-_ZYLINDER_
 10
0
 20
0
 30
0
 70
128
 71
272
 72
261
 73
264
 74
271
 0
VERTEX
 8
D_SEN-_ZYLINDER_
 10
0
 20
0
 30
0
 70
128
 71
265
 72
261
 73
272
 74
272
 0
VERTEX
 8
D_SEN-_ZYLINDER_
 10
0
 20
0
 30
0
 70
128
 71
261
 72
262
 73
263
 74
264
 0
VERTEX
 8
D_SEN-_ZYLINDER_
 10
0
 20
0
 30
0
 70
128
 71
278
 72
274
 73
273
 74
277
 0
VERTEX
 8
D_SEN-_ZYLINDER_
 10
0
 20
0
 30
0
 70
128
 71
279
 72
274
 73
278
 74
278
 0
VERTEX
 8
D_SEN-_ZYLINDER_
 10
0
 20
0
 30
0
 70
128
 71
280
 72
275
 73
274
 74
279
 0
VERTEX
 8
D_SEN-_ZYLINDER_
 10
0
 20
0
 30
0
 70
128
 71
281
 72
275
 73
280
 74
280
 0
VERTEX
 8
D_SEN-_ZYLINDER_
 10
0
 20
0
 30
0
 70
128
 71
282
 72
276
 73
275
 74
281
 0
VERTEX
 8
D_SEN-_ZYLINDER_
 10
0
 20
0
 30
0
 70
128
 71
283
 72
276
 73
282
 74
282
 0
VERTEX
 8
D_SEN-_ZYLINDER_
 10
0
 20
0
 30
0
 70
128
 71
284
 72
273
 73
276
 74
283
 0
VERTEX
 8
D_SEN-_ZYLINDER_
 10
0
 20
0
 30
0
 70
128
 71
277
 72
273
 73
284
 74
284
 0
VERTEX
 8
D_SEN-_ZYLINDER_
 10
0
 20
0
 30
0
 70
128
 71
273
 72
274
 73
275
 74
276
 0
VERTEX
 8
D_SEN-_ZYLINDER_
 10
0
 20
0
 30
0
 70
128
 71
290
 72
286
 73
285
 74
289
 0
VERTEX
 8
D_SEN-_ZYLINDER_
 10
0
 20
0
 30
0
 70
128
 71
291
 72
286
 73
290
 74
290
 0
VERTEX
 8
D_SEN-_ZYLINDER_
 10
0
 20
0
 30
0
 70
128
 71
292
 72
287
 73
286
 74
291
 0
VERTEX
 8
D_SEN-_ZYLINDER_
 10
0
 20
0
 30
0
 70
128
 71
293
 72
287
 73
292
 74
292
 0
VERTEX
 8
D_SEN-_ZYLINDER_
 10
0
 20
0
 30
0
 70
128
 71
294
 72
288
 73
287
 74
293
 0
VERTEX
 8
D_SEN-_ZYLINDER_
 10
0
 20
0
 30
0
 70
128
 71
295
 72
288
 73
294
 74
294
 0
VERTEX
 8
D_SEN-_ZYLINDER_
 10
0
 20
0
 30
0
 70
128
 71
296
 72
285
 73
288
 74
295
 0
VERTEX
 8
D_SEN-_ZYLINDER_
 10
0
 20
0
 30
0
 70
128
 71
289
 72
285
 73
296
 74
296
 0
VERTEX
 8
D_SEN-_ZYLINDER_
 10
0
 20
0
 30
0
 70
128
 71
285
 72
286
 73
287
 74
288
 0
VERTEX
 8
D_SEN-_ZYLINDER_
 10
0
 20
0
 30
0
 70
128
 71
302
 72
298
 73
297
 74
301
 0
VERTEX
 8
D_SEN-_ZYLINDER_
 10
0
 20
0
 30
0
 70
128
 71
303
 72
298
 73
302
 74
302
 0
VERTEX
 8
D_SEN-_ZYLINDER_
 10
0
 20
0
 30
0
 70
128
 71
304
 72
299
 73
298
 74
303
 0
VERTEX
 8
D_SEN-_ZYLINDER_
 10
0
 20
0
 30
0
 70
128
 71
305
 72
299
 73
304
 74
304
 0
VERTEX
 8
D_SEN-_ZYLINDER_
 10
0
 20
0
 30
0
 70
128
 71
306
 72
300
 73
299
 74
305
 0
VERTEX
 8
D_SEN-_ZYLINDER_
 10
0
 20
0
 30
0
 70
128
 71
307
 72
300
 73
306
 74
306
 0
VERTEX
 8
D_SEN-_ZYLINDER_
 10
0
 20
0
 30
0
 70
128
 71
308
 72
297
 73
300
 74
307
 0
VERTEX
 8
D_SEN-_ZYLINDER_
 10
0
 20
0
 30
0
 70
128
 71
301
 72
297
 73
308
 74
308
 0
VERTEX
 8
D_SEN-_ZYLINDER_
 10
0
 20
0
 30
0
 70
128
 71
297
 72
298
 73
299
 74
300
 0
VERTEX
 8
D_SEN-_ZYLINDER_
 10
0
 20
0
 30
0
 70
128
 71
314
 72
310
 73
309
 74
313
 0
VERTEX
 8
D_SEN-_ZYLINDER_
 10
0
 20
0
 30
0
 70
128
 71
315
 72
310
 73
314
 74
314
 0
VERTEX
 8
D_SEN-_ZYLINDER_
 10
0
 20
0
 30
0
 70
128
 71
316
 72
311
 73
310
 74
315
 0
VERTEX
 8
D_SEN-_ZYLINDER_
 10
0
 20
0
 30
0
 70
128
 71
317
 72
311
 73
316
 74
316
 0
VERTEX
 8
D_SEN-_ZYLINDER_
 10
0
 20
0
 30
0
 70
128
 71
318
 72
312
 73
311
 74
317
 0
VERTEX
 8
D_SEN-_ZYLINDER_
 10
0
 20
0
 30
0
 70
128
 71
319
 72
312
 73
318
 74
318
 0
VERTEX
 8
D_SEN-_ZYLINDER_
 10
0
 20
0
 30
0
 70
128
 71
320
 72
309
 73
312
 74
319
 0
VERTEX
 8
D_SEN-_ZYLINDER_
 10
0
 20
0
 30
0
 70
128
 71
313
 72
309
 73
320
 74
320
 0
VERTEX
 8
D_SEN-_ZYLINDER_
 10
0
 20
0
 30
0
 70
128
 71
309
 72
310
 73
311
 74
312
 0
VERTEX
 8
D_SEN-_ZYLINDER_
 10
0
 20
0
 30
0
 70
128
 71
326
 72
322
 73
321
 74
325
 0
VERTEX
 8
D_SEN-_ZYLINDER_
 10
0
 20
0
 30
0
 70
128
 71
327
 72
322
 73
326
 74
326
 0
VERTEX
 8
D_SEN-_ZYLINDER_
 10
0
 20
0
 30
0
 70
128
 71
328
 72
323
 73
322
 74
327
 0
VERTEX
 8
D_SEN-_ZYLINDER_
 10
0
 20
0
 30
0
 70
128
 71
329
 72
323
 73
328
 74
328
 0
VERTEX
 8
D_SEN-_ZYLINDER_
 10
0
 20
0
 30
0
 70
128
 71
330
 72
324
 73
323
 74
329
 0
VERTEX
 8
D_SEN-_ZYLINDER_
 10
0
 20
0
 30
0
 70
128
 71
331
 72
324
 73
330
 74
330
 0
VERTEX
 8
D_SEN-_ZYLINDER_
 10
0
 20
0
 30
0
 70
128
 71
332
 72
321
 73
324
 74
331
 0
VERTEX
 8
D_SEN-_ZYLINDER_
 10
0
 20
0
 30
0
 70
128
 71
325
 72
321
 73
332
 74
332
 0
VERTEX
 8
D_SEN-_ZYLINDER_
 10
0
 20
0
 30
0
 70
128
 71
321
 72
322
 73
323
 74
324
 0
VERTEX
 8
D_SEN-_ZYLINDER_
 10
0
 20
0
 30
0
 70
128
 71
345
 72
338
 73
334
 74
333
 0
VERTEX
 8
D_SEN-_ZYLINDER_
 10
0
 20
0
 30
0
 70
128
 71
333
 72
339
 73
345
 74
345
 0
VERTEX
 8
D_SEN-_ZYLINDER_
 10
0
 20
0
 30
0
 70
128
 71
337
 72
334
 73
338
 74
338
 0
VERTEX
 8
D_SEN-_ZYLINDER_
 10
0
 20
0
 30
0
 70
128
 71
346
 72
335
 73
334
 74
337
 0
VERTEX
 8
D_SEN-_ZYLINDER_
 10
0
 20
0
 30
0
 70
128
 71
335
 72
346
 73
342
 74
342
 0
VERTEX
 8
D_SEN-_ZYLINDER_
 10
0
 20
0
 30
0
 70
128
 71
333
 72
334
 73
335
 74
336
 0
VERTEX
 8
D_SEN-_ZYLINDER_
 10
0
 20
0
 30
0
 70
128
 71
341
 72
336
 73
335
 74
342
 0
VERTEX
 8
D_SEN-_ZYLINDER_
 10
0
 20
0
 30
0
 70
128
 71
343
 72
336
 73
341
 74
341
 0
VERTEX
 8
D_SEN-_ZYLINDER_
 10
0
 20
0
 30
0
 70
128
 71
344
 72
333
 73
336
 74
343
 0
VERTEX
 8
D_SEN-_ZYLINDER_
 10
0
 20
0
 30
0
 70
128
 71
339
 72
333
 73
344
 74
344
 0
VERTEX
 8
D_SEN-_ZYLINDER_
 10
0
 20
0
 30
0
 70
128
 71
352
 72
348
 73
347
 74
351
 0
VERTEX
 8
D_SEN-_ZYLINDER_
 10
0
 20
0
 30
0
 70
128
 71
353
 72
348
 73
352
 74
352
 0
VERTEX
 8
D_SEN-_ZYLINDER_
 10
0
 20
0
 30
0
 70
128
 71
354
 72
349
 73
348
 74
353
 0
VERTEX
 8
D_SEN-_ZYLINDER_
 10
0
 20
0
 30
0
 70
128
 71
355
 72
349
 73
354
 74
354
 0
VERTEX
 8
D_SEN-_ZYLINDER_
 10
0
 20
0
 30
0
 70
128
 71
356
 72
350
 73
349
 74
355
 0
VERTEX
 8
D_SEN-_ZYLINDER_
 10
0
 20
0
 30
0
 70
128
 71
357
 72
350
 73
356
 74
356
 0
VERTEX
 8
D_SEN-_ZYLINDER_
 10
0
 20
0
 30
0
 70
128
 71
358
 72
347
 73
350
 74
357
 0
VERTEX
 8
D_SEN-_ZYLINDER_
 10
0
 20
0
 30
0
 70
128
 71
351
 72
347
 73
358
 74
358
 0
VERTEX
 8
D_SEN-_ZYLINDER_
 10
0
 20
0
 30
0
 70
128
 71
347
 72
348
 73
349
 74
350
 0
VERTEX
 8
D_SEN-_ZYLINDER_
 10
0
 20
0
 30
0
 70
128
 71
364
 72
360
 73
359
 74
363
 0
VERTEX
 8
D_SEN-_ZYLINDER_
 10
0
 20
0
 30
0
 70
128
 71
365
 72
360
 73
364
 74
364
 0
VERTEX
 8
D_SEN-_ZYLINDER_
 10
0
 20
0
 30
0
 70
128
 71
366
 72
361
 73
360
 74
365
 0
VERTEX
 8
D_SEN-_ZYLINDER_
 10
0
 20
0
 30
0
 70
128
 71
367
 72
361
 73
366
 74
366
 0
VERTEX
 8
D_SEN-_ZYLINDER_
 10
0
 20
0
 30
0
 70
128
 71
368
 72
362
 73
361
 74
367
 0
VERTEX
 8
D_SEN-_ZYLINDER_
 10
0
 20
0
 30
0
 70
128
 71
369
 72
362
 73
368
 74
368
 0
VERTEX
 8
D_SEN-_ZYLINDER_
 10
0
 20
0
 30
0
 70
128
 71
370
 72
359
 73
362
 74
369
 0
VERTEX
 8
D_SEN-_ZYLINDER_
 10
0
 20
0
 30
0
 70
128
 71
363
 72
359
 73
370
 74
370
 0
VERTEX
 8
D_SEN-_ZYLINDER_
 10
0
 20
0
 30
0
 70
128
 71
359
 72
360
 73
361
 74
362
 0
VERTEX
 8
D_SEN-_ZYLINDER_
 10
0
 20
0
 30
0
 70
128
 71
376
 72
372
 73
371
 74
375
 0
VERTEX
 8
D_SEN-_ZYLINDER_
 10
0
 20
0
 30
0
 70
128
 71
377
 72
372
 73
376
 74
376
 0
VERTEX
 8
D_SEN-_ZYLINDER_
 10
0
 20
0
 30
0
 70
128
 71
378
 72
373
 73
372
 74
377
 0
VERTEX
 8
D_SEN-_ZYLINDER_
 10
0
 20
0
 30
0
 70
128
 71
379
 72
373
 73
378
 74
378
 0
VERTEX
 8
D_SEN-_ZYLINDER_
 10
0
 20
0
 30
0
 70
128
 71
380
 72
374
 73
373
 74
379
 0
VERTEX
 8
D_SEN-_ZYLINDER_
 10
0
 20
0
 30
0
 70
128
 71
381
 72
374
 73
380
 74
380
 0
VERTEX
 8
D_SEN-_ZYLINDER_
 10
0
 20
0
 30
0
 70
128
 71
382
 72
371
 73
374
 74
381
 0
VERTEX
 8
D_SEN-_ZYLINDER_
 10
0
 20
0
 30
0
 70
128
 71
375
 72
371
 73
382
 74
382
 0
VERTEX
 8
D_SEN-_ZYLINDER_
 10
0
 20
0
 30
0
 70
128
 71
371
 72
372
 73
373
 74
374
 0
VERTEX
 8
D_SEN-_ZYLINDER_
 10
0
 20
0
 30
0
 70
128
 71
388
 72
384
 73
395
 74
395
 0
VERTEX
 8
D_SEN-_ZYLINDER_
 10
0
 20
0
 30
0
 70
128
 71
395
 72
384
 73
383
 74
389
 0
VERTEX
 8
D_SEN-_ZYLINDER_
 10
0
 20
0
 30
0
 70
128
 71
387
 72
384
 73
388
 74
388
 0
VERTEX
 8
D_SEN-_ZYLINDER_
 10
0
 20
0
 30
0
 70
128
 71
390
 72
385
 73
384
 74
387
 0
VERTEX
 8
D_SEN-_ZYLINDER_
 10
0
 20
0
 30
0
 70
128
 71
391
 72
385
 73
390
 74
390
 0
VERTEX
 8
D_SEN-_ZYLINDER_
 10
0
 20
0
 30
0
 70
128
 71
392
 72
386
 73
385
 74
391
 0
VERTEX
 8
D_SEN-_ZYLINDER_
 10
0
 20
0
 30
0
 70
128
 71
396
 72
393
 73
386
 74
392
 0
VERTEX
 8
D_SEN-_ZYLINDER_
 10
0
 20
0
 30
0
 70
128
 71
383
 72
384
 73
385
 74
386
 0
VERTEX
 8
D_SEN-_ZYLINDER_
 10
0
 20
0
 30
0
 70
128
 71
394
 72
383
 73
386
 74
393
 0
VERTEX
 8
D_SEN-_ZYLINDER_
 10
0
 20
0
 30
0
 70
128
 71
389
 72
383
 73
394
 74
394
 0
VERTEX
 8
D_SEN-_ZYLINDER_
 10
0
 20
0
 30
0
 70
128
 71
402
 72
398
 73
397
 74
401
 0
VERTEX
 8
D_SEN-_ZYLINDER_
 10
0
 20
0
 30
0
 70
128
 71
403
 72
398
 73
402
 74
402
 0
VERTEX
 8
D_SEN-_ZYLINDER_
 10
0
 20
0
 30
0
 70
128
 71
404
 72
399
 73
398
 74
403
 0
VERTEX
 8
D_SEN-_ZYLINDER_
 10
0
 20
0
 30
0
 70
128
 71
405
 72
399
 73
404
 74
404
 0
VERTEX
 8
D_SEN-_ZYLINDER_
 10
0
 20
0
 30
0
 70
128
 71
406
 72
400
 73
399
 74
405
 0
VERTEX
 8
D_SEN-_ZYLINDER_
 10
0
 20
0
 30
0
 70
128
 71
407
 72
400
 73
406
 74
406
 0
VERTEX
 8
D_SEN-_ZYLINDER_
 10
0
 20
0
 30
0
 70
128
 71
408
 72
397
 73
400
 74
407
 0
VERTEX
 8
D_SEN-_ZYLINDER_
 10
0
 20
0
 30
0
 70
128
 71
401
 72
397
 73
408
 74
408
 0
VERTEX
 8
D_SEN-_ZYLINDER_
 10
0
 20
0
 30
0
 70
128
 71
397
 72
398
 73
399
 74
400
 0
VERTEX
 8
D_SEN-_ZYLINDER_
 10
0
 20
0
 30
0
 70
128
 71
414
 72
410
 73
409
 74
413
 0
VERTEX
 8
D_SEN-_ZYLINDER_
 10
0
 20
0
 30
0
 70
128
 71
415
 72
410
 73
414
 74
414
 0
VERTEX
 8
D_SEN-_ZYLINDER_
 10
0
 20
0
 30
0
 70
128
 71
416
 72
411
 73
410
 74
415
 0
VERTEX
 8
D_SEN-_ZYLINDER_
 10
0
 20
0
 30
0
 70
128
 71
417
 72
411
 73
416
 74
416
 0
VERTEX
 8
D_SEN-_ZYLINDER_
 10
0
 20
0
 30
0
 70
128
 71
418
 72
412
 73
411
 74
417
 0
VERTEX
 8
D_SEN-_ZYLINDER_
 10
0
 20
0
 30
0
 70
128
 71
419
 72
412
 73
418
 74
418
 0
VERTEX
 8
D_SEN-_ZYLINDER_
 10
0
 20
0
 30
0
 70
128
 71
420
 72
409
 73
412
 74
419
 0
VERTEX
 8
D_SEN-_ZYLINDER_
 10
0
 20
0
 30
0
 70
128
 71
413
 72
409
 73
420
 74
420
 0
VERTEX
 8
D_SEN-_ZYLINDER_
 10
0
 20
0
 30
0
 70
128
 71
409
 72
410
 73
411
 74
412
 0
VERTEX
 8
D_SEN-_ZYLINDER_
 10
0
 20
0
 30
0
 70
128
 71
426
 72
422
 73
421
 74
425
 0
VERTEX
 8
D_SEN-_ZYLINDER_
 10
0
 20
0
 30
0
 70
128
 71
427
 72
422
 73
426
 74
426
 0
VERTEX
 8
D_SEN-_ZYLINDER_
 10
0
 20
0
 30
0
 70
128
 71
428
 72
423
 73
422
 74
427
 0
VERTEX
 8
D_SEN-_ZYLINDER_
 10
0
 20
0
 30
0
 70
128
 71
429
 72
423
 73
428
 74
428
 0
VERTEX
 8
D_SEN-_ZYLINDER_
 10
0
 20
0
 30
0
 70
128
 71
430
 72
424
 73
423
 74
429
 0
VERTEX
 8
D_SEN-_ZYLINDER_
 10
0
 20
0
 30
0
 70
128
 71
431
 72
424
 73
430
 74
430
 0
VERTEX
 8
D_SEN-_ZYLINDER_
 10
0
 20
0
 30
0
 70
128
 71
432
 72
421
 73
424
 74
431
 0
VERTEX
 8
D_SEN-_ZYLINDER_
 10
0
 20
0
 30
0
 70
128
 71
425
 72
421
 73
432
 74
432
 0
VERTEX
 8
D_SEN-_ZYLINDER_
 10
0
 20
0
 30
0
 70
128
 71
421
 72
422
 73
423
 74
424
 0
VERTEX
 8
D_SEN-_ZYLINDER_
 10
0
 20
0
 30
0
 70
128
 71
438
 72
434
 73
433
 74
437
 0
VERTEX
 8
D_SEN-_ZYLINDER_
 10
0
 20
0
 30
0
 70
128
 71
439
 72
434
 73
438
 74
438
 0
VERTEX
 8
D_SEN-_ZYLINDER_
 10
0
 20
0
 30
0
 70
128
 71
440
 72
435
 73
434
 74
439
 0
VERTEX
 8
D_SEN-_ZYLINDER_
 10
0
 20
0
 30
0
 70
128
 71
441
 72
435
 73
440
 74
440
 0
VERTEX
 8
D_SEN-_ZYLINDER_
 10
0
 20
0
 30
0
 70
128
 71
442
 72
436
 73
435
 74
441
 0
VERTEX
 8
D_SEN-_ZYLINDER_
 10
0
 20
0
 30
0
 70
128
 71
443
 72
436
 73
442
 74
442
 0
VERTEX
 8
D_SEN-_ZYLINDER_
 10
0
 20
0
 30
0
 70
128
 71
444
 72
433
 73
436
 74
443
 0
VERTEX
 8
D_SEN-_ZYLINDER_
 10
0
 20
0
 30
0
 70
128
 71
437
 72
433
 73
444
 74
444
 0
VERTEX
 8
D_SEN-_ZYLINDER_
 10
0
 20
0
 30
0
 70
128
 71
433
 72
434
 73
435
 74
436
 0
VERTEX
 8
D_SEN-_ZYLINDER_
 10
0
 20
0
 30
0
 70
128
 71
450
 72
446
 73
445
 74
449
 0
VERTEX
 8
D_SEN-_ZYLINDER_
 10
0
 20
0
 30
0
 70
128
 71
451
 72
446
 73
450
 74
450
 0
VERTEX
 8
D_SEN-_ZYLINDER_
 10
0
 20
0
 30
0
 70
128
 71
452
 72
447
 73
446
 74
451
 0
VERTEX
 8
D_SEN-_ZYLINDER_
 10
0
 20
0
 30
0
 70
128
 71
453
 72
447
 73
452
 74
452
 0
VERTEX
 8
D_SEN-_ZYLINDER_
 10
0
 20
0
 30
0
 70
128
 71
454
 72
448
 73
447
 74
453
 0
VERTEX
 8
D_SEN-_ZYLINDER_
 10
0
 20
0
 30
0
 70
128
 71
455
 72
448
 73
454
 74
454
 0
VERTEX
 8
D_SEN-_ZYLINDER_
 10
0
 20
0
 30
0
 70
128
 71
456
 72
445
 73
448
 74
455
 0
VERTEX
 8
D_SEN-_ZYLINDER_
 10
0
 20
0
 30
0
 70
128
 71
449
 72
445
 73
456
 74
456
 0
VERTEX
 8
D_SEN-_ZYLINDER_
 10
0
 20
0
 30
0
 70
128
 71
445
 72
446
 73
447
 74
448
 0
VERTEX
 8
D_SEN-_ZYLINDER_
 10
0
 20
0
 30
0
 70
128
 71
462
 72
458
 73
457
 74
461
 0
VERTEX
 8
D_SEN-_ZYLINDER_
 10
0
 20
0
 30
0
 70
128
 71
463
 72
458
 73
462
 74
462
 0
VERTEX
 8
D_SEN-_ZYLINDER_
 10
0
 20
0
 30
0
 70
128
 71
464
 72
459
 73
458
 74
463
 0
VERTEX
 8
D_SEN-_ZYLINDER_
 10
0
 20
0
 30
0
 70
128
 71
465
 72
459
 73
464
 74
464
 0
VERTEX
 8
D_SEN-_ZYLINDER_
 10
0
 20
0
 30
0
 70
128
 71
466
 72
460
 73
459
 74
465
 0
VERTEX
 8
D_SEN-_ZYLINDER_
 10
0
 20
0
 30
0
 70
128
 71
467
 72
460
 73
466
 74
466
 0
VERTEX
 8
D_SEN-_ZYLINDER_
 10
0
 20
0
 30
0
 70
128
 71
468
 72
457
 73
460
 74
467
 0
VERTEX
 8
D_SEN-_ZYLINDER_
 10
0
 20
0
 30
0
 70
128
 71
461
 72
457
 73
468
 74
468
 0
VERTEX
 8
D_SEN-_ZYLINDER_
 10
0
 20
0
 30
0
 70
128
 71
457
 72
458
 73
459
 74
460
 0
VERTEX
 8
D_SEN-_ZYLINDER_
 10
0
 20
0
 30
0
 70
128
 71
474
 72
470
 73
469
 74
473
 0
VERTEX
 8
D_SEN-_ZYLINDER_
 10
0
 20
0
 30
0
 70
128
 71
475
 72
470
 73
474
 74
474
 0
VERTEX
 8
D_SEN-_ZYLINDER_
 10
0
 20
0
 30
0
 70
128
 71
476
 72
471
 73
470
 74
475
 0
VERTEX
 8
D_SEN-_ZYLINDER_
 10
0
 20
0
 30
0
 70
128
 71
477
 72
471
 73
476
 74
476
 0
VERTEX
 8
D_SEN-_ZYLINDER_
 10
0
 20
0
 30
0
 70
128
 71
478
 72
472
 73
471
 74
477
 0
VERTEX
 8
D_SEN-_ZYLINDER_
 10
0
 20
0
 30
0
 70
128
 71
479
 72
472
 73
478
 74
478
 0
VERTEX
 8
D_SEN-_ZYLINDER_
 10
0
 20
0
 30
0
 70
128
 71
480
 72
469
 73
472
 74
479
 0
VERTEX
 8
D_SEN-_ZYLINDER_
 10
0
 20
0
 30
0
 70
128
 71
473
 72
469
 73
480
 74
480
 0
VERTEX
 8
D_SEN-_ZYLINDER_
 10
0
 20
0
 30
0
 70
128
 71
469
 72
470
 73
471
 74
472
 0
VERTEX
 8
D_SEN-_ZYLINDER_
 10
0
 20
0
 30
0
 70
128
 71
486
 72
482
 73
481
 74
485
 0
VERTEX
 8
D_SEN-_ZYLINDER_
 10
0
 20
0
 30
0
 70
128
 71
487
 72
482
 73
486
 74
486
 0
VERTEX
 8
D_SEN-_ZYLINDER_
 10
0
 20
0
 30
0
 70
128
 71
488
 72
483
 73
482
 74
487
 0
VERTEX
 8
D_SEN-_ZYLINDER_
 10
0
 20
0
 30
0
 70
128
 71
489
 72
483
 73
488
 74
488
 0
VERTEX
 8
D_SEN-_ZYLINDER_
 10
0
 20
0
 30
0
 70
128
 71
490
 72
484
 73
483
 74
489
 0
VERTEX
 8
D_SEN-_ZYLINDER_
 10
0
 20
0
 30
0
 70
128
 71
490
 72
492
 73
484
 74
484
 0
VERTEX
 8
D_SEN-_ZYLINDER_
 10
0
 20
0
 30
0
 70
128
 71
481
 72
482
 73
483
 74
484
 0
VERTEX
 8
D_SEN-_ZYLINDER_
 10
0
 20
0
 30
0
 70
128
 71
491
 72
481
 73
484
 74
492
 0
VERTEX
 8
D_SEN-_ZYLINDER_
 10
0
 20
0
 30
0
 70
128
 71
485
 72
481
 73
491
 74
491
 0
VERTEX
 8
D_SEN-_ZYLINDER_
 10
0
 20
0
 30
0
 70
128
 71
498
 72
495
 73
494
 74
506
 0
VERTEX
 8
D_SEN-_ZYLINDER_
 10
0
 20
0
 30
0
 70
128
 71
499
 72
495
 73
498
 74
498
 0
VERTEX
 8
D_SEN-_ZYLINDER_
 10
0
 20
0
 30
0
 70
128
 71
505
 72
496
 73
495
 74
499
 0
VERTEX
 8
D_SEN-_ZYLINDER_
 10
0
 20
0
 30
0
 70
128
 71
496
 72
505
 73
502
 74
502
 0
VERTEX
 8
D_SEN-_ZYLINDER_
 10
0
 20
0
 30
0
 70
128
 71
494
 72
495
 73
496
 74
497
 0
VERTEX
 8
D_SEN-_ZYLINDER_
 10
0
 20
0
 30
0
 70
128
 71
501
 72
497
 73
496
 74
502
 0
VERTEX
 8
D_SEN-_ZYLINDER_
 10
0
 20
0
 30
0
 70
128
 71
504
 72
497
 73
501
 74
501
 0
VERTEX
 8
D_SEN-_ZYLINDER_
 10
0
 20
0
 30
0
 70
128
 71
503
 72
494
 73
497
 74
504
 0
VERTEX
 8
D_SEN-_ZYLINDER_
 10
0
 20
0
 30
0
 70
128
 71
506
 72
494
 73
503
 74
503
 0
VERTEX
 8
D_SEN-_ZYLINDER_
 10
0
 20
0
 30
0
 70
128
 71
512
 72
508
 73
507
 74
511
 0
VERTEX
 8
D_SEN-_ZYLINDER_
 10
0
 20
0
 30
0
 70
128
 71
513
 72
508
 73
512
 74
512
 0
VERTEX
 8
D_SEN-_ZYLINDER_
 10
0
 20
0
 30
0
 70
128
 71
514
 72
509
 73
508
 74
513
 0
VERTEX
 8
D_SEN-_ZYLINDER_
 10
0
 20
0
 30
0
 70
128
 71
515
 72
509
 73
514
 74
514
 0
VERTEX
 8
D_SEN-_ZYLINDER_
 10
0
 20
0
 30
0
 70
128
 71
516
 72
510
 73
509
 74
515
 0
VERTEX
 8
D_SEN-_ZYLINDER_
 10
0
 20
0
 30
0
 70
128
 71
517
 72
510
 73
516
 74
516
 0
VERTEX
 8
D_SEN-_ZYLINDER_
 10
0
 20
0
 30
0
 70
128
 71
518
 72
507
 73
510
 74
517
 0
VERTEX
 8
D_SEN-_ZYLINDER_
 10
0
 20
0
 30
0
 70
128
 71
511
 72
507
 73
518
 74
518
 0
VERTEX
 8
D_SEN-_ZYLINDER_
 10
0
 20
0
 30
0
 70
128
 71
507
 72
508
 73
509
 74
510
 0
VERTEX
 8
D_SEN-_ZYLINDER_
 10
0
 20
0
 30
0
 70
128
 71
524
 72
520
 73
519
 74
523
 0
VERTEX
 8
D_SEN-_ZYLINDER_
 10
0
 20
0
 30
0
 70
128
 71
525
 72
520
 73
524
 74
524
 0
VERTEX
 8
D_SEN-_ZYLINDER_
 10
0
 20
0
 30
0
 70
128
 71
526
 72
521
 73
520
 74
525
 0
VERTEX
 8
D_SEN-_ZYLINDER_
 10
0
 20
0
 30
0
 70
128
 71
527
 72
521
 73
526
 74
526
 0
VERTEX
 8
D_SEN-_ZYLINDER_
 10
0
 20
0
 30
0
 70
128
 71
528
 72
522
 73
521
 74
527
 0
VERTEX
 8
D_SEN-_ZYLINDER_
 10
0
 20
0
 30
0
 70
128
 71
529
 72
522
 73
528
 74
528
 0
VERTEX
 8
D_SEN-_ZYLINDER_
 10
0
 20
0
 30
0
 70
128
 71
530
 72
519
 73
522
 74
529
 0
VERTEX
 8
D_SEN-_ZYLINDER_
 10
0
 20
0
 30
0
 70
128
 71
523
 72
519
 73
530
 74
530
 0
VERTEX
 8
D_SEN-_ZYLINDER_
 10
0
 20
0
 30
0
 70
128
 71
519
 72
520
 73
521
 74
522
 0
VERTEX
 8
D_SEN-_ZYLINDER_
 10
0
 20
0
 30
0
 70
128
 71
536
 72
532
 73
531
 74
535
 0
VERTEX
 8
D_SEN-_ZYLINDER_
 10
0
 20
0
 30
0
 70
128
 71
537
 72
532
 73
536
 74
536
 0
VERTEX
 8
D_SEN-_ZYLINDER_
 10
0
 20
0
 30
0
 70
128
 71
538
 72
533
 73
532
 74
537
 0
VERTEX
 8
D_SEN-_ZYLINDER_
 10
0
 20
0
 30
0
 70
128
 71
539
 72
533
 73
538
 74
538
 0
VERTEX
 8
D_SEN-_ZYLINDER_
 10
0
 20
0
 30
0
 70
128
 71
540
 72
534
 73
533
 74
539
 0
VERTEX
 8
D_SEN-_ZYLINDER_
 10
0
 20
0
 30
0
 70
128
 71
541
 72
534
 73
540
 74
540
 0
VERTEX
 8
D_SEN-_ZYLINDER_
 10
0
 20
0
 30
0
 70
128
 71
542
 72
531
 73
534
 74
541
 0
VERTEX
 8
D_SEN-_ZYLINDER_
 10
0
 20
0
 30
0
 70
128
 71
535
 72
531
 73
542
 74
542
 0
VERTEX
 8
D_SEN-_ZYLINDER_
 10
0
 20
0
 30
0
 70
128
 71
531
 72
532
 73
533
 74
534
 0
VERTEX
 8
D_SEN-_ZYLINDER_
 10
0
 20
0
 30
0
 70
128
 71
548
 72
544
 73
543
 74
547
 0
VERTEX
 8
D_SEN-_ZYLINDER_
 10
0
 20
0
 30
0
 70
128
 71
549
 72
544
 73
548
 74
548
 0
VERTEX
 8
D_SEN-_ZYLINDER_
 10
0
 20
0
 30
0
 70
128
 71
550
 72
545
 73
544
 74
549
 0
VERTEX
 8
D_SEN-_ZYLINDER_
 10
0
 20
0
 30
0
 70
128
 71
551
 72
545
 73
550
 74
550
 0
VERTEX
 8
D_SEN-_ZYLINDER_
 10
0
 20
0
 30
0
 70
128
 71
552
 72
546
 73
545
 74
551
 0
VERTEX
 8
D_SEN-_ZYLINDER_
 10
0
 20
0
 30
0
 70
128
 71
553
 72
546
 73
552
 74
552
 0
VERTEX
 8
D_SEN-_ZYLINDER_
 10
0
 20
0
 30
0
 70
128
 71
554
 72
543
 73
546
 74
553
 0
VERTEX
 8
D_SEN-_ZYLINDER_
 10
0
 20
0
 30
0
 70
128
 71
547
 72
543
 73
554
 74
554
 0
VERTEX
 8
D_SEN-_ZYLINDER_
 10
0
 20
0
 30
0
 70
128
 71
543
 72
544
 73
545
 74
546
 0
VERTEX
 8
D_SEN-_ZYLINDER_
 10
0
 20
0
 30
0
 70
128
 71
560
 72
556
 73
555
 74
559
 0
VERTEX
 8
D_SEN-_ZYLINDER_
 10
0
 20
0
 30
0
 70
128
 71
561
 72
556
 73
560
 74
560
 0
VERTEX
 8
D_SEN-_ZYLINDER_
 10
0
 20
0
 30
0
 70
128
 71
562
 72
557
 73
556
 74
561
 0
VERTEX
 8
D_SEN-_ZYLINDER_
 10
0
 20
0
 30
0
 70
128
 71
563
 72
557
 73
562
 74
562
 0
VERTEX
 8
D_SEN-_ZYLINDER_
 10
0
 20
0
 30
0
 70
128
 71
564
 72
558
 73
557
 74
563
 0
VERTEX
 8
D_SEN-_ZYLINDER_
 10
0
 20
0
 30
0
 70
128
 71
565
 72
558
 73
564
 74
564
 0
VERTEX
 8
D_SEN-_ZYLINDER_
 10
0
 20
0
 30
0
 70
128
 71
566
 72
555
 73
558
 74
565
 0
VERTEX
 8
D_SEN-_ZYLINDER_
 10
0
 20
0
 30
0
 70
128
 71
559
 72
555
 73
566
 74
566
 0
VERTEX
 8
D_SEN-_ZYLINDER_
 10
0
 20
0
 30
0
 70
128
 71
555
 72
556
 73
557
 74
558
 0
VERTEX
 8
D_SEN-_ZYLINDER_
 10
0
 20
0
 30
0
 70
128
 71
580
 72
568
 73
567
 74
577
 0
VERTEX
 8
D_SEN-_ZYLINDER_
 10
0
 20
0
 30
0
 70
128
 71
493
 72
995
 73
998
 74
340
 0
VERTEX
 8
D_SEN-_ZYLINDER_
 10
0
 20
0
 30
0
 70
128
 71
574
 72
568
 73
580
 74
580
 0
VERTEX
 8
D_SEN-_ZYLINDER_
 10
0
 20
0
 30
0
 70
128
 71
999
 72
995
 73
493
 74
493
 0
VERTEX
 8
D_SEN-_ZYLINDER_
 10
0
 20
0
 30
0
 70
128
 71
568
 72
574
 73
578
 74
582
 0
VERTEX
 8
D_SEN-_ZYLINDER_
 10
0
 20
0
 30
0
 70
128
 71
995
 72
996
 73
997
 74
998
 0
VERTEX
 8
D_SEN-_ZYLINDER_
 10
0
 20
0
 30
0
 70
128
 71
569
 72
568
 73
583
 74
579
 0
VERTEX
 8
D_SEN-_ZYLINDER_
 10
0
 20
0
 30
0
 70
128
 71
568
 72
582
 73
583
 74
583
 0
VERTEX
 8
D_SEN-_ZYLINDER_
 10
0
 20
0
 30
0
 70
128
 71
572
 72
569
 73
579
 74
579
 0
VERTEX
 8
D_SEN-_ZYLINDER_
 10
0
 20
0
 30
0
 70
128
 71
584
 72
573
 73
500
 74
581
 0
VERTEX
 8
D_SEN-_ZYLINDER_
 10
0
 20
0
 30
0
 70
128
 71
569
 72
572
 73
585
 74
585
 0
VERTEX
 8
D_SEN-_ZYLINDER_
 10
0
 20
0
 30
0
 70
128
 71
569
 72
585
 73
587
 74
587
 0
VERTEX
 8
D_SEN-_ZYLINDER_
 10
0
 20
0
 30
0
 70
128
 71
586
 72
573
 73
584
 74
584
 0
VERTEX
 8
D_SEN-_ZYLINDER_
 10
0
 20
0
 30
0
 70
128
 71
570
 72
591
 73
592
 74
592
 0
VERTEX
 8
D_SEN-_ZYLINDER_
 10
0
 20
0
 30
0
 70
128
 71
569
 72
587
 73
589
 74
589
 0
VERTEX
 8
D_SEN-_ZYLINDER_
 10
0
 20
0
 30
0
 70
128
 71
588
 72
575
 73
573
 74
586
 0
VERTEX
 8
D_SEN-_ZYLINDER_
 10
0
 20
0
 30
0
 70
128
 71
589
 72
591
 73
570
 74
569
 0
VERTEX
 8
D_SEN-_ZYLINDER_
 10
0
 20
0
 30
0
 70
128
 71
590
 72
575
 73
588
 74
588
 0
VERTEX
 8
D_SEN-_ZYLINDER_
 10
0
 20
0
 30
0
 70
128
 71
669
 72
576
 73
575
 74
590
 0
VERTEX
 8
D_SEN-_ZYLINDER_
 10
0
 20
0
 30
0
 70
128
 71
763
 72
576
 73
669
 74
669
 0
VERTEX
 8
D_SEN-_ZYLINDER_
 10
0
 20
0
 30
0
 70
128
 71
765
 72
500
 73
576
 74
763
 0
VERTEX
 8
D_SEN-_ZYLINDER_
 10
0
 20
0
 30
0
 70
128
 71
594
 72
570
 73
593
 74
593
 0
VERTEX
 8
D_SEN-_ZYLINDER_
 10
0
 20
0
 30
0
 70
128
 71
570
 72
592
 73
593
 74
593
 0
VERTEX
 8
D_SEN-_ZYLINDER_
 10
0
 20
0
 30
0
 70
128
 71
571
 72
567
 73
596
 74
596
 0
VERTEX
 8
D_SEN-_ZYLINDER_
 10
0
 20
0
 30
0
 70
128
 71
596
 72
567
 73
570
 74
595
 0
VERTEX
 8
D_SEN-_ZYLINDER_
 10
0
 20
0
 30
0
 70
128
 71
570
 72
594
 73
595
 74
595
 0
VERTEX
 8
D_SEN-_ZYLINDER_
 10
0
 20
0
 30
0
 70
128
 71
597
 72
577
 73
567
 74
567
 0
VERTEX
 8
D_SEN-_ZYLINDER_
 10
0
 20
0
 30
0
 70
128
 71
597
 72
567
 73
571
 74
571
 0
VERTEX
 8
D_SEN-_ZYLINDER_
 10
0
 20
0
 30
0
 70
128
 71
567
 72
568
 73
569
 74
570
 0
VERTEX
 8
D_SEN-_ZYLINDER_
 10
0
 20
0
 30
0
 70
128
 71
603
 72
599
 73
598
 74
602
 0
VERTEX
 8
D_SEN-_ZYLINDER_
 10
0
 20
0
 30
0
 70
128
 71
604
 72
599
 73
603
 74
603
 0
VERTEX
 8
D_SEN-_ZYLINDER_
 10
0
 20
0
 30
0
 70
128
 71
605
 72
600
 73
599
 74
604
 0
VERTEX
 8
D_SEN-_ZYLINDER_
 10
0
 20
0
 30
0
 70
128
 71
610
 72
606
 73
600
 74
605
 0
VERTEX
 8
D_SEN-_ZYLINDER_
 10
0
 20
0
 30
0
 70
128
 71
598
 72
599
 73
600
 74
601
 0
VERTEX
 8
D_SEN-_ZYLINDER_
 10
0
 20
0
 30
0
 70
128
 71
608
 72
601
 73
600
 74
606
 0
VERTEX
 8
D_SEN-_ZYLINDER_
 10
0
 20
0
 30
0
 70
128
 71
609
 72
601
 73
608
 74
611
 0
VERTEX
 8
D_SEN-_ZYLINDER_
 10
0
 20
0
 30
0
 70
128
 71
602
 72
598
 73
607
 74
607
 0
VERTEX
 8
D_SEN-_ZYLINDER_
 10
0
 20
0
 30
0
 70
128
 71
607
 72
598
 73
601
 74
609
 0
VERTEX
 8
D_SEN-_ZYLINDER_
 10
0
 20
0
 30
0
 70
128
 71
617
 72
613
 73
612
 74
616
 0
VERTEX
 8
D_SEN-_ZYLINDER_
 10
0
 20
0
 30
0
 70
128
 71
618
 72
613
 73
617
 74
617
 0
VERTEX
 8
D_SEN-_ZYLINDER_
 10
0
 20
0
 30
0
 70
128
 71
619
 72
614
 73
613
 74
618
 0
VERTEX
 8
D_SEN-_ZYLINDER_
 10
0
 20
0
 30
0
 70
128
 71
624
 72
620
 73
614
 74
619
 0
VERTEX
 8
D_SEN-_ZYLINDER_
 10
0
 20
0
 30
0
 70
128
 71
612
 72
613
 73
614
 74
615
 0
VERTEX
 8
D_SEN-_ZYLINDER_
 10
0
 20
0
 30
0
 70
128
 71
622
 72
615
 73
614
 74
620
 0
VERTEX
 8
D_SEN-_ZYLINDER_
 10
0
 20
0
 30
0
 70
128
 71
615
 72
622
 73
625
 74
623
 0
VERTEX
 8
D_SEN-_ZYLINDER_
 10
0
 20
0
 30
0
 70
128
 71
616
 72
612
 73
621
 74
621
 0
VERTEX
 8
D_SEN-_ZYLINDER_
 10
0
 20
0
 30
0
 70
128
 71
621
 72
612
 73
615
 74
623
 0
VERTEX
 8
D_SEN-_ZYLINDER_
 10
0
 20
0
 30
0
 70
128
 71
631
 72
627
 73
626
 74
630
 0
VERTEX
 8
D_SEN-_ZYLINDER_
 10
0
 20
0
 30
0
 70
128
 71
632
 72
627
 73
631
 74
631
 0
VERTEX
 8
D_SEN-_ZYLINDER_
 10
0
 20
0
 30
0
 70
128
 71
633
 72
628
 73
627
 74
632
 0
VERTEX
 8
D_SEN-_ZYLINDER_
 10
0
 20
0
 30
0
 70
128
 71
638
 72
634
 73
628
 74
633
 0
VERTEX
 8
D_SEN-_ZYLINDER_
 10
0
 20
0
 30
0
 70
128
 71
626
 72
627
 73
628
 74
629
 0
VERTEX
 8
D_SEN-_ZYLINDER_
 10
0
 20
0
 30
0
 70
128
 71
636
 72
629
 73
628
 74
634
 0
VERTEX
 8
D_SEN-_ZYLINDER_
 10
0
 20
0
 30
0
 70
128
 71
629
 72
636
 73
639
 74
637
 0
VERTEX
 8
D_SEN-_ZYLINDER_
 10
0
 20
0
 30
0
 70
128
 71
630
 72
626
 73
635
 74
635
 0
VERTEX
 8
D_SEN-_ZYLINDER_
 10
0
 20
0
 30
0
 70
128
 71
635
 72
626
 73
629
 74
637
 0
VERTEX
 8
D_SEN-_ZYLINDER_
 10
0
 20
0
 30
0
 70
128
 71
645
 72
641
 73
640
 74
644
 0
VERTEX
 8
D_SEN-_ZYLINDER_
 10
0
 20
0
 30
0
 70
128
 71
646
 72
641
 73
645
 74
645
 0
VERTEX
 8
D_SEN-_ZYLINDER_
 10
0
 20
0
 30
0
 70
128
 71
647
 72
642
 73
641
 74
646
 0
VERTEX
 8
D_SEN-_ZYLINDER_
 10
0
 20
0
 30
0
 70
128
 71
648
 72
642
 73
647
 74
647
 0
VERTEX
 8
D_SEN-_ZYLINDER_
 10
0
 20
0
 30
0
 70
128
 71
649
 72
643
 73
642
 74
648
 0
VERTEX
 8
D_SEN-_ZYLINDER_
 10
0
 20
0
 30
0
 70
128
 71
650
 72
643
 73
649
 74
649
 0
VERTEX
 8
D_SEN-_ZYLINDER_
 10
0
 20
0
 30
0
 70
128
 71
651
 72
640
 73
643
 74
650
 0
VERTEX
 8
D_SEN-_ZYLINDER_
 10
0
 20
0
 30
0
 70
128
 71
644
 72
640
 73
651
 74
651
 0
VERTEX
 8
D_SEN-_ZYLINDER_
 10
0
 20
0
 30
0
 70
128
 71
640
 72
641
 73
642
 74
643
 0
VERTEX
 8
D_SEN-_ZYLINDER_
 10
0
 20
0
 30
0
 70
128
 71
657
 72
653
 73
652
 74
656
 0
VERTEX
 8
D_SEN-_ZYLINDER_
 10
0
 20
0
 30
0
 70
128
 71
658
 72
653
 73
657
 74
657
 0
VERTEX
 8
D_SEN-_ZYLINDER_
 10
0
 20
0
 30
0
 70
128
 71
659
 72
654
 73
653
 74
658
 0
VERTEX
 8
D_SEN-_ZYLINDER_
 10
0
 20
0
 30
0
 70
128
 71
660
 72
654
 73
659
 74
659
 0
VERTEX
 8
D_SEN-_ZYLINDER_
 10
0
 20
0
 30
0
 70
128
 71
661
 72
655
 73
654
 74
660
 0
VERTEX
 8
D_SEN-_ZYLINDER_
 10
0
 20
0
 30
0
 70
128
 71
662
 72
655
 73
661
 74
661
 0
VERTEX
 8
D_SEN-_ZYLINDER_
 10
0
 20
0
 30
0
 70
128
 71
663
 72
652
 73
655
 74
662
 0
VERTEX
 8
D_SEN-_ZYLINDER_
 10
0
 20
0
 30
0
 70
128
 71
656
 72
652
 73
663
 74
663
 0
VERTEX
 8
D_SEN-_ZYLINDER_
 10
0
 20
0
 30
0
 70
128
 71
652
 72
653
 73
654
 74
655
 0
VERTEX
 8
D_SEN-_ZYLINDER_
 10
0
 20
0
 30
0
 70
128
 71
676
 72
665
 73
664
 74
668
 0
VERTEX
 8
D_SEN-_ZYLINDER_
 10
0
 20
0
 30
0
 70
128
 71
581
 72
500
 73
765
 74
765
 0
VERTEX
 8
D_SEN-_ZYLINDER_
 10
0
 20
0
 30
0
 70
128
 71
671
 72
665
 73
676
 74
676
 0
VERTEX
 8
D_SEN-_ZYLINDER_
 10
0
 20
0
 30
0
 70
128
 71
671
 72
670
 73
666
 74
665
 0
VERTEX
 8
D_SEN-_ZYLINDER_
 10
0
 20
0
 30
0
 70
128
 71
673
 72
666
 73
670
 74
670
 0
VERTEX
 8
D_SEN-_ZYLINDER_
 10
0
 20
0
 30
0
 70
128
 71
672
 72
667
 73
666
 74
673
 0
VERTEX
 8
D_SEN-_ZYLINDER_
 10
0
 20
0
 30
0
 70
128
 71
675
 72
667
 73
672
 74
672
 0
VERTEX
 8
D_SEN-_ZYLINDER_
 10
0
 20
0
 30
0
 70
128
 71
674
 72
664
 73
667
 74
675
 0
VERTEX
 8
D_SEN-_ZYLINDER_
 10
0
 20
0
 30
0
 70
128
 71
668
 72
664
 73
674
 74
674
 0
VERTEX
 8
D_SEN-_ZYLINDER_
 10
0
 20
0
 30
0
 70
128
 71
664
 72
665
 73
666
 74
667
 0
VERTEX
 8
D_SEN-_ZYLINDER_
 10
0
 20
0
 30
0
 70
128
 71
682
 72
678
 73
677
 74
681
 0
VERTEX
 8
D_SEN-_ZYLINDER_
 10
0
 20
0
 30
0
 70
128
 71
683
 72
678
 73
682
 74
682
 0
VERTEX
 8
D_SEN-_ZYLINDER_
 10
0
 20
0
 30
0
 70
128
 71
684
 72
679
 73
678
 74
683
 0
VERTEX
 8
D_SEN-_ZYLINDER_
 10
0
 20
0
 30
0
 70
128
 71
685
 72
679
 73
684
 74
684
 0
VERTEX
 8
D_SEN-_ZYLINDER_
 10
0
 20
0
 30
0
 70
128
 71
689
 72
680
 73
679
 74
685
 0
VERTEX
 8
D_SEN-_ZYLINDER_
 10
0
 20
0
 30
0
 70
128
 71
680
 72
689
 73
686
 74
686
 0
VERTEX
 8
D_SEN-_ZYLINDER_
 10
0
 20
0
 30
0
 70
128
 71
677
 72
678
 73
679
 74
680
 0
VERTEX
 8
D_SEN-_ZYLINDER_
 10
0
 20
0
 30
0
 70
128
 71
687
 72
677
 73
680
 74
686
 0
VERTEX
 8
D_SEN-_ZYLINDER_
 10
0
 20
0
 30
0
 70
128
 71
688
 72
681
 73
677
 74
687
 0
VERTEX
 8
D_SEN-_ZYLINDER_
 10
0
 20
0
 30
0
 70
128
 71
695
 72
691
 73
690
 74
694
 0
VERTEX
 8
D_SEN-_ZYLINDER_
 10
0
 20
0
 30
0
 70
128
 71
696
 72
691
 73
695
 74
695
 0
VERTEX
 8
D_SEN-_ZYLINDER_
 10
0
 20
0
 30
0
 70
128
 71
697
 72
692
 73
691
 74
696
 0
VERTEX
 8
D_SEN-_ZYLINDER_
 10
0
 20
0
 30
0
 70
128
 71
698
 72
692
 73
697
 74
697
 0
VERTEX
 8
D_SEN-_ZYLINDER_
 10
0
 20
0
 30
0
 70
128
 71
699
 72
693
 73
692
 74
698
 0
VERTEX
 8
D_SEN-_ZYLINDER_
 10
0
 20
0
 30
0
 70
128
 71
700
 72
693
 73
699
 74
699
 0
VERTEX
 8
D_SEN-_ZYLINDER_
 10
0
 20
0
 30
0
 70
128
 71
701
 72
690
 73
693
 74
700
 0
VERTEX
 8
D_SEN-_ZYLINDER_
 10
0
 20
0
 30
0
 70
128
 71
694
 72
690
 73
701
 74
701
 0
VERTEX
 8
D_SEN-_ZYLINDER_
 10
0
 20
0
 30
0
 70
128
 71
690
 72
691
 73
692
 74
693
 0
VERTEX
 8
D_SEN-_ZYLINDER_
 10
0
 20
0
 30
0
 70
128
 71
707
 72
703
 73
702
 74
706
 0
VERTEX
 8
D_SEN-_ZYLINDER_
 10
0
 20
0
 30
0
 70
128
 71
708
 72
703
 73
707
 74
714
 0
VERTEX
 8
D_SEN-_ZYLINDER_
 10
0
 20
0
 30
0
 70
128
 71
715
 72
713
 73
702
 74
705
 0
VERTEX
 8
D_SEN-_ZYLINDER_
 10
0
 20
0
 30
0
 70
128
 71
710
 72
704
 73
703
 74
708
 0
VERTEX
 8
D_SEN-_ZYLINDER_
 10
0
 20
0
 30
0
 70
128
 71
709
 72
704
 73
710
 74
710
 0
VERTEX
 8
D_SEN-_ZYLINDER_
 10
0
 20
0
 30
0
 70
128
 71
712
 72
705
 73
704
 74
709
 0
VERTEX
 8
D_SEN-_ZYLINDER_
 10
0
 20
0
 30
0
 70
128
 71
711
 72
705
 73
712
 74
712
 0
VERTEX
 8
D_SEN-_ZYLINDER_
 10
0
 20
0
 30
0
 70
128
 71
715
 72
705
 73
711
 74
711
 0
VERTEX
 8
D_SEN-_ZYLINDER_
 10
0
 20
0
 30
0
 70
128
 71
702
 72
703
 73
704
 74
705
 0
VERTEX
 8
D_SEN-_ZYLINDER_
 10
0
 20
0
 30
0
 70
128
 71
706
 72
702
 73
713
 74
713
 0
VERTEX
 8
D_SEN-_ZYLINDER_
 10
0
 20
0
 30
0
 70
128
 71
721
 72
717
 73
716
 74
720
 0
VERTEX
 8
D_SEN-_ZYLINDER_
 10
0
 20
0
 30
0
 70
128
 71
722
 72
717
 73
721
 74
721
 0
VERTEX
 8
D_SEN-_ZYLINDER_
 10
0
 20
0
 30
0
 70
128
 71
723
 72
718
 73
717
 74
722
 0
VERTEX
 8
D_SEN-_ZYLINDER_
 10
0
 20
0
 30
0
 70
128
 71
724
 72
718
 73
723
 74
723
 0
VERTEX
 8
D_SEN-_ZYLINDER_
 10
0
 20
0
 30
0
 70
128
 71
725
 72
719
 73
718
 74
724
 0
VERTEX
 8
D_SEN-_ZYLINDER_
 10
0
 20
0
 30
0
 70
128
 71
726
 72
719
 73
725
 74
725
 0
VERTEX
 8
D_SEN-_ZYLINDER_
 10
0
 20
0
 30
0
 70
128
 71
727
 72
716
 73
719
 74
726
 0
VERTEX
 8
D_SEN-_ZYLINDER_
 10
0
 20
0
 30
0
 70
128
 71
720
 72
716
 73
727
 74
727
 0
VERTEX
 8
D_SEN-_ZYLINDER_
 10
0
 20
0
 30
0
 70
128
 71
716
 72
717
 73
718
 74
719
 0
VERTEX
 8
D_SEN-_ZYLINDER_
 10
0
 20
0
 30
0
 70
128
 71
740
 72
733
 73
729
 74
729
 0
VERTEX
 8
D_SEN-_ZYLINDER_
 10
0
 20
0
 30
0
 70
128
 71
740
 72
729
 73
728
 74
732
 0
VERTEX
 8
D_SEN-_ZYLINDER_
 10
0
 20
0
 30
0
 70
128
 71
735
 72
729
 73
733
 74
733
 0
VERTEX
 8
D_SEN-_ZYLINDER_
 10
0
 20
0
 30
0
 70
128
 71
735
 72
734
 73
730
 74
729
 0
VERTEX
 8
D_SEN-_ZYLINDER_
 10
0
 20
0
 30
0
 70
128
 71
737
 72
730
 73
734
 74
734
 0
VERTEX
 8
D_SEN-_ZYLINDER_
 10
0
 20
0
 30
0
 70
128
 71
736
 72
731
 73
730
 74
737
 0
VERTEX
 8
D_SEN-_ZYLINDER_
 10
0
 20
0
 30
0
 70
128
 71
739
 72
731
 73
736
 74
736
 0
VERTEX
 8
D_SEN-_ZYLINDER_
 10
0
 20
0
 30
0
 70
128
 71
738
 72
728
 73
731
 74
739
 0
VERTEX
 8
D_SEN-_ZYLINDER_
 10
0
 20
0
 30
0
 70
128
 71
732
 72
728
 73
738
 74
738
 0
VERTEX
 8
D_SEN-_ZYLINDER_
 10
0
 20
0
 30
0
 70
128
 71
728
 72
729
 73
730
 74
731
 0
VERTEX
 8
D_SEN-_ZYLINDER_
 10
0
 20
0
 30
0
 70
128
 71
746
 72
742
 73
741
 74
745
 0
VERTEX
 8
D_SEN-_ZYLINDER_
 10
0
 20
0
 30
0
 70
128
 71
747
 72
742
 73
746
 74
746
 0
VERTEX
 8
D_SEN-_ZYLINDER_
 10
0
 20
0
 30
0
 70
128
 71
748
 72
743
 73
742
 74
747
 0
VERTEX
 8
D_SEN-_ZYLINDER_
 10
0
 20
0
 30
0
 70
128
 71
749
 72
743
 73
748
 74
748
 0
VERTEX
 8
D_SEN-_ZYLINDER_
 10
0
 20
0
 30
0
 70
128
 71
750
 72
744
 73
743
 74
749
 0
VERTEX
 8
D_SEN-_ZYLINDER_
 10
0
 20
0
 30
0
 70
128
 71
751
 72
744
 73
750
 74
750
 0
VERTEX
 8
D_SEN-_ZYLINDER_
 10
0
 20
0
 30
0
 70
128
 71
752
 72
741
 73
744
 74
751
 0
VERTEX
 8
D_SEN-_ZYLINDER_
 10
0
 20
0
 30
0
 70
128
 71
745
 72
741
 73
752
 74
752
 0
VERTEX
 8
D_SEN-_ZYLINDER_
 10
0
 20
0
 30
0
 70
128
 71
741
 72
742
 73
743
 74
744
 0
VERTEX
 8
D_SEN-_ZYLINDER_
 10
0
 20
0
 30
0
 70
128
 71
758
 72
754
 73
753
 74
757
 0
VERTEX
 8
D_SEN-_ZYLINDER_
 10
0
 20
0
 30
0
 70
128
 71
759
 72
754
 73
758
 74
758
 0
VERTEX
 8
D_SEN-_ZYLINDER_
 10
0
 20
0
 30
0
 70
128
 71
760
 72
755
 73
754
 74
759
 0
VERTEX
 8
D_SEN-_ZYLINDER_
 10
0
 20
0
 30
0
 70
128
 71
761
 72
755
 73
760
 74
760
 0
VERTEX
 8
D_SEN-_ZYLINDER_
 10
0
 20
0
 30
0
 70
128
 71
762
 72
756
 73
755
 74
761
 0
VERTEX
 8
D_SEN-_ZYLINDER_
 10
0
 20
0
 30
0
 70
128
 71
766
 72
756
 73
762
 74
762
 0
VERTEX
 8
D_SEN-_ZYLINDER_
 10
0
 20
0
 30
0
 70
128
 71
764
 72
753
 73
756
 74
766
 0
VERTEX
 8
D_SEN-_ZYLINDER_
 10
0
 20
0
 30
0
 70
128
 71
500
 72
573
 73
575
 74
576
 0
VERTEX
 8
D_SEN-_ZYLINDER_
 10
0
 20
0
 30
0
 70
128
 71
753
 72
754
 73
755
 74
756
 0
VERTEX
 8
D_SEN-_ZYLINDER_
 10
0
 20
0
 30
0
 70
128
 71
757
 72
753
 73
764
 74
764
 0
VERTEX
 8
D_SEN-_ZYLINDER_
 10
0
 20
0
 30
0
 70
128
 71
772
 72
768
 73
767
 74
771
 0
VERTEX
 8
D_SEN-_ZYLINDER_
 10
0
 20
0
 30
0
 70
128
 71
773
 72
768
 73
772
 74
772
 0
VERTEX
 8
D_SEN-_ZYLINDER_
 10
0
 20
0
 30
0
 70
128
 71
774
 72
769
 73
768
 74
773
 0
VERTEX
 8
D_SEN-_ZYLINDER_
 10
0
 20
0
 30
0
 70
128
 71
775
 72
769
 73
774
 74
774
 0
VERTEX
 8
D_SEN-_ZYLINDER_
 10
0
 20
0
 30
0
 70
128
 71
776
 72
770
 73
769
 74
775
 0
VERTEX
 8
D_SEN-_ZYLINDER_
 10
0
 20
0
 30
0
 70
128
 71
777
 72
770
 73
776
 74
776
 0
VERTEX
 8
D_SEN-_ZYLINDER_
 10
0
 20
0
 30
0
 70
128
 71
778
 72
767
 73
770
 74
777
 0
VERTEX
 8
D_SEN-_ZYLINDER_
 10
0
 20
0
 30
0
 70
128
 71
771
 72
767
 73
778
 74
778
 0
VERTEX
 8
D_SEN-_ZYLINDER_
 10
0
 20
0
 30
0
 70
128
 71
767
 72
768
 73
769
 74
770
 0
VERTEX
 8
D_SEN-_ZYLINDER_
 10
0
 20
0
 30
0
 70
128
 71
784
 72
780
 73
779
 74
783
 0
VERTEX
 8
D_SEN-_ZYLINDER_
 10
0
 20
0
 30
0
 70
128
 71
785
 72
780
 73
784
 74
784
 0
VERTEX
 8
D_SEN-_ZYLINDER_
 10
0
 20
0
 30
0
 70
128
 71
786
 72
781
 73
780
 74
785
 0
VERTEX
 8
D_SEN-_ZYLINDER_
 10
0
 20
0
 30
0
 70
128
 71
787
 72
781
 73
786
 74
786
 0
VERTEX
 8
D_SEN-_ZYLINDER_
 10
0
 20
0
 30
0
 70
128
 71
788
 72
782
 73
781
 74
787
 0
VERTEX
 8
D_SEN-_ZYLINDER_
 10
0
 20
0
 30
0
 70
128
 71
789
 72
782
 73
788
 74
788
 0
VERTEX
 8
D_SEN-_ZYLINDER_
 10
0
 20
0
 30
0
 70
128
 71
790
 72
779
 73
782
 74
789
 0
VERTEX
 8
D_SEN-_ZYLINDER_
 10
0
 20
0
 30
0
 70
128
 71
783
 72
779
 73
790
 74
790
 0
VERTEX
 8
D_SEN-_ZYLINDER_
 10
0
 20
0
 30
0
 70
128
 71
779
 72
780
 73
781
 74
782
 0
VERTEX
 8
D_SEN-_ZYLINDER_
 10
0
 20
0
 30
0
 70
128
 71
796
 72
792
 73
791
 74
795
 0
VERTEX
 8
D_SEN-_ZYLINDER_
 10
0
 20
0
 30
0
 70
128
 71
797
 72
792
 73
796
 74
796
 0
VERTEX
 8
D_SEN-_ZYLINDER_
 10
0
 20
0
 30
0
 70
128
 71
798
 72
793
 73
792
 74
797
 0
VERTEX
 8
D_SEN-_ZYLINDER_
 10
0
 20
0
 30
0
 70
128
 71
799
 72
793
 73
798
 74
798
 0
VERTEX
 8
D_SEN-_ZYLINDER_
 10
0
 20
0
 30
0
 70
128
 71
800
 72
794
 73
793
 74
799
 0
VERTEX
 8
D_SEN-_ZYLINDER_
 10
0
 20
0
 30
0
 70
128
 71
801
 72
794
 73
800
 74
800
 0
VERTEX
 8
D_SEN-_ZYLINDER_
 10
0
 20
0
 30
0
 70
128
 71
802
 72
791
 73
794
 74
801
 0
VERTEX
 8
D_SEN-_ZYLINDER_
 10
0
 20
0
 30
0
 70
128
 71
795
 72
791
 73
802
 74
802
 0
VERTEX
 8
D_SEN-_ZYLINDER_
 10
0
 20
0
 30
0
 70
128
 71
791
 72
792
 73
793
 74
794
 0
VERTEX
 8
D_SEN-_ZYLINDER_
 10
0
 20
0
 30
0
 70
128
 71
808
 72
804
 73
803
 74
807
 0
VERTEX
 8
D_SEN-_ZYLINDER_
 10
0
 20
0
 30
0
 70
128
 71
809
 72
804
 73
808
 74
808
 0
VERTEX
 8
D_SEN-_ZYLINDER_
 10
0
 20
0
 30
0
 70
128
 71
810
 72
805
 73
804
 74
809
 0
VERTEX
 8
D_SEN-_ZYLINDER_
 10
0
 20
0
 30
0
 70
128
 71
811
 72
805
 73
810
 74
810
 0
VERTEX
 8
D_SEN-_ZYLINDER_
 10
0
 20
0
 30
0
 70
128
 71
812
 72
806
 73
805
 74
811
 0
VERTEX
 8
D_SEN-_ZYLINDER_
 10
0
 20
0
 30
0
 70
128
 71
813
 72
806
 73
812
 74
812
 0
VERTEX
 8
D_SEN-_ZYLINDER_
 10
0
 20
0
 30
0
 70
128
 71
814
 72
803
 73
806
 74
813
 0
VERTEX
 8
D_SEN-_ZYLINDER_
 10
0
 20
0
 30
0
 70
128
 71
807
 72
803
 73
814
 74
814
 0
VERTEX
 8
D_SEN-_ZYLINDER_
 10
0
 20
0
 30
0
 70
128
 71
803
 72
804
 73
805
 74
806
 0
VERTEX
 8
D_SEN-_ZYLINDER_
 10
0
 20
0
 30
0
 70
128
 71
820
 72
816
 73
815
 74
819
 0
VERTEX
 8
D_SEN-_ZYLINDER_
 10
0
 20
0
 30
0
 70
128
 71
821
 72
816
 73
820
 74
820
 0
VERTEX
 8
D_SEN-_ZYLINDER_
 10
0
 20
0
 30
0
 70
128
 71
822
 72
817
 73
816
 74
821
 0
VERTEX
 8
D_SEN-_ZYLINDER_
 10
0
 20
0
 30
0
 70
128
 71
823
 72
817
 73
822
 74
822
 0
VERTEX
 8
D_SEN-_ZYLINDER_
 10
0
 20
0
 30
0
 70
128
 71
824
 72
818
 73
817
 74
823
 0
VERTEX
 8
D_SEN-_ZYLINDER_
 10
0
 20
0
 30
0
 70
128
 71
825
 72
818
 73
824
 74
824
 0
VERTEX
 8
D_SEN-_ZYLINDER_
 10
0
 20
0
 30
0
 70
128
 71
826
 72
815
 73
818
 74
825
 0
VERTEX
 8
D_SEN-_ZYLINDER_
 10
0
 20
0
 30
0
 70
128
 71
819
 72
815
 73
826
 74
826
 0
VERTEX
 8
D_SEN-_ZYLINDER_
 10
0
 20
0
 30
0
 70
128
 71
815
 72
816
 73
817
 74
818
 0
VERTEX
 8
D_SEN-_ZYLINDER_
 10
0
 20
0
 30
0
 70
128
 71
832
 72
828
 73
827
 74
831
 0
VERTEX
 8
D_SEN-_ZYLINDER_
 10
0
 20
0
 30
0
 70
128
 71
833
 72
828
 73
832
 74
832
 0
VERTEX
 8
D_SEN-_ZYLINDER_
 10
0
 20
0
 30
0
 70
128
 71
834
 72
829
 73
828
 74
833
 0
VERTEX
 8
D_SEN-_ZYLINDER_
 10
0
 20
0
 30
0
 70
128
 71
835
 72
829
 73
834
 74
834
 0
VERTEX
 8
D_SEN-_ZYLINDER_
 10
0
 20
0
 30
0
 70
128
 71
836
 72
830
 73
829
 74
835
 0
VERTEX
 8
D_SEN-_ZYLINDER_
 10
0
 20
0
 30
0
 70
128
 71
837
 72
830
 73
836
 74
836
 0
VERTEX
 8
D_SEN-_ZYLINDER_
 10
0
 20
0
 30
0
 70
128
 71
838
 72
827
 73
830
 74
837
 0
VERTEX
 8
D_SEN-_ZYLINDER_
 10
0
 20
0
 30
0
 70
128
 71
831
 72
827
 73
838
 74
838
 0
VERTEX
 8
D_SEN-_ZYLINDER_
 10
0
 20
0
 30
0
 70
128
 71
827
 72
828
 73
829
 74
830
 0
VERTEX
 8
D_SEN-_ZYLINDER_
 10
0
 20
0
 30
0
 70
128
 71
844
 72
840
 73
839
 74
843
 0
VERTEX
 8
D_SEN-_ZYLINDER_
 10
0
 20
0
 30
0
 70
128
 71
845
 72
840
 73
844
 74
844
 0
VERTEX
 8
D_SEN-_ZYLINDER_
 10
0
 20
0
 30
0
 70
128
 71
846
 72
841
 73
840
 74
845
 0
VERTEX
 8
D_SEN-_ZYLINDER_
 10
0
 20
0
 30
0
 70
128
 71
847
 72
841
 73
846
 74
846
 0
VERTEX
 8
D_SEN-_ZYLINDER_
 10
0
 20
0
 30
0
 70
128
 71
848
 72
842
 73
841
 74
847
 0
VERTEX
 8
D_SEN-_ZYLINDER_
 10
0
 20
0
 30
0
 70
128
 71
849
 72
842
 73
848
 74
848
 0
VERTEX
 8
D_SEN-_ZYLINDER_
 10
0
 20
0
 30
0
 70
128
 71
850
 72
839
 73
842
 74
849
 0
VERTEX
 8
D_SEN-_ZYLINDER_
 10
0
 20
0
 30
0
 70
128
 71
843
 72
839
 73
850
 74
850
 0
VERTEX
 8
D_SEN-_ZYLINDER_
 10
0
 20
0
 30
0
 70
128
 71
839
 72
840
 73
841
 74
842
 0
VERTEX
 8
D_SEN-_ZYLINDER_
 10
0
 20
0
 30
0
 70
128
 71
856
 72
852
 73
851
 74
855
 0
VERTEX
 8
D_SEN-_ZYLINDER_
 10
0
 20
0
 30
0
 70
128
 71
857
 72
852
 73
856
 74
856
 0
VERTEX
 8
D_SEN-_ZYLINDER_
 10
0
 20
0
 30
0
 70
128
 71
858
 72
853
 73
852
 74
857
 0
VERTEX
 8
D_SEN-_ZYLINDER_
 10
0
 20
0
 30
0
 70
128
 71
859
 72
853
 73
858
 74
858
 0
VERTEX
 8
D_SEN-_ZYLINDER_
 10
0
 20
0
 30
0
 70
128
 71
860
 72
854
 73
853
 74
859
 0
VERTEX
 8
D_SEN-_ZYLINDER_
 10
0
 20
0
 30
0
 70
128
 71
861
 72
854
 73
860
 74
860
 0
VERTEX
 8
D_SEN-_ZYLINDER_
 10
0
 20
0
 30
0
 70
128
 71
862
 72
851
 73
854
 74
861
 0
VERTEX
 8
D_SEN-_ZYLINDER_
 10
0
 20
0
 30
0
 70
128
 71
855
 72
851
 73
862
 74
862
 0
VERTEX
 8
D_SEN-_ZYLINDER_
 10
0
 20
0
 30
0
 70
128
 71
851
 72
852
 73
853
 74
854
 0
VERTEX
 8
D_SEN-_ZYLINDER_
 10
0
 20
0
 30
0
 70
128
 71
868
 72
864
 73
863
 74
867
 0
VERTEX
 8
D_SEN-_ZYLINDER_
 10
0
 20
0
 30
0
 70
128
 71
869
 72
864
 73
868
 74
868
 0
VERTEX
 8
D_SEN-_ZYLINDER_
 10
0
 20
0
 30
0
 70
128
 71
870
 72
865
 73
864
 74
869
 0
VERTEX
 8
D_SEN-_ZYLINDER_
 10
0
 20
0
 30
0
 70
128
 71
871
 72
865
 73
870
 74
870
 0
VERTEX
 8
D_SEN-_ZYLINDER_
 10
0
 20
0
 30
0
 70
128
 71
872
 72
866
 73
865
 74
871
 0
VERTEX
 8
D_SEN-_ZYLINDER_
 10
0
 20
0
 30
0
 70
128
 71
873
 72
866
 73
872
 74
872
 0
VERTEX
 8
D_SEN-_ZYLINDER_
 10
0
 20
0
 30
0
 70
128
 71
874
 72
863
 73
866
 74
873
 0
VERTEX
 8
D_SEN-_ZYLINDER_
 10
0
 20
0
 30
0
 70
128
 71
867
 72
863
 73
874
 74
874
 0
VERTEX
 8
D_SEN-_ZYLINDER_
 10
0
 20
0
 30
0
 70
128
 71
863
 72
864
 73
865
 74
866
 0
VERTEX
 8
D_SEN-_ZYLINDER_
 10
0
 20
0
 30
0
 70
128
 71
880
 72
876
 73
875
 74
879
 0
VERTEX
 8
D_SEN-_ZYLINDER_
 10
0
 20
0
 30
0
 70
128
 71
881
 72
876
 73
880
 74
880
 0
VERTEX
 8
D_SEN-_ZYLINDER_
 10
0
 20
0
 30
0
 70
128
 71
882
 72
877
 73
876
 74
881
 0
VERTEX
 8
D_SEN-_ZYLINDER_
 10
0
 20
0
 30
0
 70
128
 71
883
 72
877
 73
882
 74
882
 0
VERTEX
 8
D_SEN-_ZYLINDER_
 10
0
 20
0
 30
0
 70
128
 71
884
 72
878
 73
877
 74
883
 0
VERTEX
 8
D_SEN-_ZYLINDER_
 10
0
 20
0
 30
0
 70
128
 71
885
 72
878
 73
884
 74
884
 0
VERTEX
 8
D_SEN-_ZYLINDER_
 10
0
 20
0
 30
0
 70
128
 71
886
 72
875
 73
878
 74
885
 0
VERTEX
 8
D_SEN-_ZYLINDER_
 10
0
 20
0
 30
0
 70
128
 71
879
 72
875
 73
886
 74
886
 0
VERTEX
 8
D_SEN-_ZYLINDER_
 10
0
 20
0
 30
0
 70
128
 71
875
 72
876
 73
877
 74
878
 0
VERTEX
 8
D_SEN-_ZYLINDER_
 10
0
 20
0
 30
0
 70
128
 71
892
 72
888
 73
887
 74
891
 0
VERTEX
 8
D_SEN-_ZYLINDER_
 10
0
 20
0
 30
0
 70
128
 71
893
 72
888
 73
892
 74
892
 0
VERTEX
 8
D_SEN-_ZYLINDER_
 10
0
 20
0
 30
0
 70
128
 71
894
 72
889
 73
888
 74
893
 0
VERTEX
 8
D_SEN-_ZYLINDER_
 10
0
 20
0
 30
0
 70
128
 71
895
 72
889
 73
894
 74
894
 0
VERTEX
 8
D_SEN-_ZYLINDER_
 10
0
 20
0
 30
0
 70
128
 71
896
 72
890
 73
889
 74
895
 0
VERTEX
 8
D_SEN-_ZYLINDER_
 10
0
 20
0
 30
0
 70
128
 71
897
 72
890
 73
896
 74
896
 0
VERTEX
 8
D_SEN-_ZYLINDER_
 10
0
 20
0
 30
0
 70
128
 71
898
 72
887
 73
890
 74
897
 0
VERTEX
 8
D_SEN-_ZYLINDER_
 10
0
 20
0
 30
0
 70
128
 71
891
 72
887
 73
898
 74
898
 0
VERTEX
 8
D_SEN-_ZYLINDER_
 10
0
 20
0
 30
0
 70
128
 71
887
 72
888
 73
889
 74
890
 0
VERTEX
 8
D_SEN-_ZYLINDER_
 10
0
 20
0
 30
0
 70
128
 71
904
 72
900
 73
899
 74
903
 0
VERTEX
 8
D_SEN-_ZYLINDER_
 10
0
 20
0
 30
0
 70
128
 71
905
 72
900
 73
904
 74
904
 0
VERTEX
 8
D_SEN-_ZYLINDER_
 10
0
 20
0
 30
0
 70
128
 71
906
 72
901
 73
900
 74
905
 0
VERTEX
 8
D_SEN-_ZYLINDER_
 10
0
 20
0
 30
0
 70
128
 71
907
 72
901
 73
906
 74
906
 0
VERTEX
 8
D_SEN-_ZYLINDER_
 10
0
 20
0
 30
0
 70
128
 71
908
 72
902
 73
901
 74
907
 0
VERTEX
 8
D_SEN-_ZYLINDER_
 10
0
 20
0
 30
0
 70
128
 71
909
 72
902
 73
908
 74
908
 0
VERTEX
 8
D_SEN-_ZYLINDER_
 10
0
 20
0
 30
0
 70
128
 71
910
 72
899
 73
902
 74
909
 0
VERTEX
 8
D_SEN-_ZYLINDER_
 10
0
 20
0
 30
0
 70
128
 71
903
 72
899
 73
910
 74
910
 0
VERTEX
 8
D_SEN-_ZYLINDER_
 10
0
 20
0
 30
0
 70
128
 71
899
 72
900
 73
901
 74
902
 0
VERTEX
 8
D_SEN-_ZYLINDER_
 10
0
 20
0
 30
0
 70
128
 71
916
 72
912
 73
911
 74
915
 0
VERTEX
 8
D_SEN-_ZYLINDER_
 10
0
 20
0
 30
0
 70
128
 71
917
 72
912
 73
916
 74
916
 0
VERTEX
 8
D_SEN-_ZYLINDER_
 10
0
 20
0
 30
0
 70
128
 71
918
 72
913
 73
912
 74
917
 0
VERTEX
 8
D_SEN-_ZYLINDER_
 10
0
 20
0
 30
0
 70
128
 71
919
 72
913
 73
918
 74
918
 0
VERTEX
 8
D_SEN-_ZYLINDER_
 10
0
 20
0
 30
0
 70
128
 71
920
 72
914
 73
913
 74
919
 0
VERTEX
 8
D_SEN-_ZYLINDER_
 10
0
 20
0
 30
0
 70
128
 71
921
 72
914
 73
920
 74
920
 0
VERTEX
 8
D_SEN-_ZYLINDER_
 10
0
 20
0
 30
0
 70
128
 71
922
 72
911
 73
914
 74
921
 0
VERTEX
 8
D_SEN-_ZYLINDER_
 10
0
 20
0
 30
0
 70
128
 71
915
 72
911
 73
922
 74
922
 0
VERTEX
 8
D_SEN-_ZYLINDER_
 10
0
 20
0
 30
0
 70
128
 71
911
 72
912
 73
913
 74
914
 0
VERTEX
 8
D_SEN-_ZYLINDER_
 10
0
 20
0
 30
0
 70
128
 71
928
 72
924
 73
923
 74
927
 0
VERTEX
 8
D_SEN-_ZYLINDER_
 10
0
 20
0
 30
0
 70
128
 71
929
 72
924
 73
928
 74
928
 0
VERTEX
 8
D_SEN-_ZYLINDER_
 10
0
 20
0
 30
0
 70
128
 71
930
 72
925
 73
924
 74
929
 0
VERTEX
 8
D_SEN-_ZYLINDER_
 10
0
 20
0
 30
0
 70
128
 71
931
 72
925
 73
930
 74
930
 0
VERTEX
 8
D_SEN-_ZYLINDER_
 10
0
 20
0
 30
0
 70
128
 71
932
 72
926
 73
925
 74
931
 0
VERTEX
 8
D_SEN-_ZYLINDER_
 10
0
 20
0
 30
0
 70
128
 71
933
 72
926
 73
932
 74
932
 0
VERTEX
 8
D_SEN-_ZYLINDER_
 10
0
 20
0
 30
0
 70
128
 71
934
 72
923
 73
926
 74
933
 0
VERTEX
 8
D_SEN-_ZYLINDER_
 10
0
 20
0
 30
0
 70
128
 71
927
 72
923
 73
934
 74
934
 0
VERTEX
 8
D_SEN-_ZYLINDER_
 10
0
 20
0
 30
0
 70
128
 71
923
 72
924
 73
925
 74
926
 0
VERTEX
 8
D_SEN-_ZYLINDER_
 10
0
 20
0
 30
0
 70
128
 71
940
 72
936
 73
935
 74
939
 0
VERTEX
 8
D_SEN-_ZYLINDER_
 10
0
 20
0
 30
0
 70
128
 71
941
 72
936
 73
940
 74
940
 0
VERTEX
 8
D_SEN-_ZYLINDER_
 10
0
 20
0
 30
0
 70
128
 71
942
 72
937
 73
936
 74
941
 0
VERTEX
 8
D_SEN-_ZYLINDER_
 10
0
 20
0
 30
0
 70
128
 71
943
 72
937
 73
942
 74
942
 0
VERTEX
 8
D_SEN-_ZYLINDER_
 10
0
 20
0
 30
0
 70
128
 71
944
 72
938
 73
937
 74
943
 0
VERTEX
 8
D_SEN-_ZYLINDER_
 10
0
 20
0
 30
0
 70
128
 71
945
 72
938
 73
944
 74
944
 0
VERTEX
 8
D_SEN-_ZYLINDER_
 10
0
 20
0
 30
0
 70
128
 71
946
 72
935
 73
938
 74
945
 0
VERTEX
 8
D_SEN-_ZYLINDER_
 10
0
 20
0
 30
0
 70
128
 71
939
 72
935
 73
946
 74
946
 0
VERTEX
 8
D_SEN-_ZYLINDER_
 10
0
 20
0
 30
0
 70
128
 71
935
 72
936
 73
937
 74
938
 0
VERTEX
 8
D_SEN-_ZYLINDER_
 10
0
 20
0
 30
0
 70
128
 71
952
 72
948
 73
947
 74
951
 0
VERTEX
 8
D_SEN-_ZYLINDER_
 10
0
 20
0
 30
0
 70
128
 71
953
 72
948
 73
952
 74
952
 0
VERTEX
 8
D_SEN-_ZYLINDER_
 10
0
 20
0
 30
0
 70
128
 71
954
 72
949
 73
948
 74
953
 0
VERTEX
 8
D_SEN-_ZYLINDER_
 10
0
 20
0
 30
0
 70
128
 71
955
 72
949
 73
954
 74
954
 0
VERTEX
 8
D_SEN-_ZYLINDER_
 10
0
 20
0
 30
0
 70
128
 71
956
 72
950
 73
949
 74
955
 0
VERTEX
 8
D_SEN-_ZYLINDER_
 10
0
 20
0
 30
0
 70
128
 71
957
 72
950
 73
956
 74
956
 0
VERTEX
 8
D_SEN-_ZYLINDER_
 10
0
 20
0
 30
0
 70
128
 71
958
 72
947
 73
950
 74
957
 0
VERTEX
 8
D_SEN-_ZYLINDER_
 10
0
 20
0
 30
0
 70
128
 71
951
 72
947
 73
958
 74
958
 0
VERTEX
 8
D_SEN-_ZYLINDER_
 10
0
 20
0
 30
0
 70
128
 71
947
 72
948
 73
949
 74
950
 0
VERTEX
 8
D_SEN-_ZYLINDER_
 10
0
 20
0
 30
0
 70
128
 71
964
 72
960
 73
959
 74
963
 0
VERTEX
 8
D_SEN-_ZYLINDER_
 10
0
 20
0
 30
0
 70
128
 71
965
 72
960
 73
964
 74
964
 0
VERTEX
 8
D_SEN-_ZYLINDER_
 10
0
 20
0
 30
0
 70
128
 71
966
 72
961
 73
960
 74
965
 0
VERTEX
 8
D_SEN-_ZYLINDER_
 10
0
 20
0
 30
0
 70
128
 71
967
 72
961
 73
966
 74
966
 0
VERTEX
 8
D_SEN-_ZYLINDER_
 10
0
 20
0
 30
0
 70
128
 71
968
 72
962
 73
961
 74
967
 0
VERTEX
 8
D_SEN-_ZYLINDER_
 10
0
 20
0
 30
0
 70
128
 71
969
 72
962
 73
968
 74
968
 0
VERTEX
 8
D_SEN-_ZYLINDER_
 10
0
 20
0
 30
0
 70
128
 71
970
 72
959
 73
962
 74
969
 0
VERTEX
 8
D_SEN-_ZYLINDER_
 10
0
 20
0
 30
0
 70
128
 71
963
 72
959
 73
970
 74
970
 0
VERTEX
 8
D_SEN-_ZYLINDER_
 10
0
 20
0
 30
0
 70
128
 71
959
 72
960
 73
961
 74
962
 0
VERTEX
 8
D_SEN-_ZYLINDER_
 10
0
 20
0
 30
0
 70
128
 71
976
 72
972
 73
971
 74
975
 0
VERTEX
 8
D_SEN-_ZYLINDER_
 10
0
 20
0
 30
0
 70
128
 71
977
 72
972
 73
976
 74
976
 0
VERTEX
 8
D_SEN-_ZYLINDER_
 10
0
 20
0
 30
0
 70
128
 71
978
 72
973
 73
972
 74
977
 0
VERTEX
 8
D_SEN-_ZYLINDER_
 10
0
 20
0
 30
0
 70
128
 71
979
 72
973
 73
978
 74
978
 0
VERTEX
 8
D_SEN-_ZYLINDER_
 10
0
 20
0
 30
0
 70
128
 71
980
 72
974
 73
973
 74
979
 0
VERTEX
 8
D_SEN-_ZYLINDER_
 10
0
 20
0
 30
0
 70
128
 71
981
 72
974
 73
980
 74
980
 0
VERTEX
 8
D_SEN-_ZYLINDER_
 10
0
 20
0
 30
0
 70
128
 71
982
 72
971
 73
974
 74
981
 0
VERTEX
 8
D_SEN-_ZYLINDER_
 10
0
 20
0
 30
0
 70
128
 71
975
 72
971
 73
982
 74
982
 0
VERTEX
 8
D_SEN-_ZYLINDER_
 10
0
 20
0
 30
0
 70
128
 71
971
 72
972
 73
973
 74
974
 0
VERTEX
 8
D_SEN-_ZYLINDER_
 10
0
 20
0
 30
0
 70
128
 71
988
 72
984
 73
983
 74
987
 0
VERTEX
 8
D_SEN-_ZYLINDER_
 10
0
 20
0
 30
0
 70
128
 71
989
 72
984
 73
988
 74
988
 0
VERTEX
 8
D_SEN-_ZYLINDER_
 10
0
 20
0
 30
0
 70
128
 71
990
 72
985
 73
984
 74
989
 0
VERTEX
 8
D_SEN-_ZYLINDER_
 10
0
 20
0
 30
0
 70
128
 71
991
 72
985
 73
990
 74
990
 0
VERTEX
 8
D_SEN-_ZYLINDER_
 10
0
 20
0
 30
0
 70
128
 71
992
 72
986
 73
985
 74
991
 0
VERTEX
 8
D_SEN-_ZYLINDER_
 10
0
 20
0
 30
0
 70
128
 71
993
 72
986
 73
992
 74
992
 0
VERTEX
 8
D_SEN-_ZYLINDER_
 10
0
 20
0
 30
0
 70
128
 71
994
 72
983
 73
986
 74
993
 0
VERTEX
 8
D_SEN-_ZYLINDER_
 10
0
 20
0
 30
0
 70
128
 71
987
 72
983
 73
994
 74
994
 0
VERTEX
 8
D_SEN-_ZYLINDER_
 10
0
 20
0
 30
0
 70
128
 71
983
 72
984
 73
985
 74
986
 0
VERTEX
 8
D_SEN-_ZYLINDER_
 10
0
 20
0
 30
0
 70
128
 71
1000
 72
996
 73
995
 74
999
 0
VERTEX
 8
D_SEN-_ZYLINDER_
 10
0
 20
0
 30
0
 70
128
 71
1001
 72
996
 73
1000
 74
1000
 0
VERTEX
 8
D_SEN-_ZYLINDER_
 10
0
 20
0
 30
0
 70
128
 71
1002
 72
997
 73
996
 74
1001
 0
VERTEX
 8
D_SEN-_ZYLINDER_
 10
0
 20
0
 30
0
 70
128
 71
1003
 72
997
 73
1002
 74
1002
 0
VERTEX
 8
D_SEN-_ZYLINDER_
 10
0
 20
0
 30
0
 70
128
 71
95
 72
998
 73
997
 74
1003
 0
VERTEX
 8
D_SEN-_ZYLINDER_
 10
0
 20
0
 30
0
 70
128
 71
340
 72
998
 73
95
 74
95
 0
SEQEND
 0
POLYLINE
 8
ZYLINDER_8
 66
1
 10
0.0
 20
0.0
 30
0.0
 70
64
 71
26
 72
36
 0
VERTEX
 8
ZYLINDER_8
 10
-0.0221
 20
2.6267
 30
27.7673
 70
192
 0
VERTEX
 8
ZYLINDER_8
 10
-0.0221
 20
2.2267
 30
27.7673
 70
192
 0
VERTEX
 8
ZYLINDER_8
 10
-0.0221
 20
2.6267
 30
26.8673
 70
192
 0
VERTEX
 8
ZYLINDER_8
 10
-0.0221
 20
2.2267
 30
26.8673
 70
192
 0
VERTEX
 8
ZYLINDER_8
 10
0.4279
 20
2.6267
 30
26.9878
 70
192
 0
VERTEX
 8
ZYLINDER_8
 10
0.4279
 20
2.2267
 30
26.9878
 70
192
 0
VERTEX
 8
ZYLINDER_8
 10
0.7573
 20
2.6267
 30
27.3173
 70
192
 0
VERTEX
 8
ZYLINDER_8
 10
0.7573
 20
2.2267
 30
27.3173
 70
192
 0
VERTEX
 8
ZYLINDER_8
 10
0.8779
 20
2.6267
 30
27.7673
 70
192
 0
VERTEX
 8
ZYLINDER_8
 10
0.8779
 20
2.2267
 30
27.7673
 70
192
 0
VERTEX
 8
ZYLINDER_8
 10
0.7573
 20
2.6267
 30
28.2173
 70
192
 0
VERTEX
 8
ZYLINDER_8
 10
0.7573
 20
2.2267
 30
28.2173
 70
192
 0
VERTEX
 8
ZYLINDER_8
 10
0.4279
 20
2.6267
 30
28.5467
 70
192
 0
VERTEX
 8
ZYLINDER_8
 10
0.4279
 20
2.2267
 30
28.5467
 70
192
 0
VERTEX
 8
ZYLINDER_8
 10
-0.0221
 20
2.6267
 30
28.6673
 70
192
 0
VERTEX
 8
ZYLINDER_8
 10
-0.0221
 20
2.2267
 30
28.6673
 70
192
 0
VERTEX
 8
ZYLINDER_8
 10
-0.4721
 20
2.6267
 30
28.5467
 70
192
 0
VERTEX
 8
ZYLINDER_8
 10
-0.4721
 20
2.2267
 30
28.5467
 70
192
 0
VERTEX
 8
ZYLINDER_8
 10
-0.8015
 20
2.6267
 30
28.2173
 70
192
 0
VERTEX
 8
ZYLINDER_8
 10
-0.8015
 20
2.2267
 30
28.2173
 70
192
 0
VERTEX
 8
ZYLINDER_8
 10
-0.9221
 20
2.6267
 30
27.7673
 70
192
 0
VERTEX
 8
ZYLINDER_8
 10
-0.9221
 20
2.2267
 30
27.7673
 70
192
 0
VERTEX
 8
ZYLINDER_8
 10
-0.8015
 20
2.6267
 30
27.3173
 70
192
 0
VERTEX
 8
ZYLINDER_8
 10
-0.8015
 20
2.2267
 30
27.3173
 70
192
 0
VERTEX
 8
ZYLINDER_8
 10
-0.4721
 20
2.6267
 30
26.9878
 70
192
 0
VERTEX
 8
ZYLINDER_8
 10
-0.4721
 20
2.2267
 30
26.9878
 70
192
 0
VERTEX
 8
ZYLINDER_8
 10
0
 20
0
 30
0
 70
128
 71
1
 72
3
 73
5
 74
5
 0
VERTEX
 8
ZYLINDER_8
 10
0
 20
0
 30
0
 70
128
 71
3
 72
4
 73
6
 74
5
 0
VERTEX
 8
ZYLINDER_8
 10
0
 20
0
 30
0
 70
128
 71
4
 72
2
 73
6
 74
6
 0
VERTEX
 8
ZYLINDER_8
 10
0
 20
0
 30
0
 70
128
 71
1
 72
5
 73
7
 74
7
 0
VERTEX
 8
ZYLINDER_8
 10
0
 20
0
 30
0
 70
128
 71
5
 72
6
 73
8
 74
7
 0
VERTEX
 8
ZYLINDER_8
 10
0
 20
0
 30
0
 70
128
 71
6
 72
2
 73
8
 74
8
 0
VERTEX
 8
ZYLINDER_8
 10
0
 20
0
 30
0
 70
128
 71
1
 72
7
 73
9
 74
9
 0
VERTEX
 8
ZYLINDER_8
 10
0
 20
0
 30
0
 70
128
 71
7
 72
8
 73
10
 74
9
 0
VERTEX
 8
ZYLINDER_8
 10
0
 20
0
 30
0
 70
128
 71
8
 72
2
 73
10
 74
10
 0
VERTEX
 8
ZYLINDER_8
 10
0
 20
0
 30
0
 70
128
 71
1
 72
9
 73
11
 74
11
 0
VERTEX
 8
ZYLINDER_8
 10
0
 20
0
 30
0
 70
128
 71
9
 72
10
 73
12
 74
11
 0
VERTEX
 8
ZYLINDER_8
 10
0
 20
0
 30
0
 70
128
 71
10
 72
2
 73
12
 74
12
 0
VERTEX
 8
ZYLINDER_8
 10
0
 20
0
 30
0
 70
128
 71
1
 72
11
 73
13
 74
13
 0
VERTEX
 8
ZYLINDER_8
 10
0
 20
0
 30
0
 70
128
 71
11
 72
12
 73
14
 74
13
 0
VERTEX
 8
ZYLINDER_8
 10
0
 20
0
 30
0
 70
128
 71
12
 72
2
 73
14
 74
14
 0
VERTEX
 8
ZYLINDER_8
 10
0
 20
0
 30
0
 70
128
 71
1
 72
13
 73
15
 74
15
 0
VERTEX
 8
ZYLINDER_8
 10
0
 20
0
 30
0
 70
128
 71
13
 72
14
 73
16
 74
15
 0
VERTEX
 8
ZYLINDER_8
 10
0
 20
0
 30
0
 70
128
 71
14
 72
2
 73
16
 74
16
 0
VERTEX
 8
ZYLINDER_8
 10
0
 20
0
 30
0
 70
128
 71
1
 72
15
 73
17
 74
17
 0
VERTEX
 8
ZYLINDER_8
 10
0
 20
0
 30
0
 70
128
 71
15
 72
16
 73
18
 74
17
 0
VERTEX
 8
ZYLINDER_8
 10
0
 20
0
 30
0
 70
128
 71
16
 72
2
 73
18
 74
18
 0
VERTEX
 8
ZYLINDER_8
 10
0
 20
0
 30
0
 70
128
 71
1
 72
17
 73
19
 74
19
 0
VERTEX
 8
ZYLINDER_8
 10
0
 20
0
 30
0
 70
128
 71
17
 72
18
 73
20
 74
19
 0
VERTEX
 8
ZYLINDER_8
 10
0
 20
0
 30
0
 70
128
 71
18
 72
2
 73
20
 74
20
 0
VERTEX
 8
ZYLINDER_8
 10
0
 20
0
 30
0
 70
128
 71
1
 72
19
 73
21
 74
21
 0
VERTEX
 8
ZYLINDER_8
 10
0
 20
0
 30
0
 70
128
 71
19
 72
20
 73
22
 74
21
 0
VERTEX
 8
ZYLINDER_8
 10
0
 20
0
 30
0
 70
128
 71
20
 72
2
 73
22
 74
22
 0
VERTEX
 8
ZYLINDER_8
 10
0
 20
0
 30
0
 70
128
 71
1
 72
21
 73
23
 74
23
 0
VERTEX
 8
ZYLINDER_8
 10
0
 20
0
 30
0
 70
128
 71
21
 72
22
 73
24
 74
23
 0
VERTEX
 8
ZYLINDER_8
 10
0
 20
0
 30
0
 70
128
 71
22
 72
2
 73
24
 74
24
 0
VERTEX
 8
ZYLINDER_8
 10
0
 20
0
 30
0
 70
128
 71
1
 72
23
 73
25
 74
25
 0
VERTEX
 8
ZYLINDER_8
 10
0
 20
0
 30
0
 70
128
 71
23
 72
24
 73
26
 74
25
 0
VERTEX
 8
ZYLINDER_8
 10
0
 20
0
 30
0
 70
128
 71
24
 72
2
 73
26
 74
26
 0
VERTEX
 8
ZYLINDER_8
 10
0
 20
0
 30
0
 70
128
 71
1
 72
25
 73
3
 74
3
 0
VERTEX
 8
ZYLINDER_8
 10
0
 20
0
 30
0
 70
128
 71
25
 72
26
 73
4
 74
3
 0
VERTEX
 8
ZYLINDER_8
 10
0
 20
0
 30
0
 70
128
 71
26
 72
2
 73
4
 74
4
 0
SEQEND
 0
POLYLINE
 8
ZYLINDER_7
 66
1
 10
0.0
 20
0.0
 30
0.0
 70
64
 71
12
 72
6
 0
VERTEX
 8
ZYLINDER_7
 10
-0.0221
 20
2.4515
 30
27.5673
 70
192
 0
VERTEX
 8
ZYLINDER_7
 10
-0.0221
 20
1.2515
 30
27.5673
 70
192
 0
VERTEX
 8
ZYLINDER_7
 10
0.1511
 20
2.4515
 30
27.6673
 70
192
 0
VERTEX
 8
ZYLINDER_7
 10
0.1511
 20
1.2515
 30
27.6673
 70
192
 0
VERTEX
 8
ZYLINDER_7
 10
0.1511
 20
2.4515
 30
27.8673
 70
192
 0
VERTEX
 8
ZYLINDER_7
 10
0.1511
 20
1.2515
 30
27.8673
 70
192
 0
VERTEX
 8
ZYLINDER_7
 10
-0.0221
 20
2.4515
 30
27.9673
 70
192
 0
VERTEX
 8
ZYLINDER_7
 10
-0.0221
 20
1.2515
 30
27.9673
 70
192
 0
VERTEX
 8
ZYLINDER_7
 10
-0.1953
 20
2.4515
 30
27.8673
 70
192
 0
VERTEX
 8
ZYLINDER_7
 10
-0.1953
 20
1.2515
 30
27.8673
 70
192
 0
VERTEX
 8
ZYLINDER_7
 10
-0.1953
 20
2.4515
 30
27.6673
 70
192
 0
VERTEX
 8
ZYLINDER_7
 10
-0.1953
 20
1.2515
 30
27.6673
 70
192
 0
VERTEX
 8
ZYLINDER_7
 10
0
 20
0
 30
0
 70
128
 71
1
 72
2
 73
4
 74
3
 0
VERTEX
 8
ZYLINDER_7
 10
0
 20
0
 30
0
 70
128
 71
3
 72
4
 73
6
 74
5
 0
VERTEX
 8
ZYLINDER_7
 10
0
 20
0
 30
0
 70
128
 71
5
 72
6
 73
8
 74
7
 0
VERTEX
 8
ZYLINDER_7
 10
0
 20
0
 30
0
 70
128
 71
7
 72
8
 73
10
 74
9
 0
VERTEX
 8
ZYLINDER_7
 10
0
 20
0
 30
0
 70
128
 71
9
 72
10
 73
12
 74
11
 0
VERTEX
 8
ZYLINDER_7
 10
0
 20
0
 30
0
 70
128
 71
11
 72
12
 73
2
 74
1
 0
SEQEND
 0
POLYLINE
 8
SCHLAUCH_1
 66
1
 10
0.0
 20
0.0
 30
0.0
 70
64
 71
96
 72
88
 0
VERTEX
 8
SCHLAUCH_1
 10
-1.161
 20
0.8125
 30
4.9297
 70
192
 0
VERTEX
 8
SCHLAUCH_1
 10
-1.1395
 20
0.5826
 30
4.8432
 70
192
 0
VERTEX
 8
SCHLAUCH_1
 10
-1.1177
 20
0.4963
 30
4.6501
 70
192
 0
VERTEX
 8
SCHLAUCH_1
 10
-1.1035
 20
0.5842
 30
4.4202
 70
192
 0
VERTEX
 8
SCHLAUCH_1
 10
-1.1078
 20
0.778
 30
4.3331
 70
192
 0
VERTEX
 8
SCHLAUCH_1
 10
-1.1293
 20
1.0079
 30
4.4196
 70
192
 0
VERTEX
 8
SCHLAUCH_1
 10
-1.1511
 20
1.0942
 30
4.6126
 70
192
 0
VERTEX
 8
SCHLAUCH_1
 10
-1.1654
 20
1.0063
 30
4.8426
 70
192
 0
VERTEX
 8
SCHLAUCH_1
 10
-3.6793
 20
0.661
 30
4.7141
 70
192
 0
VERTEX
 8
SCHLAUCH_1
 10
-3.611
 20
0.4332
 30
4.6335
 70
192
 0
VERTEX
 8
SCHLAUCH_1
 10
-3.514
 20
0.35
 30
4.4476
 70
192
 0
VERTEX
 8
SCHLAUCH_1
 10
-3.4233
 20
0.4406
 30
4.2235
 70
192
 0
VERTEX
 8
SCHLAUCH_1
 10
-3.4097
 20
0.6348
 30
4.1363
 70
192
 0
VERTEX
 8
SCHLAUCH_1
 10
-3.478
 20
0.8625
 30
4.2169
 70
192
 0
VERTEX
 8
SCHLAUCH_1
 10
-3.575
 20
0.9458
 30
4.4028
 70
192
 0
VERTEX
 8
SCHLAUCH_1
 10
-3.6658
 20
0.8552
 30
4.6269
 70
192
 0
VERTEX
 8
SCHLAUCH_1
 10
-5.3928
 20
0.2476
 30
3.0117
 70
192
 0
VERTEX
 8
SCHLAUCH_1
 10
-5.2744
 20
0.0308
 30
2.9871
 70
192
 0
VERTEX
 8
SCHLAUCH_1
 10
-5.0847
 20
-0.0335
 30
2.8955
 70
192
 0
VERTEX
 8
SCHLAUCH_1
 10
-4.8919
 20
0.0772
 30
2.7699
 70
192
 0
VERTEX
 8
SCHLAUCH_1
 10
-4.8467
 20
0.277
 30
2.7085
 70
192
 0
VERTEX
 8
SCHLAUCH_1
 10
-4.965
 20
0.4938
 30
2.7331
 70
192
 0
VERTEX
 8
SCHLAUCH_1
 10
-5.1547
 20
0.5582
 30
2.8248
 70
192
 0
VERTEX
 8
SCHLAUCH_1
 10
-5.3476
 20
0.4474
 30
2.9503
 70
192
 0
VERTEX
 8
SCHLAUCH_1
 10
-6.4776
 20
-0.4584
 30
-2.0358
 70
192
 0
VERTEX
 8
SCHLAUCH_1
 10
-6.3473
 20
-0.6676
 30
-2.0139
 70
192
 0
VERTEX
 8
SCHLAUCH_1
 10
-6.1334
 20
-0.7148
 30
-1.9955
 70
192
 0
VERTEX
 8
SCHLAUCH_1
 10
-5.9129
 20
-0.5835
 30
-1.9872
 70
192
 0
VERTEX
 8
SCHLAUCH_1
 10
-5.8582
 20
-0.3759
 30
-1.9955
 70
192
 0
VERTEX
 8
SCHLAUCH_1
 10
-5.9884
 20
-0.1667
 30
-2.0175
 70
192
 0
VERTEX
 8
SCHLAUCH_1
 10
-6.2023
 20
-0.1195
 30
-2.0359
 70
192
 0
VERTEX
 8
SCHLAUCH_1
 10
-6.4228
 20
-0.2508
 30
-2.0442
 70
192
 0
VERTEX
 8
SCHLAUCH_1
 10
-4.9188
 20
-0.3638
 30
-6.2406
 70
192
 0
VERTEX
 8
SCHLAUCH_1
 10
-4.8122
 20
-0.5733
 30
-6.1486
 70
192
 0
VERTEX
 8
SCHLAUCH_1
 10
-4.6454
 20
-0.6213
 30
-6.0015
 70
192
 0
VERTEX
 8
SCHLAUCH_1
 10
-4.4786
 20
-0.4912
 30
-5.8523
 70
192
 0
VERTEX
 8
SCHLAUCH_1
 10
-4.4421
 20
-0.2841
 30
-5.8176
 70
192
 0
VERTEX
 8
SCHLAUCH_1
 10
-4.5486
 20
-0.0747
 30
-5.9096
 70
192
 0
VERTEX
 8
SCHLAUCH_1
 10
-4.7154
 20
-0.0266
 30
-6.0567
 70
192
 0
VERTEX
 8
SCHLAUCH_1
 10
-4.8822
 20
-0.1568
 30
-6.2059
 70
192
 0
VERTEX
 8
SCHLAUCH_1
 10
-0.6696
 20
-0.3811
 30
-8.4347
 70
192
 0
VERTEX
 8
SCHLAUCH_1
 10
-0.6495
 20
-0.5945
 30
-8.3067
 70
192
 0
VERTEX
 8
SCHLAUCH_1
 10
-0.609
 20
-0.6492
 30
-8.0966
 70
192
 0
VERTEX
 8
SCHLAUCH_1
 10
-0.5626
 20
-0.5259
 30
-7.8801
 70
192
 0
VERTEX
 8
SCHLAUCH_1
 10
-0.5465
 20
-0.3205
 30
-7.8264
 70
192
 0
VERTEX
 8
SCHLAUCH_1
 10
-0.5666
 20
-0.107
 30
-7.9544
 70
192
 0
VERTEX
 8
SCHLAUCH_1
 10
-0.6072
 20
-0.0524
 30
-8.1645
 70
192
 0
VERTEX
 8
SCHLAUCH_1
 10
-0.6536
 20
-0.1757
 30
-8.3811
 70
192
 0
VERTEX
 8
SCHLAUCH_1
 10
1.774
 20
-0.4808
 30
-8.2334
 70
192
 0
VERTEX
 8
SCHLAUCH_1
 10
1.7333
 20
-0.6938
 30
-8.114
 70
192
 0
VERTEX
 8
SCHLAUCH_1
 10
1.6723
 20
-0.7475
 30
-7.9131
 70
192
 0
VERTEX
 8
SCHLAUCH_1
 10
1.6129
 20
-0.6232
 30
-7.7033
 70
192
 0
VERTEX
 8
SCHLAUCH_1
 10
1.6016
 20
-0.4175
 30
-7.6485
 70
192
 0
VERTEX
 8
SCHLAUCH_1
 10
1.6423
 20
-0.2046
 30
-7.7679
 70
192
 0
VERTEX
 8
SCHLAUCH_1
 10
1.7033
 20
-0.1509
 30
-7.9688
 70
192
 0
VERTEX
 8
SCHLAUCH_1
 10
1.7627
 20
-0.2752
 30
-8.1786
 70
192
 0
VERTEX
 8
SCHLAUCH_1
 10
3.8418
 20
-0.4893
 30
-7.1157
 70
192
 0
VERTEX
 8
SCHLAUCH_1
 10
3.7512
 20
-0.7014
 30
-7.0219
 70
192
 0
VERTEX
 8
SCHLAUCH_1
 10
3.5833
 20
-0.7536
 30
-6.8785
 70
192
 0
VERTEX
 8
SCHLAUCH_1
 10
3.3987
 20
-0.6277
 30
-6.7371
 70
192
 0
VERTEX
 8
SCHLAUCH_1
 10
3.3416
 20
-0.4217
 30
-6.7083
 70
192
 0
VERTEX
 8
SCHLAUCH_1
 10
3.4323
 20
-0.2096
 30
-6.802
 70
192
 0
VERTEX
 8
SCHLAUCH_1
 10
3.6002
 20
-0.1573
 30
-6.9454
 70
192
 0
VERTEX
 8
SCHLAUCH_1
 10
3.7848
 20
-0.2832
 30
-7.0869
 70
192
 0
VERTEX
 8
SCHLAUCH_1
 10
5.2047
 20
0.1047
 30
-2.7515
 70
192
 0
VERTEX
 8
SCHLAUCH_1
 10
5.0923
 20
-0.1162
 30
-2.7249
 70
192
 0
VERTEX
 8
SCHLAUCH_1
 10
4.889
 20
-0.1831
 30
-2.6943
 70
192
 0
VERTEX
 8
SCHLAUCH_1
 10
4.668
 20
-0.0726
 30
-2.6706
 70
192
 0
VERTEX
 8
SCHLAUCH_1
 10
4.6021
 20
0.1295
 30
-2.6725
 70
192
 0
VERTEX
 8
SCHLAUCH_1
 10
4.7145
 20
0.3504
 30
-2.6991
 70
192
 0
VERTEX
 8
SCHLAUCH_1
 10
4.9178
 20
0.4174
 30
-2.7297
 70
192
 0
VERTEX
 8
SCHLAUCH_1
 10
5.1388
 20
0.3069
 30
-2.7534
 70
192
 0
VERTEX
 8
SCHLAUCH_1
 10
5.0367
 20
-0.0147
 30
1.8808
 70
192
 0
VERTEX
 8
SCHLAUCH_1
 10
4.929
 20
-0.2355
 30
1.8532
 70
192
 0
VERTEX
 8
SCHLAUCH_1
 10
4.7284
 20
-0.3035
 30
1.8306
 70
192
 0
VERTEX
 8
SCHLAUCH_1
 10
4.5073
 20
-0.1948
 30
1.8213
 70
192
 0
VERTEX
 8
SCHLAUCH_1
 10
4.4384
 20
0.0061
 30
1.8325
 70
192
 0
VERTEX
 8
SCHLAUCH_1
 10
4.5461
 20
0.2269
 30
1.8602
 70
192
 0
VERTEX
 8
SCHLAUCH_1
 10
4.7466
 20
0.295
 30
1.8827
 70
192
 0
VERTEX
 8
SCHLAUCH_1
 10
4.9678
 20
0.1863
 30
1.892
 70
192
 0
VERTEX
 8
SCHLAUCH_1
 10
3.5567
 20
-1.6216
 30
13.099
 70
192
 0
VERTEX
 8
SCHLAUCH_1
 10
3.447
 20
-1.8453
 30
13.0901
 70
192
 0
VERTEX
 8
SCHLAUCH_1
 10
3.2462
 20
-1.9141
 30
13.0705
 70
192
 0
VERTEX
 8
SCHLAUCH_1
 10
3.0266
 20
-1.8038
 30
13.0471
 70
192
 0
VERTEX
 8
SCHLAUCH_1
 10
2.96
 20
-1.6001
 30
13.0383
 70
192
 0
VERTEX
 8
SCHLAUCH_1
 10
3.0698
 20
-1.3765
 30
13.0472
 70
192
 0
VERTEX
 8
SCHLAUCH_1
 10
3.2706
 20
-1.3076
 30
13.0669
 70
192
 0
VERTEX
 8
SCHLAUCH_1
 10
3.4901
 20
-1.418
 30
13.0902
 70
192
 0
VERTEX
 8
SCHLAUCH_1
 10
2.5125
 20
0.7751
 30
27.8071
 70
192
 0
VERTEX
 8
SCHLAUCH_1
 10
2.4006
 20
0.5571
 30
27.8347
 70
192
 0
VERTEX
 8
SCHLAUCH_1
 10
2.1987
 20
0.4906
 30
27.8312
 70
192
 0
VERTEX
 8
SCHLAUCH_1
 10
1.9797
 20
0.5989
 30
27.798
 70
192
 0
VERTEX
 8
SCHLAUCH_1
 10
1.9147
 20
0.7978
 30
27.761
 70
192
 0
VERTEX
 8
SCHLAUCH_1
 10
2.0267
 20
1.0158
 30
27.7334
 70
192
 0
VERTEX
 8
SCHLAUCH_1
 10
2.2285
 20
1.0823
 30
27.7369
 70
192
 0
VERTEX
 8
SCHLAUCH_1
 10
2.4475
 20
0.974
 30
27.7701
 70
192
 0
VERTEX
 8
SCHLAUCH_1
 10
0
 20
0
 30
0
 70
128
 71
1
 72
2
 73
10
 74
9
 0
VERTEX
 8
SCHLAUCH_1
 10
0
 20
0
 30
0
 70
128
 71
2
 72
3
 73
11
 74
10
 0
VERTEX
 8
SCHLAUCH_1
 10
0
 20
0
 30
0
 70
128
 71
3
 72
4
 73
12
 74
11
 0
VERTEX
 8
SCHLAUCH_1
 10
0
 20
0
 30
0
 70
128
 71
4
 72
5
 73
13
 74
12
 0
VERTEX
 8
SCHLAUCH_1
 10
0
 20
0
 30
0
 70
128
 71
5
 72
6
 73
14
 74
13
 0
VERTEX
 8
SCHLAUCH_1
 10
0
 20
0
 30
0
 70
128
 71
6
 72
7
 73
15
 74
14
 0
VERTEX
 8
SCHLAUCH_1
 10
0
 20
0
 30
0
 70
128
 71
7
 72
8
 73
16
 74
15
 0
VERTEX
 8
SCHLAUCH_1
 10
0
 20
0
 30
0
 70
128
 71
8
 72
1
 73
9
 74
16
 0
VERTEX
 8
SCHLAUCH_1
 10
0
 20
0
 30
0
 70
128
 71
9
 72
10
 73
18
 74
17
 0
VERTEX
 8
SCHLAUCH_1
 10
0
 20
0
 30
0
 70
128
 71
10
 72
11
 73
19
 74
18
 0
VERTEX
 8
SCHLAUCH_1
 10
0
 20
0
 30
0
 70
128
 71
11
 72
12
 73
20
 74
19
 0
VERTEX
 8
SCHLAUCH_1
 10
0
 20
0
 30
0
 70
128
 71
12
 72
13
 73
21
 74
20
 0
VERTEX
 8
SCHLAUCH_1
 10
0
 20
0
 30
0
 70
128
 71
13
 72
14
 73
22
 74
21
 0
VERTEX
 8
SCHLAUCH_1
 10
0
 20
0
 30
0
 70
128
 71
14
 72
15
 73
23
 74
22
 0
VERTEX
 8
SCHLAUCH_1
 10
0
 20
0
 30
0
 70
128
 71
15
 72
16
 73
24
 74
23
 0
VERTEX
 8
SCHLAUCH_1
 10
0
 20
0
 30
0
 70
128
 71
16
 72
9
 73
17
 74
24
 0
VERTEX
 8
SCHLAUCH_1
 10
0
 20
0
 30
0
 70
128
 71
17
 72
18
 73
26
 74
25
 0
VERTEX
 8
SCHLAUCH_1
 10
0
 20
0
 30
0
 70
128
 71
18
 72
19
 73
27
 74
26
 0
VERTEX
 8
SCHLAUCH_1
 10
0
 20
0
 30
0
 70
128
 71
19
 72
20
 73
28
 74
27
 0
VERTEX
 8
SCHLAUCH_1
 10
0
 20
0
 30
0
 70
128
 71
20
 72
21
 73
29
 74
28
 0
VERTEX
 8
SCHLAUCH_1
 10
0
 20
0
 30
0
 70
128
 71
21
 72
22
 73
30
 74
29
 0
VERTEX
 8
SCHLAUCH_1
 10
0
 20
0
 30
0
 70
128
 71
22
 72
23
 73
31
 74
30
 0
VERTEX
 8
SCHLAUCH_1
 10
0
 20
0
 30
0
 70
128
 71
23
 72
24
 73
32
 74
31
 0
VERTEX
 8
SCHLAUCH_1
 10
0
 20
0
 30
0
 70
128
 71
24
 72
17
 73
25
 74
32
 0
VERTEX
 8
SCHLAUCH_1
 10
0
 20
0
 30
0
 70
128
 71
25
 72
26
 73
34
 74
33
 0
VERTEX
 8
SCHLAUCH_1
 10
0
 20
0
 30
0
 70
128
 71
26
 72
27
 73
35
 74
34
 0
VERTEX
 8
SCHLAUCH_1
 10
0
 20
0
 30
0
 70
128
 71
27
 72
28
 73
36
 74
35
 0
VERTEX
 8
SCHLAUCH_1
 10
0
 20
0
 30
0
 70
128
 71
28
 72
29
 73
37
 74
36
 0
VERTEX
 8
SCHLAUCH_1
 10
0
 20
0
 30
0
 70
128
 71
29
 72
30
 73
38
 74
37
 0
VERTEX
 8
SCHLAUCH_1
 10
0
 20
0
 30
0
 70
128
 71
30
 72
31
 73
39
 74
38
 0
VERTEX
 8
SCHLAUCH_1
 10
0
 20
0
 30
0
 70
128
 71
31
 72
32
 73
40
 74
39
 0
VERTEX
 8
SCHLAUCH_1
 10
0
 20
0
 30
0
 70
128
 71
32
 72
25
 73
33
 74
40
 0
VERTEX
 8
SCHLAUCH_1
 10
0
 20
0
 30
0
 70
128
 71
33
 72
34
 73
42
 74
41
 0
VERTEX
 8
SCHLAUCH_1
 10
0
 20
0
 30
0
 70
128
 71
34
 72
35
 73
43
 74
42
 0
VERTEX
 8
SCHLAUCH_1
 10
0
 20
0
 30
0
 70
128
 71
35
 72
36
 73
44
 74
43
 0
VERTEX
 8
SCHLAUCH_1
 10
0
 20
0
 30
0
 70
128
 71
36
 72
37
 73
45
 74
44
 0
VERTEX
 8
SCHLAUCH_1
 10
0
 20
0
 30
0
 70
128
 71
37
 72
38
 73
46
 74
45
 0
VERTEX
 8
SCHLAUCH_1
 10
0
 20
0
 30
0
 70
128
 71
38
 72
39
 73
47
 74
46
 0
VERTEX
 8
SCHLAUCH_1
 10
0
 20
0
 30
0
 70
128
 71
39
 72
40
 73
48
 74
47
 0
VERTEX
 8
SCHLAUCH_1
 10
0
 20
0
 30
0
 70
128
 71
40
 72
33
 73
41
 74
48
 0
VERTEX
 8
SCHLAUCH_1
 10
0
 20
0
 30
0
 70
128
 71
41
 72
42
 73
50
 74
49
 0
VERTEX
 8
SCHLAUCH_1
 10
0
 20
0
 30
0
 70
128
 71
42
 72
43
 73
51
 74
50
 0
VERTEX
 8
SCHLAUCH_1
 10
0
 20
0
 30
0
 70
128
 71
43
 72
44
 73
52
 74
51
 0
VERTEX
 8
SCHLAUCH_1
 10
0
 20
0
 30
0
 70
128
 71
44
 72
45
 73
53
 74
52
 0
VERTEX
 8
SCHLAUCH_1
 10
0
 20
0
 30
0
 70
128
 71
45
 72
46
 73
54
 74
53
 0
VERTEX
 8
SCHLAUCH_1
 10
0
 20
0
 30
0
 70
128
 71
46
 72
47
 73
55
 74
54
 0
VERTEX
 8
SCHLAUCH_1
 10
0
 20
0
 30
0
 70
128
 71
47
 72
48
 73
56
 74
55
 0
VERTEX
 8
SCHLAUCH_1
 10
0
 20
0
 30
0
 70
128
 71
48
 72
41
 73
49
 74
56
 0
VERTEX
 8
SCHLAUCH_1
 10
0
 20
0
 30
0
 70
128
 71
49
 72
50
 73
58
 74
57
 0
VERTEX
 8
SCHLAUCH_1
 10
0
 20
0
 30
0
 70
128
 71
50
 72
51
 73
59
 74
58
 0
VERTEX
 8
SCHLAUCH_1
 10
0
 20
0
 30
0
 70
128
 71
51
 72
52
 73
60
 74
59
 0
VERTEX
 8
SCHLAUCH_1
 10
0
 20
0
 30
0
 70
128
 71
52
 72
53
 73
61
 74
60
 0
VERTEX
 8
SCHLAUCH_1
 10
0
 20
0
 30
0
 70
128
 71
53
 72
54
 73
62
 74
61
 0
VERTEX
 8
SCHLAUCH_1
 10
0
 20
0
 30
0
 70
128
 71
54
 72
55
 73
63
 74
62
 0
VERTEX
 8
SCHLAUCH_1
 10
0
 20
0
 30
0
 70
128
 71
55
 72
56
 73
64
 74
63
 0
VERTEX
 8
SCHLAUCH_1
 10
0
 20
0
 30
0
 70
128
 71
56
 72
49
 73
57
 74
64
 0
VERTEX
 8
SCHLAUCH_1
 10
0
 20
0
 30
0
 70
128
 71
57
 72
58
 73
66
 74
65
 0
VERTEX
 8
SCHLAUCH_1
 10
0
 20
0
 30
0
 70
128
 71
58
 72
59
 73
67
 74
66
 0
VERTEX
 8
SCHLAUCH_1
 10
0
 20
0
 30
0
 70
128
 71
59
 72
60
 73
68
 74
67
 0
VERTEX
 8
SCHLAUCH_1
 10
0
 20
0
 30
0
 70
128
 71
60
 72
61
 73
69
 74
68
 0
VERTEX
 8
SCHLAUCH_1
 10
0
 20
0
 30
0
 70
128
 71
61
 72
62
 73
70
 74
69
 0
VERTEX
 8
SCHLAUCH_1
 10
0
 20
0
 30
0
 70
128
 71
62
 72
63
 73
71
 74
70
 0
VERTEX
 8
SCHLAUCH_1
 10
0
 20
0
 30
0
 70
128
 71
63
 72
64
 73
72
 74
71
 0
VERTEX
 8
SCHLAUCH_1
 10
0
 20
0
 30
0
 70
128
 71
64
 72
57
 73
65
 74
72
 0
VERTEX
 8
SCHLAUCH_1
 10
0
 20
0
 30
0
 70
128
 71
65
 72
66
 73
74
 74
73
 0
VERTEX
 8
SCHLAUCH_1
 10
0
 20
0
 30
0
 70
128
 71
66
 72
67
 73
75
 74
74
 0
VERTEX
 8
SCHLAUCH_1
 10
0
 20
0
 30
0
 70
128
 71
67
 72
68
 73
76
 74
75
 0
VERTEX
 8
SCHLAUCH_1
 10
0
 20
0
 30
0
 70
128
 71
68
 72
69
 73
77
 74
76
 0
VERTEX
 8
SCHLAUCH_1
 10
0
 20
0
 30
0
 70
128
 71
69
 72
70
 73
78
 74
77
 0
VERTEX
 8
SCHLAUCH_1
 10
0
 20
0
 30
0
 70
128
 71
70
 72
71
 73
79
 74
78
 0
VERTEX
 8
SCHLAUCH_1
 10
0
 20
0
 30
0
 70
128
 71
71
 72
72
 73
80
 74
79
 0
VERTEX
 8
SCHLAUCH_1
 10
0
 20
0
 30
0
 70
128
 71
72
 72
65
 73
73
 74
80
 0
VERTEX
 8
SCHLAUCH_1
 10
0
 20
0
 30
0
 70
128
 71
73
 72
74
 73
82
 74
81
 0
VERTEX
 8
SCHLAUCH_1
 10
0
 20
0
 30
0
 70
128
 71
74
 72
75
 73
83
 74
82
 0
VERTEX
 8
SCHLAUCH_1
 10
0
 20
0
 30
0
 70
128
 71
75
 72
76
 73
84
 74
83
 0
VERTEX
 8
SCHLAUCH_1
 10
0
 20
0
 30
0
 70
128
 71
76
 72
77
 73
85
 74
84
 0
VERTEX
 8
SCHLAUCH_1
 10
0
 20
0
 30
0
 70
128
 71
77
 72
78
 73
86
 74
85
 0
VERTEX
 8
SCHLAUCH_1
 10
0
 20
0
 30
0
 70
128
 71
78
 72
79
 73
87
 74
86
 0
VERTEX
 8
SCHLAUCH_1
 10
0
 20
0
 30
0
 70
128
 71
79
 72
80
 73
88
 74
87
 0
VERTEX
 8
SCHLAUCH_1
 10
0
 20
0
 30
0
 70
128
 71
80
 72
73
 73
81
 74
88
 0
VERTEX
 8
SCHLAUCH_1
 10
0
 20
0
 30
0
 70
128
 71
81
 72
82
 73
90
 74
89
 0
VERTEX
 8
SCHLAUCH_1
 10
0
 20
0
 30
0
 70
128
 71
82
 72
83
 73
91
 74
90
 0
VERTEX
 8
SCHLAUCH_1
 10
0
 20
0
 30
0
 70
128
 71
83
 72
84
 73
92
 74
91
 0
VERTEX
 8
SCHLAUCH_1
 10
0
 20
0
 30
0
 70
128
 71
84
 72
85
 73
93
 74
92
 0
VERTEX
 8
SCHLAUCH_1
 10
0
 20
0
 30
0
 70
128
 71
85
 72
86
 73
94
 74
93
 0
VERTEX
 8
SCHLAUCH_1
 10
0
 20
0
 30
0
 70
128
 71
86
 72
87
 73
95
 74
94
 0
VERTEX
 8
SCHLAUCH_1
 10
0
 20
0
 30
0
 70
128
 71
87
 72
88
 73
96
 74
95
 0
VERTEX
 8
SCHLAUCH_1
 10
0
 20
0
 30
0
 70
128
 71
88
 72
81
 73
89
 74
96
 0
SEQEND
 0
POLYLINE
 8
HALTER_2
 66
1
 10
0.0
 20
0.0
 30
0.0
 70
64
 71
52
 72
50
 0
VERTEX
 8
HALTER_2
 10
2.5765
 20
1.1134
 30
27.3706
 70
192
 0
VERTEX
 8
HALTER_2
 10
2.5765
 20
1.1134
 30
28.1706
 70
192
 0
VERTEX
 8
HALTER_2
 10
2.4195
 20
1.2236
 30
27.3706
 70
192
 0
VERTEX
 8
HALTER_2
 10
2.4195
 20
1.2236
 30
28.1706
 70
192
 0
VERTEX
 8
HALTER_2
 10
2.2319
 20
1.2639
 30
27.3706
 70
192
 0
VERTEX
 8
HALTER_2
 10
2.2319
 20
1.2639
 30
28.1706
 70
192
 0
VERTEX
 8
HALTER_2
 10
2.0435
 20
1.228
 30
27.3706
 70
192
 0
VERTEX
 8
HALTER_2
 10
2.0435
 20
1.228
 30
28.1706
 70
192
 0
VERTEX
 8
HALTER_2
 10
1.8839
 20
1.1216
 30
27.3706
 70
192
 0
VERTEX
 8
HALTER_2
 10
1.8839
 20
1.1216
 30
28.1706
 70
192
 0
VERTEX
 8
HALTER_2
 10
1.7784
 20
0.9614
 30
27.3706
 70
192
 0
VERTEX
 8
HALTER_2
 10
1.7784
 20
0.9614
 30
28.1706
 70
192
 0
VERTEX
 8
HALTER_2
 10
1.7435
 20
0.7727
 30
27.3706
 70
192
 0
VERTEX
 8
HALTER_2
 10
1.7435
 20
0.7727
 30
28.1706
 70
192
 0
VERTEX
 8
HALTER_2
 10
1.7849
 20
0.5854
 30
27.3706
 70
192
 0
VERTEX
 8
HALTER_2
 10
1.7849
 20
0.5854
 30
28.1706
 70
192
 0
VERTEX
 8
HALTER_2
 10
1.8959
 20
0.429
 30
27.3706
 70
192
 0
VERTEX
 8
HALTER_2
 10
1.8959
 20
0.429
 30
28.1706
 70
192
 0
VERTEX
 8
HALTER_2
 10
2.0591
 20
0.3282
 30
27.3706
 70
192
 0
VERTEX
 8
HALTER_2
 10
2.0591
 20
0.3282
 30
28.1706
 70
192
 0
VERTEX
 8
HALTER_2
 10
2.2487
 20
0.2988
 30
27.3706
 70
192
 0
VERTEX
 8
HALTER_2
 10
2.2487
 20
0.2988
 30
28.1706
 70
192
 0
VERTEX
 8
HALTER_2
 10
2.4347
 20
0.3456
 30
27.3706
 70
192
 0
VERTEX
 8
HALTER_2
 10
2.4347
 20
0.3456
 30
28.1706
 70
192
 0
VERTEX
 8
HALTER_2
 10
2.5879
 20
0.4612
 30
27.3706
 70
192
 0
VERTEX
 8
HALTER_2
 10
2.5879
 20
0.4612
 30
28.1706
 70
192
 0
VERTEX
 8
HALTER_2
 10
2.5279
 20
0.5142
 30
27.3706
 70
192
 0
VERTEX
 8
HALTER_2
 10
2.5279
 20
0.5142
 30
28.1706
 70
192
 0
VERTEX
 8
HALTER_2
 10
2.4002
 20
0.4178
 30
27.3706
 70
192
 0
VERTEX
 8
HALTER_2
 10
2.4002
 20
0.4178
 30
28.1706
 70
192
 0
VERTEX
 8
HALTER_2
 10
2.245
 20
0.3788
 30
27.3706
 70
192
 0
VERTEX
 8
HALTER_2
 10
2.245
 20
0.3788
 30
28.1706
 70
192
 0
VERTEX
 8
HALTER_2
 10
2.0868
 20
0.4032
 30
27.3706
 70
192
 0
VERTEX
 8
HALTER_2
 10
2.0868
 20
0.4032
 30
28.1706
 70
192
 0
VERTEX
 8
HALTER_2
 10
1.9507
 20
0.4874
 30
27.3706
 70
192
 0
VERTEX
 8
HALTER_2
 10
1.9507
 20
0.4874
 30
28.1706
 70
192
 0
VERTEX
 8
HALTER_2
 10
1.858
 20
0.6179
 30
27.3706
 70
192
 0
VERTEX
 8
HALTER_2
 10
1.858
 20
0.6179
 30
28.1706
 70
192
 0
VERTEX
 8
HALTER_2
 10
1.8235
 20
0.7741
 30
27.3706
 70
192
 0
VERTEX
 8
HALTER_2
 10
1.8235
 20
0.7741
 30
28.1706
 70
192
 0
VERTEX
 8
HALTER_2
 10
1.8526
 20
0.9315
 30
27.3706
 70
192
 0
VERTEX
 8
HALTER_2
 10
1.8526
 20
0.9315
 30
28.1706
 70
192
 0
VERTEX
 8
HALTER_2
 10
1.9406
 20
1.0652
 30
27.3706
 70
192
 0
VERTEX
 8
HALTER_2
 10
1.9406
 20
1.0652
 30
28.1706
 70
192
 0
VERTEX
 8
HALTER_2
 10
2.0738
 20
1.154
 30
27.3706
 70
192
 0
VERTEX
 8
HALTER_2
 10
2.0738
 20
1.154
 30
28.1706
 70
192
 0
VERTEX
 8
HALTER_2
 10
2.231
 20
1.1839
 30
27.3706
 70
192
 0
VERTEX
 8
HALTER_2
 10
2.231
 20
1.1839
 30
28.1706
 70
192
 0
VERTEX
 8
HALTER_2
 10
2.3875
 20
1.1503
 30
27.3706
 70
192
 0
VERTEX
 8
HALTER_2
 10
2.3875
 20
1.1503
 30
28.1706
 70
192
 0
VERTEX
 8
HALTER_2
 10
2.5185
 20
1.0584
 30
27.3706
 70
192
 0
VERTEX
 8
HALTER_2
 10
2.5185
 20
1.0584
 30
28.1706
 70
192
 0
VERTEX
 8
HALTER_2
 10
0
 20
0
 30
0
 70
128
 71
1
 72
2
 73
4
 74
3
 0
VERTEX
 8
HALTER_2
 10
0
 20
0
 30
0
 70
128
 71
3
 72
4
 73
6
 74
5
 0
VERTEX
 8
HALTER_2
 10
0
 20
0
 30
0
 70
128
 71
5
 72
6
 73
8
 74
7
 0
VERTEX
 8
HALTER_2
 10
0
 20
0
 30
0
 70
128
 71
7
 72
8
 73
10
 74
9
 0
VERTEX
 8
HALTER_2
 10
0
 20
0
 30
0
 70
128
 71
9
 72
10
 73
12
 74
11
 0
VERTEX
 8
HALTER_2
 10
0
 20
0
 30
0
 70
128
 71
11
 72
12
 73
14
 74
13
 0
VERTEX
 8
HALTER_2
 10
0
 20
0
 30
0
 70
128
 71
13
 72
14
 73
16
 74
15
 0
VERTEX
 8
HALTER_2
 10
0
 20
0
 30
0
 70
128
 71
15
 72
16
 73
18
 74
17
 0
VERTEX
 8
HALTER_2
 10
0
 20
0
 30
0
 70
128
 71
17
 72
18
 73
20
 74
19
 0
VERTEX
 8
HALTER_2
 10
0
 20
0
 30
0
 70
128
 71
19
 72
20
 73
22
 74
21
 0
VERTEX
 8
HALTER_2
 10
0
 20
0
 30
0
 70
128
 71
21
 72
22
 73
24
 74
23
 0
VERTEX
 8
HALTER_2
 10
0
 20
0
 30
0
 70
128
 71
23
 72
24
 73
26
 74
25
 0
VERTEX
 8
HALTER_2
 10
0
 20
0
 30
0
 70
128
 71
25
 72
26
 73
28
 74
27
 0
VERTEX
 8
HALTER_2
 10
0
 20
0
 30
0
 70
128
 71
27
 72
28
 73
30
 74
29
 0
VERTEX
 8
HALTER_2
 10
0
 20
0
 30
0
 70
128
 71
29
 72
30
 73
32
 74
31
 0
VERTEX
 8
HALTER_2
 10
0
 20
0
 30
0
 70
128
 71
31
 72
32
 73
34
 74
33
 0
VERTEX
 8
HALTER_2
 10
0
 20
0
 30
0
 70
128
 71
33
 72
34
 73
36
 74
35
 0
VERTEX
 8
HALTER_2
 10
0
 20
0
 30
0
 70
128
 71
35
 72
36
 73
38
 74
37
 0
VERTEX
 8
HALTER_2
 10
0
 20
0
 30
0
 70
128
 71
37
 72
38
 73
40
 74
39
 0
VERTEX
 8
HALTER_2
 10
0
 20
0
 30
0
 70
128
 71
39
 72
40
 73
42
 74
41
 0
VERTEX
 8
HALTER_2
 10
0
 20
0
 30
0
 70
128
 71
41
 72
42
 73
44
 74
43
 0
VERTEX
 8
HALTER_2
 10
0
 20
0
 30
0
 70
128
 71
43
 72
44
 73
46
 74
45
 0
VERTEX
 8
HALTER_2
 10
0
 20
0
 30
0
 70
128
 71
45
 72
46
 73
48
 74
47
 0
VERTEX
 8
HALTER_2
 10
0
 20
0
 30
0
 70
128
 71
47
 72
48
 73
50
 74
49
 0
VERTEX
 8
HALTER_2
 10
0
 20
0
 30
0
 70
128
 71
49
 72
50
 73
52
 74
51
 0
VERTEX
 8
HALTER_2
 10
0
 20
0
 30
0
 70
128
 71
51
 72
52
 73
2
 74
1
 0
VERTEX
 8
HALTER_2
 10
0
 20
0
 30
0
 70
128
 71
2
 72
52
 73
50
 74
4
 0
VERTEX
 8
HALTER_2
 10
0
 20
0
 30
0
 70
128
 71
4
 72
50
 73
48
 74
6
 0
VERTEX
 8
HALTER_2
 10
0
 20
0
 30
0
 70
128
 71
6
 72
48
 73
46
 74
8
 0
VERTEX
 8
HALTER_2
 10
0
 20
0
 30
0
 70
128
 71
8
 72
46
 73
44
 74
10
 0
VERTEX
 8
HALTER_2
 10
0
 20
0
 30
0
 70
128
 71
10
 72
44
 73
42
 74
12
 0
VERTEX
 8
HALTER_2
 10
0
 20
0
 30
0
 70
128
 71
12
 72
42
 73
40
 74
14
 0
VERTEX
 8
HALTER_2
 10
0
 20
0
 30
0
 70
128
 71
14
 72
40
 73
38
 74
16
 0
VERTEX
 8
HALTER_2
 10
0
 20
0
 30
0
 70
128
 71
16
 72
38
 73
36
 74
18
 0
VERTEX
 8
HALTER_2
 10
0
 20
0
 30
0
 70
128
 71
18
 72
36
 73
34
 74
20
 0
VERTEX
 8
HALTER_2
 10
0
 20
0
 30
0
 70
128
 71
20
 72
34
 73
32
 74
22
 0
VERTEX
 8
HALTER_2
 10
0
 20
0
 30
0
 70
128
 71
22
 72
32
 73
30
 74
24
 0
VERTEX
 8
HALTER_2
 10
0
 20
0
 30
0
 70
128
 71
24
 72
30
 73
28
 74
26
 0
VERTEX
 8
HALTER_2
 10
0
 20
0
 30
0
 70
128
 71
51
 72
1
 73
3
 74
49
 0
VERTEX
 8
HALTER_2
 10
0
 20
0
 30
0
 70
128
 71
49
 72
3
 73
5
 74
47
 0
VERTEX
 8
HALTER_2
 10
0
 20
0
 30
0
 70
128
 71
47
 72
5
 73
7
 74
45
 0
VERTEX
 8
HALTER_2
 10
0
 20
0
 30
0
 70
128
 71
45
 72
7
 73
9
 74
43
 0
VERTEX
 8
HALTER_2
 10
0
 20
0
 30
0
 70
128
 71
43
 72
9
 73
11
 74
41
 0
VERTEX
 8
HALTER_2
 10
0
 20
0
 30
0
 70
128
 71
41
 72
11
 73
13
 74
39
 0
VERTEX
 8
HALTER_2
 10
0
 20
0
 30
0
 70
128
 71
39
 72
13
 73
15
 74
37
 0
VERTEX
 8
HALTER_2
 10
0
 20
0
 30
0
 70
128
 71
37
 72
15
 73
17
 74
35
 0
VERTEX
 8
HALTER_2
 10
0
 20
0
 30
0
 70
128
 71
35
 72
17
 73
19
 74
33
 0
VERTEX
 8
HALTER_2
 10
0
 20
0
 30
0
 70
128
 71
33
 72
19
 73
21
 74
31
 0
VERTEX
 8
HALTER_2
 10
0
 20
0
 30
0
 70
128
 71
31
 72
21
 73
23
 74
29
 0
VERTEX
 8
HALTER_2
 10
0
 20
0
 30
0
 70
128
 71
29
 72
23
 73
25
 74
27
 0
SEQEND
 0
POLYLINE
 8
ZYLINDER_6
 66
1
 10
0.0
 20
0.0
 30
0.0
 70
64
 71
18
 72
24
 0
VERTEX
 8
ZYLINDER_6
 10
1.8353
 20
0.7831
 30
27.7673
 70
192
 0
VERTEX
 8
ZYLINDER_6
 10
0.2353
 20
0.7831
 30
27.7673
 70
192
 0
VERTEX
 8
ZYLINDER_6
 10
1.8353
 20
0.5431
 30
27.7673
 70
192
 0
VERTEX
 8
ZYLINDER_6
 10
0.2353
 20
0.5431
 30
27.7673
 70
192
 0
VERTEX
 8
ZYLINDER_6
 10
1.8353
 20
0.6134
 30
27.937
 70
192
 0
VERTEX
 8
ZYLINDER_6
 10
0.2353
 20
0.6134
 30
27.937
 70
192
 0
VERTEX
 8
ZYLINDER_6
 10
1.8353
 20
0.7831
 30
28.0073
 70
192
 0
VERTEX
 8
ZYLINDER_6
 10
0.2353
 20
0.7831
 30
28.0073
 70
192
 0
VERTEX
 8
ZYLINDER_6
 10
1.8353
 20
0.9528
 30
27.937
 70
192
 0
VERTEX
 8
ZYLINDER_6
 10
0.2353
 20
0.9528
 30
27.937
 70
192
 0
VERTEX
 8
ZYLINDER_6
 10
1.8353
 20
1.0231
 30
27.7673
 70
192
 0
VERTEX
 8
ZYLINDER_6
 10
0.2353
 20
1.0231
 30
27.7673
 70
192
 0
VERTEX
 8
ZYLINDER_6
 10
1.8353
 20
0.9528
 30
27.5976
 70
192
 0
VERTEX
 8
ZYLINDER_6
 10
0.2353
 20
0.9528
 30
27.5976
 70
192
 0
VERTEX
 8
ZYLINDER_6
 10
1.8353
 20
0.7831
 30
27.5273
 70
192
 0
VERTEX
 8
ZYLINDER_6
 10
0.2353
 20
0.7831
 30
27.5273
 70
192
 0
VERTEX
 8
ZYLINDER_6
 10
1.8353
 20
0.6134
 30
27.5976
 70
192
 0
VERTEX
 8
ZYLINDER_6
 10
0.2353
 20
0.6134
 30
27.5976
 70
192
 0
VERTEX
 8
ZYLINDER_6
 10
0
 20
0
 30
0
 70
128
 71
1
 72
3
 73
5
 74
5
 0
VERTEX
 8
ZYLINDER_6
 10
0
 20
0
 30
0
 70
128
 71
3
 72
4
 73
6
 74
5
 0
VERTEX
 8
ZYLINDER_6
 10
0
 20
0
 30
0
 70
128
 71
4
 72
2
 73
6
 74
6
 0
VERTEX
 8
ZYLINDER_6
 10
0
 20
0
 30
0
 70
128
 71
1
 72
5
 73
7
 74
7
 0
VERTEX
 8
ZYLINDER_6
 10
0
 20
0
 30
0
 70
128
 71
5
 72
6
 73
8
 74
7
 0
VERTEX
 8
ZYLINDER_6
 10
0
 20
0
 30
0
 70
128
 71
6
 72
2
 73
8
 74
8
 0
VERTEX
 8
ZYLINDER_6
 10
0
 20
0
 30
0
 70
128
 71
1
 72
7
 73
9
 74
9
 0
VERTEX
 8
ZYLINDER_6
 10
0
 20
0
 30
0
 70
128
 71
7
 72
8
 73
10
 74
9
 0
VERTEX
 8
ZYLINDER_6
 10
0
 20
0
 30
0
 70
128
 71
8
 72
2
 73
10
 74
10
 0
VERTEX
 8
ZYLINDER_6
 10
0
 20
0
 30
0
 70
128
 71
1
 72
9
 73
11
 74
11
 0
VERTEX
 8
ZYLINDER_6
 10
0
 20
0
 30
0
 70
128
 71
9
 72
10
 73
12
 74
11
 0
VERTEX
 8
ZYLINDER_6
 10
0
 20
0
 30
0
 70
128
 71
10
 72
2
 73
12
 74
12
 0
VERTEX
 8
ZYLINDER_6
 10
0
 20
0
 30
0
 70
128
 71
1
 72
11
 73
13
 74
13
 0
VERTEX
 8
ZYLINDER_6
 10
0
 20
0
 30
0
 70
128
 71
11
 72
12
 73
14
 74
13
 0
VERTEX
 8
ZYLINDER_6
 10
0
 20
0
 30
0
 70
128
 71
12
 72
2
 73
14
 74
14
 0
VERTEX
 8
ZYLINDER_6
 10
0
 20
0
 30
0
 70
128
 71
1
 72
13
 73
15
 74
15
 0
VERTEX
 8
ZYLINDER_6
 10
0
 20
0
 30
0
 70
128
 71
13
 72
14
 73
16
 74
15
 0
VERTEX
 8
ZYLINDER_6
 10
0
 20
0
 30
0
 70
128
 71
14
 72
2
 73
16
 74
16
 0
VERTEX
 8
ZYLINDER_6
 10
0
 20
0
 30
0
 70
128
 71
1
 72
15
 73
17
 74
17
 0
VERTEX
 8
ZYLINDER_6
 10
0
 20
0
 30
0
 70
128
 71
15
 72
16
 73
18
 74
17
 0
VERTEX
 8
ZYLINDER_6
 10
0
 20
0
 30
0
 70
128
 71
16
 72
2
 73
18
 74
18
 0
VERTEX
 8
ZYLINDER_6
 10
0
 20
0
 30
0
 70
128
 71
1
 72
17
 73
3
 74
3
 0
VERTEX
 8
ZYLINDER_6
 10
0
 20
0
 30
0
 70
128
 71
17
 72
18
 73
4
 74
3
 0
VERTEX
 8
ZYLINDER_6
 10
0
 20
0
 30
0
 70
128
 71
18
 72
2
 73
4
 74
4
 0
SEQEND
 0
POLYLINE
 8
K_RPER_3
 66
1
 10
0.0
 20
0.0
 30
0.0
 70
64
 71
32
 72
45
 0
VERTEX
 8
K_RPER_3
 10
-0.049
 20
0.7817
 30
28.3289
 70
192
 0
VERTEX
 8
K_RPER_3
 10
-0.049
 20
0.7817
 30
28.9289
 70
192
 0
VERTEX
 8
K_RPER_3
 10
-0.049
 20
-0.0183
 30
28.3289
 70
192
 0
VERTEX
 8
K_RPER_3
 10
-0.049
 20
-0.0183
 30
28.9289
 70
192
 0
VERTEX
 8
K_RPER_3
 10
0.2764
 20
0.0508
 30
28.3289
 70
192
 0
VERTEX
 8
K_RPER_3
 10
0.2764
 20
0.0508
 30
28.9289
 70
192
 0
VERTEX
 8
K_RPER_3
 10
0.5456
 20
0.2464
 30
28.3289
 70
192
 0
VERTEX
 8
K_RPER_3
 10
0.5456
 20
0.2464
 30
28.9289
 70
192
 0
VERTEX
 8
K_RPER_3
 10
0.7119
 20
0.5345
 30
28.3289
 70
192
 0
VERTEX
 8
K_RPER_3
 10
0.7119
 20
0.5345
 30
28.9289
 70
192
 0
VERTEX
 8
K_RPER_3
 10
0.7467
 20
0.8653
 30
28.3289
 70
192
 0
VERTEX
 8
K_RPER_3
 10
0.7467
 20
0.8653
 30
28.9289
 70
192
 0
VERTEX
 8
K_RPER_3
 10
0.6439
 20
1.1817
 30
28.3289
 70
192
 0
VERTEX
 8
K_RPER_3
 10
0.6439
 20
1.1817
 30
28.9289
 70
192
 0
VERTEX
 8
K_RPER_3
 10
0.4213
 20
1.4289
 30
28.3289
 70
192
 0
VERTEX
 8
K_RPER_3
 10
0.4213
 20
1.4289
 30
28.9289
 70
192
 0
VERTEX
 8
K_RPER_3
 10
0.1174
 20
1.5642
 30
28.3289
 70
192
 0
VERTEX
 8
K_RPER_3
 10
0.1174
 20
1.5642
 30
28.9289
 70
192
 0
VERTEX
 8
K_RPER_3
 10
-0.2153
 20
1.5642
 30
28.3289
 70
192
 0
VERTEX
 8
K_RPER_3
 10
-0.2153
 20
1.5642
 30
28.9289
 70
192
 0
VERTEX
 8
K_RPER_3
 10
-0.5192
 20
1.4289
 30
28.3289
 70
192
 0
VERTEX
 8
K_RPER_3
 10
-0.5192
 20
1.4289
 30
28.9289
 70
192
 0
VERTEX
 8
K_RPER_3
 10
-0.7418
 20
1.1817
 30
28.3289
 70
192
 0
VERTEX
 8
K_RPER_3
 10
-0.7418
 20
1.1817
 30
28.9289
 70
192
 0
VERTEX
 8
K_RPER_3
 10
-0.8446
 20
0.8653
 30
28.3289
 70
192
 0
VERTEX
 8
K_RPER_3
 10
-0.8446
 20
0.8653
 30
28.9289
 70
192
 0
VERTEX
 8
K_RPER_3
 10
-0.8098
 20
0.5345
 30
28.3289
 70
192
 0
VERTEX
 8
K_RPER_3
 10
-0.8098
 20
0.5345
 30
28.9289
 70
192
 0
VERTEX
 8
K_RPER_3
 10
-0.6435
 20
0.2464
 30
28.3289
 70
192
 0
VERTEX
 8
K_RPER_3
 10
-0.6435
 20
0.2464
 30
28.9289
 70
192
 0
VERTEX
 8
K_RPER_3
 10
-0.3743
 20
0.0508
 30
28.3289
 70
192
 0
VERTEX
 8
K_RPER_3
 10
-0.3743
 20
0.0508
 30
28.9289
 70
192
 0
VERTEX
 8
K_RPER_3
 10
0
 20
0
 30
0
 70
128
 71
1
 72
3
 73
5
 74
5
 0
VERTEX
 8
K_RPER_3
 10
0
 20
0
 30
0
 70
128
 71
3
 72
4
 73
6
 74
5
 0
VERTEX
 8
K_RPER_3
 10
0
 20
0
 30
0
 70
128
 71
4
 72
2
 73
6
 74
6
 0
VERTEX
 8
K_RPER_3
 10
0
 20
0
 30
0
 70
128
 71
1
 72
5
 73
7
 74
7
 0
VERTEX
 8
K_RPER_3
 10
0
 20
0
 30
0
 70
128
 71
5
 72
6
 73
8
 74
7
 0
VERTEX
 8
K_RPER_3
 10
0
 20
0
 30
0
 70
128
 71
6
 72
2
 73
8
 74
8
 0
VERTEX
 8
K_RPER_3
 10
0
 20
0
 30
0
 70
128
 71
1
 72
7
 73
9
 74
9
 0
VERTEX
 8
K_RPER_3
 10
0
 20
0
 30
0
 70
128
 71
7
 72
8
 73
10
 74
9
 0
VERTEX
 8
K_RPER_3
 10
0
 20
0
 30
0
 70
128
 71
8
 72
2
 73
10
 74
10
 0
VERTEX
 8
K_RPER_3
 10
0
 20
0
 30
0
 70
128
 71
1
 72
9
 73
11
 74
11
 0
VERTEX
 8
K_RPER_3
 10
0
 20
0
 30
0
 70
128
 71
9
 72
10
 73
12
 74
11
 0
VERTEX
 8
K_RPER_3
 10
0
 20
0
 30
0
 70
128
 71
10
 72
2
 73
12
 74
12
 0
VERTEX
 8
K_RPER_3
 10
0
 20
0
 30
0
 70
128
 71
1
 72
11
 73
13
 74
13
 0
VERTEX
 8
K_RPER_3
 10
0
 20
0
 30
0
 70
128
 71
11
 72
12
 73
14
 74
13
 0
VERTEX
 8
K_RPER_3
 10
0
 20
0
 30
0
 70
128
 71
12
 72
2
 73
14
 74
14
 0
VERTEX
 8
K_RPER_3
 10
0
 20
0
 30
0
 70
128
 71
1
 72
13
 73
15
 74
15
 0
VERTEX
 8
K_RPER_3
 10
0
 20
0
 30
0
 70
128
 71
13
 72
14
 73
16
 74
15
 0
VERTEX
 8
K_RPER_3
 10
0
 20
0
 30
0
 70
128
 71
14
 72
2
 73
16
 74
16
 0
VERTEX
 8
K_RPER_3
 10
0
 20
0
 30
0
 70
128
 71
1
 72
15
 73
17
 74
17
 0
VERTEX
 8
K_RPER_3
 10
0
 20
0
 30
0
 70
128
 71
15
 72
16
 73
18
 74
17
 0
VERTEX
 8
K_RPER_3
 10
0
 20
0
 30
0
 70
128
 71
16
 72
2
 73
18
 74
18
 0
VERTEX
 8
K_RPER_3
 10
0
 20
0
 30
0
 70
128
 71
1
 72
17
 73
19
 74
19
 0
VERTEX
 8
K_RPER_3
 10
0
 20
0
 30
0
 70
128
 71
17
 72
18
 73
20
 74
19
 0
VERTEX
 8
K_RPER_3
 10
0
 20
0
 30
0
 70
128
 71
18
 72
2
 73
20
 74
20
 0
VERTEX
 8
K_RPER_3
 10
0
 20
0
 30
0
 70
128
 71
1
 72
19
 73
21
 74
21
 0
VERTEX
 8
K_RPER_3
 10
0
 20
0
 30
0
 70
128
 71
19
 72
20
 73
22
 74
21
 0
VERTEX
 8
K_RPER_3
 10
0
 20
0
 30
0
 70
128
 71
20
 72
2
 73
22
 74
22
 0
VERTEX
 8
K_RPER_3
 10
0
 20
0
 30
0
 70
128
 71
1
 72
21
 73
23
 74
23
 0
VERTEX
 8
K_RPER_3
 10
0
 20
0
 30
0
 70
128
 71
21
 72
22
 73
24
 74
23
 0
VERTEX
 8
K_RPER_3
 10
0
 20
0
 30
0
 70
128
 71
22
 72
2
 73
24
 74
24
 0
VERTEX
 8
K_RPER_3
 10
0
 20
0
 30
0
 70
128
 71
1
 72
23
 73
25
 74
25
 0
VERTEX
 8
K_RPER_3
 10
0
 20
0
 30
0
 70
128
 71
23
 72
24
 73
26
 74
25
 0
VERTEX
 8
K_RPER_3
 10
0
 20
0
 30
0
 70
128
 71
24
 72
2
 73
26
 74
26
 0
VERTEX
 8
K_RPER_3
 10
0
 20
0
 30
0
 70
128
 71
1
 72
25
 73
27
 74
27
 0
VERTEX
 8
K_RPER_3
 10
0
 20
0
 30
0
 70
128
 71
25
 72
26
 73
28
 74
27
 0
VERTEX
 8
K_RPER_3
 10
0
 20
0
 30
0
 70
128
 71
26
 72
2
 73
28
 74
28
 0
VERTEX
 8
K_RPER_3
 10
0
 20
0
 30
0
 70
128
 71
1
 72
27
 73
29
 74
29
 0
VERTEX
 8
K_RPER_3
 10
0
 20
0
 30
0
 70
128
 71
27
 72
28
 73
30
 74
29
 0
VERTEX
 8
K_RPER_3
 10
0
 20
0
 30
0
 70
128
 71
28
 72
2
 73
30
 74
30
 0
VERTEX
 8
K_RPER_3
 10
0
 20
0
 30
0
 70
128
 71
1
 72
29
 73
31
 74
31
 0
VERTEX
 8
K_RPER_3
 10
0
 20
0
 30
0
 70
128
 71
29
 72
30
 73
32
 74
31
 0
VERTEX
 8
K_RPER_3
 10
0
 20
0
 30
0
 70
128
 71
30
 72
2
 73
32
 74
32
 0
VERTEX
 8
K_RPER_3
 10
0
 20
0
 30
0
 70
128
 71
1
 72
31
 73
3
 74
3
 0
VERTEX
 8
K_RPER_3
 10
0
 20
0
 30
0
 70
128
 71
31
 72
32
 73
4
 74
3
 0
VERTEX
 8
K_RPER_3
 10
0
 20
0
 30
0
 70
128
 71
32
 72
2
 73
4
 74
4
 0
SEQEND
 0
POLYLINE
 8
K_RPER_2
 66
1
 10
0.0
 20
0.0
 30
0.0
 70
64
 71
32
 72
45
 0
VERTEX
 8
K_RPER_2
 10
-0.049
 20
0.7817
 30
26.9582
 70
192
 0
VERTEX
 8
K_RPER_2
 10
-0.049
 20
0.7817
 30
28.1582
 70
192
 0
VERTEX
 8
K_RPER_2
 10
-0.049
 20
-0.0183
 30
26.9582
 70
192
 0
VERTEX
 8
K_RPER_2
 10
-0.049
 20
-0.0183
 30
28.1582
 70
192
 0
VERTEX
 8
K_RPER_2
 10
0.2764
 20
0.0508
 30
26.9582
 70
192
 0
VERTEX
 8
K_RPER_2
 10
0.2764
 20
0.0508
 30
28.1582
 70
192
 0
VERTEX
 8
K_RPER_2
 10
0.5456
 20
0.2464
 30
26.9582
 70
192
 0
VERTEX
 8
K_RPER_2
 10
0.5456
 20
0.2464
 30
28.1582
 70
192
 0
VERTEX
 8
K_RPER_2
 10
0.7119
 20
0.5345
 30
26.9582
 70
192
 0
VERTEX
 8
K_RPER_2
 10
0.7119
 20
0.5345
 30
28.1582
 70
192
 0
VERTEX
 8
K_RPER_2
 10
0.7467
 20
0.8653
 30
26.9582
 70
192
 0
VERTEX
 8
K_RPER_2
 10
0.7467
 20
0.8653
 30
28.1582
 70
192
 0
VERTEX
 8
K_RPER_2
 10
0.6439
 20
1.1817
 30
26.9582
 70
192
 0
VERTEX
 8
K_RPER_2
 10
0.6439
 20
1.1817
 30
28.1582
 70
192
 0
VERTEX
 8
K_RPER_2
 10
0.4213
 20
1.4289
 30
26.9582
 70
192
 0
VERTEX
 8
K_RPER_2
 10
0.4213
 20
1.4289
 30
28.1582
 70
192
 0
VERTEX
 8
K_RPER_2
 10
0.1174
 20
1.5642
 30
26.9582
 70
192
 0
VERTEX
 8
K_RPER_2
 10
0.1174
 20
1.5642
 30
28.1582
 70
192
 0
VERTEX
 8
K_RPER_2
 10
-0.2153
 20
1.5642
 30
26.9582
 70
192
 0
VERTEX
 8
K_RPER_2
 10
-0.2153
 20
1.5642
 30
28.1582
 70
192
 0
VERTEX
 8
K_RPER_2
 10
-0.5192
 20
1.4289
 30
26.9582
 70
192
 0
VERTEX
 8
K_RPER_2
 10
-0.5192
 20
1.4289
 30
28.1582
 70
192
 0
VERTEX
 8
K_RPER_2
 10
-0.7418
 20
1.1817
 30
26.9582
 70
192
 0
VERTEX
 8
K_RPER_2
 10
-0.7418
 20
1.1817
 30
28.1582
 70
192
 0
VERTEX
 8
K_RPER_2
 10
-0.8446
 20
0.8653
 30
26.9582
 70
192
 0
VERTEX
 8
K_RPER_2
 10
-0.8446
 20
0.8653
 30
28.1582
 70
192
 0
VERTEX
 8
K_RPER_2
 10
-0.8098
 20
0.5345
 30
26.9582
 70
192
 0
VERTEX
 8
K_RPER_2
 10
-0.8098
 20
0.5345
 30
28.1582
 70
192
 0
VERTEX
 8
K_RPER_2
 10
-0.6435
 20
0.2464
 30
26.9582
 70
192
 0
VERTEX
 8
K_RPER_2
 10
-0.6435
 20
0.2464
 30
28.1582
 70
192
 0
VERTEX
 8
K_RPER_2
 10
-0.3743
 20
0.0508
 30
26.9582
 70
192
 0
VERTEX
 8
K_RPER_2
 10
-0.3743
 20
0.0508
 30
28.1582
 70
192
 0
VERTEX
 8
K_RPER_2
 10
0
 20
0
 30
0
 70
128
 71
1
 72
3
 73
5
 74
5
 0
VERTEX
 8
K_RPER_2
 10
0
 20
0
 30
0
 70
128
 71
3
 72
4
 73
6
 74
5
 0
VERTEX
 8
K_RPER_2
 10
0
 20
0
 30
0
 70
128
 71
4
 72
2
 73
6
 74
6
 0
VERTEX
 8
K_RPER_2
 10
0
 20
0
 30
0
 70
128
 71
1
 72
5
 73
7
 74
7
 0
VERTEX
 8
K_RPER_2
 10
0
 20
0
 30
0
 70
128
 71
5
 72
6
 73
8
 74
7
 0
VERTEX
 8
K_RPER_2
 10
0
 20
0
 30
0
 70
128
 71
6
 72
2
 73
8
 74
8
 0
VERTEX
 8
K_RPER_2
 10
0
 20
0
 30
0
 70
128
 71
1
 72
7
 73
9
 74
9
 0
VERTEX
 8
K_RPER_2
 10
0
 20
0
 30
0
 70
128
 71
7
 72
8
 73
10
 74
9
 0
VERTEX
 8
K_RPER_2
 10
0
 20
0
 30
0
 70
128
 71
8
 72
2
 73
10
 74
10
 0
VERTEX
 8
K_RPER_2
 10
0
 20
0
 30
0
 70
128
 71
1
 72
9
 73
11
 74
11
 0
VERTEX
 8
K_RPER_2
 10
0
 20
0
 30
0
 70
128
 71
9
 72
10
 73
12
 74
11
 0
VERTEX
 8
K_RPER_2
 10
0
 20
0
 30
0
 70
128
 71
10
 72
2
 73
12
 74
12
 0
VERTEX
 8
K_RPER_2
 10
0
 20
0
 30
0
 70
128
 71
1
 72
11
 73
13
 74
13
 0
VERTEX
 8
K_RPER_2
 10
0
 20
0
 30
0
 70
128
 71
11
 72
12
 73
14
 74
13
 0
VERTEX
 8
K_RPER_2
 10
0
 20
0
 30
0
 70
128
 71
12
 72
2
 73
14
 74
14
 0
VERTEX
 8
K_RPER_2
 10
0
 20
0
 30
0
 70
128
 71
1
 72
13
 73
15
 74
15
 0
VERTEX
 8
K_RPER_2
 10
0
 20
0
 30
0
 70
128
 71
13
 72
14
 73
16
 74
15
 0
VERTEX
 8
K_RPER_2
 10
0
 20
0
 30
0
 70
128
 71
14
 72
2
 73
16
 74
16
 0
VERTEX
 8
K_RPER_2
 10
0
 20
0
 30
0
 70
128
 71
1
 72
15
 73
17
 74
17
 0
VERTEX
 8
K_RPER_2
 10
0
 20
0
 30
0
 70
128
 71
15
 72
16
 73
18
 74
17
 0
VERTEX
 8
K_RPER_2
 10
0
 20
0
 30
0
 70
128
 71
16
 72
2
 73
18
 74
18
 0
VERTEX
 8
K_RPER_2
 10
0
 20
0
 30
0
 70
128
 71
1
 72
17
 73
19
 74
19
 0
VERTEX
 8
K_RPER_2
 10
0
 20
0
 30
0
 70
128
 71
17
 72
18
 73
20
 74
19
 0
VERTEX
 8
K_RPER_2
 10
0
 20
0
 30
0
 70
128
 71
18
 72
2
 73
20
 74
20
 0
VERTEX
 8
K_RPER_2
 10
0
 20
0
 30
0
 70
128
 71
1
 72
19
 73
21
 74
21
 0
VERTEX
 8
K_RPER_2
 10
0
 20
0
 30
0
 70
128
 71
19
 72
20
 73
22
 74
21
 0
VERTEX
 8
K_RPER_2
 10
0
 20
0
 30
0
 70
128
 71
20
 72
2
 73
22
 74
22
 0
VERTEX
 8
K_RPER_2
 10
0
 20
0
 30
0
 70
128
 71
1
 72
21
 73
23
 74
23
 0
VERTEX
 8
K_RPER_2
 10
0
 20
0
 30
0
 70
128
 71
21
 72
22
 73
24
 74
23
 0
VERTEX
 8
K_RPER_2
 10
0
 20
0
 30
0
 70
128
 71
22
 72
2
 73
24
 74
24
 0
VERTEX
 8
K_RPER_2
 10
0
 20
0
 30
0
 70
128
 71
1
 72
23
 73
25
 74
25
 0
VERTEX
 8
K_RPER_2
 10
0
 20
0
 30
0
 70
128
 71
23
 72
24
 73
26
 74
25
 0
VERTEX
 8
K_RPER_2
 10
0
 20
0
 30
0
 70
128
 71
24
 72
2
 73
26
 74
26
 0
VERTEX
 8
K_RPER_2
 10
0
 20
0
 30
0
 70
128
 71
1
 72
25
 73
27
 74
27
 0
VERTEX
 8
K_RPER_2
 10
0
 20
0
 30
0
 70
128
 71
25
 72
26
 73
28
 74
27
 0
VERTEX
 8
K_RPER_2
 10
0
 20
0
 30
0
 70
128
 71
26
 72
2
 73
28
 74
28
 0
VERTEX
 8
K_RPER_2
 10
0
 20
0
 30
0
 70
128
 71
1
 72
27
 73
29
 74
29
 0
VERTEX
 8
K_RPER_2
 10
0
 20
0
 30
0
 70
128
 71
27
 72
28
 73
30
 74
29
 0
VERTEX
 8
K_RPER_2
 10
0
 20
0
 30
0
 70
128
 71
28
 72
2
 73
30
 74
30
 0
VERTEX
 8
K_RPER_2
 10
0
 20
0
 30
0
 70
128
 71
1
 72
29
 73
31
 74
31
 0
VERTEX
 8
K_RPER_2
 10
0
 20
0
 30
0
 70
128
 71
29
 72
30
 73
32
 74
31
 0
VERTEX
 8
K_RPER_2
 10
0
 20
0
 30
0
 70
128
 71
30
 72
2
 73
32
 74
32
 0
VERTEX
 8
K_RPER_2
 10
0
 20
0
 30
0
 70
128
 71
1
 72
31
 73
3
 74
3
 0
VERTEX
 8
K_RPER_2
 10
0
 20
0
 30
0
 70
128
 71
31
 72
32
 73
4
 74
3
 0
VERTEX
 8
K_RPER_2
 10
0
 20
0
 30
0
 70
128
 71
32
 72
2
 73
4
 74
4
 0
SEQEND
 0
POLYLINE
 8
R_HRE_1
 66
1
 10
0.0
 20
0.0
 30
0.0
 70
64
 71
20
 72
20
 0
VERTEX
 8
R_HRE_1
 10
-1.2299
 20
0.7045
 30
4.633
 70
192
 0
VERTEX
 8
R_HRE_1
 10
-1.2299
 20
0.3845
 30
4.633
 70
192
 0
VERTEX
 8
R_HRE_1
 10
-0.8299
 20
0.3845
 30
4.633
 70
192
 0
VERTEX
 8
R_HRE_1
 10
-0.8299
 20
0.7045
 30
4.633
 70
192
 0
VERTEX
 8
R_HRE_1
 10
-1.2299
 20
0.7598
 30
4.5569
 70
192
 0
VERTEX
 8
R_HRE_1
 10
-1.2299
 20
0.6609
 30
4.2525
 70
192
 0
VERTEX
 8
R_HRE_1
 10
-0.8299
 20
0.6609
 30
4.2525
 70
192
 0
VERTEX
 8
R_HRE_1
 10
-0.8299
 20
0.7598
 30
4.5569
 70
192
 0
VERTEX
 8
R_HRE_1
 10
-1.2299
 20
1.1081
 30
4.3979
 70
192
 0
VERTEX
 8
R_HRE_1
 10
-0.8299
 20
1.1081
 30
4.3979
 70
192
 0
VERTEX
 8
R_HRE_1
 10
-0.8299
 20
0.8493
 30
4.5859
 70
192
 0
VERTEX
 8
R_HRE_1
 10
-1.2299
 20
0.8493
 30
4.5859
 70
192
 0
VERTEX
 8
R_HRE_1
 10
-1.2299
 20
1.1081
 30
4.8681
 70
192
 0
VERTEX
 8
R_HRE_1
 10
-0.8299
 20
1.1081
 30
4.8681
 70
192
 0
VERTEX
 8
R_HRE_1
 10
-0.8299
 20
0.8493
 30
4.68
 70
192
 0
VERTEX
 8
R_HRE_1
 10
-1.2299
 20
0.8493
 30
4.68
 70
192
 0
VERTEX
 8
R_HRE_1
 10
-1.2299
 20
0.6609
 30
5.0134
 70
192
 0
VERTEX
 8
R_HRE_1
 10
-0.8299
 20
0.6609
 30
5.0134
 70
192
 0
VERTEX
 8
R_HRE_1
 10
-0.8299
 20
0.7598
 30
4.7091
 70
192
 0
VERTEX
 8
R_HRE_1
 10
-1.2299
 20
0.7598
 30
4.7091
 70
192
 0
VERTEX
 8
R_HRE_1
 10
0
 20
0
 30
0
 70
128
 71
1
 72
2
 73
6
 74
5
 0
VERTEX
 8
R_HRE_1
 10
0
 20
0
 30
0
 70
128
 71
2
 72
3
 73
7
 74
6
 0
VERTEX
 8
R_HRE_1
 10
0
 20
0
 30
0
 70
128
 71
3
 72
4
 73
8
 74
7
 0
VERTEX
 8
R_HRE_1
 10
0
 20
0
 30
0
 70
128
 71
4
 72
1
 73
5
 74
8
 0
VERTEX
 8
R_HRE_1
 10
0
 20
0
 30
0
 70
128
 71
5
 72
6
 73
9
 74
12
 0
VERTEX
 8
R_HRE_1
 10
0
 20
0
 30
0
 70
128
 71
6
 72
7
 73
10
 74
9
 0
VERTEX
 8
R_HRE_1
 10
0
 20
0
 30
0
 70
128
 71
7
 72
8
 73
11
 74
10
 0
VERTEX
 8
R_HRE_1
 10
0
 20
0
 30
0
 70
128
 71
8
 72
5
 73
12
 74
11
 0
VERTEX
 8
R_HRE_1
 10
0
 20
0
 30
0
 70
128
 71
12
 72
9
 73
13
 74
16
 0
VERTEX
 8
R_HRE_1
 10
0
 20
0
 30
0
 70
128
 71
9
 72
10
 73
14
 74
13
 0
VERTEX
 8
R_HRE_1
 10
0
 20
0
 30
0
 70
128
 71
10
 72
11
 73
15
 74
14
 0
VERTEX
 8
R_HRE_1
 10
0
 20
0
 30
0
 70
128
 71
11
 72
12
 73
16
 74
15
 0
VERTEX
 8
R_HRE_1
 10
0
 20
0
 30
0
 70
128
 71
16
 72
13
 73
17
 74
20
 0
VERTEX
 8
R_HRE_1
 10
0
 20
0
 30
0
 70
128
 71
13
 72
14
 73
18
 74
17
 0
VERTEX
 8
R_HRE_1
 10
0
 20
0
 30
0
 70
128
 71
14
 72
15
 73
19
 74
18
 0
VERTEX
 8
R_HRE_1
 10
0
 20
0
 30
0
 70
128
 71
15
 72
16
 73
20
 74
19
 0
VERTEX
 8
R_HRE_1
 10
0
 20
0
 30
0
 70
128
 71
20
 72
17
 73
2
 74
1
 0
VERTEX
 8
R_HRE_1
 10
0
 20
0
 30
0
 70
128
 71
17
 72
18
 73
3
 74
2
 0
VERTEX
 8
R_HRE_1
 10
0
 20
0
 30
0
 70
128
 71
18
 72
19
 73
4
 74
3
 0
VERTEX
 8
R_HRE_1
 10
0
 20
0
 30
0
 70
128
 71
19
 72
20
 73
1
 74
4
 0
SEQEND
 0
POLYLINE
 8
ZYLINDER_5
 66
1
 10
0.0
 20
0.0
 30
0.0
 70
64
 71
18
 72
24
 0
VERTEX
 8
ZYLINDER_5
 10
1.9217
 20
0.7831
 30
4.6305
 70
192
 0
VERTEX
 8
ZYLINDER_5
 10
1.1217
 20
0.7831
 30
4.6305
 70
192
 0
VERTEX
 8
ZYLINDER_5
 10
1.9217
 20
0.4231
 30
4.6305
 70
192
 0
VERTEX
 8
ZYLINDER_5
 10
1.1217
 20
0.4231
 30
4.6305
 70
192
 0
VERTEX
 8
ZYLINDER_5
 10
1.9217
 20
0.5285
 30
4.8851
 70
192
 0
VERTEX
 8
ZYLINDER_5
 10
1.1217
 20
0.5285
 30
4.8851
 70
192
 0
VERTEX
 8
ZYLINDER_5
 10
1.9217
 20
0.7831
 30
4.9905
 70
192
 0
VERTEX
 8
ZYLINDER_5
 10
1.1217
 20
0.7831
 30
4.9905
 70
192
 0
VERTEX
 8
ZYLINDER_5
 10
1.9217
 20
1.0377
 30
4.8851
 70
192
 0
VERTEX
 8
ZYLINDER_5
 10
1.1217
 20
1.0377
 30
4.8851
 70
192
 0
VERTEX
 8
ZYLINDER_5
 10
1.9217
 20
1.1431
 30
4.6305
 70
192
 0
VERTEX
 8
ZYLINDER_5
 10
1.1217
 20
1.1431
 30
4.6305
 70
192
 0
VERTEX
 8
ZYLINDER_5
 10
1.9217
 20
1.0377
 30
4.376
 70
192
 0
VERTEX
 8
ZYLINDER_5
 10
1.1217
 20
1.0377
 30
4.376
 70
192
 0
VERTEX
 8
ZYLINDER_5
 10
1.9217
 20
0.7831
 30
4.2705
 70
192
 0
VERTEX
 8
ZYLINDER_5
 10
1.1217
 20
0.7831
 30
4.2705
 70
192
 0
VERTEX
 8
ZYLINDER_5
 10
1.9217
 20
0.5285
 30
4.376
 70
192
 0
VERTEX
 8
ZYLINDER_5
 10
1.1217
 20
0.5285
 30
4.376
 70
192
 0
VERTEX
 8
ZYLINDER_5
 10
0
 20
0
 30
0
 70
128
 71
1
 72
3
 73
5
 74
5
 0
VERTEX
 8
ZYLINDER_5
 10
0
 20
0
 30
0
 70
128
 71
3
 72
4
 73
6
 74
5
 0
VERTEX
 8
ZYLINDER_5
 10
0
 20
0
 30
0
 70
128
 71
4
 72
2
 73
6
 74
6
 0
VERTEX
 8
ZYLINDER_5
 10
0
 20
0
 30
0
 70
128
 71
1
 72
5
 73
7
 74
7
 0
VERTEX
 8
ZYLINDER_5
 10
0
 20
0
 30
0
 70
128
 71
5
 72
6
 73
8
 74
7
 0
VERTEX
 8
ZYLINDER_5
 10
0
 20
0
 30
0
 70
128
 71
6
 72
2
 73
8
 74
8
 0
VERTEX
 8
ZYLINDER_5
 10
0
 20
0
 30
0
 70
128
 71
1
 72
7
 73
9
 74
9
 0
VERTEX
 8
ZYLINDER_5
 10
0
 20
0
 30
0
 70
128
 71
7
 72
8
 73
10
 74
9
 0
VERTEX
 8
ZYLINDER_5
 10
0
 20
0
 30
0
 70
128
 71
8
 72
2
 73
10
 74
10
 0
VERTEX
 8
ZYLINDER_5
 10
0
 20
0
 30
0
 70
128
 71
1
 72
9
 73
11
 74
11
 0
VERTEX
 8
ZYLINDER_5
 10
0
 20
0
 30
0
 70
128
 71
9
 72
10
 73
12
 74
11
 0
VERTEX
 8
ZYLINDER_5
 10
0
 20
0
 30
0
 70
128
 71
10
 72
2
 73
12
 74
12
 0
VERTEX
 8
ZYLINDER_5
 10
0
 20
0
 30
0
 70
128
 71
1
 72
11
 73
13
 74
13
 0
VERTEX
 8
ZYLINDER_5
 10
0
 20
0
 30
0
 70
128
 71
11
 72
12
 73
14
 74
13
 0
VERTEX
 8
ZYLINDER_5
 10
0
 20
0
 30
0
 70
128
 71
12
 72
2
 73
14
 74
14
 0
VERTEX
 8
ZYLINDER_5
 10
0
 20
0
 30
0
 70
128
 71
1
 72
13
 73
15
 74
15
 0
VERTEX
 8
ZYLINDER_5
 10
0
 20
0
 30
0
 70
128
 71
13
 72
14
 73
16
 74
15
 0
VERTEX
 8
ZYLINDER_5
 10
0
 20
0
 30
0
 70
128
 71
14
 72
2
 73
16
 74
16
 0
VERTEX
 8
ZYLINDER_5
 10
0
 20
0
 30
0
 70
128
 71
1
 72
15
 73
17
 74
17
 0
VERTEX
 8
ZYLINDER_5
 10
0
 20
0
 30
0
 70
128
 71
15
 72
16
 73
18
 74
17
 0
VERTEX
 8
ZYLINDER_5
 10
0
 20
0
 30
0
 70
128
 71
16
 72
2
 73
18
 74
18
 0
VERTEX
 8
ZYLINDER_5
 10
0
 20
0
 30
0
 70
128
 71
1
 72
17
 73
3
 74
3
 0
VERTEX
 8
ZYLINDER_5
 10
0
 20
0
 30
0
 70
128
 71
17
 72
18
 73
4
 74
3
 0
VERTEX
 8
ZYLINDER_5
 10
0
 20
0
 30
0
 70
128
 71
18
 72
2
 73
4
 74
4
 0
SEQEND
 0
POLYLINE
 8
K_RPER_1
 66
1
 10
0.0
 20
0.0
 30
0.0
 70
64
 71
32
 72
45
 0
VERTEX
 8
K_RPER_1
 10
-0.049
 20
0.7817
 30
3.782
 70
192
 0
VERTEX
 8
K_RPER_1
 10
-0.049
 20
0.7817
 30
6.182
 70
192
 0
VERTEX
 8
K_RPER_1
 10
-0.049
 20
-0.0183
 30
3.782
 70
192
 0
VERTEX
 8
K_RPER_1
 10
-0.049
 20
-0.0183
 30
6.182
 70
192
 0
VERTEX
 8
K_RPER_1
 10
0.2764
 20
0.0508
 30
3.782
 70
192
 0
VERTEX
 8
K_RPER_1
 10
0.2764
 20
0.0508
 30
6.182
 70
192
 0
VERTEX
 8
K_RPER_1
 10
0.5456
 20
0.2464
 30
3.782
 70
192
 0
VERTEX
 8
K_RPER_1
 10
0.5456
 20
0.2464
 30
6.182
 70
192
 0
VERTEX
 8
K_RPER_1
 10
0.7119
 20
0.5345
 30
3.782
 70
192
 0
VERTEX
 8
K_RPER_1
 10
0.7119
 20
0.5345
 30
6.182
 70
192
 0
VERTEX
 8
K_RPER_1
 10
0.7467
 20
0.8653
 30
3.782
 70
192
 0
VERTEX
 8
K_RPER_1
 10
0.7467
 20
0.8653
 30
6.182
 70
192
 0
VERTEX
 8
K_RPER_1
 10
0.6439
 20
1.1817
 30
3.782
 70
192
 0
VERTEX
 8
K_RPER_1
 10
0.6439
 20
1.1817
 30
6.182
 70
192
 0
VERTEX
 8
K_RPER_1
 10
0.4213
 20
1.4289
 30
3.782
 70
192
 0
VERTEX
 8
K_RPER_1
 10
0.4213
 20
1.4289
 30
6.182
 70
192
 0
VERTEX
 8
K_RPER_1
 10
0.1174
 20
1.5642
 30
3.782
 70
192
 0
VERTEX
 8
K_RPER_1
 10
0.1174
 20
1.5642
 30
6.182
 70
192
 0
VERTEX
 8
K_RPER_1
 10
-0.2153
 20
1.5642
 30
3.782
 70
192
 0
VERTEX
 8
K_RPER_1
 10
-0.2153
 20
1.5642
 30
6.182
 70
192
 0
VERTEX
 8
K_RPER_1
 10
-0.5192
 20
1.4289
 30
3.782
 70
192
 0
VERTEX
 8
K_RPER_1
 10
-0.5192
 20
1.4289
 30
6.182
 70
192
 0
VERTEX
 8
K_RPER_1
 10
-0.7418
 20
1.1817
 30
3.782
 70
192
 0
VERTEX
 8
K_RPER_1
 10
-0.7418
 20
1.1817
 30
6.182
 70
192
 0
VERTEX
 8
K_RPER_1
 10
-0.8446
 20
0.8653
 30
3.782
 70
192
 0
VERTEX
 8
K_RPER_1
 10
-0.8446
 20
0.8653
 30
6.182
 70
192
 0
VERTEX
 8
K_RPER_1
 10
-0.8098
 20
0.5345
 30
3.782
 70
192
 0
VERTEX
 8
K_RPER_1
 10
-0.8098
 20
0.5345
 30
6.182
 70
192
 0
VERTEX
 8
K_RPER_1
 10
-0.6435
 20
0.2464
 30
3.782
 70
192
 0
VERTEX
 8
K_RPER_1
 10
-0.6435
 20
0.2464
 30
6.182
 70
192
 0
VERTEX
 8
K_RPER_1
 10
-0.3743
 20
0.0508
 30
3.782
 70
192
 0
VERTEX
 8
K_RPER_1
 10
-0.3743
 20
0.0508
 30
6.182
 70
192
 0
VERTEX
 8
K_RPER_1
 10
0
 20
0
 30
0
 70
128
 71
1
 72
3
 73
5
 74
5
 0
VERTEX
 8
K_RPER_1
 10
0
 20
0
 30
0
 70
128
 71
3
 72
4
 73
6
 74
5
 0
VERTEX
 8
K_RPER_1
 10
0
 20
0
 30
0
 70
128
 71
4
 72
2
 73
6
 74
6
 0
VERTEX
 8
K_RPER_1
 10
0
 20
0
 30
0
 70
128
 71
1
 72
5
 73
7
 74
7
 0
VERTEX
 8
K_RPER_1
 10
0
 20
0
 30
0
 70
128
 71
5
 72
6
 73
8
 74
7
 0
VERTEX
 8
K_RPER_1
 10
0
 20
0
 30
0
 70
128
 71
6
 72
2
 73
8
 74
8
 0
VERTEX
 8
K_RPER_1
 10
0
 20
0
 30
0
 70
128
 71
1
 72
7
 73
9
 74
9
 0
VERTEX
 8
K_RPER_1
 10
0
 20
0
 30
0
 70
128
 71
7
 72
8
 73
10
 74
9
 0
VERTEX
 8
K_RPER_1
 10
0
 20
0
 30
0
 70
128
 71
8
 72
2
 73
10
 74
10
 0
VERTEX
 8
K_RPER_1
 10
0
 20
0
 30
0
 70
128
 71
1
 72
9
 73
11
 74
11
 0
VERTEX
 8
K_RPER_1
 10
0
 20
0
 30
0
 70
128
 71
9
 72
10
 73
12
 74
11
 0
VERTEX
 8
K_RPER_1
 10
0
 20
0
 30
0
 70
128
 71
10
 72
2
 73
12
 74
12
 0
VERTEX
 8
K_RPER_1
 10
0
 20
0
 30
0
 70
128
 71
1
 72
11
 73
13
 74
13
 0
VERTEX
 8
K_RPER_1
 10
0
 20
0
 30
0
 70
128
 71
11
 72
12
 73
14
 74
13
 0
VERTEX
 8
K_RPER_1
 10
0
 20
0
 30
0
 70
128
 71
12
 72
2
 73
14
 74
14
 0
VERTEX
 8
K_RPER_1
 10
0
 20
0
 30
0
 70
128
 71
1
 72
13
 73
15
 74
15
 0
VERTEX
 8
K_RPER_1
 10
0
 20
0
 30
0
 70
128
 71
13
 72
14
 73
16
 74
15
 0
VERTEX
 8
K_RPER_1
 10
0
 20
0
 30
0
 70
128
 71
14
 72
2
 73
16
 74
16
 0
VERTEX
 8
K_RPER_1
 10
0
 20
0
 30
0
 70
128
 71
1
 72
15
 73
17
 74
17
 0
VERTEX
 8
K_RPER_1
 10
0
 20
0
 30
0
 70
128
 71
15
 72
16
 73
18
 74
17
 0
VERTEX
 8
K_RPER_1
 10
0
 20
0
 30
0
 70
128
 71
16
 72
2
 73
18
 74
18
 0
VERTEX
 8
K_RPER_1
 10
0
 20
0
 30
0
 70
128
 71
1
 72
17
 73
19
 74
19
 0
VERTEX
 8
K_RPER_1
 10
0
 20
0
 30
0
 70
128
 71
17
 72
18
 73
20
 74
19
 0
VERTEX
 8
K_RPER_1
 10
0
 20
0
 30
0
 70
128
 71
18
 72
2
 73
20
 74
20
 0
VERTEX
 8
K_RPER_1
 10
0
 20
0
 30
0
 70
128
 71
1
 72
19
 73
21
 74
21
 0
VERTEX
 8
K_RPER_1
 10
0
 20
0
 30
0
 70
128
 71
19
 72
20
 73
22
 74
21
 0
VERTEX
 8
K_RPER_1
 10
0
 20
0
 30
0
 70
128
 71
20
 72
2
 73
22
 74
22
 0
VERTEX
 8
K_RPER_1
 10
0
 20
0
 30
0
 70
128
 71
1
 72
21
 73
23
 74
23
 0
VERTEX
 8
K_RPER_1
 10
0
 20
0
 30
0
 70
128
 71
21
 72
22
 73
24
 74
23
 0
VERTEX
 8
K_RPER_1
 10
0
 20
0
 30
0
 70
128
 71
22
 72
2
 73
24
 74
24
 0
VERTEX
 8
K_RPER_1
 10
0
 20
0
 30
0
 70
128
 71
1
 72
23
 73
25
 74
25
 0
VERTEX
 8
K_RPER_1
 10
0
 20
0
 30
0
 70
128
 71
23
 72
24
 73
26
 74
25
 0
VERTEX
 8
K_RPER_1
 10
0
 20
0
 30
0
 70
128
 71
24
 72
2
 73
26
 74
26
 0
VERTEX
 8
K_RPER_1
 10
0
 20
0
 30
0
 70
128
 71
1
 72
25
 73
27
 74
27
 0
VERTEX
 8
K_RPER_1
 10
0
 20
0
 30
0
 70
128
 71
25
 72
26
 73
28
 74
27
 0
VERTEX
 8
K_RPER_1
 10
0
 20
0
 30
0
 70
128
 71
26
 72
2
 73
28
 74
28
 0
VERTEX
 8
K_RPER_1
 10
0
 20
0
 30
0
 70
128
 71
1
 72
27
 73
29
 74
29
 0
VERTEX
 8
K_RPER_1
 10
0
 20
0
 30
0
 70
128
 71
27
 72
28
 73
30
 74
29
 0
VERTEX
 8
K_RPER_1
 10
0
 20
0
 30
0
 70
128
 71
28
 72
2
 73
30
 74
30
 0
VERTEX
 8
K_RPER_1
 10
0
 20
0
 30
0
 70
128
 71
1
 72
29
 73
31
 74
31
 0
VERTEX
 8
K_RPER_1
 10
0
 20
0
 30
0
 70
128
 71
29
 72
30
 73
32
 74
31
 0
VERTEX
 8
K_RPER_1
 10
0
 20
0
 30
0
 70
128
 71
30
 72
2
 73
32
 74
32
 0
VERTEX
 8
K_RPER_1
 10
0
 20
0
 30
0
 70
128
 71
1
 72
31
 73
3
 74
3
 0
VERTEX
 8
K_RPER_1
 10
0
 20
0
 30
0
 70
128
 71
31
 72
32
 73
4
 74
3
 0
VERTEX
 8
K_RPER_1
 10
0
 20
0
 30
0
 70
128
 71
32
 72
2
 73
4
 74
4
 0
SEQEND
 0
POLYLINE
 8
ZYLINDER_4
 66
1
 10
0.0
 20
0.0
 30
0.0
 70
64
 71
12
 72
6
 0
VERTEX
 8
ZYLINDER_4
 10
1.6331
 20
0.5431
 30
4.6305
 70
192
 0
VERTEX
 8
ZYLINDER_4
 10
0.4331
 20
0.5431
 30
4.6305
 70
192
 0
VERTEX
 8
ZYLINDER_4
 10
1.6331
 20
0.6631
 30
4.8384
 70
192
 0
VERTEX
 8
ZYLINDER_4
 10
0.4331
 20
0.6631
 30
4.8384
 70
192
 0
VERTEX
 8
ZYLINDER_4
 10
1.6331
 20
0.9031
 30
4.8384
 70
192
 0
VERTEX
 8
ZYLINDER_4
 10
0.4331
 20
0.9031
 30
4.8384
 70
192
 0
VERTEX
 8
ZYLINDER_4
 10
1.6331
 20
1.0231
 30
4.6305
 70
192
 0
VERTEX
 8
ZYLINDER_4
 10
0.4331
 20
1.0231
 30
4.6305
 70
192
 0
VERTEX
 8
ZYLINDER_4
 10
1.6331
 20
0.9031
 30
4.4227
 70
192
 0
VERTEX
 8
ZYLINDER_4
 10
0.4331
 20
0.9031
 30
4.4227
 70
192
 0
VERTEX
 8
ZYLINDER_4
 10
1.6331
 20
0.6631
 30
4.4227
 70
192
 0
VERTEX
 8
ZYLINDER_4
 10
0.4331
 20
0.6631
 30
4.4227
 70
192
 0
VERTEX
 8
ZYLINDER_4
 10
0
 20
0
 30
0
 70
128
 71
1
 72
2
 73
4
 74
3
 0
VERTEX
 8
ZYLINDER_4
 10
0
 20
0
 30
0
 70
128
 71
3
 72
4
 73
6
 74
5
 0
VERTEX
 8
ZYLINDER_4
 10
0
 20
0
 30
0
 70
128
 71
5
 72
6
 73
8
 74
7
 0
VERTEX
 8
ZYLINDER_4
 10
0
 20
0
 30
0
 70
128
 71
7
 72
8
 73
10
 74
9
 0
VERTEX
 8
ZYLINDER_4
 10
0
 20
0
 30
0
 70
128
 71
9
 72
10
 73
12
 74
11
 0
VERTEX
 8
ZYLINDER_4
 10
0
 20
0
 30
0
 70
128
 71
11
 72
12
 73
2
 74
1
 0
SEQEND
 0
POLYLINE
 8
ZYLINDER_3
 66
1
 10
0.0
 20
0.0
 30
0.0
 70
64
 71
26
 72
36
 0
VERTEX
 8
ZYLINDER_3
 10
-0.0221
 20
2.6267
 30
3.4422
 70
192
 0
VERTEX
 8
ZYLINDER_3
 10
-0.0221
 20
2.2267
 30
3.4422
 70
192
 0
VERTEX
 8
ZYLINDER_3
 10
-0.0221
 20
2.6267
 30
2.5422
 70
192
 0
VERTEX
 8
ZYLINDER_3
 10
-0.0221
 20
2.2267
 30
2.5422
 70
192
 0
VERTEX
 8
ZYLINDER_3
 10
0.4279
 20
2.6267
 30
2.6628
 70
192
 0
VERTEX
 8
ZYLINDER_3
 10
0.4279
 20
2.2267
 30
2.6628
 70
192
 0
VERTEX
 8
ZYLINDER_3
 10
0.7573
 20
2.6267
 30
2.9922
 70
192
 0
VERTEX
 8
ZYLINDER_3
 10
0.7573
 20
2.2267
 30
2.9922
 70
192
 0
VERTEX
 8
ZYLINDER_3
 10
0.8779
 20
2.6267
 30
3.4422
 70
192
 0
VERTEX
 8
ZYLINDER_3
 10
0.8779
 20
2.2267
 30
3.4422
 70
192
 0
VERTEX
 8
ZYLINDER_3
 10
0.7573
 20
2.6267
 30
3.8922
 70
192
 0
VERTEX
 8
ZYLINDER_3
 10
0.7573
 20
2.2267
 30
3.8922
 70
192
 0
VERTEX
 8
ZYLINDER_3
 10
0.4279
 20
2.6267
 30
4.2216
 70
192
 0
VERTEX
 8
ZYLINDER_3
 10
0.4279
 20
2.2267
 30
4.2216
 70
192
 0
VERTEX
 8
ZYLINDER_3
 10
-0.0221
 20
2.6267
 30
4.3422
 70
192
 0
VERTEX
 8
ZYLINDER_3
 10
-0.0221
 20
2.2267
 30
4.3422
 70
192
 0
VERTEX
 8
ZYLINDER_3
 10
-0.4721
 20
2.6267
 30
4.2216
 70
192
 0
VERTEX
 8
ZYLINDER_3
 10
-0.4721
 20
2.2267
 30
4.2216
 70
192
 0
VERTEX
 8
ZYLINDER_3
 10
-0.8015
 20
2.6267
 30
3.8922
 70
192
 0
VERTEX
 8
ZYLINDER_3
 10
-0.8015
 20
2.2267
 30
3.8922
 70
192
 0
VERTEX
 8
ZYLINDER_3
 10
-0.9221
 20
2.6267
 30
3.4422
 70
192
 0
VERTEX
 8
ZYLINDER_3
 10
-0.9221
 20
2.2267
 30
3.4422
 70
192
 0
VERTEX
 8
ZYLINDER_3
 10
-0.8015
 20
2.6267
 30
2.9922
 70
192
 0
VERTEX
 8
ZYLINDER_3
 10
-0.8015
 20
2.2267
 30
2.9922
 70
192
 0
VERTEX
 8
ZYLINDER_3
 10
-0.4721
 20
2.6267
 30
2.6628
 70
192
 0
VERTEX
 8
ZYLINDER_3
 10
-0.4721
 20
2.2267
 30
2.6628
 70
192
 0
VERTEX
 8
ZYLINDER_3
 10
0
 20
0
 30
0
 70
128
 71
1
 72
3
 73
5
 74
5
 0
VERTEX
 8
ZYLINDER_3
 10
0
 20
0
 30
0
 70
128
 71
3
 72
4
 73
6
 74
5
 0
VERTEX
 8
ZYLINDER_3
 10
0
 20
0
 30
0
 70
128
 71
4
 72
2
 73
6
 74
6
 0
VERTEX
 8
ZYLINDER_3
 10
0
 20
0
 30
0
 70
128
 71
1
 72
5
 73
7
 74
7
 0
VERTEX
 8
ZYLINDER_3
 10
0
 20
0
 30
0
 70
128
 71
5
 72
6
 73
8
 74
7
 0
VERTEX
 8
ZYLINDER_3
 10
0
 20
0
 30
0
 70
128
 71
6
 72
2
 73
8
 74
8
 0
VERTEX
 8
ZYLINDER_3
 10
0
 20
0
 30
0
 70
128
 71
1
 72
7
 73
9
 74
9
 0
VERTEX
 8
ZYLINDER_3
 10
0
 20
0
 30
0
 70
128
 71
7
 72
8
 73
10
 74
9
 0
VERTEX
 8
ZYLINDER_3
 10
0
 20
0
 30
0
 70
128
 71
8
 72
2
 73
10
 74
10
 0
VERTEX
 8
ZYLINDER_3
 10
0
 20
0
 30
0
 70
128
 71
1
 72
9
 73
11
 74
11
 0
VERTEX
 8
ZYLINDER_3
 10
0
 20
0
 30
0
 70
128
 71
9
 72
10
 73
12
 74
11
 0
VERTEX
 8
ZYLINDER_3
 10
0
 20
0
 30
0
 70
128
 71
10
 72
2
 73
12
 74
12
 0
VERTEX
 8
ZYLINDER_3
 10
0
 20
0
 30
0
 70
128
 71
1
 72
11
 73
13
 74
13
 0
VERTEX
 8
ZYLINDER_3
 10
0
 20
0
 30
0
 70
128
 71
11
 72
12
 73
14
 74
13
 0
VERTEX
 8
ZYLINDER_3
 10
0
 20
0
 30
0
 70
128
 71
12
 72
2
 73
14
 74
14
 0
VERTEX
 8
ZYLINDER_3
 10
0
 20
0
 30
0
 70
128
 71
1
 72
13
 73
15
 74
15
 0
VERTEX
 8
ZYLINDER_3
 10
0
 20
0
 30
0
 70
128
 71
13
 72
14
 73
16
 74
15
 0
VERTEX
 8
ZYLINDER_3
 10
0
 20
0
 30
0
 70
128
 71
14
 72
2
 73
16
 74
16
 0
VERTEX
 8
ZYLINDER_3
 10
0
 20
0
 30
0
 70
128
 71
1
 72
15
 73
17
 74
17
 0
VERTEX
 8
ZYLINDER_3
 10
0
 20
0
 30
0
 70
128
 71
15
 72
16
 73
18
 74
17
 0
VERTEX
 8
ZYLINDER_3
 10
0
 20
0
 30
0
 70
128
 71
16
 72
2
 73
18
 74
18
 0
VERTEX
 8
ZYLINDER_3
 10
0
 20
0
 30
0
 70
128
 71
1
 72
17
 73
19
 74
19
 0
VERTEX
 8
ZYLINDER_3
 10
0
 20
0
 30
0
 70
128
 71
17
 72
18
 73
20
 74
19
 0
VERTEX
 8
ZYLINDER_3
 10
0
 20
0
 30
0
 70
128
 71
18
 72
2
 73
20
 74
20
 0
VERTEX
 8
ZYLINDER_3
 10
0
 20
0
 30
0
 70
128
 71
1
 72
19
 73
21
 74
21
 0
VERTEX
 8
ZYLINDER_3
 10
0
 20
0
 30
0
 70
128
 71
19
 72
20
 73
22
 74
21
 0
VERTEX
 8
ZYLINDER_3
 10
0
 20
0
 30
0
 70
128
 71
20
 72
2
 73
22
 74
22
 0
VERTEX
 8
ZYLINDER_3
 10
0
 20
0
 30
0
 70
128
 71
1
 72
21
 73
23
 74
23
 0
VERTEX
 8
ZYLINDER_3
 10
0
 20
0
 30
0
 70
128
 71
21
 72
22
 73
24
 74
23
 0
VERTEX
 8
ZYLINDER_3
 10
0
 20
0
 30
0
 70
128
 71
22
 72
2
 73
24
 74
24
 0
VERTEX
 8
ZYLINDER_3
 10
0
 20
0
 30
0
 70
128
 71
1
 72
23
 73
25
 74
25
 0
VERTEX
 8
ZYLINDER_3
 10
0
 20
0
 30
0
 70
128
 71
23
 72
24
 73
26
 74
25
 0
VERTEX
 8
ZYLINDER_3
 10
0
 20
0
 30
0
 70
128
 71
24
 72
2
 73
26
 74
26
 0
VERTEX
 8
ZYLINDER_3
 10
0
 20
0
 30
0
 70
128
 71
1
 72
25
 73
3
 74
3
 0
VERTEX
 8
ZYLINDER_3
 10
0
 20
0
 30
0
 70
128
 71
25
 72
26
 73
4
 74
3
 0
VERTEX
 8
ZYLINDER_3
 10
0
 20
0
 30
0
 70
128
 71
26
 72
2
 73
4
 74
4
 0
SEQEND
 0
POLYLINE
 8
ZYLINDER_2
 66
1
 10
0.0
 20
0.0
 30
0.0
 70
64
 71
12
 72
6
 0
VERTEX
 8
ZYLINDER_2
 10
-0.0221
 20
2.4515
 30
3.2422
 70
192
 0
VERTEX
 8
ZYLINDER_2
 10
-0.0221
 20
1.2515
 30
3.2422
 70
192
 0
VERTEX
 8
ZYLINDER_2
 10
0.1511
 20
2.4515
 30
3.3422
 70
192
 0
VERTEX
 8
ZYLINDER_2
 10
0.1511
 20
1.2515
 30
3.3422
 70
192
 0
VERTEX
 8
ZYLINDER_2
 10
0.1511
 20
2.4515
 30
3.5422
 70
192
 0
VERTEX
 8
ZYLINDER_2
 10
0.1511
 20
1.2515
 30
3.5422
 70
192
 0
VERTEX
 8
ZYLINDER_2
 10
-0.0221
 20
2.4515
 30
3.6422
 70
192
 0
VERTEX
 8
ZYLINDER_2
 10
-0.0221
 20
1.2515
 30
3.6422
 70
192
 0
VERTEX
 8
ZYLINDER_2
 10
-0.1953
 20
2.4515
 30
3.5422
 70
192
 0
VERTEX
 8
ZYLINDER_2
 10
-0.1953
 20
1.2515
 30
3.5422
 70
192
 0
VERTEX
 8
ZYLINDER_2
 10
-0.1953
 20
2.4515
 30
3.3422
 70
192
 0
VERTEX
 8
ZYLINDER_2
 10
-0.1953
 20
1.2515
 30
3.3422
 70
192
 0
VERTEX
 8
ZYLINDER_2
 10
0
 20
0
 30
0
 70
128
 71
1
 72
2
 73
4
 74
3
 0
VERTEX
 8
ZYLINDER_2
 10
0
 20
0
 30
0
 70
128
 71
3
 72
4
 73
6
 74
5
 0
VERTEX
 8
ZYLINDER_2
 10
0
 20
0
 30
0
 70
128
 71
5
 72
6
 73
8
 74
7
 0
VERTEX
 8
ZYLINDER_2
 10
0
 20
0
 30
0
 70
128
 71
7
 72
8
 73
10
 74
9
 0
VERTEX
 8
ZYLINDER_2
 10
0
 20
0
 30
0
 70
128
 71
9
 72
10
 73
12
 74
11
 0
VERTEX
 8
ZYLINDER_2
 10
0
 20
0
 30
0
 70
128
 71
11
 72
12
 73
2
 74
1
 0
SEQEND
 0
POLYLINE
 8
K_RPER
 66
1
 10
0.0
 20
0.0
 30
0.0
 70
64
 71
26
 72
36
 0
VERTEX
 8
K_RPER
 10
-0.049
 20
0.7817
 30
3.1135
 70
192
 0
VERTEX
 8
K_RPER
 10
-0.049
 20
0.7817
 30
3.7935
 70
192
 0
VERTEX
 8
K_RPER
 10
-0.049
 20
-0.0183
 30
3.1135
 70
192
 0
VERTEX
 8
K_RPER
 10
-0.049
 20
-0.0183
 30
3.7935
 70
192
 0
VERTEX
 8
K_RPER
 10
0.351
 20
0.0889
 30
3.1135
 70
192
 0
VERTEX
 8
K_RPER
 10
0.351
 20
0.0889
 30
3.7935
 70
192
 0
VERTEX
 8
K_RPER
 10
0.6439
 20
0.3817
 30
3.1135
 70
192
 0
VERTEX
 8
K_RPER
 10
0.6439
 20
0.3817
 30
3.7935
 70
192
 0
VERTEX
 8
K_RPER
 10
0.751
 20
0.7817
 30
3.1135
 70
192
 0
VERTEX
 8
K_RPER
 10
0.751
 20
0.7817
 30
3.7935
 70
192
 0
VERTEX
 8
K_RPER
 10
0.6439
 20
1.1817
 30
3.1135
 70
192
 0
VERTEX
 8
K_RPER
 10
0.6439
 20
1.1817
 30
3.7935
 70
192
 0
VERTEX
 8
K_RPER
 10
0.351
 20
1.4745
 30
3.1135
 70
192
 0
VERTEX
 8
K_RPER
 10
0.351
 20
1.4745
 30
3.7935
 70
192
 0
VERTEX
 8
K_RPER
 10
-0.049
 20
1.5817
 30
3.1135
 70
192
 0
VERTEX
 8
K_RPER
 10
-0.049
 20
1.5817
 30
3.7935
 70
192
 0
VERTEX
 8
K_RPER
 10
-0.449
 20
1.4745
 30
3.1135
 70
192
 0
VERTEX
 8
K_RPER
 10
-0.449
 20
1.4745
 30
3.7935
 70
192
 0
VERTEX
 8
K_RPER
 10
-0.7418
 20
1.1817
 30
3.1135
 70
192
 0
VERTEX
 8
K_RPER
 10
-0.7418
 20
1.1817
 30
3.7935
 70
192
 0
VERTEX
 8
K_RPER
 10
-0.849
 20
0.7817
 30
3.1135
 70
192
 0
VERTEX
 8
K_RPER
 10
-0.849
 20
0.7817
 30
3.7935
 70
192
 0
VERTEX
 8
K_RPER
 10
-0.7418
 20
0.3817
 30
3.1135
 70
192
 0
VERTEX
 8
K_RPER
 10
-0.7418
 20
0.3817
 30
3.7935
 70
192
 0
VERTEX
 8
K_RPER
 10
-0.449
 20
0.0889
 30
3.1135
 70
192
 0
VERTEX
 8
K_RPER
 10
-0.449
 20
0.0889
 30
3.7935
 70
192
 0
VERTEX
 8
K_RPER
 10
0
 20
0
 30
0
 70
128
 71
1
 72
3
 73
5
 74
5
 0
VERTEX
 8
K_RPER
 10
0
 20
0
 30
0
 70
128
 71
3
 72
4
 73
6
 74
5
 0
VERTEX
 8
K_RPER
 10
0
 20
0
 30
0
 70
128
 71
4
 72
2
 73
6
 74
6
 0
VERTEX
 8
K_RPER
 10
0
 20
0
 30
0
 70
128
 71
1
 72
5
 73
7
 74
7
 0
VERTEX
 8
K_RPER
 10
0
 20
0
 30
0
 70
128
 71
5
 72
6
 73
8
 74
7
 0
VERTEX
 8
K_RPER
 10
0
 20
0
 30
0
 70
128
 71
6
 72
2
 73
8
 74
8
 0
VERTEX
 8
K_RPER
 10
0
 20
0
 30
0
 70
128
 71
1
 72
7
 73
9
 74
9
 0
VERTEX
 8
K_RPER
 10
0
 20
0
 30
0
 70
128
 71
7
 72
8
 73
10
 74
9
 0
VERTEX
 8
K_RPER
 10
0
 20
0
 30
0
 70
128
 71
8
 72
2
 73
10
 74
10
 0
VERTEX
 8
K_RPER
 10
0
 20
0
 30
0
 70
128
 71
1
 72
9
 73
11
 74
11
 0
VERTEX
 8
K_RPER
 10
0
 20
0
 30
0
 70
128
 71
9
 72
10
 73
12
 74
11
 0
VERTEX
 8
K_RPER
 10
0
 20
0
 30
0
 70
128
 71
10
 72
2
 73
12
 74
12
 0
VERTEX
 8
K_RPER
 10
0
 20
0
 30
0
 70
128
 71
1
 72
11
 73
13
 74
13
 0
VERTEX
 8
K_RPER
 10
0
 20
0
 30
0
 70
128
 71
11
 72
12
 73
14
 74
13
 0
VERTEX
 8
K_RPER
 10
0
 20
0
 30
0
 70
128
 71
12
 72
2
 73
14
 74
14
 0
VERTEX
 8
K_RPER
 10
0
 20
0
 30
0
 70
128
 71
1
 72
13
 73
15
 74
15
 0
VERTEX
 8
K_RPER
 10
0
 20
0
 30
0
 70
128
 71
13
 72
14
 73
16
 74
15
 0
VERTEX
 8
K_RPER
 10
0
 20
0
 30
0
 70
128
 71
14
 72
2
 73
16
 74
16
 0
VERTEX
 8
K_RPER
 10
0
 20
0
 30
0
 70
128
 71
1
 72
15
 73
17
 74
17
 0
VERTEX
 8
K_RPER
 10
0
 20
0
 30
0
 70
128
 71
15
 72
16
 73
18
 74
17
 0
VERTEX
 8
K_RPER
 10
0
 20
0
 30
0
 70
128
 71
16
 72
2
 73
18
 74
18
 0
VERTEX
 8
K_RPER
 10
0
 20
0
 30
0
 70
128
 71
1
 72
17
 73
19
 74
19
 0
VERTEX
 8
K_RPER
 10
0
 20
0
 30
0
 70
128
 71
17
 72
18
 73
20
 74
19
 0
VERTEX
 8
K_RPER
 10
0
 20
0
 30
0
 70
128
 71
18
 72
2
 73
20
 74
20
 0
VERTEX
 8
K_RPER
 10
0
 20
0
 30
0
 70
128
 71
1
 72
19
 73
21
 74
21
 0
VERTEX
 8
K_RPER
 10
0
 20
0
 30
0
 70
128
 71
19
 72
20
 73
22
 74
21
 0
VERTEX
 8
K_RPER
 10
0
 20
0
 30
0
 70
128
 71
20
 72
2
 73
22
 74
22
 0
VERTEX
 8
K_RPER
 10
0
 20
0
 30
0
 70
128
 71
1
 72
21
 73
23
 74
23
 0
VERTEX
 8
K_RPER
 10
0
 20
0
 30
0
 70
128
 71
21
 72
22
 73
24
 74
23
 0
VERTEX
 8
K_RPER
 10
0
 20
0
 30
0
 70
128
 71
22
 72
2
 73
24
 74
24
 0
VERTEX
 8
K_RPER
 10
0
 20
0
 30
0
 70
128
 71
1
 72
23
 73
25
 74
25
 0
VERTEX
 8
K_RPER
 10
0
 20
0
 30
0
 70
128
 71
23
 72
24
 73
26
 74
25
 0
VERTEX
 8
K_RPER
 10
0
 20
0
 30
0
 70
128
 71
24
 72
2
 73
26
 74
26
 0
VERTEX
 8
K_RPER
 10
0
 20
0
 30
0
 70
128
 71
1
 72
25
 73
3
 74
3
 0
VERTEX
 8
K_RPER
 10
0
 20
0
 30
0
 70
128
 71
25
 72
26
 73
4
 74
3
 0
VERTEX
 8
K_RPER
 10
0
 20
0
 30
0
 70
128
 71
26
 72
2
 73
4
 74
4
 0
SEQEND
 0
POLYLINE
 8
R_HRE
 66
1
 10
0.0
 20
0.0
 30
0.0
 70
64
 71
18
 72
9
 0
VERTEX
 8
R_HRE
 10
2.209
 20
0.3616
 30
28.4464
 70
192
 0
VERTEX
 8
R_HRE
 10
2.209
 20
0.3616
 30
28.6864
 70
192
 0
VERTEX
 8
R_HRE
 10
2.0585
 20
1.215
 30
28.4464
 70
192
 0
VERTEX
 8
R_HRE
 10
2.0585
 20
1.215
 30
28.6864
 70
192
 0
VERTEX
 8
R_HRE
 10
2.4918
 20
0.4645
 30
28.4464
 70
192
 0
VERTEX
 8
R_HRE
 10
2.4918
 20
0.4645
 30
28.6864
 70
192
 0
VERTEX
 8
R_HRE
 10
1.828
 20
1.0216
 30
28.4464
 70
192
 0
VERTEX
 8
R_HRE
 10
1.828
 20
1.0216
 30
28.6864
 70
192
 0
VERTEX
 8
R_HRE
 10
2.6423
 20
0.7252
 30
28.4464
 70
192
 0
VERTEX
 8
R_HRE
 10
2.6423
 20
0.7252
 30
28.6864
 70
192
 0
VERTEX
 8
R_HRE
 10
1.7757
 20
0.7252
 30
28.4464
 70
192
 0
VERTEX
 8
R_HRE
 10
1.7757
 20
0.7252
 30
28.6864
 70
192
 0
VERTEX
 8
R_HRE
 10
2.5901
 20
1.0216
 30
28.4464
 70
192
 0
VERTEX
 8
R_HRE
 10
2.5901
 20
1.0216
 30
28.6864
 70
192
 0
VERTEX
 8
R_HRE
 10
1.9262
 20
0.4645
 30
28.4464
 70
192
 0
VERTEX
 8
R_HRE
 10
1.9262
 20
0.4645
 30
28.6864
 70
192
 0
VERTEX
 8
R_HRE
 10
2.3595
 20
1.215
 30
28.4464
 70
192
 0
VERTEX
 8
R_HRE
 10
2.3595
 20
1.215
 30
28.6864
 70
192
 0
VERTEX
 8
R_HRE
 10
0
 20
0
 30
0
 70
128
 71
9
 72
10
 73
14
 74
13
 0
VERTEX
 8
R_HRE
 10
0
 20
0
 30
0
 70
128
 71
1
 72
2
 73
6
 74
5
 0
VERTEX
 8
R_HRE
 10
0
 20
0
 30
0
 70
128
 71
13
 72
14
 73
18
 74
17
 0
VERTEX
 8
R_HRE
 10
0
 20
0
 30
0
 70
128
 71
17
 72
18
 73
4
 74
3
 0
VERTEX
 8
R_HRE
 10
0
 20
0
 30
0
 70
128
 71
3
 72
4
 73
8
 74
7
 0
VERTEX
 8
R_HRE
 10
0
 20
0
 30
0
 70
128
 71
5
 72
6
 73
10
 74
9
 0
VERTEX
 8
R_HRE
 10
0
 20
0
 30
0
 70
128
 71
7
 72
8
 73
12
 74
11
 0
VERTEX
 8
R_HRE
 10
0
 20
0
 30
0
 70
128
 71
11
 72
12
 73
16
 74
15
 0
VERTEX
 8
R_HRE
 10
0
 20
0
 30
0
 70
128
 71
15
 72
16
 73
2
 74
1
 0
SEQEND
 0
POLYLINE
 8
ZYLINDER_1
 66
1
 10
0.0
 20
0.0
 30
0.0
 70
64
 71
26
 72
36
 0
VERTEX
 8
ZYLINDER_1
 10
2.2097
 20
0.8016
 30
28.6993
 70
192
 0
VERTEX
 8
ZYLINDER_1
 10
2.2097
 20
0.8016
 30
33.8993
 70
192
 0
VERTEX
 8
ZYLINDER_1
 10
2.2097
 20
0.3416
 30
28.6993
 70
192
 0
VERTEX
 8
ZYLINDER_1
 10
2.2097
 20
0.3416
 30
33.8993
 70
192
 0
VERTEX
 8
ZYLINDER_1
 10
2.4397
 20
0.4032
 30
28.6993
 70
192
 0
VERTEX
 8
ZYLINDER_1
 10
2.4397
 20
0.4032
 30
33.8993
 70
192
 0
VERTEX
 8
ZYLINDER_1
 10
2.608
 20
0.5716
 30
28.6993
 70
192
 0
VERTEX
 8
ZYLINDER_1
 10
2.608
 20
0.5716
 30
33.8993
 70
192
 0
VERTEX
 8
ZYLINDER_1
 10
2.6697
 20
0.8016
 30
28.6993
 70
192
 0
VERTEX
 8
ZYLINDER_1
 10
2.6697
 20
0.8016
 30
33.8993
 70
192
 0
VERTEX
 8
ZYLINDER_1
 10
2.608
 20
1.0316
 30
28.6993
 70
192
 0
VERTEX
 8
ZYLINDER_1
 10
2.608
 20
1.0316
 30
33.8993
 70
192
 0
VERTEX
 8
ZYLINDER_1
 10
2.4397
 20
1.1999
 30
28.6993
 70
192
 0
VERTEX
 8
ZYLINDER_1
 10
2.4397
 20
1.1999
 30
33.8993
 70
192
 0
VERTEX
 8
ZYLINDER_1
 10
2.2097
 20
1.2616
 30
28.6993
 70
192
 0
VERTEX
 8
ZYLINDER_1
 10
2.2097
 20
1.2616
 30
33.8993
 70
192
 0
VERTEX
 8
ZYLINDER_1
 10
1.9797
 20
1.1999
 30
28.6993
 70
192
 0
VERTEX
 8
ZYLINDER_1
 10
1.9797
 20
1.1999
 30
33.8993
 70
192
 0
VERTEX
 8
ZYLINDER_1
 10
1.8113
 20
1.0316
 30
28.6993
 70
192
 0
VERTEX
 8
ZYLINDER_1
 10
1.8113
 20
1.0316
 30
33.8993
 70
192
 0
VERTEX
 8
ZYLINDER_1
 10
1.7497
 20
0.8016
 30
28.6993
 70
192
 0
VERTEX
 8
ZYLINDER_1
 10
1.7497
 20
0.8016
 30
33.8993
 70
192
 0
VERTEX
 8
ZYLINDER_1
 10
1.8113
 20
0.5716
 30
28.6993
 70
192
 0
VERTEX
 8
ZYLINDER_1
 10
1.8113
 20
0.5716
 30
33.8993
 70
192
 0
VERTEX
 8
ZYLINDER_1
 10
1.9797
 20
0.4032
 30
28.6993
 70
192
 0
VERTEX
 8
ZYLINDER_1
 10
1.9797
 20
0.4032
 30
33.8993
 70
192
 0
VERTEX
 8
ZYLINDER_1
 10
0
 20
0
 30
0
 70
128
 71
1
 72
3
 73
5
 74
5
 0
VERTEX
 8
ZYLINDER_1
 10
0
 20
0
 30
0
 70
128
 71
3
 72
4
 73
6
 74
5
 0
VERTEX
 8
ZYLINDER_1
 10
0
 20
0
 30
0
 70
128
 71
4
 72
2
 73
6
 74
6
 0
VERTEX
 8
ZYLINDER_1
 10
0
 20
0
 30
0
 70
128
 71
1
 72
5
 73
7
 74
7
 0
VERTEX
 8
ZYLINDER_1
 10
0
 20
0
 30
0
 70
128
 71
5
 72
6
 73
8
 74
7
 0
VERTEX
 8
ZYLINDER_1
 10
0
 20
0
 30
0
 70
128
 71
6
 72
2
 73
8
 74
8
 0
VERTEX
 8
ZYLINDER_1
 10
0
 20
0
 30
0
 70
128
 71
1
 72
7
 73
9
 74
9
 0
VERTEX
 8
ZYLINDER_1
 10
0
 20
0
 30
0
 70
128
 71
7
 72
8
 73
10
 74
9
 0
VERTEX
 8
ZYLINDER_1
 10
0
 20
0
 30
0
 70
128
 71
8
 72
2
 73
10
 74
10
 0
VERTEX
 8
ZYLINDER_1
 10
0
 20
0
 30
0
 70
128
 71
1
 72
9
 73
11
 74
11
 0
VERTEX
 8
ZYLINDER_1
 10
0
 20
0
 30
0
 70
128
 71
9
 72
10
 73
12
 74
11
 0
VERTEX
 8
ZYLINDER_1
 10
0
 20
0
 30
0
 70
128
 71
10
 72
2
 73
12
 74
12
 0
VERTEX
 8
ZYLINDER_1
 10
0
 20
0
 30
0
 70
128
 71
1
 72
11
 73
13
 74
13
 0
VERTEX
 8
ZYLINDER_1
 10
0
 20
0
 30
0
 70
128
 71
11
 72
12
 73
14
 74
13
 0
VERTEX
 8
ZYLINDER_1
 10
0
 20
0
 30
0
 70
128
 71
12
 72
2
 73
14
 74
14
 0
VERTEX
 8
ZYLINDER_1
 10
0
 20
0
 30
0
 70
128
 71
1
 72
13
 73
15
 74
15
 0
VERTEX
 8
ZYLINDER_1
 10
0
 20
0
 30
0
 70
128
 71
13
 72
14
 73
16
 74
15
 0
VERTEX
 8
ZYLINDER_1
 10
0
 20
0
 30
0
 70
128
 71
14
 72
2
 73
16
 74
16
 0
VERTEX
 8
ZYLINDER_1
 10
0
 20
0
 30
0
 70
128
 71
1
 72
15
 73
17
 74
17
 0
VERTEX
 8
ZYLINDER_1
 10
0
 20
0
 30
0
 70
128
 71
15
 72
16
 73
18
 74
17
 0
VERTEX
 8
ZYLINDER_1
 10
0
 20
0
 30
0
 70
128
 71
16
 72
2
 73
18
 74
18
 0
VERTEX
 8
ZYLINDER_1
 10
0
 20
0
 30
0
 70
128
 71
1
 72
17
 73
19
 74
19
 0
VERTEX
 8
ZYLINDER_1
 10
0
 20
0
 30
0
 70
128
 71
17
 72
18
 73
20
 74
19
 0
VERTEX
 8
ZYLINDER_1
 10
0
 20
0
 30
0
 70
128
 71
18
 72
2
 73
20
 74
20
 0
VERTEX
 8
ZYLINDER_1
 10
0
 20
0
 30
0
 70
128
 71
1
 72
19
 73
21
 74
21
 0
VERTEX
 8
ZYLINDER_1
 10
0
 20
0
 30
0
 70
128
 71
19
 72
20
 73
22
 74
21
 0
VERTEX
 8
ZYLINDER_1
 10
0
 20
0
 30
0
 70
128
 71
20
 72
2
 73
22
 74
22
 0
VERTEX
 8
ZYLINDER_1
 10
0
 20
0
 30
0
 70
128
 71
1
 72
21
 73
23
 74
23
 0
VERTEX
 8
ZYLINDER_1
 10
0
 20
0
 30
0
 70
128
 71
21
 72
22
 73
24
 74
23
 0
VERTEX
 8
ZYLINDER_1
 10
0
 20
0
 30
0
 70
128
 71
22
 72
2
 73
24
 74
24
 0
VERTEX
 8
ZYLINDER_1
 10
0
 20
0
 30
0
 70
128
 71
1
 72
23
 73
25
 74
25
 0
VERTEX
 8
ZYLINDER_1
 10
0
 20
0
 30
0
 70
128
 71
23
 72
24
 73
26
 74
25
 0
VERTEX
 8
ZYLINDER_1
 10
0
 20
0
 30
0
 70
128
 71
24
 72
2
 73
26
 74
26
 0
VERTEX
 8
ZYLINDER_1
 10
0
 20
0
 30
0
 70
128
 71
1
 72
25
 73
3
 74
3
 0
VERTEX
 8
ZYLINDER_1
 10
0
 20
0
 30
0
 70
128
 71
25
 72
26
 73
4
 74
3
 0
VERTEX
 8
ZYLINDER_1
 10
0
 20
0
 30
0
 70
128
 71
26
 72
2
 73
4
 74
4
 0
SEQEND
 0
POLYLINE
 8
ZYLINDER
 66
1
 10
0.0
 20
0.0
 30
0.0
 70
64
 71
363
 72
324
 0
VERTEX
 8
ZYLINDER
 10
2.2108
 20
0.8016
 30
33.8814
 70
192
 0
VERTEX
 8
ZYLINDER
 10
2.2108
 20
0.8016
 30
36.2814
 70
192
 0
VERTEX
 8
ZYLINDER
 10
2.2108
 20
0.3416
 30
33.8814
 70
192
 0
VERTEX
 8
ZYLINDER
 10
2.2108
 20
0.3416
 30
36.2814
 70
192
 0
VERTEX
 8
ZYLINDER
 10
2.4408
 20
0.4032
 30
33.8814
 70
192
 0
VERTEX
 8
ZYLINDER
 10
2.4408
 20
0.4032
 30
36.2814
 70
192
 0
VERTEX
 8
ZYLINDER
 10
2.6092
 20
0.5716
 30
33.8814
 70
192
 0
VERTEX
 8
ZYLINDER
 10
2.6092
 20
0.5716
 30
36.2814
 70
192
 0
VERTEX
 8
ZYLINDER
 10
2.6708
 20
0.8016
 30
33.8814
 70
192
 0
VERTEX
 8
ZYLINDER
 10
2.6708
 20
0.8016
 30
36.2814
 70
192
 0
VERTEX
 8
ZYLINDER
 10
2.6092
 20
1.0316
 30
33.8814
 70
192
 0
VERTEX
 8
ZYLINDER
 10
2.6092
 20
1.0316
 30
36.2814
 70
192
 0
VERTEX
 8
ZYLINDER
 10
2.4408
 20
1.1999
 30
33.8814
 70
192
 0
VERTEX
 8
ZYLINDER
 10
2.4408
 20
1.1999
 30
36.2814
 70
192
 0
VERTEX
 8
ZYLINDER
 10
2.2108
 20
1.2616
 30
33.8814
 70
192
 0
VERTEX
 8
ZYLINDER
 10
2.2108
 20
1.2616
 30
36.2814
 70
192
 0
VERTEX
 8
ZYLINDER
 10
1.9808
 20
1.1999
 30
33.8814
 70
192
 0
VERTEX
 8
ZYLINDER
 10
1.9808
 20
1.1999
 30
36.2814
 70
192
 0
VERTEX
 8
ZYLINDER
 10
1.8124
 20
1.0316
 30
33.8814
 70
192
 0
VERTEX
 8
ZYLINDER
 10
1.8124
 20
1.0316
 30
36.2814
 70
192
 0
VERTEX
 8
ZYLINDER
 10
1.7508
 20
0.8016
 30
33.8814
 70
192
 0
VERTEX
 8
ZYLINDER
 10
1.7508
 20
0.8016
 30
36.2814
 70
192
 0
VERTEX
 8
ZYLINDER
 10
1.8124
 20
0.5716
 30
33.8814
 70
192
 0
VERTEX
 8
ZYLINDER
 10
1.8124
 20
0.5716
 30
36.2814
 70
192
 0
VERTEX
 8
ZYLINDER
 10
1.9808
 20
0.4032
 30
33.8814
 70
192
 0
VERTEX
 8
ZYLINDER
 10
1.9808
 20
0.4032
 30
36.2814
 70
192
 0
VERTEX
 8
ZYLINDER
 10
2.2202
 20
0.3441
 30
35.4328
 70
192
 0
VERTEX
 8
ZYLINDER
 10
2.2202
 20
0.3441
 30
35.8362
 70
192
 0
VERTEX
 8
ZYLINDER
 10
2.2202
 20
0.3441
 30
35.7043
 70
192
 0
VERTEX
 8
ZYLINDER
 10
2.2202
 20
0.3441
 30
35.2854
 70
192
 0
VERTEX
 8
ZYLINDER
 10
2.2202
 20
0.3441
 30
35.2254
 70
192
 0
VERTEX
 8
ZYLINDER
 10
2.2202
 20
0.3441
 30
34.8145
 70
192
 0
VERTEX
 8
ZYLINDER
 10
2.2202
 20
0.3441
 30
34.4276
 70
192
 0
VERTEX
 8
ZYLINDER
 10
2.2202
 20
0.3441
 30
35.014
 70
192
 0
VERTEX
 8
ZYLINDER
 10
2.2202
 20
0.3441
 30
34.687
 70
192
 0
VERTEX
 8
ZYLINDER
 10
2.2202
 20
0.3441
 30
35.4928
 70
192
 0
VERTEX
 8
ZYLINDER
 10
2.2202
 20
0.3441
 30
34.627
 70
192
 0
VERTEX
 8
ZYLINDER
 10
2.2202
 20
0.3441
 30
34.8745
 70
192
 0
VERTEX
 8
ZYLINDER
 10
2.2202
 20
0.3441
 30
35.6443
 70
192
 0
VERTEX
 8
ZYLINDER
 10
2.2202
 20
0.3441
 30
35.074
 70
192
 0
VERTEX
 8
ZYLINDER
 10
2.2202
 20
0.3441
 30
34.4876
 70
192
 0
VERTEX
 8
ZYLINDER
 10
2.2202
 20
0.3441
 30
35.8962
 70
192
 0
VERTEX
 8
ZYLINDER
 10
2.3897
 20
0.3895
 30
34.4276
 70
192
 0
VERTEX
 8
ZYLINDER
 10
2.3897
 20
0.3895
 30
34.4876
 70
192
 0
VERTEX
 8
ZYLINDER
 10
2.4215
 20
0.398
 30
34.4314
 70
192
 0
VERTEX
 8
ZYLINDER
 10
2.3697
 20
0.3842
 30
34.4476
 70
192
 0
VERTEX
 8
ZYLINDER
 10
2.4288
 20
0.4
 30
34.4414
 70
192
 0
VERTEX
 8
ZYLINDER
 10
2.378
 20
0.3864
 30
34.4838
 70
192
 0
VERTEX
 8
ZYLINDER
 10
2.3707
 20
0.3844
 30
34.4414
 70
192
 0
VERTEX
 8
ZYLINDER
 10
2.4159
 20
0.3965
 30
34.4866
 70
192
 0
VERTEX
 8
ZYLINDER
 10
2.4297
 20
0.4002
 30
34.4676
 70
192
 0
VERTEX
 8
ZYLINDER
 10
2.4259
 20
0.3992
 30
34.4793
 70
192
 0
VERTEX
 8
ZYLINDER
 10
2.3836
 20
0.3879
 30
34.4286
 70
192
 0
VERTEX
 8
ZYLINDER
 10
2.4097
 20
0.3949
 30
34.4276
 70
192
 0
VERTEX
 8
ZYLINDER
 10
2.2264
 20
0.3457
 30
34.4286
 70
192
 0
VERTEX
 8
ZYLINDER
 10
2.3707
 20
0.3844
 30
34.4738
 70
192
 0
VERTEX
 8
ZYLINDER
 10
2.2364
 20
0.3484
 30
34.4358
 70
192
 0
VERTEX
 8
ZYLINDER
 10
2.4297
 20
0.4002
 30
34.4476
 70
192
 0
VERTEX
 8
ZYLINDER
 10
2.2402
 20
0.3494
 30
34.4476
 70
192
 0
VERTEX
 8
ZYLINDER
 10
2.2392
 20
0.3492
 30
34.4738
 70
192
 0
VERTEX
 8
ZYLINDER
 10
2.2364
 20
0.3484
 30
34.4793
 70
192
 0
VERTEX
 8
ZYLINDER
 10
2.2264
 20
0.3457
 30
34.4866
 70
192
 0
VERTEX
 8
ZYLINDER
 10
2.3836
 20
0.3879
 30
34.628
 70
192
 0
VERTEX
 8
ZYLINDER
 10
2.3897
 20
0.3895
 30
34.627
 70
192
 0
VERTEX
 8
ZYLINDER
 10
2.3736
 20
0.3852
 30
34.6353
 70
192
 0
VERTEX
 8
ZYLINDER
 10
2.3697
 20
0.3842
 30
34.647
 70
192
 0
VERTEX
 8
ZYLINDER
 10
2.3707
 20
0.3844
 30
34.6732
 70
192
 0
VERTEX
 8
ZYLINDER
 10
2.378
 20
0.3864
 30
34.6832
 70
192
 0
VERTEX
 8
ZYLINDER
 10
2.3836
 20
0.3879
 30
34.6861
 70
192
 0
VERTEX
 8
ZYLINDER
 10
2.4215
 20
0.398
 30
34.6309
 70
192
 0
VERTEX
 8
ZYLINDER
 10
2.4097
 20
0.3949
 30
34.627
 70
192
 0
VERTEX
 8
ZYLINDER
 10
2.4288
 20
0.4
 30
34.6409
 70
192
 0
VERTEX
 8
ZYLINDER
 10
2.4288
 20
0.4
 30
34.6732
 70
192
 0
VERTEX
 8
ZYLINDER
 10
2.4297
 20
0.4002
 30
34.647
 70
192
 0
VERTEX
 8
ZYLINDER
 10
2.4215
 20
0.398
 30
34.6832
 70
192
 0
VERTEX
 8
ZYLINDER
 10
2.4097
 20
0.3949
 30
34.687
 70
192
 0
VERTEX
 8
ZYLINDER
 10
2.2319
 20
0.3472
 30
34.6309
 70
192
 0
VERTEX
 8
ZYLINDER
 10
2.2392
 20
0.3492
 30
34.6409
 70
192
 0
VERTEX
 8
ZYLINDER
 10
2.2402
 20
0.3494
 30
34.647
 70
192
 0
VERTEX
 8
ZYLINDER
 10
2.2392
 20
0.3492
 30
34.6732
 70
192
 0
VERTEX
 8
ZYLINDER
 10
2.2364
 20
0.3484
 30
34.6788
 70
192
 0
VERTEX
 8
ZYLINDER
 10
2.2264
 20
0.3457
 30
34.6861
 70
192
 0
VERTEX
 8
ZYLINDER
 10
2.3897
 20
0.3895
 30
34.8145
 70
192
 0
VERTEX
 8
ZYLINDER
 10
2.3736
 20
0.3852
 30
34.8228
 70
192
 0
VERTEX
 8
ZYLINDER
 10
2.3697
 20
0.3842
 30
34.8345
 70
192
 0
VERTEX
 8
ZYLINDER
 10
2.3707
 20
0.3844
 30
34.8607
 70
192
 0
VERTEX
 8
ZYLINDER
 10
2.3736
 20
0.3852
 30
34.8663
 70
192
 0
VERTEX
 8
ZYLINDER
 10
2.3836
 20
0.3879
 30
34.8735
 70
192
 0
VERTEX
 8
ZYLINDER
 10
2.3897
 20
0.3895
 30
34.8745
 70
192
 0
VERTEX
 8
ZYLINDER
 10
2.4097
 20
0.3949
 30
34.8145
 70
192
 0
VERTEX
 8
ZYLINDER
 10
2.4215
 20
0.398
 30
34.8183
 70
192
 0
VERTEX
 8
ZYLINDER
 10
2.4297
 20
0.4002
 30
34.8345
 70
192
 0
VERTEX
 8
ZYLINDER
 10
2.4297
 20
0.4002
 30
34.8545
 70
192
 0
VERTEX
 8
ZYLINDER
 10
2.4259
 20
0.3992
 30
34.8663
 70
192
 0
VERTEX
 8
ZYLINDER
 10
2.4215
 20
0.398
 30
34.8707
 70
192
 0
VERTEX
 8
ZYLINDER
 10
2.4097
 20
0.3949
 30
34.8745
 70
192
 0
VERTEX
 8
ZYLINDER
 10
2.2264
 20
0.3457
 30
34.8155
 70
192
 0
VERTEX
 8
ZYLINDER
 10
2.2364
 20
0.3484
 30
34.8228
 70
192
 0
VERTEX
 8
ZYLINDER
 10
2.2402
 20
0.3494
 30
34.8345
 70
192
 0
VERTEX
 8
ZYLINDER
 10
2.2392
 20
0.3492
 30
34.8607
 70
192
 0
VERTEX
 8
ZYLINDER
 10
2.2364
 20
0.3484
 30
34.8663
 70
192
 0
VERTEX
 8
ZYLINDER
 10
2.2264
 20
0.3457
 30
34.8735
 70
192
 0
VERTEX
 8
ZYLINDER
 10
2.3897
 20
0.3895
 30
35.014
 70
192
 0
VERTEX
 8
ZYLINDER
 10
2.3736
 20
0.3852
 30
35.0222
 70
192
 0
VERTEX
 8
ZYLINDER
 10
2.3697
 20
0.3842
 30
35.034
 70
192
 0
VERTEX
 8
ZYLINDER
 10
2.3707
 20
0.3844
 30
35.0602
 70
192
 0
VERTEX
 8
ZYLINDER
 10
2.3736
 20
0.3852
 30
35.0657
 70
192
 0
VERTEX
 8
ZYLINDER
 10
2.3836
 20
0.3879
 30
35.073
 70
192
 0
VERTEX
 8
ZYLINDER
 10
2.3897
 20
0.3895
 30
35.074
 70
192
 0
VERTEX
 8
ZYLINDER
 10
2.4097
 20
0.3949
 30
35.014
 70
192
 0
VERTEX
 8
ZYLINDER
 10
2.4259
 20
0.3992
 30
35.0222
 70
192
 0
VERTEX
 8
ZYLINDER
 10
2.4297
 20
0.4002
 30
35.034
 70
192
 0
VERTEX
 8
ZYLINDER
 10
2.4288
 20
0.4
 30
35.0602
 70
192
 0
VERTEX
 8
ZYLINDER
 10
2.4259
 20
0.3992
 30
35.0657
 70
192
 0
VERTEX
 8
ZYLINDER
 10
2.4215
 20
0.398
 30
35.0702
 70
192
 0
VERTEX
 8
ZYLINDER
 10
2.4097
 20
0.3949
 30
35.074
 70
192
 0
VERTEX
 8
ZYLINDER
 10
2.2264
 20
0.3457
 30
35.015
 70
192
 0
VERTEX
 8
ZYLINDER
 10
2.2364
 20
0.3484
 30
35.0222
 70
192
 0
VERTEX
 8
ZYLINDER
 10
2.2402
 20
0.3494
 30
35.034
 70
192
 0
VERTEX
 8
ZYLINDER
 10
2.2392
 20
0.3492
 30
35.0602
 70
192
 0
VERTEX
 8
ZYLINDER
 10
2.2364
 20
0.3484
 30
35.0657
 70
192
 0
VERTEX
 8
ZYLINDER
 10
2.2264
 20
0.3457
 30
35.073
 70
192
 0
VERTEX
 8
ZYLINDER
 10
2.3836
 20
0.3879
 30
35.2264
 70
192
 0
VERTEX
 8
ZYLINDER
 10
2.3897
 20
0.3895
 30
35.2254
 70
192
 0
VERTEX
 8
ZYLINDER
 10
2.3707
 20
0.3844
 30
35.2392
 70
192
 0
VERTEX
 8
ZYLINDER
 10
2.3697
 20
0.3842
 30
35.2454
 70
192
 0
VERTEX
 8
ZYLINDER
 10
2.3707
 20
0.3844
 30
35.2716
 70
192
 0
VERTEX
 8
ZYLINDER
 10
2.378
 20
0.3864
 30
35.2816
 70
192
 0
VERTEX
 8
ZYLINDER
 10
2.3897
 20
0.3895
 30
35.2854
 70
192
 0
VERTEX
 8
ZYLINDER
 10
2.4215
 20
0.398
 30
35.2292
 70
192
 0
VERTEX
 8
ZYLINDER
 10
2.4097
 20
0.3949
 30
35.2254
 70
192
 0
VERTEX
 8
ZYLINDER
 10
2.4288
 20
0.4
 30
35.2392
 70
192
 0
VERTEX
 8
ZYLINDER
 10
2.4297
 20
0.4002
 30
35.2454
 70
192
 0
VERTEX
 8
ZYLINDER
 10
2.4288
 20
0.4
 30
35.2716
 70
192
 0
VERTEX
 8
ZYLINDER
 10
2.4215
 20
0.398
 30
35.2816
 70
192
 0
VERTEX
 8
ZYLINDER
 10
2.4097
 20
0.3949
 30
35.2854
 70
192
 0
VERTEX
 8
ZYLINDER
 10
2.2319
 20
0.3472
 30
35.2292
 70
192
 0
VERTEX
 8
ZYLINDER
 10
2.2392
 20
0.3492
 30
35.2392
 70
192
 0
VERTEX
 8
ZYLINDER
 10
2.2402
 20
0.3494
 30
35.2454
 70
192
 0
VERTEX
 8
ZYLINDER
 10
2.2392
 20
0.3492
 30
35.2716
 70
192
 0
VERTEX
 8
ZYLINDER
 10
2.2364
 20
0.3484
 30
35.2772
 70
192
 0
VERTEX
 8
ZYLINDER
 10
2.2264
 20
0.3457
 30
35.2844
 70
192
 0
VERTEX
 8
ZYLINDER
 10
2.3897
 20
0.3895
 30
35.4328
 70
192
 0
VERTEX
 8
ZYLINDER
 10
2.3707
 20
0.3844
 30
35.4467
 70
192
 0
VERTEX
 8
ZYLINDER
 10
2.3697
 20
0.3842
 30
35.4528
 70
192
 0
VERTEX
 8
ZYLINDER
 10
2.3707
 20
0.3844
 30
35.479
 70
192
 0
VERTEX
 8
ZYLINDER
 10
2.3736
 20
0.3852
 30
35.4846
 70
192
 0
VERTEX
 8
ZYLINDER
 10
2.3836
 20
0.3879
 30
35.4919
 70
192
 0
VERTEX
 8
ZYLINDER
 10
2.3897
 20
0.3895
 30
35.4928
 70
192
 0
VERTEX
 8
ZYLINDER
 10
2.4097
 20
0.3949
 30
35.4328
 70
192
 0
VERTEX
 8
ZYLINDER
 10
2.4259
 20
0.3992
 30
35.4411
 70
192
 0
VERTEX
 8
ZYLINDER
 10
2.4297
 20
0.4002
 30
35.4528
 70
192
 0
VERTEX
 8
ZYLINDER
 10
2.4288
 20
0.4
 30
35.479
 70
192
 0
VERTEX
 8
ZYLINDER
 10
2.4259
 20
0.3992
 30
35.4846
 70
192
 0
VERTEX
 8
ZYLINDER
 10
2.4215
 20
0.398
 30
35.489
 70
192
 0
VERTEX
 8
ZYLINDER
 10
2.4097
 20
0.3949
 30
35.4928
 70
192
 0
VERTEX
 8
ZYLINDER
 10
2.2264
 20
0.3457
 30
35.4338
 70
192
 0
VERTEX
 8
ZYLINDER
 10
2.2364
 20
0.3484
 30
35.4411
 70
192
 0
VERTEX
 8
ZYLINDER
 10
2.2402
 20
0.3494
 30
35.4528
 70
192
 0
VERTEX
 8
ZYLINDER
 10
2.2392
 20
0.3492
 30
35.479
 70
192
 0
VERTEX
 8
ZYLINDER
 10
2.2364
 20
0.3484
 30
35.4846
 70
192
 0
VERTEX
 8
ZYLINDER
 10
2.2264
 20
0.3457
 30
35.4919
 70
192
 0
VERTEX
 8
ZYLINDER
 10
2.3836
 20
0.3879
 30
35.6452
 70
192
 0
VERTEX
 8
ZYLINDER
 10
2.3897
 20
0.3895
 30
35.6443
 70
192
 0
VERTEX
 8
ZYLINDER
 10
2.3707
 20
0.3844
 30
35.6581
 70
192
 0
VERTEX
 8
ZYLINDER
 10
2.3697
 20
0.3842
 30
35.6643
 70
192
 0
VERTEX
 8
ZYLINDER
 10
2.3707
 20
0.3844
 30
35.6904
 70
192
 0
VERTEX
 8
ZYLINDER
 10
2.378
 20
0.3864
 30
35.7004
 70
192
 0
VERTEX
 8
ZYLINDER
 10
2.3897
 20
0.3895
 30
35.7043
 70
192
 0
VERTEX
 8
ZYLINDER
 10
2.4215
 20
0.398
 30
35.6481
 70
192
 0
VERTEX
 8
ZYLINDER
 10
2.4097
 20
0.3949
 30
35.6443
 70
192
 0
VERTEX
 8
ZYLINDER
 10
2.4288
 20
0.4
 30
35.6581
 70
192
 0
VERTEX
 8
ZYLINDER
 10
2.4297
 20
0.4002
 30
35.6643
 70
192
 0
VERTEX
 8
ZYLINDER
 10
2.4288
 20
0.4
 30
35.6904
 70
192
 0
VERTEX
 8
ZYLINDER
 10
2.4215
 20
0.398
 30
35.7004
 70
192
 0
VERTEX
 8
ZYLINDER
 10
2.4097
 20
0.3949
 30
35.7043
 70
192
 0
VERTEX
 8
ZYLINDER
 10
2.2319
 20
0.3472
 30
35.6481
 70
192
 0
VERTEX
 8
ZYLINDER
 10
2.2392
 20
0.3492
 30
35.6581
 70
192
 0
VERTEX
 8
ZYLINDER
 10
2.2402
 20
0.3494
 30
35.6643
 70
192
 0
VERTEX
 8
ZYLINDER
 10
2.2392
 20
0.3492
 30
35.6904
 70
192
 0
VERTEX
 8
ZYLINDER
 10
2.2364
 20
0.3484
 30
35.696
 70
192
 0
VERTEX
 8
ZYLINDER
 10
2.2264
 20
0.3457
 30
35.7033
 70
192
 0
VERTEX
 8
ZYLINDER
 10
2.3897
 20
0.3895
 30
35.8362
 70
192
 0
VERTEX
 8
ZYLINDER
 10
2.3707
 20
0.3844
 30
35.8501
 70
192
 0
VERTEX
 8
ZYLINDER
 10
2.3697
 20
0.3842
 30
35.8562
 70
192
 0
VERTEX
 8
ZYLINDER
 10
2.3707
 20
0.3844
 30
35.8824
 70
192
 0
VERTEX
 8
ZYLINDER
 10
2.378
 20
0.3864
 30
35.8924
 70
192
 0
VERTEX
 8
ZYLINDER
 10
2.3897
 20
0.3895
 30
35.8962
 70
192
 0
VERTEX
 8
ZYLINDER
 10
2.4097
 20
0.3949
 30
35.8362
 70
192
 0
VERTEX
 8
ZYLINDER
 10
2.4259
 20
0.3992
 30
35.8445
 70
192
 0
VERTEX
 8
ZYLINDER
 10
2.4297
 20
0.4002
 30
35.8562
 70
192
 0
VERTEX
 8
ZYLINDER
 10
2.4288
 20
0.4
 30
35.8824
 70
192
 0
VERTEX
 8
ZYLINDER
 10
2.4215
 20
0.398
 30
35.8924
 70
192
 0
VERTEX
 8
ZYLINDER
 10
2.4097
 20
0.3949
 30
35.8962
 70
192
 0
VERTEX
 8
ZYLINDER
 10
2.2319
 20
0.3472
 30
35.8401
 70
192
 0
VERTEX
 8
ZYLINDER
 10
2.2392
 20
0.3492
 30
35.8501
 70
192
 0
VERTEX
 8
ZYLINDER
 10
2.2402
 20
0.3494
 30
35.8562
 70
192
 0
VERTEX
 8
ZYLINDER
 10
2.2392
 20
0.3492
 30
35.8824
 70
192
 0
VERTEX
 8
ZYLINDER
 10
2.2319
 20
0.3472
 30
35.8924
 70
192
 0
VERTEX
 8
ZYLINDER
 10
2.2264
 20
0.3457
 30
35.8953
 70
192
 0
VERTEX
 8
ZYLINDER
 10
2.002
 20
0.3975
 30
34.4286
 70
192
 0
VERTEX
 8
ZYLINDER
 10
2.0082
 20
0.3959
 30
34.4276
 70
192
 0
VERTEX
 8
ZYLINDER
 10
1.9892
 20
0.401
 30
34.4414
 70
192
 0
VERTEX
 8
ZYLINDER
 10
1.9882
 20
0.4012
 30
34.4476
 70
192
 0
VERTEX
 8
ZYLINDER
 10
1.9892
 20
0.401
 30
34.4738
 70
192
 0
VERTEX
 8
ZYLINDER
 10
1.9964
 20
0.399
 30
34.4838
 70
192
 0
VERTEX
 8
ZYLINDER
 10
2.002
 20
0.3975
 30
34.4866
 70
192
 0
VERTEX
 8
ZYLINDER
 10
2.0082
 20
0.3959
 30
34.4876
 70
192
 0
VERTEX
 8
ZYLINDER
 10
2.0344
 20
0.3888
 30
34.4286
 70
192
 0
VERTEX
 8
ZYLINDER
 10
2.0444
 20
0.3862
 30
34.4358
 70
192
 0
VERTEX
 8
ZYLINDER
 10
2.0482
 20
0.3851
 30
34.4476
 70
192
 0
VERTEX
 8
ZYLINDER
 10
2.0472
 20
0.3854
 30
34.4738
 70
192
 0
VERTEX
 8
ZYLINDER
 10
2.0399
 20
0.3873
 30
34.4838
 70
192
 0
VERTEX
 8
ZYLINDER
 10
2.0282
 20
0.3905
 30
34.4876
 70
192
 0
VERTEX
 8
ZYLINDER
 10
2.194
 20
0.3461
 30
34.4286
 70
192
 0
VERTEX
 8
ZYLINDER
 10
2.2002
 20
0.3444
 30
34.4276
 70
192
 0
VERTEX
 8
ZYLINDER
 10
2.1811
 20
0.3495
 30
34.4414
 70
192
 0
VERTEX
 8
ZYLINDER
 10
2.1802
 20
0.3498
 30
34.4476
 70
192
 0
VERTEX
 8
ZYLINDER
 10
2.1811
 20
0.3495
 30
34.4738
 70
192
 0
VERTEX
 8
ZYLINDER
 10
2.1884
 20
0.3476
 30
34.4838
 70
192
 0
VERTEX
 8
ZYLINDER
 10
2.2002
 20
0.3444
 30
34.4876
 70
192
 0
VERTEX
 8
ZYLINDER
 10
2.002
 20
0.3975
 30
34.628
 70
192
 0
VERTEX
 8
ZYLINDER
 10
2.0082
 20
0.3959
 30
34.627
 70
192
 0
VERTEX
 8
ZYLINDER
 10
1.9892
 20
0.401
 30
34.6409
 70
192
 0
VERTEX
 8
ZYLINDER
 10
1.9882
 20
0.4012
 30
34.647
 70
192
 0
VERTEX
 8
ZYLINDER
 10
1.9892
 20
0.401
 30
34.6732
 70
192
 0
VERTEX
 8
ZYLINDER
 10
1.9964
 20
0.399
 30
34.6832
 70
192
 0
VERTEX
 8
ZYLINDER
 10
2.002
 20
0.3975
 30
34.6861
 70
192
 0
VERTEX
 8
ZYLINDER
 10
2.0082
 20
0.3959
 30
34.687
 70
192
 0
VERTEX
 8
ZYLINDER
 10
2.0282
 20
0.3905
 30
34.627
 70
192
 0
VERTEX
 8
ZYLINDER
 10
2.0444
 20
0.3862
 30
34.6353
 70
192
 0
VERTEX
 8
ZYLINDER
 10
2.0482
 20
0.3851
 30
34.647
 70
192
 0
VERTEX
 8
ZYLINDER
 10
2.0472
 20
0.3854
 30
34.6732
 70
192
 0
VERTEX
 8
ZYLINDER
 10
2.0399
 20
0.3873
 30
34.6832
 70
192
 0
VERTEX
 8
ZYLINDER
 10
2.0282
 20
0.3905
 30
34.687
 70
192
 0
VERTEX
 8
ZYLINDER
 10
2.194
 20
0.3461
 30
34.628
 70
192
 0
VERTEX
 8
ZYLINDER
 10
2.2002
 20
0.3444
 30
34.627
 70
192
 0
VERTEX
 8
ZYLINDER
 10
2.1811
 20
0.3495
 30
34.6409
 70
192
 0
VERTEX
 8
ZYLINDER
 10
2.1802
 20
0.3498
 30
34.647
 70
192
 0
VERTEX
 8
ZYLINDER
 10
2.1811
 20
0.3495
 30
34.6732
 70
192
 0
VERTEX
 8
ZYLINDER
 10
2.1884
 20
0.3476
 30
34.6832
 70
192
 0
VERTEX
 8
ZYLINDER
 10
2.2002
 20
0.3444
 30
34.687
 70
192
 0
VERTEX
 8
ZYLINDER
 10
2.002
 20
0.3975
 30
34.8155
 70
192
 0
VERTEX
 8
ZYLINDER
 10
2.0082
 20
0.3959
 30
34.8145
 70
192
 0
VERTEX
 8
ZYLINDER
 10
1.9892
 20
0.401
 30
34.8283
 70
192
 0
VERTEX
 8
ZYLINDER
 10
1.9882
 20
0.4012
 30
34.8345
 70
192
 0
VERTEX
 8
ZYLINDER
 10
1.9892
 20
0.401
 30
34.8607
 70
192
 0
VERTEX
 8
ZYLINDER
 10
1.992
 20
0.4002
 30
34.8663
 70
192
 0
VERTEX
 8
ZYLINDER
 10
2.002
 20
0.3975
 30
34.8735
 70
192
 0
VERTEX
 8
ZYLINDER
 10
2.0082
 20
0.3959
 30
34.8745
 70
192
 0
VERTEX
 8
ZYLINDER
 10
2.0282
 20
0.3905
 30
34.8145
 70
192
 0
VERTEX
 8
ZYLINDER
 10
2.0444
 20
0.3862
 30
34.8228
 70
192
 0
VERTEX
 8
ZYLINDER
 10
2.0482
 20
0.3851
 30
34.8345
 70
192
 0
VERTEX
 8
ZYLINDER
 10
2.0482
 20
0.3851
 30
34.8545
 70
192
 0
VERTEX
 8
ZYLINDER
 10
2.0444
 20
0.3862
 30
34.8663
 70
192
 0
VERTEX
 8
ZYLINDER
 10
2.0282
 20
0.3905
 30
34.8745
 70
192
 0
VERTEX
 8
ZYLINDER
 10
2.2002
 20
0.3444
 30
34.8145
 70
192
 0
VERTEX
 8
ZYLINDER
 10
2.1811
 20
0.3495
 30
34.8283
 70
192
 0
VERTEX
 8
ZYLINDER
 10
2.1802
 20
0.3498
 30
34.8345
 70
192
 0
VERTEX
 8
ZYLINDER
 10
2.1811
 20
0.3495
 30
34.8607
 70
192
 0
VERTEX
 8
ZYLINDER
 10
2.184
 20
0.3487
 30
34.8663
 70
192
 0
VERTEX
 8
ZYLINDER
 10
2.2002
 20
0.3444
 30
34.8745
 70
192
 0
VERTEX
 8
ZYLINDER
 10
2.002
 20
0.3975
 30
35.015
 70
192
 0
VERTEX
 8
ZYLINDER
 10
2.0082
 20
0.3959
 30
35.014
 70
192
 0
VERTEX
 8
ZYLINDER
 10
1.9892
 20
0.401
 30
35.0278
 70
192
 0
VERTEX
 8
ZYLINDER
 10
1.9882
 20
0.4012
 30
35.034
 70
192
 0
VERTEX
 8
ZYLINDER
 10
1.9892
 20
0.401
 30
35.0602
 70
192
 0
VERTEX
 8
ZYLINDER
 10
1.992
 20
0.4002
 30
35.0657
 70
192
 0
VERTEX
 8
ZYLINDER
 10
2.002
 20
0.3975
 30
35.073
 70
192
 0
VERTEX
 8
ZYLINDER
 10
2.0082
 20
0.3959
 30
35.074
 70
192
 0
VERTEX
 8
ZYLINDER
 10
2.0282
 20
0.3905
 30
35.014
 70
192
 0
VERTEX
 8
ZYLINDER
 10
2.0444
 20
0.3862
 30
35.0222
 70
192
 0
VERTEX
 8
ZYLINDER
 10
2.0482
 20
0.3851
 30
35.034
 70
192
 0
VERTEX
 8
ZYLINDER
 10
2.0482
 20
0.3851
 30
35.054
 70
192
 0
VERTEX
 8
ZYLINDER
 10
2.0444
 20
0.3862
 30
35.0657
 70
192
 0
VERTEX
 8
ZYLINDER
 10
2.0282
 20
0.3905
 30
35.074
 70
192
 0
VERTEX
 8
ZYLINDER
 10
2.2002
 20
0.3444
 30
35.014
 70
192
 0
VERTEX
 8
ZYLINDER
 10
2.1811
 20
0.3495
 30
35.0278
 70
192
 0
VERTEX
 8
ZYLINDER
 10
2.1802
 20
0.3498
 30
35.034
 70
192
 0
VERTEX
 8
ZYLINDER
 10
2.1811
 20
0.3495
 30
35.0602
 70
192
 0
VERTEX
 8
ZYLINDER
 10
2.184
 20
0.3487
 30
35.0657
 70
192
 0
VERTEX
 8
ZYLINDER
 10
2.2002
 20
0.3444
 30
35.074
 70
192
 0
VERTEX
 8
ZYLINDER
 10
2.002
 20
0.3975
 30
35.2264
 70
192
 0
VERTEX
 8
ZYLINDER
 10
2.0082
 20
0.3959
 30
35.2254
 70
192
 0
VERTEX
 8
ZYLINDER
 10
1.9892
 20
0.401
 30
35.2392
 70
192
 0
VERTEX
 8
ZYLINDER
 10
1.9882
 20
0.4012
 30
35.2454
 70
192
 0
VERTEX
 8
ZYLINDER
 10
1.9892
 20
0.401
 30
35.2716
 70
192
 0
VERTEX
 8
ZYLINDER
 10
1.9964
 20
0.399
 30
35.2816
 70
192
 0
VERTEX
 8
ZYLINDER
 10
2.002
 20
0.3975
 30
35.2844
 70
192
 0
VERTEX
 8
ZYLINDER
 10
2.0082
 20
0.3959
 30
35.2854
 70
192
 0
VERTEX
 8
ZYLINDER
 10
2.0282
 20
0.3905
 30
35.2254
 70
192
 0
VERTEX
 8
ZYLINDER
 10
2.0444
 20
0.3862
 30
35.2336
 70
192
 0
VERTEX
 8
ZYLINDER
 10
2.0482
 20
0.3851
 30
35.2454
 70
192
 0
VERTEX
 8
ZYLINDER
 10
2.0472
 20
0.3854
 30
35.2716
 70
192
 0
VERTEX
 8
ZYLINDER
 10
2.0444
 20
0.3862
 30
35.2772
 70
192
 0
VERTEX
 8
ZYLINDER
 10
2.0282
 20
0.3905
 30
35.2854
 70
192
 0
VERTEX
 8
ZYLINDER
 10
2.194
 20
0.3461
 30
35.2264
 70
192
 0
VERTEX
 8
ZYLINDER
 10
2.2002
 20
0.3444
 30
35.2254
 70
192
 0
VERTEX
 8
ZYLINDER
 10
2.1811
 20
0.3495
 30
35.2392
 70
192
 0
VERTEX
 8
ZYLINDER
 10
2.1802
 20
0.3498
 30
35.2454
 70
192
 0
VERTEX
 8
ZYLINDER
 10
2.1811
 20
0.3495
 30
35.2716
 70
192
 0
VERTEX
 8
ZYLINDER
 10
2.1884
 20
0.3476
 30
35.2816
 70
192
 0
VERTEX
 8
ZYLINDER
 10
2.2002
 20
0.3444
 30
35.2854
 70
192
 0
VERTEX
 8
ZYLINDER
 10
2.002
 20
0.3975
 30
35.4338
 70
192
 0
VERTEX
 8
ZYLINDER
 10
2.0082
 20
0.3959
 30
35.4328
 70
192
 0
VERTEX
 8
ZYLINDER
 10
1.9892
 20
0.401
 30
35.4467
 70
192
 0
VERTEX
 8
ZYLINDER
 10
1.9892
 20
0.401
 30
35.479
 70
192
 0
VERTEX
 8
ZYLINDER
 10
1.992
 20
0.4002
 30
35.4846
 70
192
 0
VERTEX
 8
ZYLINDER
 10
2.002
 20
0.3975
 30
35.4919
 70
192
 0
VERTEX
 8
ZYLINDER
 10
2.0082
 20
0.3959
 30
35.4928
 70
192
 0
VERTEX
 8
ZYLINDER
 10
2.0282
 20
0.3905
 30
35.4328
 70
192
 0
VERTEX
 8
ZYLINDER
 10
2.0444
 20
0.3862
 30
35.4411
 70
192
 0
VERTEX
 8
ZYLINDER
 10
2.0482
 20
0.3851
 30
35.4528
 70
192
 0
VERTEX
 8
ZYLINDER
 10
2.0482
 20
0.3851
 30
35.4728
 70
192
 0
VERTEX
 8
ZYLINDER
 10
2.0444
 20
0.3862
 30
35.4846
 70
192
 0
VERTEX
 8
ZYLINDER
 10
2.0282
 20
0.3905
 30
35.4928
 70
192
 0
VERTEX
 8
ZYLINDER
 10
2.2002
 20
0.3444
 30
35.4328
 70
192
 0
VERTEX
 8
ZYLINDER
 10
2.1811
 20
0.3495
 30
35.4467
 70
192
 0
VERTEX
 8
ZYLINDER
 10
2.1802
 20
0.3498
 30
35.4528
 70
192
 0
VERTEX
 8
ZYLINDER
 10
2.1811
 20
0.3495
 30
35.479
 70
192
 0
VERTEX
 8
ZYLINDER
 10
2.184
 20
0.3487
 30
35.4846
 70
192
 0
VERTEX
 8
ZYLINDER
 10
2.2002
 20
0.3444
 30
35.4928
 70
192
 0
VERTEX
 8
ZYLINDER
 10
2.002
 20
0.3975
 30
35.6452
 70
192
 0
VERTEX
 8
ZYLINDER
 10
2.0082
 20
0.3959
 30
35.6443
 70
192
 0
VERTEX
 8
ZYLINDER
 10
1.9892
 20
0.401
 30
35.6581
 70
192
 0
VERTEX
 8
ZYLINDER
 10
1.9882
 20
0.4012
 30
35.6643
 70
192
 0
VERTEX
 8
ZYLINDER
 10
1.9892
 20
0.401
 30
35.6904
 70
192
 0
VERTEX
 8
ZYLINDER
 10
1.9964
 20
0.399
 30
35.7004
 70
192
 0
VERTEX
 8
ZYLINDER
 10
2.002
 20
0.3975
 30
35.7033
 70
192
 0
VERTEX
 8
ZYLINDER
 10
2.0082
 20
0.3959
 30
35.7043
 70
192
 0
VERTEX
 8
ZYLINDER
 10
2.0282
 20
0.3905
 30
35.6443
 70
192
 0
VERTEX
 8
ZYLINDER
 10
2.0444
 20
0.3862
 30
35.6525
 70
192
 0
VERTEX
 8
ZYLINDER
 10
2.0482
 20
0.3851
 30
35.6643
 70
192
 0
VERTEX
 8
ZYLINDER
 10
2.0472
 20
0.3854
 30
35.6904
 70
192
 0
VERTEX
 8
ZYLINDER
 10
2.0444
 20
0.3862
 30
35.696
 70
192
 0
VERTEX
 8
ZYLINDER
 10
2.0282
 20
0.3905
 30
35.7043
 70
192
 0
VERTEX
 8
ZYLINDER
 10
2.194
 20
0.3461
 30
35.6452
 70
192
 0
VERTEX
 8
ZYLINDER
 10
2.2002
 20
0.3444
 30
35.6443
 70
192
 0
VERTEX
 8
ZYLINDER
 10
2.1811
 20
0.3495
 30
35.6581
 70
192
 0
VERTEX
 8
ZYLINDER
 10
2.1802
 20
0.3498
 30
35.6643
 70
192
 0
VERTEX
 8
ZYLINDER
 10
2.1811
 20
0.3495
 30
35.6904
 70
192
 0
VERTEX
 8
ZYLINDER
 10
2.1884
 20
0.3476
 30
35.7004
 70
192
 0
VERTEX
 8
ZYLINDER
 10
2.2002
 20
0.3444
 30
35.7043
 70
192
 0
VERTEX
 8
ZYLINDER
 10
2.002
 20
0.3975
 30
35.8372
 70
192
 0
VERTEX
 8
ZYLINDER
 10
2.0082
 20
0.3959
 30
35.8362
 70
192
 0
VERTEX
 8
ZYLINDER
 10
1.9892
 20
0.401
 30
35.8501
 70
192
 0
VERTEX
 8
ZYLINDER
 10
1.9882
 20
0.4012
 30
35.8562
 70
192
 0
VERTEX
 8
ZYLINDER
 10
1.9892
 20
0.401
 30
35.8824
 70
192
 0
VERTEX
 8
ZYLINDER
 10
1.9964
 20
0.399
 30
35.8924
 70
192
 0
VERTEX
 8
ZYLINDER
 10
2.002
 20
0.3975
 30
35.8953
 70
192
 0
VERTEX
 8
ZYLINDER
 10
2.0082
 20
0.3959
 30
35.8962
 70
192
 0
VERTEX
 8
ZYLINDER
 10
2.0399
 20
0.3873
 30
35.8401
 70
192
 0
VERTEX
 8
ZYLINDER
 10
2.0444
 20
0.3862
 30
35.8445
 70
192
 0
VERTEX
 8
ZYLINDER
 10
2.0482
 20
0.3851
 30
35.8562
 70
192
 0
VERTEX
 8
ZYLINDER
 10
2.0472
 20
0.3854
 30
35.8824
 70
192
 0
VERTEX
 8
ZYLINDER
 10
2.0399
 20
0.3873
 30
35.8924
 70
192
 0
VERTEX
 8
ZYLINDER
 10
2.0282
 20
0.3905
 30
35.8962
 70
192
 0
VERTEX
 8
ZYLINDER
 10
2.2002
 20
0.3444
 30
35.8362
 70
192
 0
VERTEX
 8
ZYLINDER
 10
2.1811
 20
0.3495
 30
35.8501
 70
192
 0
VERTEX
 8
ZYLINDER
 10
2.1802
 20
0.3498
 30
35.8562
 70
192
 0
VERTEX
 8
ZYLINDER
 10
2.1811
 20
0.3495
 30
35.8824
 70
192
 0
VERTEX
 8
ZYLINDER
 10
2.1884
 20
0.3476
 30
35.8924
 70
192
 0
VERTEX
 8
ZYLINDER
 10
2.2002
 20
0.3444
 30
35.8962
 70
192
 0
VERTEX
 8
ZYLINDER
 10
0
 20
0
 30
0
 70
128
 71
1
 72
3
 73
5
 74
5
 0
VERTEX
 8
ZYLINDER
 10
0
 20
0
 30
0
 70
128
 71
61
 72
62
 73
77
 74
78
 0
VERTEX
 8
ZYLINDER
 10
0
 20
0
 30
0
 70
128
 71
48
 72
61
 73
78
 74
65
 0
VERTEX
 8
ZYLINDER
 10
0
 20
0
 30
0
 70
128
 71
62
 72
41
 73
37
 74
77
 0
VERTEX
 8
ZYLINDER
 10
0
 20
0
 30
0
 70
128
 71
65
 72
78
 73
79
 74
66
 0
VERTEX
 8
ZYLINDER
 10
0
 20
0
 30
0
 70
128
 71
66
 72
79
 73
80
 74
67
 0
VERTEX
 8
ZYLINDER
 10
0
 20
0
 30
0
 70
128
 71
67
 72
80
 73
81
 74
68
 0
VERTEX
 8
ZYLINDER
 10
0
 20
0
 30
0
 70
128
 71
98
 72
81
 73
82
 74
82
 0
VERTEX
 8
ZYLINDER
 10
0
 20
0
 30
0
 70
128
 71
56
 72
60
 73
61
 74
48
 0
VERTEX
 8
ZYLINDER
 10
0
 20
0
 30
0
 70
128
 71
68
 72
81
 73
98
 74
84
 0
VERTEX
 8
ZYLINDER
 10
0
 20
0
 30
0
 70
128
 71
98
 72
82
 73
97
 74
97
 0
VERTEX
 8
ZYLINDER
 10
0
 20
0
 30
0
 70
128
 71
97
 72
82
 73
35
 74
32
 0
VERTEX
 8
ZYLINDER
 10
0
 20
0
 30
0
 70
128
 71
98
 72
99
 73
84
 74
84
 0
VERTEX
 8
ZYLINDER
 10
0
 20
0
 30
0
 70
128
 71
84
 72
99
 73
85
 74
85
 0
VERTEX
 8
ZYLINDER
 10
0
 20
0
 30
0
 70
128
 71
85
 72
99
 73
100
 74
86
 0
VERTEX
 8
ZYLINDER
 10
0
 20
0
 30
0
 70
128
 71
86
 72
100
 73
101
 74
87
 0
VERTEX
 8
ZYLINDER
 10
0
 20
0
 30
0
 70
128
 71
118
 72
101
 73
102
 74
102
 0
VERTEX
 8
ZYLINDER
 10
0
 20
0
 30
0
 70
128
 71
101
 72
118
 73
104
 74
87
 0
VERTEX
 8
ZYLINDER
 10
0
 20
0
 30
0
 70
128
 71
118
 72
102
 73
117
 74
117
 0
VERTEX
 8
ZYLINDER
 10
0
 20
0
 30
0
 70
128
 71
117
 72
102
 73
38
 74
34
 0
VERTEX
 8
ZYLINDER
 10
0
 20
0
 30
0
 70
128
 71
118
 72
119
 73
104
 74
104
 0
VERTEX
 8
ZYLINDER
 10
0
 20
0
 30
0
 70
128
 71
104
 72
119
 73
105
 74
105
 0
VERTEX
 8
ZYLINDER
 10
0
 20
0
 30
0
 70
128
 71
105
 72
119
 73
120
 74
106
 0
VERTEX
 8
ZYLINDER
 10
0
 20
0
 30
0
 70
128
 71
106
 72
120
 73
121
 74
107
 0
VERTEX
 8
ZYLINDER
 10
0
 20
0
 30
0
 70
128
 71
107
 72
121
 73
122
 74
108
 0
VERTEX
 8
ZYLINDER
 10
0
 20
0
 30
0
 70
128
 71
108
 72
122
 73
137
 74
125
 0
VERTEX
 8
ZYLINDER
 10
0
 20
0
 30
0
 70
128
 71
122
 72
40
 73
31
 74
137
 0
VERTEX
 8
ZYLINDER
 10
0
 20
0
 30
0
 70
128
 71
125
 72
137
 73
138
 74
138
 0
VERTEX
 8
ZYLINDER
 10
0
 20
0
 30
0
 70
128
 71
125
 72
138
 73
139
 74
126
 0
VERTEX
 8
ZYLINDER
 10
0
 20
0
 30
0
 70
128
 71
139
 72
140
 73
127
 74
126
 0
VERTEX
 8
ZYLINDER
 10
0
 20
0
 30
0
 70
128
 71
127
 72
140
 73
141
 74
128
 0
VERTEX
 8
ZYLINDER
 10
0
 20
0
 30
0
 70
128
 71
141
 72
142
 73
128
 74
128
 0
VERTEX
 8
ZYLINDER
 10
0
 20
0
 30
0
 70
128
 71
142
 72
157
 73
158
 74
158
 0
VERTEX
 8
ZYLINDER
 10
0
 20
0
 30
0
 70
128
 71
142
 72
158
 73
144
 74
128
 0
VERTEX
 8
ZYLINDER
 10
0
 20
0
 30
0
 70
128
 71
142
 72
30
 73
27
 74
157
 0
VERTEX
 8
ZYLINDER
 10
0
 20
0
 30
0
 70
128
 71
144
 72
158
 73
159
 74
159
 0
VERTEX
 8
ZYLINDER
 10
0
 20
0
 30
0
 70
128
 71
159
 72
145
 73
144
 74
144
 0
VERTEX
 8
ZYLINDER
 10
0
 20
0
 30
0
 70
128
 71
159
 72
160
 73
146
 74
145
 0
VERTEX
 8
ZYLINDER
 10
0
 20
0
 30
0
 70
128
 71
160
 72
161
 73
147
 74
146
 0
VERTEX
 8
ZYLINDER
 10
0
 20
0
 30
0
 70
128
 71
147
 72
161
 73
162
 74
148
 0
VERTEX
 8
ZYLINDER
 10
0
 20
0
 30
0
 70
128
 71
162
 72
177
 73
165
 74
148
 0
VERTEX
 8
ZYLINDER
 10
0
 20
0
 30
0
 70
128
 71
177
 72
162
 73
36
 74
39
 0
VERTEX
 8
ZYLINDER
 10
0
 20
0
 30
0
 70
128
 71
177
 72
178
 73
165
 74
165
 0
VERTEX
 8
ZYLINDER
 10
0
 20
0
 30
0
 70
128
 71
165
 72
178
 73
179
 74
166
 0
VERTEX
 8
ZYLINDER
 10
0
 20
0
 30
0
 70
128
 71
179
 72
180
 73
167
 74
166
 0
VERTEX
 8
ZYLINDER
 10
0
 20
0
 30
0
 70
128
 71
167
 72
180
 73
181
 74
168
 0
VERTEX
 8
ZYLINDER
 10
0
 20
0
 30
0
 70
128
 71
181
 72
182
 73
195
 74
196
 0
VERTEX
 8
ZYLINDER
 10
0
 20
0
 30
0
 70
128
 71
168
 72
181
 73
196
 74
184
 0
VERTEX
 8
ZYLINDER
 10
0
 20
0
 30
0
 70
128
 71
182
 72
29
 73
28
 74
195
 0
VERTEX
 8
ZYLINDER
 10
0
 20
0
 30
0
 70
128
 71
196
 72
197
 73
185
 74
184
 0
VERTEX
 8
ZYLINDER
 10
0
 20
0
 30
0
 70
128
 71
197
 72
198
 73
186
 74
185
 0
VERTEX
 8
ZYLINDER
 10
0
 20
0
 30
0
 70
128
 71
186
 72
198
 73
199
 74
187
 0
VERTEX
 8
ZYLINDER
 10
0
 20
0
 30
0
 70
128
 71
199
 72
200
 73
188
 74
187
 0
VERTEX
 8
ZYLINDER
 10
0
 20
0
 30
0
 70
128
 71
200
 72
42
 73
4
 74
4
 0
VERTEX
 8
ZYLINDER
 10
0
 20
0
 30
0
 70
128
 71
188
 72
200
 73
4
 74
6
 0
VERTEX
 8
ZYLINDER
 10
0
 20
0
 30
0
 70
128
 71
6
 72
5
 73
113
 74
133
 0
VERTEX
 8
ZYLINDER
 10
0
 20
0
 30
0
 70
128
 71
6
 72
133
 73
134
 74
134
 0
VERTEX
 8
ZYLINDER
 10
0
 20
0
 30
0
 70
128
 71
152
 72
6
 73
134
 74
134
 0
VERTEX
 8
ZYLINDER
 10
0
 20
0
 30
0
 70
128
 71
6
 72
152
 73
153
 74
153
 0
VERTEX
 8
ZYLINDER
 10
0
 20
0
 30
0
 70
128
 71
173
 72
6
 73
153
 74
153
 0
VERTEX
 8
ZYLINDER
 10
0
 20
0
 30
0
 70
128
 71
6
 72
173
 73
174
 74
174
 0
VERTEX
 8
ZYLINDER
 10
0
 20
0
 30
0
 70
128
 71
6
 72
174
 73
191
 74
191
 0
VERTEX
 8
ZYLINDER
 10
0
 20
0
 30
0
 70
128
 71
6
 72
191
 73
192
 74
192
 0
VERTEX
 8
ZYLINDER
 10
0
 20
0
 30
0
 70
128
 71
6
 72
192
 73
193
 74
193
 0
VERTEX
 8
ZYLINDER
 10
0
 20
0
 30
0
 70
128
 71
6
 72
193
 73
194
 74
194
 0
VERTEX
 8
ZYLINDER
 10
0
 20
0
 30
0
 70
128
 71
6
 72
194
 73
188
 74
188
 0
VERTEX
 8
ZYLINDER
 10
0
 20
0
 30
0
 70
128
 71
53
 72
5
 73
3
 74
55
 0
VERTEX
 8
ZYLINDER
 10
0
 20
0
 30
0
 70
128
 71
5
 72
53
 73
43
 74
43
 0
VERTEX
 8
ZYLINDER
 10
0
 20
0
 30
0
 70
128
 71
5
 72
43
 73
54
 74
54
 0
VERTEX
 8
ZYLINDER
 10
0
 20
0
 30
0
 70
128
 71
5
 72
54
 73
45
 74
45
 0
VERTEX
 8
ZYLINDER
 10
0
 20
0
 30
0
 70
128
 71
5
 72
45
 73
47
 74
47
 0
VERTEX
 8
ZYLINDER
 10
0
 20
0
 30
0
 70
128
 71
5
 72
47
 73
58
 74
58
 0
VERTEX
 8
ZYLINDER
 10
0
 20
0
 30
0
 70
128
 71
5
 72
58
 73
51
 74
51
 0
VERTEX
 8
ZYLINDER
 10
0
 20
0
 30
0
 70
128
 71
74
 72
5
 73
51
 74
72
 0
VERTEX
 8
ZYLINDER
 10
0
 20
0
 30
0
 70
128
 71
5
 72
74
 73
73
 74
73
 0
VERTEX
 8
ZYLINDER
 10
0
 20
0
 30
0
 70
128
 71
92
 72
5
 73
73
 74
73
 0
VERTEX
 8
ZYLINDER
 10
0
 20
0
 30
0
 70
128
 71
5
 72
92
 73
93
 74
93
 0
VERTEX
 8
ZYLINDER
 10
0
 20
0
 30
0
 70
128
 71
5
 72
93
 73
112
 74
112
 0
VERTEX
 8
ZYLINDER
 10
0
 20
0
 30
0
 70
128
 71
5
 72
112
 73
113
 74
113
 0
VERTEX
 8
ZYLINDER
 10
0
 20
0
 30
0
 70
128
 71
3
 72
33
 73
55
 74
55
 0
VERTEX
 8
ZYLINDER
 10
0
 20
0
 30
0
 70
128
 71
53
 72
55
 73
49
 74
49
 0
VERTEX
 8
ZYLINDER
 10
0
 20
0
 30
0
 70
128
 71
49
 72
55
 73
57
 74
57
 0
VERTEX
 8
ZYLINDER
 10
0
 20
0
 30
0
 70
128
 71
49
 72
57
 73
59
 74
46
 0
VERTEX
 8
ZYLINDER
 10
0
 20
0
 30
0
 70
128
 71
59
 72
60
 73
56
 74
46
 0
VERTEX
 8
ZYLINDER
 10
0
 20
0
 30
0
 70
128
 71
72
 72
51
 73
52
 74
70
 0
VERTEX
 8
ZYLINDER
 10
0
 20
0
 30
0
 70
128
 71
70
 72
52
 73
50
 74
71
 0
VERTEX
 8
ZYLINDER
 10
0
 20
0
 30
0
 70
128
 71
50
 72
44
 73
64
 74
71
 0
VERTEX
 8
ZYLINDER
 10
0
 20
0
 30
0
 70
128
 71
63
 72
64
 73
44
 74
44
 0
VERTEX
 8
ZYLINDER
 10
0
 20
0
 30
0
 70
128
 71
65
 72
63
 73
44
 74
48
 0
VERTEX
 8
ZYLINDER
 10
0
 20
0
 30
0
 70
128
 71
92
 72
73
 73
91
 74
91
 0
VERTEX
 8
ZYLINDER
 10
0
 20
0
 30
0
 70
128
 71
91
 72
73
 73
75
 74
75
 0
VERTEX
 8
ZYLINDER
 10
0
 20
0
 30
0
 70
128
 71
91
 72
75
 73
90
 74
90
 0
VERTEX
 8
ZYLINDER
 10
0
 20
0
 30
0
 70
128
 71
90
 72
75
 73
76
 74
76
 0
VERTEX
 8
ZYLINDER
 10
0
 20
0
 30
0
 70
128
 71
76
 72
69
 73
83
 74
90
 0
VERTEX
 8
ZYLINDER
 10
0
 20
0
 30
0
 70
128
 71
84
 72
83
 73
69
 74
68
 0
VERTEX
 8
ZYLINDER
 10
0
 20
0
 30
0
 70
128
 71
112
 72
93
 73
94
 74
111
 0
VERTEX
 8
ZYLINDER
 10
0
 20
0
 30
0
 70
128
 71
111
 72
94
 73
95
 74
95
 0
VERTEX
 8
ZYLINDER
 10
0
 20
0
 30
0
 70
128
 71
111
 72
95
 73
96
 74
110
 0
VERTEX
 8
ZYLINDER
 10
0
 20
0
 30
0
 70
128
 71
110
 72
96
 73
89
 74
103
 0
VERTEX
 8
ZYLINDER
 10
0
 20
0
 30
0
 70
128
 71
103
 72
89
 73
88
 74
88
 0
VERTEX
 8
ZYLINDER
 10
0
 20
0
 30
0
 70
128
 71
103
 72
88
 73
104
 74
104
 0
VERTEX
 8
ZYLINDER
 10
0
 20
0
 30
0
 70
128
 71
104
 72
88
 73
87
 74
87
 0
VERTEX
 8
ZYLINDER
 10
0
 20
0
 30
0
 70
128
 71
113
 72
132
 73
133
 74
133
 0
VERTEX
 8
ZYLINDER
 10
0
 20
0
 30
0
 70
128
 71
113
 72
114
 73
132
 74
132
 0
VERTEX
 8
ZYLINDER
 10
0
 20
0
 30
0
 70
128
 71
114
 72
115
 73
130
 74
132
 0
VERTEX
 8
ZYLINDER
 10
0
 20
0
 30
0
 70
128
 71
115
 72
116
 73
130
 74
130
 0
VERTEX
 8
ZYLINDER
 10
0
 20
0
 30
0
 70
128
 71
116
 72
131
 73
130
 74
130
 0
VERTEX
 8
ZYLINDER
 10
0
 20
0
 30
0
 70
128
 71
116
 72
109
 73
124
 74
131
 0
VERTEX
 8
ZYLINDER
 10
0
 20
0
 30
0
 70
128
 71
123
 72
124
 73
109
 74
108
 0
VERTEX
 8
ZYLINDER
 10
0
 20
0
 30
0
 70
128
 71
125
 72
123
 73
108
 74
108
 0
VERTEX
 8
ZYLINDER
 10
0
 20
0
 30
0
 70
128
 71
148
 72
165
 73
163
 74
163
 0
VERTEX
 8
ZYLINDER
 10
0
 20
0
 30
0
 70
128
 71
163
 72
164
 73
149
 74
148
 0
VERTEX
 8
ZYLINDER
 10
0
 20
0
 30
0
 70
128
 71
149
 72
164
 73
171
 74
156
 0
VERTEX
 8
ZYLINDER
 10
0
 20
0
 30
0
 70
128
 71
171
 72
170
 73
156
 74
156
 0
VERTEX
 8
ZYLINDER
 10
0
 20
0
 30
0
 70
128
 71
170
 72
155
 73
156
 74
156
 0
VERTEX
 8
ZYLINDER
 10
0
 20
0
 30
0
 70
128
 71
155
 72
170
 73
172
 74
154
 0
VERTEX
 8
ZYLINDER
 10
0
 20
0
 30
0
 70
128
 71
172
 72
153
 73
154
 74
154
 0
VERTEX
 8
ZYLINDER
 10
0
 20
0
 30
0
 70
128
 71
172
 72
173
 73
153
 74
153
 0
VERTEX
 8
ZYLINDER
 10
0
 20
0
 30
0
 70
128
 71
191
 72
174
 73
175
 74
190
 0
VERTEX
 8
ZYLINDER
 10
0
 20
0
 30
0
 70
128
 71
175
 72
176
 73
189
 74
190
 0
VERTEX
 8
ZYLINDER
 10
0
 20
0
 30
0
 70
128
 71
189
 72
176
 73
169
 74
183
 0
VERTEX
 8
ZYLINDER
 10
0
 20
0
 30
0
 70
128
 71
183
 72
169
 73
168
 74
184
 0
VERTEX
 8
ZYLINDER
 10
0
 20
0
 30
0
 70
128
 71
134
 72
135
 73
152
 74
152
 0
VERTEX
 8
ZYLINDER
 10
0
 20
0
 30
0
 70
128
 71
135
 72
151
 73
152
 74
152
 0
VERTEX
 8
ZYLINDER
 10
0
 20
0
 30
0
 70
128
 71
135
 72
136
 73
151
 74
151
 0
VERTEX
 8
ZYLINDER
 10
0
 20
0
 30
0
 70
128
 71
136
 72
150
 73
151
 74
151
 0
VERTEX
 8
ZYLINDER
 10
0
 20
0
 30
0
 70
128
 71
150
 72
136
 73
129
 74
143
 0
VERTEX
 8
ZYLINDER
 10
0
 20
0
 30
0
 70
128
 71
143
 72
129
 73
128
 74
144
 0
VERTEX
 8
ZYLINDER
 10
0
 20
0
 30
0
 70
128
 71
237
 72
37
 73
41
 74
221
 0
VERTEX
 8
ZYLINDER
 10
0
 20
0
 30
0
 70
128
 71
216
 72
33
 73
3
 74
3
 0
VERTEX
 8
ZYLINDER
 10
0
 20
0
 30
0
 70
128
 71
358
 72
28
 73
29
 74
29
 0
VERTEX
 8
ZYLINDER
 10
0
 20
0
 30
0
 70
128
 71
338
 72
39
 73
36
 74
322
 0
VERTEX
 8
ZYLINDER
 10
0
 20
0
 30
0
 70
128
 71
298
 72
31
 73
40
 74
40
 0
VERTEX
 8
ZYLINDER
 10
0
 20
0
 30
0
 70
128
 71
26
 72
4
 73
42
 74
363
 0
VERTEX
 8
ZYLINDER
 10
0
 20
0
 30
0
 70
128
 71
307
 72
301
 73
300
 74
300
 0
VERTEX
 8
ZYLINDER
 10
0
 20
0
 30
0
 70
128
 71
25
 72
204
 73
203
 74
203
 0
VERTEX
 8
ZYLINDER
 10
0
 20
0
 30
0
 70
128
 71
25
 72
266
 73
265
 74
247
 0
VERTEX
 8
ZYLINDER
 10
0
 20
0
 30
0
 70
128
 71
327
 72
347
 73
346
 74
346
 0
VERTEX
 8
ZYLINDER
 10
0
 20
0
 30
0
 70
128
 71
307
 72
326
 73
325
 74
325
 0
VERTEX
 8
ZYLINDER
 10
0
 20
0
 30
0
 70
128
 71
267
 72
286
 73
285
 74
285
 0
VERTEX
 8
ZYLINDER
 10
0
 20
0
 30
0
 70
128
 71
205
 72
204
 73
25
 74
25
 0
VERTEX
 8
ZYLINDER
 10
0
 20
0
 30
0
 70
128
 71
226
 72
225
 73
25
 74
25
 0
VERTEX
 8
ZYLINDER
 10
0
 20
0
 30
0
 70
128
 71
247
 72
246
 73
25
 74
25
 0
VERTEX
 8
ZYLINDER
 10
0
 20
0
 30
0
 70
128
 71
266
 72
25
 73
267
 74
267
 0
VERTEX
 8
ZYLINDER
 10
0
 20
0
 30
0
 70
128
 71
298
 72
40
 73
282
 74
297
 0
VERTEX
 8
ZYLINDER
 10
0
 20
0
 30
0
 70
128
 71
27
 72
30
 73
303
 74
317
 0
VERTEX
 8
ZYLINDER
 10
0
 20
0
 30
0
 70
128
 71
277
 72
34
 73
38
 74
262
 0
VERTEX
 8
ZYLINDER
 10
0
 20
0
 30
0
 70
128
 71
215
 72
216
 73
3
 74
3
 0
VERTEX
 8
ZYLINDER
 10
0
 20
0
 30
0
 70
128
 71
302
 72
301
 73
306
 74
306
 0
VERTEX
 8
ZYLINDER
 10
0
 20
0
 30
0
 70
128
 71
307
 72
300
 73
299
 74
299
 0
VERTEX
 8
ZYLINDER
 10
0
 20
0
 30
0
 70
128
 71
328
 72
327
 73
346
 74
346
 0
VERTEX
 8
ZYLINDER
 10
0
 20
0
 30
0
 70
128
 71
205
 72
25
 73
225
 74
224
 0
VERTEX
 8
ZYLINDER
 10
0
 20
0
 30
0
 70
128
 71
226
 72
25
 73
246
 74
245
 0
VERTEX
 8
ZYLINDER
 10
0
 20
0
 30
0
 70
128
 71
4
 72
2
 73
6
 74
6
 0
VERTEX
 8
ZYLINDER
 10
0
 20
0
 30
0
 70
128
 71
1
 72
5
 73
7
 74
7
 0
VERTEX
 8
ZYLINDER
 10
0
 20
0
 30
0
 70
128
 71
5
 72
6
 73
8
 74
7
 0
VERTEX
 8
ZYLINDER
 10
0
 20
0
 30
0
 70
128
 71
6
 72
2
 73
8
 74
8
 0
VERTEX
 8
ZYLINDER
 10
0
 20
0
 30
0
 70
128
 71
1
 72
7
 73
9
 74
9
 0
VERTEX
 8
ZYLINDER
 10
0
 20
0
 30
0
 70
128
 71
7
 72
8
 73
10
 74
9
 0
VERTEX
 8
ZYLINDER
 10
0
 20
0
 30
0
 70
128
 71
8
 72
2
 73
10
 74
10
 0
VERTEX
 8
ZYLINDER
 10
0
 20
0
 30
0
 70
128
 71
1
 72
9
 73
11
 74
11
 0
VERTEX
 8
ZYLINDER
 10
0
 20
0
 30
0
 70
128
 71
9
 72
10
 73
12
 74
11
 0
VERTEX
 8
ZYLINDER
 10
0
 20
0
 30
0
 70
128
 71
10
 72
2
 73
12
 74
12
 0
VERTEX
 8
ZYLINDER
 10
0
 20
0
 30
0
 70
128
 71
1
 72
11
 73
13
 74
13
 0
VERTEX
 8
ZYLINDER
 10
0
 20
0
 30
0
 70
128
 71
11
 72
12
 73
14
 74
13
 0
VERTEX
 8
ZYLINDER
 10
0
 20
0
 30
0
 70
128
 71
12
 72
2
 73
14
 74
14
 0
VERTEX
 8
ZYLINDER
 10
0
 20
0
 30
0
 70
128
 71
1
 72
13
 73
15
 74
15
 0
VERTEX
 8
ZYLINDER
 10
0
 20
0
 30
0
 70
128
 71
13
 72
14
 73
16
 74
15
 0
VERTEX
 8
ZYLINDER
 10
0
 20
0
 30
0
 70
128
 71
14
 72
2
 73
16
 74
16
 0
VERTEX
 8
ZYLINDER
 10
0
 20
0
 30
0
 70
128
 71
1
 72
15
 73
17
 74
17
 0
VERTEX
 8
ZYLINDER
 10
0
 20
0
 30
0
 70
128
 71
15
 72
16
 73
18
 74
17
 0
VERTEX
 8
ZYLINDER
 10
0
 20
0
 30
0
 70
128
 71
16
 72
2
 73
18
 74
18
 0
VERTEX
 8
ZYLINDER
 10
0
 20
0
 30
0
 70
128
 71
1
 72
17
 73
19
 74
19
 0
VERTEX
 8
ZYLINDER
 10
0
 20
0
 30
0
 70
128
 71
17
 72
18
 73
20
 74
19
 0
VERTEX
 8
ZYLINDER
 10
0
 20
0
 30
0
 70
128
 71
18
 72
2
 73
20
 74
20
 0
VERTEX
 8
ZYLINDER
 10
0
 20
0
 30
0
 70
128
 71
1
 72
19
 73
21
 74
21
 0
VERTEX
 8
ZYLINDER
 10
0
 20
0
 30
0
 70
128
 71
19
 72
20
 73
22
 74
21
 0
VERTEX
 8
ZYLINDER
 10
0
 20
0
 30
0
 70
128
 71
20
 72
2
 73
22
 74
22
 0
VERTEX
 8
ZYLINDER
 10
0
 20
0
 30
0
 70
128
 71
1
 72
21
 73
23
 74
23
 0
VERTEX
 8
ZYLINDER
 10
0
 20
0
 30
0
 70
128
 71
21
 72
22
 73
24
 74
23
 0
VERTEX
 8
ZYLINDER
 10
0
 20
0
 30
0
 70
128
 71
22
 72
2
 73
24
 74
24
 0
VERTEX
 8
ZYLINDER
 10
0
 20
0
 30
0
 70
128
 71
1
 72
23
 73
25
 74
25
 0
VERTEX
 8
ZYLINDER
 10
0
 20
0
 30
0
 70
128
 71
23
 72
24
 73
26
 74
25
 0
VERTEX
 8
ZYLINDER
 10
0
 20
0
 30
0
 70
128
 71
24
 72
2
 73
26
 74
26
 0
VERTEX
 8
ZYLINDER
 10
0
 20
0
 30
0
 70
128
 71
1
 72
25
 73
3
 74
3
 0
VERTEX
 8
ZYLINDER
 10
0
 20
0
 30
0
 70
128
 71
236
 72
237
 73
221
 74
221
 0
VERTEX
 8
ZYLINDER
 10
0
 20
0
 30
0
 70
128
 71
358
 72
29
 73
343
 74
343
 0
VERTEX
 8
ZYLINDER
 10
0
 20
0
 30
0
 70
128
 71
338
 72
322
 73
337
 74
337
 0
VERTEX
 8
ZYLINDER
 10
0
 20
0
 30
0
 70
128
 71
217
 72
215
 73
3
 74
3
 0
VERTEX
 8
ZYLINDER
 10
0
 20
0
 30
0
 70
128
 71
286
 72
267
 73
25
 74
26
 0
VERTEX
 8
ZYLINDER
 10
0
 20
0
 30
0
 70
128
 71
26
 72
363
 73
362
 74
362
 0
VERTEX
 8
ZYLINDER
 10
0
 20
0
 30
0
 70
128
 71
329
 72
328
 73
346
 74
346
 0
VERTEX
 8
ZYLINDER
 10
0
 20
0
 30
0
 70
128
 71
307
 72
325
 73
323
 74
323
 0
VERTEX
 8
ZYLINDER
 10
0
 20
0
 30
0
 70
128
 71
267
 72
285
 73
283
 74
283
 0
VERTEX
 8
ZYLINDER
 10
0
 20
0
 30
0
 70
128
 71
303
 72
302
 73
306
 74
306
 0
VERTEX
 8
ZYLINDER
 10
0
 20
0
 30
0
 70
128
 71
3
 72
25
 73
203
 74
203
 0
VERTEX
 8
ZYLINDER
 10
0
 20
0
 30
0
 70
128
 71
287
 72
286
 73
26
 74
26
 0
VERTEX
 8
ZYLINDER
 10
0
 20
0
 30
0
 70
128
 71
330
 72
329
 73
346
 74
346
 0
VERTEX
 8
ZYLINDER
 10
0
 20
0
 30
0
 70
128
 71
226
 72
245
 73
243
 74
243
 0
VERTEX
 8
ZYLINDER
 10
0
 20
0
 30
0
 70
128
 71
247
 72
265
 73
263
 74
263
 0
VERTEX
 8
ZYLINDER
 10
0
 20
0
 30
0
 70
128
 71
205
 72
224
 73
222
 74
222
 0
VERTEX
 8
ZYLINDER
 10
0
 20
0
 30
0
 70
128
 71
299
 72
297
 73
282
 74
282
 0
VERTEX
 8
ZYLINDER
 10
0
 20
0
 30
0
 70
128
 71
318
 72
317
 73
303
 74
306
 0
VERTEX
 8
ZYLINDER
 10
0
 20
0
 30
0
 70
128
 71
359
 72
358
 73
343
 74
343
 0
VERTEX
 8
ZYLINDER
 10
0
 20
0
 30
0
 70
128
 71
337
 72
322
 73
339
 74
339
 0
VERTEX
 8
ZYLINDER
 10
0
 20
0
 30
0
 70
128
 71
257
 72
242
 73
241
 74
258
 0
VERTEX
 8
ZYLINDER
 10
0
 20
0
 30
0
 70
128
 71
3
 72
203
 73
201
 74
201
 0
VERTEX
 8
ZYLINDER
 10
0
 20
0
 30
0
 70
128
 71
226
 72
243
 73
244
 74
244
 0
VERTEX
 8
ZYLINDER
 10
0
 20
0
 30
0
 70
128
 71
247
 72
263
 73
264
 74
264
 0
VERTEX
 8
ZYLINDER
 10
0
 20
0
 30
0
 70
128
 71
205
 72
222
 73
223
 74
223
 0
VERTEX
 8
ZYLINDER
 10
0
 20
0
 30
0
 70
128
 71
278
 72
277
 73
262
 74
262
 0
VERTEX
 8
ZYLINDER
 10
0
 20
0
 30
0
 70
128
 71
238
 72
236
 73
221
 74
220
 0
VERTEX
 8
ZYLINDER
 10
0
 20
0
 30
0
 70
128
 71
3
 72
201
 73
202
 74
202
 0
VERTEX
 8
ZYLINDER
 10
0
 20
0
 30
0
 70
128
 71
26
 72
362
 73
361
 74
361
 0
VERTEX
 8
ZYLINDER
 10
0
 20
0
 30
0
 70
128
 71
218
 72
217
 73
212
 74
212
 0
VERTEX
 8
ZYLINDER
 10
0
 20
0
 30
0
 70
128
 71
267
 72
283
 73
284
 74
284
 0
VERTEX
 8
ZYLINDER
 10
0
 20
0
 30
0
 70
128
 71
307
 72
323
 73
324
 74
324
 0
VERTEX
 8
ZYLINDER
 10
0
 20
0
 30
0
 70
128
 71
267
 72
284
 73
291
 74
291
 0
VERTEX
 8
ZYLINDER
 10
0
 20
0
 30
0
 70
128
 71
307
 72
324
 73
331
 74
331
 0
VERTEX
 8
ZYLINDER
 10
0
 20
0
 30
0
 70
128
 71
336
 72
330
 73
346
 74
346
 0
VERTEX
 8
ZYLINDER
 10
0
 20
0
 30
0
 70
128
 71
3
 72
202
 73
209
 74
209
 0
VERTEX
 8
ZYLINDER
 10
0
 20
0
 30
0
 70
128
 71
359
 72
343
 73
342
 74
342
 0
VERTEX
 8
ZYLINDER
 10
0
 20
0
 30
0
 70
128
 71
205
 72
223
 73
230
 74
230
 0
VERTEX
 8
ZYLINDER
 10
0
 20
0
 30
0
 70
128
 71
247
 72
264
 73
271
 74
271
 0
VERTEX
 8
ZYLINDER
 10
0
 20
0
 30
0
 70
128
 71
226
 72
244
 73
251
 74
251
 0
VERTEX
 8
ZYLINDER
 10
0
 20
0
 30
0
 70
128
 71
278
 72
262
 73
261
 74
261
 0
VERTEX
 8
ZYLINDER
 10
0
 20
0
 30
0
 70
128
 71
339
 72
322
 73
321
 74
321
 0
VERTEX
 8
ZYLINDER
 10
0
 20
0
 30
0
 70
128
 71
299
 72
282
 73
281
 74
281
 0
VERTEX
 8
ZYLINDER
 10
0
 20
0
 30
0
 70
128
 71
26
 72
361
 73
360
 74
360
 0
VERTEX
 8
ZYLINDER
 10
0
 20
0
 30
0
 70
128
 71
319
 72
318
 73
306
 74
306
 0
VERTEX
 8
ZYLINDER
 10
0
 20
0
 30
0
 70
128
 71
3
 72
209
 73
210
 74
210
 0
VERTEX
 8
ZYLINDER
 10
0
 20
0
 30
0
 70
128
 71
267
 72
291
 73
292
 74
292
 0
VERTEX
 8
ZYLINDER
 10
0
 20
0
 30
0
 70
128
 71
307
 72
331
 73
332
 74
332
 0
VERTEX
 8
ZYLINDER
 10
0
 20
0
 30
0
 70
128
 71
278
 72
261
 73
260
 74
260
 0
VERTEX
 8
ZYLINDER
 10
0
 20
0
 30
0
 70
128
 71
238
 72
220
 73
219
 74
219
 0
VERTEX
 8
ZYLINDER
 10
0
 20
0
 30
0
 70
128
 71
339
 72
321
 73
320
 74
320
 0
VERTEX
 8
ZYLINDER
 10
0
 20
0
 30
0
 70
128
 71
258
 72
241
 73
240
 74
240
 0
VERTEX
 8
ZYLINDER
 10
0
 20
0
 30
0
 70
128
 71
299
 72
281
 73
280
 74
280
 0
VERTEX
 8
ZYLINDER
 10
0
 20
0
 30
0
 70
128
 71
26
 72
360
 73
359
 74
359
 0
VERTEX
 8
ZYLINDER
 10
0
 20
0
 30
0
 70
128
 71
205
 72
230
 73
231
 74
231
 0
VERTEX
 8
ZYLINDER
 10
0
 20
0
 30
0
 70
128
 71
247
 72
271
 73
272
 74
272
 0
VERTEX
 8
ZYLINDER
 10
0
 20
0
 30
0
 70
128
 71
226
 72
251
 73
252
 74
252
 0
VERTEX
 8
ZYLINDER
 10
0
 20
0
 30
0
 70
128
 71
267
 72
292
 73
268
 74
268
 0
VERTEX
 8
ZYLINDER
 10
0
 20
0
 30
0
 70
128
 71
3
 72
210
 73
211
 74
211
 0
VERTEX
 8
ZYLINDER
 10
0
 20
0
 30
0
 70
128
 71
26
 72
359
 73
342
 74
341
 0
VERTEX
 8
ZYLINDER
 10
0
 20
0
 30
0
 70
128
 71
308
 72
307
 73
332
 74
332
 0
VERTEX
 8
ZYLINDER
 10
0
 20
0
 30
0
 70
128
 71
278
 72
260
 73
279
 74
279
 0
VERTEX
 8
ZYLINDER
 10
0
 20
0
 30
0
 70
128
 71
258
 72
240
 73
259
 74
259
 0
VERTEX
 8
ZYLINDER
 10
0
 20
0
 30
0
 70
128
 71
269
 72
268
 73
292
 74
292
 0
VERTEX
 8
ZYLINDER
 10
0
 20
0
 30
0
 70
128
 71
309
 72
308
 73
332
 74
332
 0
VERTEX
 8
ZYLINDER
 10
0
 20
0
 30
0
 70
128
 71
239
 72
238
 73
219
 74
219
 0
VERTEX
 8
ZYLINDER
 10
0
 20
0
 30
0
 70
128
 71
340
 72
339
 73
320
 74
320
 0
VERTEX
 8
ZYLINDER
 10
0
 20
0
 30
0
 70
128
 71
226
 72
252
 73
253
 74
227
 0
VERTEX
 8
ZYLINDER
 10
0
 20
0
 30
0
 70
128
 71
336
 72
346
 73
344
 74
344
 0
VERTEX
 8
ZYLINDER
 10
0
 20
0
 30
0
 70
128
 71
26
 72
341
 73
340
 74
340
 0
VERTEX
 8
ZYLINDER
 10
0
 20
0
 30
0
 70
128
 71
3
 72
211
 73
212
 74
217
 0
VERTEX
 8
ZYLINDER
 10
0
 20
0
 30
0
 70
128
 71
206
 72
205
 73
231
 74
232
 0
VERTEX
 8
ZYLINDER
 10
0
 20
0
 30
0
 70
128
 71
248
 72
247
 73
272
 74
273
 0
VERTEX
 8
ZYLINDER
 10
0
 20
0
 30
0
 70
128
 71
340
 72
320
 73
26
 74
26
 0
VERTEX
 8
ZYLINDER
 10
0
 20
0
 30
0
 70
128
 71
270
 72
269
 73
292
 74
292
 0
VERTEX
 8
ZYLINDER
 10
0
 20
0
 30
0
 70
128
 71
310
 72
309
 73
332
 74
332
 0
VERTEX
 8
ZYLINDER
 10
0
 20
0
 30
0
 70
128
 71
336
 72
344
 73
345
 74
335
 0
VERTEX
 8
ZYLINDER
 10
0
 20
0
 30
0
 70
128
 71
249
 72
248
 73
273
 74
273
 0
VERTEX
 8
ZYLINDER
 10
0
 20
0
 30
0
 70
128
 71
26
 72
320
 73
319
 74
306
 0
VERTEX
 8
ZYLINDER
 10
0
 20
0
 30
0
 70
128
 71
219
 72
218
 73
212
 74
212
 0
VERTEX
 8
ZYLINDER
 10
0
 20
0
 30
0
 70
128
 71
276
 72
270
 73
292
 74
292
 0
VERTEX
 8
ZYLINDER
 10
0
 20
0
 30
0
 70
128
 71
316
 72
310
 73
332
 74
332
 0
VERTEX
 8
ZYLINDER
 10
0
 20
0
 30
0
 70
128
 71
335
 72
345
 73
352
 74
352
 0
VERTEX
 8
ZYLINDER
 10
0
 20
0
 30
0
 70
128
 71
207
 72
206
 73
232
 74
232
 0
VERTEX
 8
ZYLINDER
 10
0
 20
0
 30
0
 70
128
 71
228
 72
227
 73
253
 74
253
 0
VERTEX
 8
ZYLINDER
 10
0
 20
0
 30
0
 70
128
 71
239
 72
219
 73
212
 74
212
 0
VERTEX
 8
ZYLINDER
 10
0
 20
0
 30
0
 70
128
 71
208
 72
207
 73
232
 74
232
 0
VERTEX
 8
ZYLINDER
 10
0
 20
0
 30
0
 70
128
 71
250
 72
249
 73
273
 74
273
 0
VERTEX
 8
ZYLINDER
 10
0
 20
0
 30
0
 70
128
 71
229
 72
228
 73
253
 74
253
 0
VERTEX
 8
ZYLINDER
 10
0
 20
0
 30
0
 70
128
 71
214
 72
208
 73
232
 74
232
 0
VERTEX
 8
ZYLINDER
 10
0
 20
0
 30
0
 70
128
 71
256
 72
250
 73
273
 74
273
 0
VERTEX
 8
ZYLINDER
 10
0
 20
0
 30
0
 70
128
 71
235
 72
229
 73
253
 74
253
 0
VERTEX
 8
ZYLINDER
 10
0
 20
0
 30
0
 70
128
 71
279
 72
239
 73
212
 74
212
 0
VERTEX
 8
ZYLINDER
 10
0
 20
0
 30
0
 70
128
 71
335
 72
352
 73
353
 74
353
 0
VERTEX
 8
ZYLINDER
 10
0
 20
0
 30
0
 70
128
 71
315
 72
316
 73
332
 74
332
 0
VERTEX
 8
ZYLINDER
 10
0
 20
0
 30
0
 70
128
 71
275
 72
276
 73
292
 74
292
 0
VERTEX
 8
ZYLINDER
 10
0
 20
0
 30
0
 70
128
 71
279
 72
212
 73
213
 74
213
 0
VERTEX
 8
ZYLINDER
 10
0
 20
0
 30
0
 70
128
 71
234
 72
235
 73
253
 74
253
 0
VERTEX
 8
ZYLINDER
 10
0
 20
0
 30
0
 70
128
 71
213
 72
214
 73
232
 74
280
 0
VERTEX
 8
ZYLINDER
 10
0
 20
0
 30
0
 70
128
 71
275
 72
292
 73
293
 74
293
 0
VERTEX
 8
ZYLINDER
 10
0
 20
0
 30
0
 70
128
 71
255
 72
256
 73
273
 74
273
 0
VERTEX
 8
ZYLINDER
 10
0
 20
0
 30
0
 70
128
 71
334
 72
335
 73
353
 74
354
 0
VERTEX
 8
ZYLINDER
 10
0
 20
0
 30
0
 70
128
 71
280
 72
279
 73
213
 74
213
 0
VERTEX
 8
ZYLINDER
 10
0
 20
0
 30
0
 70
128
 71
233
 72
234
 73
253
 74
253
 0
VERTEX
 8
ZYLINDER
 10
0
 20
0
 30
0
 70
128
 71
314
 72
315
 73
299
 74
299
 0
VERTEX
 8
ZYLINDER
 10
0
 20
0
 30
0
 70
128
 71
275
 72
293
 73
274
 74
274
 0
VERTEX
 8
ZYLINDER
 10
0
 20
0
 30
0
 70
128
 71
257
 72
32
 73
35
 74
242
 0
VERTEX
 8
ZYLINDER
 10
0
 20
0
 30
0
 70
128
 71
332
 72
333
 73
299
 74
315
 0
VERTEX
 8
ZYLINDER
 10
0
 20
0
 30
0
 70
128
 71
280
 72
232
 73
299
 74
299
 0
VERTEX
 8
ZYLINDER
 10
0
 20
0
 30
0
 70
128
 71
299
 72
232
 73
233
 74
233
 0
VERTEX
 8
ZYLINDER
 10
0
 20
0
 30
0
 70
128
 71
233
 72
253
 73
299
 74
299
 0
VERTEX
 8
ZYLINDER
 10
0
 20
0
 30
0
 70
128
 71
254
 72
255
 73
273
 74
273
 0
VERTEX
 8
ZYLINDER
 10
0
 20
0
 30
0
 70
128
 71
334
 72
354
 73
299
 74
299
 0
VERTEX
 8
ZYLINDER
 10
0
 20
0
 30
0
 70
128
 71
313
 72
314
 73
299
 74
299
 0
VERTEX
 8
ZYLINDER
 10
0
 20
0
 30
0
 70
128
 71
253
 72
254
 73
299
 74
299
 0
VERTEX
 8
ZYLINDER
 10
0
 20
0
 30
0
 70
128
 71
273
 72
293
 73
299
 74
299
 0
VERTEX
 8
ZYLINDER
 10
0
 20
0
 30
0
 70
128
 71
299
 72
254
 73
273
 74
273
 0
VERTEX
 8
ZYLINDER
 10
0
 20
0
 30
0
 70
128
 71
299
 72
293
 73
294
 74
294
 0
VERTEX
 8
ZYLINDER
 10
0
 20
0
 30
0
 70
128
 71
299
 72
294
 73
295
 74
295
 0
VERTEX
 8
ZYLINDER
 10
0
 20
0
 30
0
 70
128
 71
299
 72
295
 73
296
 74
296
 0
VERTEX
 8
ZYLINDER
 10
0
 20
0
 30
0
 70
128
 71
296
 72
290
 73
289
 74
289
 0
VERTEX
 8
ZYLINDER
 10
0
 20
0
 30
0
 70
128
 71
296
 72
289
 73
288
 74
288
 0
VERTEX
 8
ZYLINDER
 10
0
 20
0
 30
0
 70
128
 71
296
 72
288
 73
287
 74
287
 0
VERTEX
 8
ZYLINDER
 10
0
 20
0
 30
0
 70
128
 71
296
 72
287
 73
26
 74
26
 0
VERTEX
 8
ZYLINDER
 10
0
 20
0
 30
0
 70
128
 71
296
 72
26
 73
306
 74
306
 0
VERTEX
 8
ZYLINDER
 10
0
 20
0
 30
0
 70
128
 71
26
 72
2
 73
4
 74
4
 0
VERTEX
 8
ZYLINDER
 10
0
 20
0
 30
0
 70
128
 71
299
 72
296
 73
306
 74
304
 0
VERTEX
 8
ZYLINDER
 10
0
 20
0
 30
0
 70
128
 71
299
 72
304
 73
305
 74
305
 0
VERTEX
 8
ZYLINDER
 10
0
 20
0
 30
0
 70
128
 71
299
 72
305
 73
311
 74
311
 0
VERTEX
 8
ZYLINDER
 10
0
 20
0
 30
0
 70
128
 71
299
 72
311
 73
312
 74
312
 0
VERTEX
 8
ZYLINDER
 10
0
 20
0
 30
0
 70
128
 71
299
 72
312
 73
313
 74
313
 0
VERTEX
 8
ZYLINDER
 10
0
 20
0
 30
0
 70
128
 71
299
 72
333
 73
334
 74
334
 0
VERTEX
 8
ZYLINDER
 10
0
 20
0
 30
0
 70
128
 71
299
 72
354
 73
355
 74
355
 0
VERTEX
 8
ZYLINDER
 10
0
 20
0
 30
0
 70
128
 71
355
 72
356
 73
357
 74
357
 0
VERTEX
 8
ZYLINDER
 10
0
 20
0
 30
0
 70
128
 71
355
 72
357
 73
351
 74
351
 0
VERTEX
 8
ZYLINDER
 10
0
 20
0
 30
0
 70
128
 71
355
 72
351
 73
350
 74
349
 0
VERTEX
 8
ZYLINDER
 10
0
 20
0
 30
0
 70
128
 71
355
 72
349
 73
348
 74
348
 0
VERTEX
 8
ZYLINDER
 10
0
 20
0
 30
0
 70
128
 71
355
 72
348
 73
347
 74
299
 0
VERTEX
 8
ZYLINDER
 10
0
 20
0
 30
0
 70
128
 71
347
 72
307
 73
299
 74
299
 0
SEQEND
 0
POLYLINE
 8
KEGEL
 66
1
 10
0.0
 20
0.0
 30
0.0
 70
64
 71
26
 72
36
 0
VERTEX
 8
KEGEL
 10
2.2061
 20
0.8115
 30
27.6439
 70
192
 0
VERTEX
 8
KEGEL
 10
2.2061
 20
0.8115
 30
28.4439
 70
192
 0
VERTEX
 8
KEGEL
 10
2.2061
 20
0.4515
 30
27.6439
 70
192
 0
VERTEX
 8
KEGEL
 10
2.2061
 20
0.3715
 30
28.4439
 70
192
 0
VERTEX
 8
KEGEL
 10
2.3861
 20
0.4997
 30
27.6439
 70
192
 0
VERTEX
 8
KEGEL
 10
2.4261
 20
0.4304
 30
28.4439
 70
192
 0
VERTEX
 8
KEGEL
 10
2.5178
 20
0.6315
 30
27.6439
 70
192
 0
VERTEX
 8
KEGEL
 10
2.5871
 20
0.5915
 30
28.4439
 70
192
 0
VERTEX
 8
KEGEL
 10
2.5661
 20
0.8115
 30
27.6439
 70
192
 0
VERTEX
 8
KEGEL
 10
2.6461
 20
0.8115
 30
28.4439
 70
192
 0
VERTEX
 8
KEGEL
 10
2.5178
 20
0.9915
 30
27.6439
 70
192
 0
VERTEX
 8
KEGEL
 10
2.5871
 20
1.0315
 30
28.4439
 70
192
 0
VERTEX
 8
KEGEL
 10
2.3861
 20
1.1233
 30
27.6439
 70
192
 0
VERTEX
 8
KEGEL
 10
2.4261
 20
1.1925
 30
28.4439
 70
192
 0
VERTEX
 8
KEGEL
 10
2.2061
 20
1.1715
 30
27.6439
 70
192
 0
VERTEX
 8
KEGEL
 10
2.2061
 20
1.2515
 30
28.4439
 70
192
 0
VERTEX
 8
KEGEL
 10
2.0261
 20
1.1233
 30
27.6439
 70
192
 0
VERTEX
 8
KEGEL
 10
1.9861
 20
1.1925
 30
28.4439
 70
192
 0
VERTEX
 8
KEGEL
 10
1.8943
 20
0.9915
 30
27.6439
 70
192
 0
VERTEX
 8
KEGEL
 10
1.825
 20
1.0315
 30
28.4439
 70
192
 0
VERTEX
 8
KEGEL
 10
1.8461
 20
0.8115
 30
27.6439
 70
192
 0
VERTEX
 8
KEGEL
 10
1.7661
 20
0.8115
 30
28.4439
 70
192
 0
VERTEX
 8
KEGEL
 10
1.8943
 20
0.6315
 30
27.6439
 70
192
 0
VERTEX
 8
KEGEL
 10
1.825
 20
0.5915
 30
28.4439
 70
192
 0
VERTEX
 8
KEGEL
 10
2.0261
 20
0.4997
 30
27.6439
 70
192
 0
VERTEX
 8
KEGEL
 10
1.9861
 20
0.4304
 30
28.4439
 70
192
 0
VERTEX
 8
KEGEL
 10
0
 20
0
 30
0
 70
128
 71
1
 72
3
 73
5
 74
5
 0
VERTEX
 8
KEGEL
 10
0
 20
0
 30
0
 70
128
 71
3
 72
4
 73
6
 74
5
 0
VERTEX
 8
KEGEL
 10
0
 20
0
 30
0
 70
128
 71
4
 72
2
 73
6
 74
6
 0
VERTEX
 8
KEGEL
 10
0
 20
0
 30
0
 70
128
 71
1
 72
5
 73
7
 74
7
 0
VERTEX
 8
KEGEL
 10
0
 20
0
 30
0
 70
128
 71
5
 72
6
 73
8
 74
7
 0
VERTEX
 8
KEGEL
 10
0
 20
0
 30
0
 70
128
 71
6
 72
2
 73
8
 74
8
 0
VERTEX
 8
KEGEL
 10
0
 20
0
 30
0
 70
128
 71
1
 72
7
 73
9
 74
9
 0
VERTEX
 8
KEGEL
 10
0
 20
0
 30
0
 70
128
 71
7
 72
8
 73
10
 74
9
 0
VERTEX
 8
KEGEL
 10
0
 20
0
 30
0
 70
128
 71
8
 72
2
 73
10
 74
10
 0
VERTEX
 8
KEGEL
 10
0
 20
0
 30
0
 70
128
 71
1
 72
9
 73
11
 74
11
 0
VERTEX
 8
KEGEL
 10
0
 20
0
 30
0
 70
128
 71
9
 72
10
 73
12
 74
11
 0
VERTEX
 8
KEGEL
 10
0
 20
0
 30
0
 70
128
 71
10
 72
2
 73
12
 74
12
 0
VERTEX
 8
KEGEL
 10
0
 20
0
 30
0
 70
128
 71
1
 72
11
 73
13
 74
13
 0
VERTEX
 8
KEGEL
 10
0
 20
0
 30
0
 70
128
 71
11
 72
12
 73
14
 74
13
 0
VERTEX
 8
KEGEL
 10
0
 20
0
 30
0
 70
128
 71
12
 72
2
 73
14
 74
14
 0
VERTEX
 8
KEGEL
 10
0
 20
0
 30
0
 70
128
 71
1
 72
13
 73
15
 74
15
 0
VERTEX
 8
KEGEL
 10
0
 20
0
 30
0
 70
128
 71
13
 72
14
 73
16
 74
15
 0
VERTEX
 8
KEGEL
 10
0
 20
0
 30
0
 70
128
 71
14
 72
2
 73
16
 74
16
 0
VERTEX
 8
KEGEL
 10
0
 20
0
 30
0
 70
128
 71
1
 72
15
 73
17
 74
17
 0
VERTEX
 8
KEGEL
 10
0
 20
0
 30
0
 70
128
 71
15
 72
16
 73
18
 74
17
 0
VERTEX
 8
KEGEL
 10
0
 20
0
 30
0
 70
128
 71
16
 72
2
 73
18
 74
18
 0
VERTEX
 8
KEGEL
 10
0
 20
0
 30
0
 70
128
 71
1
 72
17
 73
19
 74
19
 0
VERTEX
 8
KEGEL
 10
0
 20
0
 30
0
 70
128
 71
17
 72
18
 73
20
 74
19
 0
VERTEX
 8
KEGEL
 10
0
 20
0
 30
0
 70
128
 71
18
 72
2
 73
20
 74
20
 0
VERTEX
 8
KEGEL
 10
0
 20
0
 30
0
 70
128
 71
1
 72
19
 73
21
 74
21
 0
VERTEX
 8
KEGEL
 10
0
 20
0
 30
0
 70
128
 71
19
 72
20
 73
22
 74
21
 0
VERTEX
 8
KEGEL
 10
0
 20
0
 30
0
 70
128
 71
20
 72
2
 73
22
 74
22
 0
VERTEX
 8
KEGEL
 10
0
 20
0
 30
0
 70
128
 71
1
 72
21
 73
23
 74
23
 0
VERTEX
 8
KEGEL
 10
0
 20
0
 30
0
 70
128
 71
21
 72
22
 73
24
 74
23
 0
VERTEX
 8
KEGEL
 10
0
 20
0
 30
0
 70
128
 71
22
 72
2
 73
24
 74
24
 0
VERTEX
 8
KEGEL
 10
0
 20
0
 30
0
 70
128
 71
1
 72
23
 73
25
 74
25
 0
VERTEX
 8
KEGEL
 10
0
 20
0
 30
0
 70
128
 71
23
 72
24
 73
26
 74
25
 0
VERTEX
 8
KEGEL
 10
0
 20
0
 30
0
 70
128
 71
24
 72
2
 73
26
 74
26
 0
VERTEX
 8
KEGEL
 10
0
 20
0
 30
0
 70
128
 71
1
 72
25
 73
3
 74
3
 0
VERTEX
 8
KEGEL
 10
0
 20
0
 30
0
 70
128
 71
25
 72
26
 73
4
 74
3
 0
VERTEX
 8
KEGEL
 10
0
 20
0
 30
0
 70
128
 71
26
 72
2
 73
4
 74
4
 0
SEQEND
 0
ENDSEC
 0
EOF
