 0
SECTION
 2
HEADER
 9
$ACADVER
 1
AC1009
 0
ENDSEC
 0
SECTION
 2
TABLES
 0
TABLE
 2
LTYPE
 70
1
 0
LTYPE
 2
CONTINUOUS
 70
64
 3
solid line
 72
65
 73
0
 40
0.0
 0
ENDTAB
 0
TABLE
 2
LAYER
 70
6
 0
LAYER
 2
0
 70
0
 62
7
 6
CONTINUOUS
 0
LAYER
 2
120_1500_M
 70
64
 62
7
 6
CONTINUOUS
 0
LAYER
 2
R_HRE
 70
64
 62
253
 6
CONTINUOUS
 0
LAYER
 2
PELATOR
 70
64
 62
250
 6
CONTINUOUS
 0
LAYER
 2
AUSLAUF
 70
64
 62
250
 6
CONTINUOUS
 0
LAYER
 2
ZYLINDER
 70
64
 62
250
 6
CONTINUOUS
 0
LAYER
 2
K_RPER_1
 70
64
 62
250
 6
CONTINUOUS
 0
LAYER
 2
ROSETTE_1
 70
64
 62
250
 6
CONTINUOUS
 0
LAYER
 2
GRIFFHEBEL
 70
64
 62
250
 6
CONTINUOUS
 0
LAYER
 2
GRIFF-W_RFEL
 70
64
 62
250
 6
CONTINUOUS
 0
LAYER
 2
KARTUSCHE
 70
64
 62
250
 6
CONTINUOUS
 0
LAYER
 2
GRIFFK_RPER
 70
64
 62
250
 6
CONTINUOUS
 0
ENDTAB
 0
ENDSEC
 0
SECTION
 2
BLOCKS
 0
ENDSEC
 0
SECTION
 2
ENTITIES
 0
POLYLINE
 8
R_HRE
 66
1
 10
0.0
 20
0.0
 30
0.0
 70
64
 71
80
 72
30
 0
VERTEX
 8
R_HRE
 10
-0.1529
 20
-13.9889
 30
25.6151
 70
192
 0
VERTEX
 8
R_HRE
 10
-1.1029
 20
-13.9889
 30
25.6151
 70
192
 0
VERTEX
 8
R_HRE
 10
-1.1029
 20
-13.9889
 30
25.6151
 70
192
 0
VERTEX
 8
R_HRE
 10
-1.1029
 20
-13.9889
 30
26.1151
 70
192
 0
VERTEX
 8
R_HRE
 10
-1.1029
 20
-13.9889
 30
26.1151
 70
192
 0
VERTEX
 8
R_HRE
 10
-0.1529
 20
-13.9889
 30
26.1151
 70
192
 0
VERTEX
 8
R_HRE
 10
-0.1529
 20
-13.9889
 30
26.1151
 70
192
 0
VERTEX
 8
R_HRE
 10
-0.1529
 20
-13.9889
 30
25.6151
 70
192
 0
VERTEX
 8
R_HRE
 10
-0.1529
 20
-13.9889
 30
25.6151
 70
192
 0
VERTEX
 8
R_HRE
 10
-0.9215
 20
-14.5472
 30
25.6151
 70
192
 0
VERTEX
 8
R_HRE
 10
-0.9215
 20
-14.5472
 30
25.6151
 70
192
 0
VERTEX
 8
R_HRE
 10
-0.9215
 20
-14.5472
 30
26.1151
 70
192
 0
VERTEX
 8
R_HRE
 10
-0.9215
 20
-14.5472
 30
26.1151
 70
192
 0
VERTEX
 8
R_HRE
 10
-0.1529
 20
-13.9889
 30
26.1151
 70
192
 0
VERTEX
 8
R_HRE
 10
-0.1529
 20
-13.9889
 30
26.1151
 70
192
 0
VERTEX
 8
R_HRE
 10
-0.1529
 20
-13.9889
 30
25.6151
 70
192
 0
VERTEX
 8
R_HRE
 10
-0.1529
 20
-13.9889
 30
25.6151
 70
192
 0
VERTEX
 8
R_HRE
 10
-0.4465
 20
-14.8924
 30
25.6151
 70
192
 0
VERTEX
 8
R_HRE
 10
-0.4465
 20
-14.8924
 30
25.6151
 70
192
 0
VERTEX
 8
R_HRE
 10
-0.4465
 20
-14.8924
 30
26.1151
 70
192
 0
VERTEX
 8
R_HRE
 10
-0.4465
 20
-14.8924
 30
26.1151
 70
192
 0
VERTEX
 8
R_HRE
 10
-0.1529
 20
-13.9889
 30
26.1151
 70
192
 0
VERTEX
 8
R_HRE
 10
-0.1529
 20
-13.9889
 30
26.1151
 70
192
 0
VERTEX
 8
R_HRE
 10
-0.1529
 20
-13.9889
 30
25.6151
 70
192
 0
VERTEX
 8
R_HRE
 10
-0.1529
 20
-13.9889
 30
25.6151
 70
192
 0
VERTEX
 8
R_HRE
 10
0.1406
 20
-14.8924
 30
25.6151
 70
192
 0
VERTEX
 8
R_HRE
 10
0.1406
 20
-14.8924
 30
25.6151
 70
192
 0
VERTEX
 8
R_HRE
 10
0.1406
 20
-14.8924
 30
26.1151
 70
192
 0
VERTEX
 8
R_HRE
 10
0.1406
 20
-14.8924
 30
26.1151
 70
192
 0
VERTEX
 8
R_HRE
 10
-0.1529
 20
-13.9889
 30
26.1151
 70
192
 0
VERTEX
 8
R_HRE
 10
-0.1529
 20
-13.9889
 30
26.1151
 70
192
 0
VERTEX
 8
R_HRE
 10
-0.1529
 20
-13.9889
 30
25.6151
 70
192
 0
VERTEX
 8
R_HRE
 10
-0.1529
 20
-13.9889
 30
25.6151
 70
192
 0
VERTEX
 8
R_HRE
 10
0.6156
 20
-14.5472
 30
25.6151
 70
192
 0
VERTEX
 8
R_HRE
 10
0.6156
 20
-14.5472
 30
25.6151
 70
192
 0
VERTEX
 8
R_HRE
 10
0.6156
 20
-14.5472
 30
26.1151
 70
192
 0
VERTEX
 8
R_HRE
 10
0.6156
 20
-14.5472
 30
26.1151
 70
192
 0
VERTEX
 8
R_HRE
 10
-0.1529
 20
-13.9889
 30
26.1151
 70
192
 0
VERTEX
 8
R_HRE
 10
-0.1529
 20
-13.9889
 30
26.1151
 70
192
 0
VERTEX
 8
R_HRE
 10
-0.1529
 20
-13.9889
 30
25.6151
 70
192
 0
VERTEX
 8
R_HRE
 10
-0.1529
 20
-13.9889
 30
25.6151
 70
192
 0
VERTEX
 8
R_HRE
 10
0.7971
 20
-13.9889
 30
25.6151
 70
192
 0
VERTEX
 8
R_HRE
 10
0.7971
 20
-13.9889
 30
25.6151
 70
192
 0
VERTEX
 8
R_HRE
 10
0.7971
 20
-13.9889
 30
26.1151
 70
192
 0
VERTEX
 8
R_HRE
 10
0.7971
 20
-13.9889
 30
26.1151
 70
192
 0
VERTEX
 8
R_HRE
 10
-0.1529
 20
-13.9889
 30
26.1151
 70
192
 0
VERTEX
 8
R_HRE
 10
-0.1529
 20
-13.9889
 30
26.1151
 70
192
 0
VERTEX
 8
R_HRE
 10
-0.1529
 20
-13.9889
 30
25.6151
 70
192
 0
VERTEX
 8
R_HRE
 10
-0.1529
 20
-13.9889
 30
25.6151
 70
192
 0
VERTEX
 8
R_HRE
 10
0.6156
 20
-13.4305
 30
25.6151
 70
192
 0
VERTEX
 8
R_HRE
 10
0.6156
 20
-13.4305
 30
25.6151
 70
192
 0
VERTEX
 8
R_HRE
 10
0.6156
 20
-13.4305
 30
26.1151
 70
192
 0
VERTEX
 8
R_HRE
 10
0.6156
 20
-13.4305
 30
26.1151
 70
192
 0
VERTEX
 8
R_HRE
 10
-0.1529
 20
-13.9889
 30
26.1151
 70
192
 0
VERTEX
 8
R_HRE
 10
-0.1529
 20
-13.9889
 30
26.1151
 70
192
 0
VERTEX
 8
R_HRE
 10
-0.1529
 20
-13.9889
 30
25.6151
 70
192
 0
VERTEX
 8
R_HRE
 10
-0.1529
 20
-13.9889
 30
25.6151
 70
192
 0
VERTEX
 8
R_HRE
 10
0.1406
 20
-13.0853
 30
25.6151
 70
192
 0
VERTEX
 8
R_HRE
 10
0.1406
 20
-13.0853
 30
25.6151
 70
192
 0
VERTEX
 8
R_HRE
 10
0.1406
 20
-13.0853
 30
26.1151
 70
192
 0
VERTEX
 8
R_HRE
 10
0.1406
 20
-13.0853
 30
26.1151
 70
192
 0
VERTEX
 8
R_HRE
 10
-0.1529
 20
-13.9889
 30
26.1151
 70
192
 0
VERTEX
 8
R_HRE
 10
-0.1529
 20
-13.9889
 30
26.1151
 70
192
 0
VERTEX
 8
R_HRE
 10
-0.1529
 20
-13.9889
 30
25.6151
 70
192
 0
VERTEX
 8
R_HRE
 10
-0.1529
 20
-13.9889
 30
25.6151
 70
192
 0
VERTEX
 8
R_HRE
 10
-0.4465
 20
-13.0853
 30
25.6151
 70
192
 0
VERTEX
 8
R_HRE
 10
-0.4465
 20
-13.0853
 30
25.6151
 70
192
 0
VERTEX
 8
R_HRE
 10
-0.4465
 20
-13.0853
 30
26.1151
 70
192
 0
VERTEX
 8
R_HRE
 10
-0.4465
 20
-13.0853
 30
26.1151
 70
192
 0
VERTEX
 8
R_HRE
 10
-0.1529
 20
-13.9889
 30
26.1151
 70
192
 0
VERTEX
 8
R_HRE
 10
-0.1529
 20
-13.9889
 30
26.1151
 70
192
 0
VERTEX
 8
R_HRE
 10
-0.1529
 20
-13.9889
 30
25.6151
 70
192
 0
VERTEX
 8
R_HRE
 10
-0.1529
 20
-13.9889
 30
25.6151
 70
192
 0
VERTEX
 8
R_HRE
 10
-0.9215
 20
-13.4305
 30
25.6151
 70
192
 0
VERTEX
 8
R_HRE
 10
-0.9215
 20
-13.4305
 30
25.6151
 70
192
 0
VERTEX
 8
R_HRE
 10
-0.9215
 20
-13.4305
 30
26.1151
 70
192
 0
VERTEX
 8
R_HRE
 10
-0.9215
 20
-13.4305
 30
26.1151
 70
192
 0
VERTEX
 8
R_HRE
 10
-0.1529
 20
-13.9889
 30
26.1151
 70
192
 0
VERTEX
 8
R_HRE
 10
-0.1529
 20
-13.9889
 30
26.1151
 70
192
 0
VERTEX
 8
R_HRE
 10
-0.1529
 20
-13.9889
 30
25.6151
 70
192
 0
VERTEX
 8
R_HRE
 10
0
 20
0
 30
0
 70
128
 71
1
 72
2
 73
10
 74
10
 0
VERTEX
 8
R_HRE
 10
0
 20
0
 30
0
 70
128
 71
3
 72
4
 73
12
 74
11
 0
VERTEX
 8
R_HRE
 10
0
 20
0
 30
0
 70
128
 71
5
 72
14
 73
13
 74
13
 0
VERTEX
 8
R_HRE
 10
0
 20
0
 30
0
 70
128
 71
9
 72
10
 73
18
 74
18
 0
VERTEX
 8
R_HRE
 10
0
 20
0
 30
0
 70
128
 71
11
 72
12
 73
20
 74
19
 0
VERTEX
 8
R_HRE
 10
0
 20
0
 30
0
 70
128
 71
13
 72
22
 73
21
 74
21
 0
VERTEX
 8
R_HRE
 10
0
 20
0
 30
0
 70
128
 71
17
 72
18
 73
26
 74
26
 0
VERTEX
 8
R_HRE
 10
0
 20
0
 30
0
 70
128
 71
19
 72
20
 73
28
 74
27
 0
VERTEX
 8
R_HRE
 10
0
 20
0
 30
0
 70
128
 71
21
 72
30
 73
29
 74
29
 0
VERTEX
 8
R_HRE
 10
0
 20
0
 30
0
 70
128
 71
25
 72
26
 73
34
 74
34
 0
VERTEX
 8
R_HRE
 10
0
 20
0
 30
0
 70
128
 71
27
 72
28
 73
36
 74
35
 0
VERTEX
 8
R_HRE
 10
0
 20
0
 30
0
 70
128
 71
29
 72
38
 73
37
 74
37
 0
VERTEX
 8
R_HRE
 10
0
 20
0
 30
0
 70
128
 71
33
 72
34
 73
42
 74
42
 0
VERTEX
 8
R_HRE
 10
0
 20
0
 30
0
 70
128
 71
35
 72
36
 73
44
 74
43
 0
VERTEX
 8
R_HRE
 10
0
 20
0
 30
0
 70
128
 71
37
 72
46
 73
45
 74
45
 0
VERTEX
 8
R_HRE
 10
0
 20
0
 30
0
 70
128
 71
41
 72
42
 73
50
 74
50
 0
VERTEX
 8
R_HRE
 10
0
 20
0
 30
0
 70
128
 71
43
 72
44
 73
52
 74
51
 0
VERTEX
 8
R_HRE
 10
0
 20
0
 30
0
 70
128
 71
45
 72
54
 73
53
 74
53
 0
VERTEX
 8
R_HRE
 10
0
 20
0
 30
0
 70
128
 71
49
 72
50
 73
58
 74
58
 0
VERTEX
 8
R_HRE
 10
0
 20
0
 30
0
 70
128
 71
51
 72
52
 73
60
 74
59
 0
VERTEX
 8
R_HRE
 10
0
 20
0
 30
0
 70
128
 71
53
 72
62
 73
61
 74
61
 0
VERTEX
 8
R_HRE
 10
0
 20
0
 30
0
 70
128
 71
57
 72
58
 73
66
 74
66
 0
VERTEX
 8
R_HRE
 10
0
 20
0
 30
0
 70
128
 71
59
 72
60
 73
68
 74
67
 0
VERTEX
 8
R_HRE
 10
0
 20
0
 30
0
 70
128
 71
61
 72
70
 73
69
 74
69
 0
VERTEX
 8
R_HRE
 10
0
 20
0
 30
0
 70
128
 71
65
 72
66
 73
74
 74
74
 0
VERTEX
 8
R_HRE
 10
0
 20
0
 30
0
 70
128
 71
67
 72
68
 73
76
 74
75
 0
VERTEX
 8
R_HRE
 10
0
 20
0
 30
0
 70
128
 71
69
 72
78
 73
77
 74
77
 0
VERTEX
 8
R_HRE
 10
0
 20
0
 30
0
 70
128
 71
73
 72
74
 73
2
 74
2
 0
VERTEX
 8
R_HRE
 10
0
 20
0
 30
0
 70
128
 71
75
 72
76
 73
4
 74
3
 0
VERTEX
 8
R_HRE
 10
0
 20
0
 30
0
 70
128
 71
77
 72
6
 73
5
 74
5
 0
SEQEND
 0
POLYLINE
 8
PELATOR
 66
1
 10
0.0
 20
0.0
 30
0.0
 70
64
 71
80
 72
40
 0
VERTEX
 8
PELATOR
 10
-0.9466
 20
-13.9905
 30
25.5999
 70
192
 0
VERTEX
 8
PELATOR
 10
-1.1466
 20
-13.9905
 30
25.5999
 70
192
 0
VERTEX
 8
PELATOR
 10
-1.1466
 20
-13.9905
 30
25.5999
 70
192
 0
VERTEX
 8
PELATOR
 10
-1.1466
 20
-13.9905
 30
26.5999
 70
192
 0
VERTEX
 8
PELATOR
 10
-1.1466
 20
-13.9905
 30
26.5999
 70
192
 0
VERTEX
 8
PELATOR
 10
-0.9466
 20
-13.9905
 30
26.5999
 70
192
 0
VERTEX
 8
PELATOR
 10
-0.9466
 20
-13.9905
 30
26.5999
 70
192
 0
VERTEX
 8
PELATOR
 10
-0.9466
 20
-13.9905
 30
25.5999
 70
192
 0
VERTEX
 8
PELATOR
 10
-0.7938
 20
-14.4607
 30
25.5999
 70
192
 0
VERTEX
 8
PELATOR
 10
-0.9557
 20
-14.5783
 30
25.5999
 70
192
 0
VERTEX
 8
PELATOR
 10
-0.9557
 20
-14.5783
 30
25.5999
 70
192
 0
VERTEX
 8
PELATOR
 10
-0.9557
 20
-14.5783
 30
26.5999
 70
192
 0
VERTEX
 8
PELATOR
 10
-0.9557
 20
-14.5783
 30
26.5999
 70
192
 0
VERTEX
 8
PELATOR
 10
-0.7938
 20
-14.4607
 30
26.5999
 70
192
 0
VERTEX
 8
PELATOR
 10
-0.7938
 20
-14.4607
 30
26.5999
 70
192
 0
VERTEX
 8
PELATOR
 10
-0.7938
 20
-14.4607
 30
25.5999
 70
192
 0
VERTEX
 8
PELATOR
 10
-0.3938
 20
-14.7514
 30
25.5999
 70
192
 0
VERTEX
 8
PELATOR
 10
-0.4557
 20
-14.9416
 30
25.5999
 70
192
 0
VERTEX
 8
PELATOR
 10
-0.4557
 20
-14.9416
 30
25.5999
 70
192
 0
VERTEX
 8
PELATOR
 10
-0.4557
 20
-14.9416
 30
26.5999
 70
192
 0
VERTEX
 8
PELATOR
 10
-0.4557
 20
-14.9416
 30
26.5999
 70
192
 0
VERTEX
 8
PELATOR
 10
-0.3938
 20
-14.7514
 30
26.5999
 70
192
 0
VERTEX
 8
PELATOR
 10
-0.3938
 20
-14.7514
 30
26.5999
 70
192
 0
VERTEX
 8
PELATOR
 10
-0.3938
 20
-14.7514
 30
25.5999
 70
192
 0
VERTEX
 8
PELATOR
 10
0.1006
 20
-14.7514
 30
25.5999
 70
192
 0
VERTEX
 8
PELATOR
 10
0.1624
 20
-14.9416
 30
25.5999
 70
192
 0
VERTEX
 8
PELATOR
 10
0.1624
 20
-14.9416
 30
25.5999
 70
192
 0
VERTEX
 8
PELATOR
 10
0.1624
 20
-14.9416
 30
26.5999
 70
192
 0
VERTEX
 8
PELATOR
 10
0.1624
 20
-14.9416
 30
26.5999
 70
192
 0
VERTEX
 8
PELATOR
 10
0.1006
 20
-14.7514
 30
26.5999
 70
192
 0
VERTEX
 8
PELATOR
 10
0.1006
 20
-14.7514
 30
26.5999
 70
192
 0
VERTEX
 8
PELATOR
 10
0.1006
 20
-14.7514
 30
25.5999
 70
192
 0
VERTEX
 8
PELATOR
 10
0.5006
 20
-14.4607
 30
25.5999
 70
192
 0
VERTEX
 8
PELATOR
 10
0.6624
 20
-14.5783
 30
25.5999
 70
192
 0
VERTEX
 8
PELATOR
 10
0.6624
 20
-14.5783
 30
25.5999
 70
192
 0
VERTEX
 8
PELATOR
 10
0.6624
 20
-14.5783
 30
26.5999
 70
192
 0
VERTEX
 8
PELATOR
 10
0.6624
 20
-14.5783
 30
26.5999
 70
192
 0
VERTEX
 8
PELATOR
 10
0.5006
 20
-14.4607
 30
26.5999
 70
192
 0
VERTEX
 8
PELATOR
 10
0.5006
 20
-14.4607
 30
26.5999
 70
192
 0
VERTEX
 8
PELATOR
 10
0.5006
 20
-14.4607
 30
25.5999
 70
192
 0
VERTEX
 8
PELATOR
 10
0.6534
 20
-13.9905
 30
25.5999
 70
192
 0
VERTEX
 8
PELATOR
 10
0.8534
 20
-13.9905
 30
25.5999
 70
192
 0
VERTEX
 8
PELATOR
 10
0.8534
 20
-13.9905
 30
25.5999
 70
192
 0
VERTEX
 8
PELATOR
 10
0.8534
 20
-13.9905
 30
26.5999
 70
192
 0
VERTEX
 8
PELATOR
 10
0.8534
 20
-13.9905
 30
26.5999
 70
192
 0
VERTEX
 8
PELATOR
 10
0.6534
 20
-13.9905
 30
26.5999
 70
192
 0
VERTEX
 8
PELATOR
 10
0.6534
 20
-13.9905
 30
26.5999
 70
192
 0
VERTEX
 8
PELATOR
 10
0.6534
 20
-13.9905
 30
25.5999
 70
192
 0
VERTEX
 8
PELATOR
 10
0.5006
 20
-13.5203
 30
25.5999
 70
192
 0
VERTEX
 8
PELATOR
 10
0.6624
 20
-13.4027
 30
25.5999
 70
192
 0
VERTEX
 8
PELATOR
 10
0.6624
 20
-13.4027
 30
25.5999
 70
192
 0
VERTEX
 8
PELATOR
 10
0.6624
 20
-13.4027
 30
26.5999
 70
192
 0
VERTEX
 8
PELATOR
 10
0.6624
 20
-13.4027
 30
26.5999
 70
192
 0
VERTEX
 8
PELATOR
 10
0.5006
 20
-13.5203
 30
26.5999
 70
192
 0
VERTEX
 8
PELATOR
 10
0.5006
 20
-13.5203
 30
26.5999
 70
192
 0
VERTEX
 8
PELATOR
 10
0.5006
 20
-13.5203
 30
25.5999
 70
192
 0
VERTEX
 8
PELATOR
 10
0.1006
 20
-13.2297
 30
25.5999
 70
192
 0
VERTEX
 8
PELATOR
 10
0.1624
 20
-13.0395
 30
25.5999
 70
192
 0
VERTEX
 8
PELATOR
 10
0.1624
 20
-13.0395
 30
25.5999
 70
192
 0
VERTEX
 8
PELATOR
 10
0.1624
 20
-13.0395
 30
26.5999
 70
192
 0
VERTEX
 8
PELATOR
 10
0.1624
 20
-13.0395
 30
26.5999
 70
192
 0
VERTEX
 8
PELATOR
 10
0.1006
 20
-13.2297
 30
26.5999
 70
192
 0
VERTEX
 8
PELATOR
 10
0.1006
 20
-13.2297
 30
26.5999
 70
192
 0
VERTEX
 8
PELATOR
 10
0.1006
 20
-13.2297
 30
25.5999
 70
192
 0
VERTEX
 8
PELATOR
 10
-0.3938
 20
-13.2297
 30
25.5999
 70
192
 0
VERTEX
 8
PELATOR
 10
-0.4557
 20
-13.0395
 30
25.5999
 70
192
 0
VERTEX
 8
PELATOR
 10
-0.4557
 20
-13.0395
 30
25.5999
 70
192
 0
VERTEX
 8
PELATOR
 10
-0.4557
 20
-13.0395
 30
26.5999
 70
192
 0
VERTEX
 8
PELATOR
 10
-0.4557
 20
-13.0395
 30
26.5999
 70
192
 0
VERTEX
 8
PELATOR
 10
-0.3938
 20
-13.2297
 30
26.5999
 70
192
 0
VERTEX
 8
PELATOR
 10
-0.3938
 20
-13.2297
 30
26.5999
 70
192
 0
VERTEX
 8
PELATOR
 10
-0.3938
 20
-13.2297
 30
25.5999
 70
192
 0
VERTEX
 8
PELATOR
 10
-0.7938
 20
-13.5203
 30
25.5999
 70
192
 0
VERTEX
 8
PELATOR
 10
-0.9557
 20
-13.4027
 30
25.5999
 70
192
 0
VERTEX
 8
PELATOR
 10
-0.9557
 20
-13.4027
 30
25.5999
 70
192
 0
VERTEX
 8
PELATOR
 10
-0.9557
 20
-13.4027
 30
26.5999
 70
192
 0
VERTEX
 8
PELATOR
 10
-0.9557
 20
-13.4027
 30
26.5999
 70
192
 0
VERTEX
 8
PELATOR
 10
-0.7938
 20
-13.5203
 30
26.5999
 70
192
 0
VERTEX
 8
PELATOR
 10
-0.7938
 20
-13.5203
 30
26.5999
 70
192
 0
VERTEX
 8
PELATOR
 10
-0.7938
 20
-13.5203
 30
25.5999
 70
192
 0
VERTEX
 8
PELATOR
 10
0
 20
0
 30
0
 70
128
 71
1
 72
2
 73
10
 74
9
 0
VERTEX
 8
PELATOR
 10
0
 20
0
 30
0
 70
128
 71
3
 72
4
 73
12
 74
11
 0
VERTEX
 8
PELATOR
 10
0
 20
0
 30
0
 70
128
 71
5
 72
6
 73
14
 74
13
 0
VERTEX
 8
PELATOR
 10
0
 20
0
 30
0
 70
128
 71
7
 72
8
 73
16
 74
15
 0
VERTEX
 8
PELATOR
 10
0
 20
0
 30
0
 70
128
 71
9
 72
10
 73
18
 74
17
 0
VERTEX
 8
PELATOR
 10
0
 20
0
 30
0
 70
128
 71
11
 72
12
 73
20
 74
19
 0
VERTEX
 8
PELATOR
 10
0
 20
0
 30
0
 70
128
 71
13
 72
14
 73
22
 74
21
 0
VERTEX
 8
PELATOR
 10
0
 20
0
 30
0
 70
128
 71
15
 72
16
 73
24
 74
23
 0
VERTEX
 8
PELATOR
 10
0
 20
0
 30
0
 70
128
 71
17
 72
18
 73
26
 74
25
 0
VERTEX
 8
PELATOR
 10
0
 20
0
 30
0
 70
128
 71
19
 72
20
 73
28
 74
27
 0
VERTEX
 8
PELATOR
 10
0
 20
0
 30
0
 70
128
 71
21
 72
22
 73
30
 74
29
 0
VERTEX
 8
PELATOR
 10
0
 20
0
 30
0
 70
128
 71
23
 72
24
 73
32
 74
31
 0
VERTEX
 8
PELATOR
 10
0
 20
0
 30
0
 70
128
 71
25
 72
26
 73
34
 74
33
 0
VERTEX
 8
PELATOR
 10
0
 20
0
 30
0
 70
128
 71
27
 72
28
 73
36
 74
35
 0
VERTEX
 8
PELATOR
 10
0
 20
0
 30
0
 70
128
 71
29
 72
30
 73
38
 74
37
 0
VERTEX
 8
PELATOR
 10
0
 20
0
 30
0
 70
128
 71
31
 72
32
 73
40
 74
39
 0
VERTEX
 8
PELATOR
 10
0
 20
0
 30
0
 70
128
 71
33
 72
34
 73
42
 74
41
 0
VERTEX
 8
PELATOR
 10
0
 20
0
 30
0
 70
128
 71
35
 72
36
 73
44
 74
43
 0
VERTEX
 8
PELATOR
 10
0
 20
0
 30
0
 70
128
 71
37
 72
38
 73
46
 74
45
 0
VERTEX
 8
PELATOR
 10
0
 20
0
 30
0
 70
128
 71
39
 72
40
 73
48
 74
47
 0
VERTEX
 8
PELATOR
 10
0
 20
0
 30
0
 70
128
 71
41
 72
42
 73
50
 74
49
 0
VERTEX
 8
PELATOR
 10
0
 20
0
 30
0
 70
128
 71
43
 72
44
 73
52
 74
51
 0
VERTEX
 8
PELATOR
 10
0
 20
0
 30
0
 70
128
 71
45
 72
46
 73
54
 74
53
 0
VERTEX
 8
PELATOR
 10
0
 20
0
 30
0
 70
128
 71
47
 72
48
 73
56
 74
55
 0
VERTEX
 8
PELATOR
 10
0
 20
0
 30
0
 70
128
 71
49
 72
50
 73
58
 74
57
 0
VERTEX
 8
PELATOR
 10
0
 20
0
 30
0
 70
128
 71
51
 72
52
 73
60
 74
59
 0
VERTEX
 8
PELATOR
 10
0
 20
0
 30
0
 70
128
 71
53
 72
54
 73
62
 74
61
 0
VERTEX
 8
PELATOR
 10
0
 20
0
 30
0
 70
128
 71
55
 72
56
 73
64
 74
63
 0
VERTEX
 8
PELATOR
 10
0
 20
0
 30
0
 70
128
 71
57
 72
58
 73
66
 74
65
 0
VERTEX
 8
PELATOR
 10
0
 20
0
 30
0
 70
128
 71
59
 72
60
 73
68
 74
67
 0
VERTEX
 8
PELATOR
 10
0
 20
0
 30
0
 70
128
 71
61
 72
62
 73
70
 74
69
 0
VERTEX
 8
PELATOR
 10
0
 20
0
 30
0
 70
128
 71
63
 72
64
 73
72
 74
71
 0
VERTEX
 8
PELATOR
 10
0
 20
0
 30
0
 70
128
 71
65
 72
66
 73
74
 74
73
 0
VERTEX
 8
PELATOR
 10
0
 20
0
 30
0
 70
128
 71
67
 72
68
 73
76
 74
75
 0
VERTEX
 8
PELATOR
 10
0
 20
0
 30
0
 70
128
 71
69
 72
70
 73
78
 74
77
 0
VERTEX
 8
PELATOR
 10
0
 20
0
 30
0
 70
128
 71
71
 72
72
 73
80
 74
79
 0
VERTEX
 8
PELATOR
 10
0
 20
0
 30
0
 70
128
 71
73
 72
74
 73
2
 74
1
 0
VERTEX
 8
PELATOR
 10
0
 20
0
 30
0
 70
128
 71
75
 72
76
 73
4
 74
3
 0
VERTEX
 8
PELATOR
 10
0
 20
0
 30
0
 70
128
 71
77
 72
78
 73
6
 74
5
 0
VERTEX
 8
PELATOR
 10
0
 20
0
 30
0
 70
128
 71
79
 72
80
 73
8
 74
7
 0
SEQEND
 0
POLYLINE
 8
AUSLAUF
 66
1
 10
0.0
 20
0.0
 30
0.0
 70
64
 71
32
 72
29
 0
VERTEX
 8
AUSLAUF
 10
-1.5095
 20
0.7208
 30
13.3187
 70
192
 0
VERTEX
 8
AUSLAUF
 10
-1.5095
 20
0.7197
 30
23.0285
 70
192
 0
VERTEX
 8
AUSLAUF
 10
-1.5095
 20
0.3559
 30
24.7995
 70
192
 0
VERTEX
 8
AUSLAUF
 10
-1.5095
 20
-0.6139
 30
26.3253
 70
192
 0
VERTEX
 8
AUSLAUF
 10
-1.5095
 20
-2.0631
 30
27.4065
 70
192
 0
VERTEX
 8
AUSLAUF
 10
-1.5095
 20
-3.8019
 30
27.9016
 70
192
 0
VERTEX
 8
AUSLAUF
 10
-1.5095
 20
-5.0469
 30
27.9244
 70
192
 0
VERTEX
 8
AUSLAUF
 10
1.1905
 20
-0.7792
 30
13.3187
 70
192
 0
VERTEX
 8
AUSLAUF
 10
1.1905
 20
0.7208
 30
13.3187
 70
192
 0
VERTEX
 8
AUSLAUF
 10
1.1905
 20
0.7197
 30
23.0285
 70
192
 0
VERTEX
 8
AUSLAUF
 10
1.1905
 20
0.3559
 30
24.7995
 70
192
 0
VERTEX
 8
AUSLAUF
 10
1.1905
 20
-0.6139
 30
26.3253
 70
192
 0
VERTEX
 8
AUSLAUF
 10
1.1905
 20
-2.0631
 30
27.4065
 70
192
 0
VERTEX
 8
AUSLAUF
 10
1.1905
 20
-3.8019
 30
27.9016
 70
192
 0
VERTEX
 8
AUSLAUF
 10
1.1905
 20
-5.0469
 30
27.9244
 70
192
 0
VERTEX
 8
AUSLAUF
 10
-1.5095
 20
-5.0469
 30
26.4244
 70
192
 0
VERTEX
 8
AUSLAUF
 10
-1.5095
 20
-15.4636
 30
26.4244
 70
192
 0
VERTEX
 8
AUSLAUF
 10
1.1905
 20
-0.78
 30
22.9973
 70
192
 0
VERTEX
 8
AUSLAUF
 10
1.1905
 20
-1.0346
 30
24.237
 70
192
 0
VERTEX
 8
AUSLAUF
 10
1.1905
 20
-1.7135
 30
25.3051
 70
192
 0
VERTEX
 8
AUSLAUF
 10
1.1905
 20
-2.7279
 30
26.0619
 70
192
 0
VERTEX
 8
AUSLAUF
 10
1.1905
 20
-3.9451
 30
26.4084
 70
192
 0
VERTEX
 8
AUSLAUF
 10
1.1905
 20
-5.0469
 30
26.4244
 70
192
 0
VERTEX
 8
AUSLAUF
 10
1.1905
 20
-15.4636
 30
26.4244
 70
192
 0
VERTEX
 8
AUSLAUF
 10
1.1905
 20
-15.4636
 30
27.9244
 70
192
 0
VERTEX
 8
AUSLAUF
 10
-1.5095
 20
-15.4636
 30
27.9244
 70
192
 0
VERTEX
 8
AUSLAUF
 10
-1.5095
 20
-0.7792
 30
13.3187
 70
192
 0
VERTEX
 8
AUSLAUF
 10
-1.5095
 20
-0.78
 30
22.9973
 70
192
 0
VERTEX
 8
AUSLAUF
 10
-1.5095
 20
-1.0346
 30
24.237
 70
192
 0
VERTEX
 8
AUSLAUF
 10
-1.5095
 20
-1.7135
 30
25.3051
 70
192
 0
VERTEX
 8
AUSLAUF
 10
-1.5095
 20
-2.7279
 30
26.0619
 70
192
 0
VERTEX
 8
AUSLAUF
 10
-1.5095
 20
-3.9451
 30
26.4084
 70
192
 0
VERTEX
 8
AUSLAUF
 10
0
 20
0
 30
0
 70
128
 71
1
 72
2
 73
28
 74
27
 0
VERTEX
 8
AUSLAUF
 10
0
 20
0
 30
0
 70
128
 71
2
 72
3
 73
29
 74
28
 0
VERTEX
 8
AUSLAUF
 10
0
 20
0
 30
0
 70
128
 71
3
 72
4
 73
30
 74
29
 0
VERTEX
 8
AUSLAUF
 10
0
 20
0
 30
0
 70
128
 71
4
 72
5
 73
31
 74
30
 0
VERTEX
 8
AUSLAUF
 10
0
 20
0
 30
0
 70
128
 71
5
 72
6
 73
32
 74
31
 0
VERTEX
 8
AUSLAUF
 10
0
 20
0
 30
0
 70
128
 71
6
 72
7
 73
16
 74
32
 0
VERTEX
 8
AUSLAUF
 10
0
 20
0
 30
0
 70
128
 71
8
 72
18
 73
10
 74
9
 0
VERTEX
 8
AUSLAUF
 10
0
 20
0
 30
0
 70
128
 71
18
 72
19
 73
11
 74
10
 0
VERTEX
 8
AUSLAUF
 10
0
 20
0
 30
0
 70
128
 71
9
 72
10
 73
2
 74
1
 0
VERTEX
 8
AUSLAUF
 10
0
 20
0
 30
0
 70
128
 71
10
 72
11
 73
3
 74
2
 0
VERTEX
 8
AUSLAUF
 10
0
 20
0
 30
0
 70
128
 71
11
 72
12
 73
4
 74
3
 0
VERTEX
 8
AUSLAUF
 10
0
 20
0
 30
0
 70
128
 71
12
 72
13
 73
5
 74
4
 0
VERTEX
 8
AUSLAUF
 10
0
 20
0
 30
0
 70
128
 71
13
 72
14
 73
6
 74
5
 0
VERTEX
 8
AUSLAUF
 10
0
 20
0
 30
0
 70
128
 71
14
 72
15
 73
7
 74
6
 0
VERTEX
 8
AUSLAUF
 10
0
 20
0
 30
0
 70
128
 71
29
 72
30
 73
20
 74
19
 0
VERTEX
 8
AUSLAUF
 10
0
 20
0
 30
0
 70
128
 71
30
 72
31
 73
21
 74
20
 0
VERTEX
 8
AUSLAUF
 10
0
 20
0
 30
0
 70
128
 71
31
 72
32
 73
22
 74
21
 0
VERTEX
 8
AUSLAUF
 10
0
 20
0
 30
0
 70
128
 71
32
 72
16
 73
23
 74
22
 0
VERTEX
 8
AUSLAUF
 10
0
 20
0
 30
0
 70
128
 71
19
 72
20
 73
12
 74
11
 0
VERTEX
 8
AUSLAUF
 10
0
 20
0
 30
0
 70
128
 71
20
 72
21
 73
13
 74
12
 0
VERTEX
 8
AUSLAUF
 10
0
 20
0
 30
0
 70
128
 71
21
 72
22
 73
14
 74
13
 0
VERTEX
 8
AUSLAUF
 10
0
 20
0
 30
0
 70
128
 71
22
 72
23
 73
15
 74
14
 0
VERTEX
 8
AUSLAUF
 10
0
 20
0
 30
0
 70
128
 71
25
 72
24
 73
17
 74
26
 0
VERTEX
 8
AUSLAUF
 10
0
 20
0
 30
0
 70
128
 71
27
 72
28
 73
18
 74
8
 0
VERTEX
 8
AUSLAUF
 10
0
 20
0
 30
0
 70
128
 71
28
 72
29
 73
19
 74
18
 0
VERTEX
 8
AUSLAUF
 10
0
 20
0
 30
0
 70
128
 71
26
 72
17
 73
16
 74
7
 0
VERTEX
 8
AUSLAUF
 10
0
 20
0
 30
0
 70
128
 71
7
 72
15
 73
25
 74
26
 0
VERTEX
 8
AUSLAUF
 10
0
 20
0
 30
0
 70
128
 71
17
 72
24
 73
23
 74
16
 0
VERTEX
 8
AUSLAUF
 10
0
 20
0
 30
0
 70
128
 71
15
 72
23
 73
24
 74
25
 0
SEQEND
 0
POLYLINE
 8
ZYLINDER
 66
1
 10
0.0
 20
0.0
 30
0.0
 70
64
 71
61
 72
30
 0
VERTEX
 8
ZYLINDER
 10
-1.6904
 20
0.681
 30
13.6401
 70
192
 0
VERTEX
 8
ZYLINDER
 10
-0.1557
 20
-0.0024
 30
13.6401
 70
192
 0
VERTEX
 8
ZYLINDER
 10
-1.8357
 20
-0.0024
 30
13.1401
 70
192
 0
VERTEX
 8
ZYLINDER
 10
-1.8357
 20
-0.0024
 30
13.1401
 70
192
 0
VERTEX
 8
ZYLINDER
 10
-1.8357
 20
-0.0024
 30
13.6401
 70
192
 0
VERTEX
 8
ZYLINDER
 10
-1.8357
 20
-0.0024
 30
13.6401
 70
192
 0
VERTEX
 8
ZYLINDER
 10
-1.6904
 20
-0.6857
 30
13.1401
 70
192
 0
VERTEX
 8
ZYLINDER
 10
-1.6904
 20
-0.6857
 30
13.1401
 70
192
 0
VERTEX
 8
ZYLINDER
 10
-1.6904
 20
-0.6857
 30
13.6401
 70
192
 0
VERTEX
 8
ZYLINDER
 10
-1.6904
 20
-0.6857
 30
13.6401
 70
192
 0
VERTEX
 8
ZYLINDER
 10
-1.2798
 20
-1.2508
 30
13.1401
 70
192
 0
VERTEX
 8
ZYLINDER
 10
-1.2798
 20
-1.2508
 30
13.1401
 70
192
 0
VERTEX
 8
ZYLINDER
 10
-1.2798
 20
-1.2508
 30
13.6401
 70
192
 0
VERTEX
 8
ZYLINDER
 10
-1.2798
 20
-1.2508
 30
13.6401
 70
192
 0
VERTEX
 8
ZYLINDER
 10
-0.6748
 20
-1.6001
 30
13.1401
 70
192
 0
VERTEX
 8
ZYLINDER
 10
-0.6748
 20
-1.6001
 30
13.1401
 70
192
 0
VERTEX
 8
ZYLINDER
 10
-0.6748
 20
-1.6001
 30
13.6401
 70
192
 0
VERTEX
 8
ZYLINDER
 10
-0.6748
 20
-1.6001
 30
13.6401
 70
192
 0
VERTEX
 8
ZYLINDER
 10
0.0199
 20
-1.6732
 30
13.1401
 70
192
 0
VERTEX
 8
ZYLINDER
 10
0.0199
 20
-1.6732
 30
13.1401
 70
192
 0
VERTEX
 8
ZYLINDER
 10
0.0199
 20
-1.6732
 30
13.6401
 70
192
 0
VERTEX
 8
ZYLINDER
 10
0.0199
 20
-1.6732
 30
13.6401
 70
192
 0
VERTEX
 8
ZYLINDER
 10
0.6843
 20
-1.4573
 30
13.1401
 70
192
 0
VERTEX
 8
ZYLINDER
 10
0.6843
 20
-1.4573
 30
13.1401
 70
192
 0
VERTEX
 8
ZYLINDER
 10
0.6843
 20
-1.4573
 30
13.6401
 70
192
 0
VERTEX
 8
ZYLINDER
 10
0.6843
 20
-1.4573
 30
13.6401
 70
192
 0
VERTEX
 8
ZYLINDER
 10
1.2035
 20
-0.9898
 30
13.1401
 70
192
 0
VERTEX
 8
ZYLINDER
 10
1.2035
 20
-0.9898
 30
13.1401
 70
192
 0
VERTEX
 8
ZYLINDER
 10
1.2035
 20
-0.9898
 30
13.6401
 70
192
 0
VERTEX
 8
ZYLINDER
 10
1.2035
 20
-0.9898
 30
13.6401
 70
192
 0
VERTEX
 8
ZYLINDER
 10
1.4876
 20
-0.3517
 30
13.1401
 70
192
 0
VERTEX
 8
ZYLINDER
 10
1.4876
 20
-0.3517
 30
13.1401
 70
192
 0
VERTEX
 8
ZYLINDER
 10
1.4876
 20
-0.3517
 30
13.6401
 70
192
 0
VERTEX
 8
ZYLINDER
 10
1.4876
 20
-0.3517
 30
13.6401
 70
192
 0
VERTEX
 8
ZYLINDER
 10
1.4876
 20
0.3469
 30
13.1401
 70
192
 0
VERTEX
 8
ZYLINDER
 10
1.4876
 20
0.3469
 30
13.1401
 70
192
 0
VERTEX
 8
ZYLINDER
 10
1.4876
 20
0.3469
 30
13.6401
 70
192
 0
VERTEX
 8
ZYLINDER
 10
1.4876
 20
0.3469
 30
13.6401
 70
192
 0
VERTEX
 8
ZYLINDER
 10
1.2035
 20
0.9851
 30
13.1401
 70
192
 0
VERTEX
 8
ZYLINDER
 10
1.2035
 20
0.9851
 30
13.1401
 70
192
 0
VERTEX
 8
ZYLINDER
 10
1.2035
 20
0.9851
 30
13.6401
 70
192
 0
VERTEX
 8
ZYLINDER
 10
1.2035
 20
0.9851
 30
13.6401
 70
192
 0
VERTEX
 8
ZYLINDER
 10
0.6843
 20
1.4526
 30
13.1401
 70
192
 0
VERTEX
 8
ZYLINDER
 10
0.6843
 20
1.4526
 30
13.1401
 70
192
 0
VERTEX
 8
ZYLINDER
 10
0.6843
 20
1.4526
 30
13.6401
 70
192
 0
VERTEX
 8
ZYLINDER
 10
0.6843
 20
1.4526
 30
13.6401
 70
192
 0
VERTEX
 8
ZYLINDER
 10
0.0199
 20
1.6684
 30
13.1401
 70
192
 0
VERTEX
 8
ZYLINDER
 10
0.0199
 20
1.6684
 30
13.1401
 70
192
 0
VERTEX
 8
ZYLINDER
 10
0.0199
 20
1.6684
 30
13.6401
 70
192
 0
VERTEX
 8
ZYLINDER
 10
0.0199
 20
1.6684
 30
13.6401
 70
192
 0
VERTEX
 8
ZYLINDER
 10
-0.6748
 20
1.5954
 30
13.1401
 70
192
 0
VERTEX
 8
ZYLINDER
 10
-0.6748
 20
1.5954
 30
13.1401
 70
192
 0
VERTEX
 8
ZYLINDER
 10
-0.6748
 20
1.5954
 30
13.6401
 70
192
 0
VERTEX
 8
ZYLINDER
 10
-0.6748
 20
1.5954
 30
13.6401
 70
192
 0
VERTEX
 8
ZYLINDER
 10
-1.2798
 20
1.2461
 30
13.1401
 70
192
 0
VERTEX
 8
ZYLINDER
 10
-1.2798
 20
1.2461
 30
13.1401
 70
192
 0
VERTEX
 8
ZYLINDER
 10
-1.2798
 20
1.2461
 30
13.6401
 70
192
 0
VERTEX
 8
ZYLINDER
 10
-1.2798
 20
1.2461
 30
13.6401
 70
192
 0
VERTEX
 8
ZYLINDER
 10
-1.6904
 20
0.681
 30
13.1401
 70
192
 0
VERTEX
 8
ZYLINDER
 10
-1.6904
 20
0.681
 30
13.1401
 70
192
 0
VERTEX
 8
ZYLINDER
 10
-1.6904
 20
0.681
 30
13.6401
 70
192
 0
VERTEX
 8
ZYLINDER
 10
0
 20
0
 30
0
 70
128
 71
44
 72
45
 73
49
 74
48
 0
VERTEX
 8
ZYLINDER
 10
0
 20
0
 30
0
 70
128
 71
4
 72
5
 73
9
 74
8
 0
VERTEX
 8
ZYLINDER
 10
0
 20
0
 30
0
 70
128
 71
6
 72
2
 73
10
 74
10
 0
VERTEX
 8
ZYLINDER
 10
0
 20
0
 30
0
 70
128
 71
46
 72
2
 73
50
 74
50
 0
VERTEX
 8
ZYLINDER
 10
0
 20
0
 30
0
 70
128
 71
8
 72
9
 73
13
 74
12
 0
VERTEX
 8
ZYLINDER
 10
0
 20
0
 30
0
 70
128
 71
10
 72
2
 73
14
 74
14
 0
VERTEX
 8
ZYLINDER
 10
0
 20
0
 30
0
 70
128
 71
48
 72
49
 73
53
 74
52
 0
VERTEX
 8
ZYLINDER
 10
0
 20
0
 30
0
 70
128
 71
12
 72
13
 73
17
 74
16
 0
VERTEX
 8
ZYLINDER
 10
0
 20
0
 30
0
 70
128
 71
14
 72
2
 73
18
 74
18
 0
VERTEX
 8
ZYLINDER
 10
0
 20
0
 30
0
 70
128
 71
50
 72
2
 73
54
 74
54
 0
VERTEX
 8
ZYLINDER
 10
0
 20
0
 30
0
 70
128
 71
16
 72
17
 73
21
 74
20
 0
VERTEX
 8
ZYLINDER
 10
0
 20
0
 30
0
 70
128
 71
18
 72
2
 73
22
 74
22
 0
VERTEX
 8
ZYLINDER
 10
0
 20
0
 30
0
 70
128
 71
52
 72
53
 73
57
 74
56
 0
VERTEX
 8
ZYLINDER
 10
0
 20
0
 30
0
 70
128
 71
20
 72
21
 73
25
 74
24
 0
VERTEX
 8
ZYLINDER
 10
0
 20
0
 30
0
 70
128
 71
22
 72
2
 73
26
 74
26
 0
VERTEX
 8
ZYLINDER
 10
0
 20
0
 30
0
 70
128
 71
54
 72
2
 73
58
 74
58
 0
VERTEX
 8
ZYLINDER
 10
0
 20
0
 30
0
 70
128
 71
24
 72
25
 73
29
 74
28
 0
VERTEX
 8
ZYLINDER
 10
0
 20
0
 30
0
 70
128
 71
26
 72
2
 73
30
 74
30
 0
VERTEX
 8
ZYLINDER
 10
0
 20
0
 30
0
 70
128
 71
56
 72
57
 73
61
 74
60
 0
VERTEX
 8
ZYLINDER
 10
0
 20
0
 30
0
 70
128
 71
28
 72
29
 73
33
 74
32
 0
VERTEX
 8
ZYLINDER
 10
0
 20
0
 30
0
 70
128
 71
30
 72
2
 73
34
 74
34
 0
VERTEX
 8
ZYLINDER
 10
0
 20
0
 30
0
 70
128
 71
58
 72
2
 73
1
 74
1
 0
VERTEX
 8
ZYLINDER
 10
0
 20
0
 30
0
 70
128
 71
32
 72
33
 73
37
 74
36
 0
VERTEX
 8
ZYLINDER
 10
0
 20
0
 30
0
 70
128
 71
34
 72
2
 73
38
 74
38
 0
VERTEX
 8
ZYLINDER
 10
0
 20
0
 30
0
 70
128
 71
60
 72
61
 73
5
 74
4
 0
VERTEX
 8
ZYLINDER
 10
0
 20
0
 30
0
 70
128
 71
36
 72
37
 73
41
 74
40
 0
VERTEX
 8
ZYLINDER
 10
0
 20
0
 30
0
 70
128
 71
38
 72
2
 73
42
 74
42
 0
VERTEX
 8
ZYLINDER
 10
0
 20
0
 30
0
 70
128
 71
1
 72
2
 73
6
 74
6
 0
VERTEX
 8
ZYLINDER
 10
0
 20
0
 30
0
 70
128
 71
40
 72
41
 73
45
 74
44
 0
VERTEX
 8
ZYLINDER
 10
0
 20
0
 30
0
 70
128
 71
42
 72
2
 73
46
 74
46
 0
SEQEND
 0
POLYLINE
 8
K_RPER_1
 66
1
 10
0.0
 20
0.0
 30
0.0
 70
64
 71
24
 72
26
 0
VERTEX
 8
K_RPER_1
 10
1.7405
 20
1.864
 30
3.6428
 70
192
 0
VERTEX
 8
K_RPER_1
 10
-2.0595
 20
1.864
 30
3.6428
 70
192
 0
VERTEX
 8
K_RPER_1
 10
-2.0595
 20
-1.936
 30
3.6428
 70
192
 0
VERTEX
 8
K_RPER_1
 10
1.7405
 20
-1.936
 30
3.6428
 70
192
 0
VERTEX
 8
K_RPER_1
 10
1.7405
 20
1.964
 30
3.7428
 70
192
 0
VERTEX
 8
K_RPER_1
 10
-2.0595
 20
1.964
 30
3.7428
 70
192
 0
VERTEX
 8
K_RPER_1
 10
-2.1595
 20
1.864
 30
3.7428
 70
192
 0
VERTEX
 8
K_RPER_1
 10
-2.1595
 20
-1.936
 30
3.7428
 70
192
 0
VERTEX
 8
K_RPER_1
 10
-2.0595
 20
-2.036
 30
3.7428
 70
192
 0
VERTEX
 8
K_RPER_1
 10
1.7405
 20
-2.036
 30
3.7428
 70
192
 0
VERTEX
 8
K_RPER_1
 10
1.8405
 20
-1.936
 30
3.7428
 70
192
 0
VERTEX
 8
K_RPER_1
 10
1.8405
 20
1.864
 30
3.7428
 70
192
 0
VERTEX
 8
K_RPER_1
 10
1.7405
 20
1.964
 30
13.5428
 70
192
 0
VERTEX
 8
K_RPER_1
 10
-2.0595
 20
1.964
 30
13.5428
 70
192
 0
VERTEX
 8
K_RPER_1
 10
-2.1595
 20
1.864
 30
13.5428
 70
192
 0
VERTEX
 8
K_RPER_1
 10
-2.1595
 20
-1.936
 30
13.5428
 70
192
 0
VERTEX
 8
K_RPER_1
 10
-2.0595
 20
-2.036
 30
13.5428
 70
192
 0
VERTEX
 8
K_RPER_1
 10
1.7405
 20
-2.036
 30
13.5428
 70
192
 0
VERTEX
 8
K_RPER_1
 10
1.8405
 20
-1.936
 30
13.5428
 70
192
 0
VERTEX
 8
K_RPER_1
 10
1.8405
 20
1.864
 30
13.5428
 70
192
 0
VERTEX
 8
K_RPER_1
 10
1.7405
 20
1.864
 30
13.6428
 70
192
 0
VERTEX
 8
K_RPER_1
 10
-2.0595
 20
1.864
 30
13.6428
 70
192
 0
VERTEX
 8
K_RPER_1
 10
-2.0595
 20
-1.936
 30
13.6428
 70
192
 0
VERTEX
 8
K_RPER_1
 10
1.7405
 20
-1.936
 30
13.6428
 70
192
 0
VERTEX
 8
K_RPER_1
 10
0
 20
0
 30
0
 70
128
 71
1
 72
5
 73
6
 74
2
 0
VERTEX
 8
K_RPER_1
 10
0
 20
0
 30
0
 70
128
 71
4
 72
11
 73
12
 74
1
 0
VERTEX
 8
K_RPER_1
 10
0
 20
0
 30
0
 70
128
 71
11
 72
19
 73
20
 74
12
 0
VERTEX
 8
K_RPER_1
 10
0
 20
0
 30
0
 70
128
 71
19
 72
24
 73
21
 74
20
 0
VERTEX
 8
K_RPER_1
 10
0
 20
0
 30
0
 70
128
 71
1
 72
12
 73
5
 74
5
 0
VERTEX
 8
K_RPER_1
 10
0
 20
0
 30
0
 70
128
 71
12
 72
20
 73
13
 74
5
 0
VERTEX
 8
K_RPER_1
 10
0
 20
0
 30
0
 70
128
 71
20
 72
21
 73
13
 74
13
 0
VERTEX
 8
K_RPER_1
 10
0
 20
0
 30
0
 70
128
 71
21
 72
24
 73
23
 74
22
 0
VERTEX
 8
K_RPER_1
 10
0
 20
0
 30
0
 70
128
 71
1
 72
2
 73
3
 74
4
 0
VERTEX
 8
K_RPER_1
 10
0
 20
0
 30
0
 70
128
 71
13
 72
21
 73
22
 74
14
 0
VERTEX
 8
K_RPER_1
 10
0
 20
0
 30
0
 70
128
 71
2
 72
6
 73
7
 74
7
 0
VERTEX
 8
K_RPER_1
 10
0
 20
0
 30
0
 70
128
 71
6
 72
14
 73
15
 74
7
 0
VERTEX
 8
K_RPER_1
 10
0
 20
0
 30
0
 70
128
 71
14
 72
22
 73
15
 74
15
 0
VERTEX
 8
K_RPER_1
 10
0
 20
0
 30
0
 70
128
 71
2
 72
7
 73
8
 74
3
 0
VERTEX
 8
K_RPER_1
 10
0
 20
0
 30
0
 70
128
 71
7
 72
15
 73
16
 74
8
 0
VERTEX
 8
K_RPER_1
 10
0
 20
0
 30
0
 70
128
 71
15
 72
22
 73
23
 74
16
 0
VERTEX
 8
K_RPER_1
 10
0
 20
0
 30
0
 70
128
 71
3
 72
8
 73
9
 74
9
 0
VERTEX
 8
K_RPER_1
 10
0
 20
0
 30
0
 70
128
 71
8
 72
16
 73
17
 74
9
 0
VERTEX
 8
K_RPER_1
 10
0
 20
0
 30
0
 70
128
 71
16
 72
23
 73
17
 74
17
 0
VERTEX
 8
K_RPER_1
 10
0
 20
0
 30
0
 70
128
 71
3
 72
9
 73
10
 74
4
 0
VERTEX
 8
K_RPER_1
 10
0
 20
0
 30
0
 70
128
 71
9
 72
17
 73
18
 74
10
 0
VERTEX
 8
K_RPER_1
 10
0
 20
0
 30
0
 70
128
 71
17
 72
23
 73
24
 74
18
 0
VERTEX
 8
K_RPER_1
 10
0
 20
0
 30
0
 70
128
 71
4
 72
10
 73
11
 74
11
 0
VERTEX
 8
K_RPER_1
 10
0
 20
0
 30
0
 70
128
 71
10
 72
18
 73
19
 74
11
 0
VERTEX
 8
K_RPER_1
 10
0
 20
0
 30
0
 70
128
 71
18
 72
24
 73
19
 74
19
 0
VERTEX
 8
K_RPER_1
 10
0
 20
0
 30
0
 70
128
 71
6
 72
5
 73
13
 74
14
 0
SEQEND
 0
POLYLINE
 8
ROSETTE_1
 66
1
 10
0.0
 20
0.0
 30
0.0
 70
64
 71
9
 72
14
 0
VERTEX
 8
ROSETTE_1
 10
-2.6404
 20
2.4295
 30
3.621
 70
192
 0
VERTEX
 8
ROSETTE_1
 10
2.3389
 20
2.4246
 30
3.6214
 70
192
 0
VERTEX
 8
ROSETTE_1
 10
2.3389
 20
-2.5043
 30
3.1223
 70
192
 0
VERTEX
 8
ROSETTE_1
 10
-2.6473
 20
2.3528
 30
3.1221
 70
192
 0
VERTEX
 8
ROSETTE_1
 10
2.3341
 20
2.4294
 30
3.1227
 70
192
 0
VERTEX
 8
ROSETTE_1
 10
-2.4524
 20
2.4365
 30
3.1719
 70
192
 0
VERTEX
 8
ROSETTE_1
 10
-2.6404
 20
-2.5092
 30
3.1227
 70
192
 0
VERTEX
 8
ROSETTE_1
 10
-2.6453
 20
-2.5043
 30
3.6214
 70
192
 0
VERTEX
 8
ROSETTE_1
 10
2.334
 20
-2.5092
 30
3.621
 70
192
 0
VERTEX
 8
ROSETTE_1
 10
0
 20
0
 30
0
 70
128
 71
7
 72
8
 73
9
 74
9
 0
VERTEX
 8
ROSETTE_1
 10
0
 20
0
 30
0
 70
128
 71
3
 72
9
 73
2
 74
2
 0
VERTEX
 8
ROSETTE_1
 10
0
 20
0
 30
0
 70
128
 71
5
 72
2
 73
1
 74
1
 0
VERTEX
 8
ROSETTE_1
 10
0
 20
0
 30
0
 70
128
 71
4
 72
1
 73
8
 74
8
 0
VERTEX
 8
ROSETTE_1
 10
0
 20
0
 30
0
 70
128
 71
5
 72
6
 73
4
 74
4
 0
VERTEX
 8
ROSETTE_1
 10
0
 20
0
 30
0
 70
128
 71
4
 72
8
 73
7
 74
7
 0
VERTEX
 8
ROSETTE_1
 10
0
 20
0
 30
0
 70
128
 71
5
 72
1
 73
6
 74
6
 0
VERTEX
 8
ROSETTE_1
 10
0
 20
0
 30
0
 70
128
 71
1
 72
4
 73
6
 74
6
 0
VERTEX
 8
ROSETTE_1
 10
0
 20
0
 30
0
 70
128
 71
7
 72
9
 73
3
 74
3
 0
VERTEX
 8
ROSETTE_1
 10
0
 20
0
 30
0
 70
128
 71
8
 72
1
 73
2
 74
2
 0
VERTEX
 8
ROSETTE_1
 10
0
 20
0
 30
0
 70
128
 71
4
 72
7
 73
3
 74
3
 0
VERTEX
 8
ROSETTE_1
 10
0
 20
0
 30
0
 70
128
 71
3
 72
2
 73
5
 74
5
 0
VERTEX
 8
ROSETTE_1
 10
0
 20
0
 30
0
 70
128
 71
8
 72
2
 73
9
 74
9
 0
VERTEX
 8
ROSETTE_1
 10
0
 20
0
 30
0
 70
128
 71
4
 72
3
 73
5
 74
5
 0
SEQEND
 0
POLYLINE
 8
GRIFFHEBEL
 66
1
 10
0.0
 20
0.0
 30
0.0
 70
64
 71
24
 72
26
 0
VERTEX
 8
GRIFFHEBEL
 10
5.5627
 20
0.666
 30
11.9532
 70
192
 0
VERTEX
 8
GRIFFHEBEL
 10
5.1627
 20
0.666
 30
11.9532
 70
192
 0
VERTEX
 8
GRIFFHEBEL
 10
5.1627
 20
-0.734
 30
11.9532
 70
192
 0
VERTEX
 8
GRIFFHEBEL
 10
5.5627
 20
-0.734
 30
11.9532
 70
192
 0
VERTEX
 8
GRIFFHEBEL
 10
5.5627
 20
0.716
 30
12.0032
 70
192
 0
VERTEX
 8
GRIFFHEBEL
 10
5.1627
 20
0.716
 30
12.0032
 70
192
 0
VERTEX
 8
GRIFFHEBEL
 10
5.1127
 20
0.666
 30
12.0032
 70
192
 0
VERTEX
 8
GRIFFHEBEL
 10
5.1127
 20
-0.734
 30
12.0032
 70
192
 0
VERTEX
 8
GRIFFHEBEL
 10
5.1627
 20
-0.784
 30
12.0032
 70
192
 0
VERTEX
 8
GRIFFHEBEL
 10
5.5627
 20
-0.784
 30
12.0032
 70
192
 0
VERTEX
 8
GRIFFHEBEL
 10
5.6127
 20
-0.734
 30
12.0032
 70
192
 0
VERTEX
 8
GRIFFHEBEL
 10
5.6127
 20
0.666
 30
12.0032
 70
192
 0
VERTEX
 8
GRIFFHEBEL
 10
5.5627
 20
0.716
 30
16.9032
 70
192
 0
VERTEX
 8
GRIFFHEBEL
 10
5.1627
 20
0.716
 30
16.9032
 70
192
 0
VERTEX
 8
GRIFFHEBEL
 10
5.1127
 20
0.666
 30
16.9032
 70
192
 0
VERTEX
 8
GRIFFHEBEL
 10
5.1127
 20
-0.734
 30
16.9032
 70
192
 0
VERTEX
 8
GRIFFHEBEL
 10
5.1627
 20
-0.784
 30
16.9032
 70
192
 0
VERTEX
 8
GRIFFHEBEL
 10
5.5627
 20
-0.784
 30
16.9032
 70
192
 0
VERTEX
 8
GRIFFHEBEL
 10
5.6127
 20
-0.734
 30
16.9032
 70
192
 0
VERTEX
 8
GRIFFHEBEL
 10
5.6127
 20
0.666
 30
16.9032
 70
192
 0
VERTEX
 8
GRIFFHEBEL
 10
5.5627
 20
0.666
 30
16.9532
 70
192
 0
VERTEX
 8
GRIFFHEBEL
 10
5.1627
 20
0.666
 30
16.9532
 70
192
 0
VERTEX
 8
GRIFFHEBEL
 10
5.1627
 20
-0.734
 30
16.9532
 70
192
 0
VERTEX
 8
GRIFFHEBEL
 10
5.5627
 20
-0.734
 30
16.9532
 70
192
 0
VERTEX
 8
GRIFFHEBEL
 10
0
 20
0
 30
0
 70
128
 71
1
 72
5
 73
6
 74
2
 0
VERTEX
 8
GRIFFHEBEL
 10
0
 20
0
 30
0
 70
128
 71
5
 72
13
 73
14
 74
6
 0
VERTEX
 8
GRIFFHEBEL
 10
0
 20
0
 30
0
 70
128
 71
13
 72
21
 73
22
 74
14
 0
VERTEX
 8
GRIFFHEBEL
 10
0
 20
0
 30
0
 70
128
 71
2
 72
6
 73
7
 74
7
 0
VERTEX
 8
GRIFFHEBEL
 10
0
 20
0
 30
0
 70
128
 71
6
 72
14
 73
15
 74
7
 0
VERTEX
 8
GRIFFHEBEL
 10
0
 20
0
 30
0
 70
128
 71
14
 72
22
 73
15
 74
15
 0
VERTEX
 8
GRIFFHEBEL
 10
0
 20
0
 30
0
 70
128
 71
2
 72
7
 73
8
 74
3
 0
VERTEX
 8
GRIFFHEBEL
 10
0
 20
0
 30
0
 70
128
 71
7
 72
15
 73
16
 74
8
 0
VERTEX
 8
GRIFFHEBEL
 10
0
 20
0
 30
0
 70
128
 71
15
 72
22
 73
23
 74
16
 0
VERTEX
 8
GRIFFHEBEL
 10
0
 20
0
 30
0
 70
128
 71
3
 72
8
 73
9
 74
9
 0
VERTEX
 8
GRIFFHEBEL
 10
0
 20
0
 30
0
 70
128
 71
8
 72
16
 73
17
 74
9
 0
VERTEX
 8
GRIFFHEBEL
 10
0
 20
0
 30
0
 70
128
 71
16
 72
23
 73
17
 74
17
 0
VERTEX
 8
GRIFFHEBEL
 10
0
 20
0
 30
0
 70
128
 71
3
 72
9
 73
10
 74
4
 0
VERTEX
 8
GRIFFHEBEL
 10
0
 20
0
 30
0
 70
128
 71
9
 72
17
 73
18
 74
10
 0
VERTEX
 8
GRIFFHEBEL
 10
0
 20
0
 30
0
 70
128
 71
17
 72
23
 73
24
 74
18
 0
VERTEX
 8
GRIFFHEBEL
 10
0
 20
0
 30
0
 70
128
 71
4
 72
10
 73
11
 74
11
 0
VERTEX
 8
GRIFFHEBEL
 10
0
 20
0
 30
0
 70
128
 71
10
 72
18
 73
19
 74
11
 0
VERTEX
 8
GRIFFHEBEL
 10
0
 20
0
 30
0
 70
128
 71
18
 72
24
 73
19
 74
19
 0
VERTEX
 8
GRIFFHEBEL
 10
0
 20
0
 30
0
 70
128
 71
4
 72
11
 73
12
 74
1
 0
VERTEX
 8
GRIFFHEBEL
 10
0
 20
0
 30
0
 70
128
 71
11
 72
19
 73
20
 74
12
 0
VERTEX
 8
GRIFFHEBEL
 10
0
 20
0
 30
0
 70
128
 71
19
 72
24
 73
21
 74
20
 0
VERTEX
 8
GRIFFHEBEL
 10
0
 20
0
 30
0
 70
128
 71
1
 72
12
 73
5
 74
5
 0
VERTEX
 8
GRIFFHEBEL
 10
0
 20
0
 30
0
 70
128
 71
12
 72
20
 73
13
 74
5
 0
VERTEX
 8
GRIFFHEBEL
 10
0
 20
0
 30
0
 70
128
 71
20
 72
21
 73
13
 74
13
 0
VERTEX
 8
GRIFFHEBEL
 10
0
 20
0
 30
0
 70
128
 71
21
 72
24
 73
23
 74
22
 0
VERTEX
 8
GRIFFHEBEL
 10
0
 20
0
 30
0
 70
128
 71
1
 72
2
 73
3
 74
4
 0
SEQEND
 0
POLYLINE
 8
GRIFF-W_RFEL
 66
1
 10
0.0
 20
0.0
 30
0.0
 70
64
 71
41
 72
51
 0
VERTEX
 8
GRIFF-W_RFEL
 10
5.9421
 20
-0.0024
 30
10.4308
 70
192
 0
VERTEX
 8
GRIFF-W_RFEL
 10
5.9421
 20
-0.0024
 30
8.5508
 70
192
 0
VERTEX
 8
GRIFF-W_RFEL
 10
5.9421
 20
-0.767
 30
8.7133
 70
192
 0
VERTEX
 8
GRIFF-W_RFEL
 10
5.9421
 20
-1.3995
 30
9.1728
 70
192
 0
VERTEX
 8
GRIFF-W_RFEL
 10
5.9421
 20
-1.7903
 30
9.8498
 70
192
 0
VERTEX
 8
GRIFF-W_RFEL
 10
5.9421
 20
-1.8721
 30
10.6273
 70
192
 0
VERTEX
 8
GRIFF-W_RFEL
 10
3.4421
 20
-1.8721
 30
10.6273
 70
192
 0
VERTEX
 8
GRIFF-W_RFEL
 10
5.9421
 20
-1.6305
 30
11.3708
 70
192
 0
VERTEX
 8
GRIFF-W_RFEL
 10
3.4421
 20
-1.6305
 30
11.3708
 70
192
 0
VERTEX
 8
GRIFF-W_RFEL
 10
5.9421
 20
-1.1074
 30
11.9517
 70
192
 0
VERTEX
 8
GRIFF-W_RFEL
 10
3.4421
 20
-1.1074
 30
11.9517
 70
192
 0
VERTEX
 8
GRIFF-W_RFEL
 10
5.9421
 20
-0.3932
 30
12.2697
 70
192
 0
VERTEX
 8
GRIFF-W_RFEL
 10
3.4421
 20
-0.3932
 30
12.2697
 70
192
 0
VERTEX
 8
GRIFF-W_RFEL
 10
5.9421
 20
0.3885
 30
12.2697
 70
192
 0
VERTEX
 8
GRIFF-W_RFEL
 10
3.4421
 20
0.3885
 30
12.2697
 70
192
 0
VERTEX
 8
GRIFF-W_RFEL
 10
5.9421
 20
1.1027
 30
11.9517
 70
192
 0
VERTEX
 8
GRIFF-W_RFEL
 10
3.4421
 20
1.1027
 30
11.9517
 70
192
 0
VERTEX
 8
GRIFF-W_RFEL
 10
5.9421
 20
1.6258
 30
11.3708
 70
192
 0
VERTEX
 8
GRIFF-W_RFEL
 10
3.4421
 20
1.6258
 30
11.3708
 70
192
 0
VERTEX
 8
GRIFF-W_RFEL
 10
5.9421
 20
1.8673
 30
10.6273
 70
192
 0
VERTEX
 8
GRIFF-W_RFEL
 10
3.4421
 20
1.8673
 30
10.6273
 70
192
 0
VERTEX
 8
GRIFF-W_RFEL
 10
5.9421
 20
1.7856
 30
9.8498
 70
192
 0
VERTEX
 8
GRIFF-W_RFEL
 10
5.9421
 20
1.3947
 30
9.1728
 70
192
 0
VERTEX
 8
GRIFF-W_RFEL
 10
5.9421
 20
0.7623
 30
8.7133
 70
192
 0
VERTEX
 8
GRIFF-W_RFEL
 10
4.1863
 20
-1.3995
 30
9.1728
 70
192
 0
VERTEX
 8
GRIFF-W_RFEL
 10
3.7954
 20
-1.7903
 30
9.8498
 70
192
 0
VERTEX
 8
GRIFF-W_RFEL
 10
3.4421
 20
1.8499
 30
10.4617
 70
192
 0
VERTEX
 8
GRIFF-W_RFEL
 10
3.7954
 20
1.7856
 30
9.8498
 70
192
 0
VERTEX
 8
GRIFF-W_RFEL
 10
4.1863
 20
1.3947
 30
9.1728
 70
192
 0
VERTEX
 8
GRIFF-W_RFEL
 10
4.4516
 20
0.7623
 30
8.7133
 70
192
 0
VERTEX
 8
GRIFF-W_RFEL
 10
4.5454
 20
-0.0024
 30
8.5508
 70
192
 0
VERTEX
 8
GRIFF-W_RFEL
 10
4.4516
 20
-0.767
 30
8.7133
 70
192
 0
VERTEX
 8
GRIFF-W_RFEL
 10
3.4421
 20
-1.8547
 30
10.4617
 70
192
 0
VERTEX
 8
GRIFF-W_RFEL
 10
3.4421
 20
-0.2967
 30
10.4617
 70
192
 0
VERTEX
 8
GRIFF-W_RFEL
 10
3.4421
 20
-0.0559
 30
10.4617
 70
192
 0
VERTEX
 8
GRIFF-W_RFEL
 10
3.4421
 20
-0.0248
 30
10.4617
 70
192
 0
VERTEX
 8
GRIFF-W_RFEL
 10
3.4421
 20
-0.0089
 30
10.4617
 70
192
 0
VERTEX
 8
GRIFF-W_RFEL
 10
3.4421
 20
0.0042
 30
10.4617
 70
192
 0
VERTEX
 8
GRIFF-W_RFEL
 10
3.4421
 20
0.0201
 30
10.4617
 70
192
 0
VERTEX
 8
GRIFF-W_RFEL
 10
3.4421
 20
0.0512
 30
10.4617
 70
192
 0
VERTEX
 8
GRIFF-W_RFEL
 10
3.4421
 20
0.2919
 30
10.4617
 70
192
 0
VERTEX
 8
GRIFF-W_RFEL
 10
0
 20
0
 30
0
 70
128
 71
1
 72
2
 73
3
 74
3
 0
VERTEX
 8
GRIFF-W_RFEL
 10
0
 20
0
 30
0
 70
128
 71
32
 72
3
 73
2
 74
31
 0
VERTEX
 8
GRIFF-W_RFEL
 10
0
 20
0
 30
0
 70
128
 71
1
 72
3
 73
4
 74
4
 0
VERTEX
 8
GRIFF-W_RFEL
 10
0
 20
0
 30
0
 70
128
 71
25
 72
4
 73
3
 74
32
 0
VERTEX
 8
GRIFF-W_RFEL
 10
0
 20
0
 30
0
 70
128
 71
1
 72
4
 73
5
 74
5
 0
VERTEX
 8
GRIFF-W_RFEL
 10
0
 20
0
 30
0
 70
128
 71
26
 72
5
 73
4
 74
25
 0
VERTEX
 8
GRIFF-W_RFEL
 10
0
 20
0
 30
0
 70
128
 71
1
 72
5
 73
6
 74
6
 0
VERTEX
 8
GRIFF-W_RFEL
 10
0
 20
0
 30
0
 70
128
 71
33
 72
7
 73
6
 74
6
 0
VERTEX
 8
GRIFF-W_RFEL
 10
0
 20
0
 30
0
 70
128
 71
6
 72
5
 73
26
 74
33
 0
VERTEX
 8
GRIFF-W_RFEL
 10
0
 20
0
 30
0
 70
128
 71
34
 72
7
 73
33
 74
33
 0
VERTEX
 8
GRIFF-W_RFEL
 10
0
 20
0
 30
0
 70
128
 71
1
 72
6
 73
8
 74
8
 0
VERTEX
 8
GRIFF-W_RFEL
 10
0
 20
0
 30
0
 70
128
 71
6
 72
7
 73
9
 74
8
 0
VERTEX
 8
GRIFF-W_RFEL
 10
0
 20
0
 30
0
 70
128
 71
35
 72
9
 73
7
 74
34
 0
VERTEX
 8
GRIFF-W_RFEL
 10
0
 20
0
 30
0
 70
128
 71
1
 72
8
 73
10
 74
10
 0
VERTEX
 8
GRIFF-W_RFEL
 10
0
 20
0
 30
0
 70
128
 71
8
 72
9
 73
11
 74
10
 0
VERTEX
 8
GRIFF-W_RFEL
 10
0
 20
0
 30
0
 70
128
 71
36
 72
11
 73
9
 74
35
 0
VERTEX
 8
GRIFF-W_RFEL
 10
0
 20
0
 30
0
 70
128
 71
1
 72
10
 73
12
 74
12
 0
VERTEX
 8
GRIFF-W_RFEL
 10
0
 20
0
 30
0
 70
128
 71
10
 72
11
 73
13
 74
12
 0
VERTEX
 8
GRIFF-W_RFEL
 10
0
 20
0
 30
0
 70
128
 71
37
 72
13
 73
11
 74
36
 0
VERTEX
 8
GRIFF-W_RFEL
 10
0
 20
0
 30
0
 70
128
 71
1
 72
12
 73
14
 74
14
 0
VERTEX
 8
GRIFF-W_RFEL
 10
0
 20
0
 30
0
 70
128
 71
12
 72
13
 73
15
 74
14
 0
VERTEX
 8
GRIFF-W_RFEL
 10
0
 20
0
 30
0
 70
128
 71
15
 72
13
 73
37
 74
38
 0
VERTEX
 8
GRIFF-W_RFEL
 10
0
 20
0
 30
0
 70
128
 71
1
 72
14
 73
16
 74
16
 0
VERTEX
 8
GRIFF-W_RFEL
 10
0
 20
0
 30
0
 70
128
 71
14
 72
15
 73
17
 74
16
 0
VERTEX
 8
GRIFF-W_RFEL
 10
0
 20
0
 30
0
 70
128
 71
39
 72
17
 73
15
 74
38
 0
VERTEX
 8
GRIFF-W_RFEL
 10
0
 20
0
 30
0
 70
128
 71
1
 72
16
 73
18
 74
18
 0
VERTEX
 8
GRIFF-W_RFEL
 10
0
 20
0
 30
0
 70
128
 71
16
 72
17
 73
19
 74
18
 0
VERTEX
 8
GRIFF-W_RFEL
 10
0
 20
0
 30
0
 70
128
 71
40
 72
19
 73
17
 74
39
 0
VERTEX
 8
GRIFF-W_RFEL
 10
0
 20
0
 30
0
 70
128
 71
1
 72
18
 73
20
 74
20
 0
VERTEX
 8
GRIFF-W_RFEL
 10
0
 20
0
 30
0
 70
128
 71
18
 72
19
 73
21
 74
20
 0
VERTEX
 8
GRIFF-W_RFEL
 10
0
 20
0
 30
0
 70
128
 71
41
 72
21
 73
19
 74
40
 0
VERTEX
 8
GRIFF-W_RFEL
 10
0
 20
0
 30
0
 70
128
 71
1
 72
20
 73
22
 74
22
 0
VERTEX
 8
GRIFF-W_RFEL
 10
0
 20
0
 30
0
 70
128
 71
28
 72
22
 73
20
 74
27
 0
VERTEX
 8
GRIFF-W_RFEL
 10
0
 20
0
 30
0
 70
128
 71
20
 72
21
 73
27
 74
27
 0
VERTEX
 8
GRIFF-W_RFEL
 10
0
 20
0
 30
0
 70
128
 71
27
 72
21
 73
41
 74
41
 0
VERTEX
 8
GRIFF-W_RFEL
 10
0
 20
0
 30
0
 70
128
 71
1
 72
22
 73
23
 74
23
 0
VERTEX
 8
GRIFF-W_RFEL
 10
0
 20
0
 30
0
 70
128
 71
29
 72
23
 73
22
 74
28
 0
VERTEX
 8
GRIFF-W_RFEL
 10
0
 20
0
 30
0
 70
128
 71
1
 72
23
 73
24
 74
24
 0
VERTEX
 8
GRIFF-W_RFEL
 10
0
 20
0
 30
0
 70
128
 71
30
 72
24
 73
23
 74
29
 0
VERTEX
 8
GRIFF-W_RFEL
 10
0
 20
0
 30
0
 70
128
 71
1
 72
24
 73
2
 74
2
 0
VERTEX
 8
GRIFF-W_RFEL
 10
0
 20
0
 30
0
 70
128
 71
31
 72
2
 73
24
 74
30
 0
VERTEX
 8
GRIFF-W_RFEL
 10
0
 20
0
 30
0
 70
128
 71
31
 72
30
 73
38
 74
37
 0
VERTEX
 8
GRIFF-W_RFEL
 10
0
 20
0
 30
0
 70
128
 71
29
 72
28
 73
27
 74
41
 0
VERTEX
 8
GRIFF-W_RFEL
 10
0
 20
0
 30
0
 70
128
 71
40
 72
39
 73
30
 74
30
 0
VERTEX
 8
GRIFF-W_RFEL
 10
0
 20
0
 30
0
 70
128
 71
26
 72
25
 73
34
 74
33
 0
VERTEX
 8
GRIFF-W_RFEL
 10
0
 20
0
 30
0
 70
128
 71
29
 72
41
 73
40
 74
30
 0
VERTEX
 8
GRIFF-W_RFEL
 10
0
 20
0
 30
0
 70
128
 71
32
 72
31
 73
34
 74
25
 0
VERTEX
 8
GRIFF-W_RFEL
 10
0
 20
0
 30
0
 70
128
 71
39
 72
38
 73
30
 74
30
 0
VERTEX
 8
GRIFF-W_RFEL
 10
0
 20
0
 30
0
 70
128
 71
34
 72
31
 73
35
 74
35
 0
VERTEX
 8
GRIFF-W_RFEL
 10
0
 20
0
 30
0
 70
128
 71
35
 72
31
 73
36
 74
36
 0
VERTEX
 8
GRIFF-W_RFEL
 10
0
 20
0
 30
0
 70
128
 71
37
 72
36
 73
31
 74
31
 0
SEQEND
 0
POLYLINE
 8
KARTUSCHE
 66
1
 10
0.0
 20
0.0
 30
0.0
 70
64
 71
36
 72
24
 0
VERTEX
 8
KARTUSCHE
 10
4.5735
 20
-0.0023
 30
11.2806
 70
192
 0
VERTEX
 8
KARTUSCHE
 10
3.9513
 20
-0.0023
 30
11.9028
 70
192
 0
VERTEX
 8
KARTUSCHE
 10
4.5735
 20
-0.0023
 30
9.5806
 70
192
 0
VERTEX
 8
KARTUSCHE
 10
3.9513
 20
-0.0023
 30
8.9583
 70
192
 0
VERTEX
 8
KARTUSCHE
 10
3.1013
 20
-0.0023
 30
8.7306
 70
192
 0
VERTEX
 8
KARTUSCHE
 10
3.1013
 20
-0.0023
 30
12.1306
 70
192
 0
VERTEX
 8
KARTUSCHE
 10
4.5735
 20
0.4227
 30
11.1667
 70
192
 0
VERTEX
 8
KARTUSCHE
 10
3.9513
 20
0.7338
 30
11.7056
 70
192
 0
VERTEX
 8
KARTUSCHE
 10
4.5735
 20
-0.4273
 30
9.6944
 70
192
 0
VERTEX
 8
KARTUSCHE
 10
3.9513
 20
-0.7384
 30
9.1556
 70
192
 0
VERTEX
 8
KARTUSCHE
 10
3.1013
 20
-0.8523
 30
8.9583
 70
192
 0
VERTEX
 8
KARTUSCHE
 10
3.1013
 20
0.8477
 30
11.9028
 70
192
 0
VERTEX
 8
KARTUSCHE
 10
3.9513
 20
1.2727
 30
9.6944
 70
192
 0
VERTEX
 8
KARTUSCHE
 10
4.5735
 20
0.7338
 30
10.8556
 70
192
 0
VERTEX
 8
KARTUSCHE
 10
4.5735
 20
-0.7384
 30
10.0056
 70
192
 0
VERTEX
 8
KARTUSCHE
 10
3.9513
 20
-1.2773
 30
9.6944
 70
192
 0
VERTEX
 8
KARTUSCHE
 10
3.1013
 20
-1.4746
 30
9.5806
 70
192
 0
VERTEX
 8
KARTUSCHE
 10
4.5735
 20
0.4227
 30
9.6944
 70
192
 0
VERTEX
 8
KARTUSCHE
 10
3.9513
 20
1.2727
 30
11.1667
 70
192
 0
VERTEX
 8
KARTUSCHE
 10
3.1013
 20
1.4699
 30
11.2806
 70
192
 0
VERTEX
 8
KARTUSCHE
 10
4.5735
 20
-0.8523
 30
10.4306
 70
192
 0
VERTEX
 8
KARTUSCHE
 10
3.9513
 20
-1.4746
 30
10.4306
 70
192
 0
VERTEX
 8
KARTUSCHE
 10
3.1013
 20
-1.7023
 30
10.4306
 70
192
 0
VERTEX
 8
KARTUSCHE
 10
3.9513
 20
0.7338
 30
9.1556
 70
192
 0
VERTEX
 8
KARTUSCHE
 10
3.1013
 20
1.4699
 30
9.5806
 70
192
 0
VERTEX
 8
KARTUSCHE
 10
4.5735
 20
0.8477
 30
10.4306
 70
192
 0
VERTEX
 8
KARTUSCHE
 10
4.5735
 20
-0.7384
 30
10.8556
 70
192
 0
VERTEX
 8
KARTUSCHE
 10
3.9513
 20
-1.2773
 30
11.1667
 70
192
 0
VERTEX
 8
KARTUSCHE
 10
3.1013
 20
-1.4746
 30
11.2806
 70
192
 0
VERTEX
 8
KARTUSCHE
 10
3.1013
 20
0.8477
 30
8.9583
 70
192
 0
VERTEX
 8
KARTUSCHE
 10
3.9513
 20
1.4699
 30
10.4306
 70
192
 0
VERTEX
 8
KARTUSCHE
 10
3.1013
 20
1.6977
 30
10.4306
 70
192
 0
VERTEX
 8
KARTUSCHE
 10
4.5735
 20
-0.4273
 30
11.1667
 70
192
 0
VERTEX
 8
KARTUSCHE
 10
3.9513
 20
-0.7384
 30
11.7056
 70
192
 0
VERTEX
 8
KARTUSCHE
 10
3.1013
 20
-0.8523
 30
11.9028
 70
192
 0
VERTEX
 8
KARTUSCHE
 10
4.5735
 20
0.7338
 30
10.0056
 70
192
 0
VERTEX
 8
KARTUSCHE
 10
0
 20
0
 30
0
 70
128
 71
13
 72
25
 73
30
 74
24
 0
VERTEX
 8
KARTUSCHE
 10
0
 20
0
 30
0
 70
128
 71
3
 72
4
 73
10
 74
9
 0
VERTEX
 8
KARTUSCHE
 10
0
 20
0
 30
0
 70
128
 71
4
 72
5
 73
11
 74
10
 0
VERTEX
 8
KARTUSCHE
 10
0
 20
0
 30
0
 70
128
 71
19
 72
20
 73
32
 74
31
 0
VERTEX
 8
KARTUSCHE
 10
0
 20
0
 30
0
 70
128
 71
26
 72
31
 73
13
 74
36
 0
VERTEX
 8
KARTUSCHE
 10
0
 20
0
 30
0
 70
128
 71
31
 72
32
 73
25
 74
13
 0
VERTEX
 8
KARTUSCHE
 10
0
 20
0
 30
0
 70
128
 71
27
 72
28
 73
34
 74
33
 0
VERTEX
 8
KARTUSCHE
 10
0
 20
0
 30
0
 70
128
 71
7
 72
8
 73
19
 74
14
 0
VERTEX
 8
KARTUSCHE
 10
0
 20
0
 30
0
 70
128
 71
9
 72
10
 73
16
 74
15
 0
VERTEX
 8
KARTUSCHE
 10
0
 20
0
 30
0
 70
128
 71
10
 72
11
 73
17
 74
16
 0
VERTEX
 8
KARTUSCHE
 10
0
 20
0
 30
0
 70
128
 71
8
 72
12
 73
20
 74
19
 0
VERTEX
 8
KARTUSCHE
 10
0
 20
0
 30
0
 70
128
 71
28
 72
29
 73
35
 74
34
 0
VERTEX
 8
KARTUSCHE
 10
0
 20
0
 30
0
 70
128
 71
14
 72
19
 73
31
 74
26
 0
VERTEX
 8
KARTUSCHE
 10
0
 20
0
 30
0
 70
128
 71
18
 72
24
 73
4
 74
3
 0
VERTEX
 8
KARTUSCHE
 10
0
 20
0
 30
0
 70
128
 71
33
 72
34
 73
2
 74
1
 0
VERTEX
 8
KARTUSCHE
 10
0
 20
0
 30
0
 70
128
 71
15
 72
16
 73
22
 74
21
 0
VERTEX
 8
KARTUSCHE
 10
0
 20
0
 30
0
 70
128
 71
16
 72
17
 73
23
 74
22
 0
VERTEX
 8
KARTUSCHE
 10
0
 20
0
 30
0
 70
128
 71
34
 72
35
 73
6
 74
2
 0
VERTEX
 8
KARTUSCHE
 10
0
 20
0
 30
0
 70
128
 71
24
 72
30
 73
5
 74
4
 0
VERTEX
 8
KARTUSCHE
 10
0
 20
0
 30
0
 70
128
 71
1
 72
2
 73
8
 74
7
 0
VERTEX
 8
KARTUSCHE
 10
0
 20
0
 30
0
 70
128
 71
2
 72
6
 73
12
 74
8
 0
VERTEX
 8
KARTUSCHE
 10
0
 20
0
 30
0
 70
128
 71
36
 72
13
 73
24
 74
18
 0
VERTEX
 8
KARTUSCHE
 10
0
 20
0
 30
0
 70
128
 71
21
 72
22
 73
28
 74
27
 0
VERTEX
 8
KARTUSCHE
 10
0
 20
0
 30
0
 70
128
 71
22
 72
23
 73
29
 74
28
 0
SEQEND
 0
POLYLINE
 8
GRIFFK_RPER
 66
1
 10
0.0
 20
0.0
 30
0.0
 70
64
 71
61
 72
30
 0
VERTEX
 8
GRIFFK_RPER
 10
3.2586
 20
-0.0024
 30
10.4308
 70
192
 0
VERTEX
 8
GRIFFK_RPER
 10
0.7586
 20
0.7623
 30
8.7133
 70
192
 0
VERTEX
 8
GRIFFK_RPER
 10
3.2586
 20
-0.0024
 30
8.5508
 70
192
 0
VERTEX
 8
GRIFFK_RPER
 10
3.2586
 20
-0.0024
 30
8.5508
 70
192
 0
VERTEX
 8
GRIFFK_RPER
 10
0.7586
 20
-0.0024
 30
8.5508
 70
192
 0
VERTEX
 8
GRIFFK_RPER
 10
0.7586
 20
-0.0024
 30
8.5508
 70
192
 0
VERTEX
 8
GRIFFK_RPER
 10
3.2586
 20
-0.767
 30
8.7133
 70
192
 0
VERTEX
 8
GRIFFK_RPER
 10
3.2586
 20
-0.767
 30
8.7133
 70
192
 0
VERTEX
 8
GRIFFK_RPER
 10
0.7586
 20
-0.767
 30
8.7133
 70
192
 0
VERTEX
 8
GRIFFK_RPER
 10
0.7586
 20
-0.767
 30
8.7133
 70
192
 0
VERTEX
 8
GRIFFK_RPER
 10
3.2586
 20
-1.3995
 30
9.1728
 70
192
 0
VERTEX
 8
GRIFFK_RPER
 10
3.2586
 20
-1.3995
 30
9.1728
 70
192
 0
VERTEX
 8
GRIFFK_RPER
 10
0.7586
 20
-1.3995
 30
9.1728
 70
192
 0
VERTEX
 8
GRIFFK_RPER
 10
0.7586
 20
-1.3995
 30
9.1728
 70
192
 0
VERTEX
 8
GRIFFK_RPER
 10
3.2586
 20
-1.7903
 30
9.8498
 70
192
 0
VERTEX
 8
GRIFFK_RPER
 10
3.2586
 20
-1.7903
 30
9.8498
 70
192
 0
VERTEX
 8
GRIFFK_RPER
 10
0.7586
 20
-1.7903
 30
9.8498
 70
192
 0
VERTEX
 8
GRIFFK_RPER
 10
0.7586
 20
-1.7903
 30
9.8498
 70
192
 0
VERTEX
 8
GRIFFK_RPER
 10
3.2586
 20
-1.8721
 30
10.6273
 70
192
 0
VERTEX
 8
GRIFFK_RPER
 10
3.2586
 20
-1.8721
 30
10.6273
 70
192
 0
VERTEX
 8
GRIFFK_RPER
 10
0.7586
 20
-1.8721
 30
10.6273
 70
192
 0
VERTEX
 8
GRIFFK_RPER
 10
0.7586
 20
-1.8721
 30
10.6273
 70
192
 0
VERTEX
 8
GRIFFK_RPER
 10
3.2586
 20
-1.6305
 30
11.3708
 70
192
 0
VERTEX
 8
GRIFFK_RPER
 10
3.2586
 20
-1.6305
 30
11.3708
 70
192
 0
VERTEX
 8
GRIFFK_RPER
 10
0.7586
 20
-1.6305
 30
11.3708
 70
192
 0
VERTEX
 8
GRIFFK_RPER
 10
0.7586
 20
-1.6305
 30
11.3708
 70
192
 0
VERTEX
 8
GRIFFK_RPER
 10
3.2586
 20
-1.1074
 30
11.9517
 70
192
 0
VERTEX
 8
GRIFFK_RPER
 10
3.2586
 20
-1.1074
 30
11.9517
 70
192
 0
VERTEX
 8
GRIFFK_RPER
 10
0.7586
 20
-1.1074
 30
11.9517
 70
192
 0
VERTEX
 8
GRIFFK_RPER
 10
0.7586
 20
-1.1074
 30
11.9517
 70
192
 0
VERTEX
 8
GRIFFK_RPER
 10
3.2586
 20
-0.3932
 30
12.2697
 70
192
 0
VERTEX
 8
GRIFFK_RPER
 10
3.2586
 20
-0.3932
 30
12.2697
 70
192
 0
VERTEX
 8
GRIFFK_RPER
 10
0.7586
 20
-0.3932
 30
12.2697
 70
192
 0
VERTEX
 8
GRIFFK_RPER
 10
0.7586
 20
-0.3932
 30
12.2697
 70
192
 0
VERTEX
 8
GRIFFK_RPER
 10
3.2586
 20
0.3885
 30
12.2697
 70
192
 0
VERTEX
 8
GRIFFK_RPER
 10
3.2586
 20
0.3885
 30
12.2697
 70
192
 0
VERTEX
 8
GRIFFK_RPER
 10
0.7586
 20
0.3885
 30
12.2697
 70
192
 0
VERTEX
 8
GRIFFK_RPER
 10
0.7586
 20
0.3885
 30
12.2697
 70
192
 0
VERTEX
 8
GRIFFK_RPER
 10
3.2586
 20
1.1027
 30
11.9517
 70
192
 0
VERTEX
 8
GRIFFK_RPER
 10
3.2586
 20
1.1027
 30
11.9517
 70
192
 0
VERTEX
 8
GRIFFK_RPER
 10
0.7586
 20
1.1027
 30
11.9517
 70
192
 0
VERTEX
 8
GRIFFK_RPER
 10
0.7586
 20
1.1027
 30
11.9517
 70
192
 0
VERTEX
 8
GRIFFK_RPER
 10
3.2586
 20
1.6258
 30
11.3708
 70
192
 0
VERTEX
 8
GRIFFK_RPER
 10
3.2586
 20
1.6258
 30
11.3708
 70
192
 0
VERTEX
 8
GRIFFK_RPER
 10
0.7586
 20
1.6258
 30
11.3708
 70
192
 0
VERTEX
 8
GRIFFK_RPER
 10
0.7586
 20
1.6258
 30
11.3708
 70
192
 0
VERTEX
 8
GRIFFK_RPER
 10
3.2586
 20
1.8673
 30
10.6273
 70
192
 0
VERTEX
 8
GRIFFK_RPER
 10
3.2586
 20
1.8673
 30
10.6273
 70
192
 0
VERTEX
 8
GRIFFK_RPER
 10
0.7586
 20
1.8673
 30
10.6273
 70
192
 0
VERTEX
 8
GRIFFK_RPER
 10
0.7586
 20
1.8673
 30
10.6273
 70
192
 0
VERTEX
 8
GRIFFK_RPER
 10
3.2586
 20
1.7856
 30
9.8498
 70
192
 0
VERTEX
 8
GRIFFK_RPER
 10
3.2586
 20
1.7856
 30
9.8498
 70
192
 0
VERTEX
 8
GRIFFK_RPER
 10
0.7586
 20
1.7856
 30
9.8498
 70
192
 0
VERTEX
 8
GRIFFK_RPER
 10
0.7586
 20
1.7856
 30
9.8498
 70
192
 0
VERTEX
 8
GRIFFK_RPER
 10
3.2586
 20
1.3947
 30
9.1728
 70
192
 0
VERTEX
 8
GRIFFK_RPER
 10
3.2586
 20
1.3947
 30
9.1728
 70
192
 0
VERTEX
 8
GRIFFK_RPER
 10
0.7586
 20
1.3947
 30
9.1728
 70
192
 0
VERTEX
 8
GRIFFK_RPER
 10
0.7586
 20
1.3947
 30
9.1728
 70
192
 0
VERTEX
 8
GRIFFK_RPER
 10
3.2586
 20
0.7623
 30
8.7133
 70
192
 0
VERTEX
 8
GRIFFK_RPER
 10
3.2586
 20
0.7623
 30
8.7133
 70
192
 0
VERTEX
 8
GRIFFK_RPER
 10
0.7586
 20
0.7623
 30
8.7133
 70
192
 0
VERTEX
 8
GRIFFK_RPER
 10
0
 20
0
 30
0
 70
128
 71
1
 72
3
 73
7
 74
7
 0
VERTEX
 8
GRIFFK_RPER
 10
0
 20
0
 30
0
 70
128
 71
4
 72
5
 73
9
 74
8
 0
VERTEX
 8
GRIFFK_RPER
 10
0
 20
0
 30
0
 70
128
 71
1
 72
43
 73
47
 74
47
 0
VERTEX
 8
GRIFFK_RPER
 10
0
 20
0
 30
0
 70
128
 71
1
 72
7
 73
11
 74
11
 0
VERTEX
 8
GRIFFK_RPER
 10
0
 20
0
 30
0
 70
128
 71
8
 72
9
 73
13
 74
12
 0
VERTEX
 8
GRIFFK_RPER
 10
0
 20
0
 30
0
 70
128
 71
44
 72
45
 73
49
 74
48
 0
VERTEX
 8
GRIFFK_RPER
 10
0
 20
0
 30
0
 70
128
 71
1
 72
11
 73
15
 74
15
 0
VERTEX
 8
GRIFFK_RPER
 10
0
 20
0
 30
0
 70
128
 71
12
 72
13
 73
17
 74
16
 0
VERTEX
 8
GRIFFK_RPER
 10
0
 20
0
 30
0
 70
128
 71
1
 72
47
 73
51
 74
51
 0
VERTEX
 8
GRIFFK_RPER
 10
0
 20
0
 30
0
 70
128
 71
1
 72
15
 73
19
 74
19
 0
VERTEX
 8
GRIFFK_RPER
 10
0
 20
0
 30
0
 70
128
 71
16
 72
17
 73
21
 74
20
 0
VERTEX
 8
GRIFFK_RPER
 10
0
 20
0
 30
0
 70
128
 71
48
 72
49
 73
53
 74
52
 0
VERTEX
 8
GRIFFK_RPER
 10
0
 20
0
 30
0
 70
128
 71
1
 72
19
 73
23
 74
23
 0
VERTEX
 8
GRIFFK_RPER
 10
0
 20
0
 30
0
 70
128
 71
20
 72
21
 73
25
 74
24
 0
VERTEX
 8
GRIFFK_RPER
 10
0
 20
0
 30
0
 70
128
 71
1
 72
51
 73
55
 74
55
 0
VERTEX
 8
GRIFFK_RPER
 10
0
 20
0
 30
0
 70
128
 71
1
 72
23
 73
27
 74
27
 0
VERTEX
 8
GRIFFK_RPER
 10
0
 20
0
 30
0
 70
128
 71
24
 72
25
 73
29
 74
28
 0
VERTEX
 8
GRIFFK_RPER
 10
0
 20
0
 30
0
 70
128
 71
52
 72
53
 73
57
 74
56
 0
VERTEX
 8
GRIFFK_RPER
 10
0
 20
0
 30
0
 70
128
 71
1
 72
27
 73
31
 74
31
 0
VERTEX
 8
GRIFFK_RPER
 10
0
 20
0
 30
0
 70
128
 71
28
 72
29
 73
33
 74
32
 0
VERTEX
 8
GRIFFK_RPER
 10
0
 20
0
 30
0
 70
128
 71
1
 72
55
 73
59
 74
59
 0
VERTEX
 8
GRIFFK_RPER
 10
0
 20
0
 30
0
 70
128
 71
1
 72
31
 73
35
 74
35
 0
VERTEX
 8
GRIFFK_RPER
 10
0
 20
0
 30
0
 70
128
 71
32
 72
33
 73
37
 74
36
 0
VERTEX
 8
GRIFFK_RPER
 10
0
 20
0
 30
0
 70
128
 71
56
 72
57
 73
61
 74
60
 0
VERTEX
 8
GRIFFK_RPER
 10
0
 20
0
 30
0
 70
128
 71
1
 72
35
 73
39
 74
39
 0
VERTEX
 8
GRIFFK_RPER
 10
0
 20
0
 30
0
 70
128
 71
36
 72
37
 73
41
 74
40
 0
VERTEX
 8
GRIFFK_RPER
 10
0
 20
0
 30
0
 70
128
 71
1
 72
59
 73
3
 74
3
 0
VERTEX
 8
GRIFFK_RPER
 10
0
 20
0
 30
0
 70
128
 71
1
 72
39
 73
43
 74
43
 0
VERTEX
 8
GRIFFK_RPER
 10
0
 20
0
 30
0
 70
128
 71
40
 72
41
 73
45
 74
44
 0
VERTEX
 8
GRIFFK_RPER
 10
0
 20
0
 30
0
 70
128
 71
60
 72
61
 73
5
 74
4
 0
SEQEND
 0
ENDSEC
 0
EOF
