 0
SECTION
 2
HEADER
 9
$ACADVER
 1
AC1009
 0
ENDSEC
 0
SECTION
 2
TABLES
 0
TABLE
 2
LTYPE
 70
1
 0
LTYPE
 2
CONTINUOUS
 70
64
 3
solid line
 72
65
 73
0
 40
0.0
 0
ENDTAB
 0
TABLE
 2
LAYER
 70
6
 0
LAYER
 2
0
 70
0
 62
7
 6
CONTINUOUS
 0
LAYER
 2
120_1621_M
 70
64
 62
7
 6
CONTINUOUS
 0
LAYER
 2
OUT
 70
64
 62
250
 6
CONTINUOUS
 0
LAYER
 2
MID
 70
64
 62
7
 6
CONTINUOUS
 0
LAYER
 2
INNER
 70
64
 62
7
 6
CONTINUOUS
 0
LAYER
 2
CYLINDER
 70
64
 62
7
 6
CONTINUOUS
 0
LAYER
 2
TUBE_33
 70
64
 62
251
 6
CONTINUOUS
 0
LAYER
 2
TUBE_45
 70
64
 62
7
 6
CONTINUOUS
 0
LAYER
 2
KEGEL_1
 70
64
 62
250
 6
CONTINUOUS
 0
LAYER
 2
SCHLAUCH_1
 70
64
 62
250
 6
CONTINUOUS
 0
LAYER
 2
K_RPER
 70
64
 62
250
 6
CONTINUOUS
 0
LAYER
 2
HALTER_4
 70
64
 62
250
 6
CONTINUOUS
 0
LAYER
 2
ROSETTE_1
 70
64
 62
250
 6
CONTINUOUS
 0
LAYER
 2
HALTER_3
 70
64
 62
250
 6
CONTINUOUS
 0
LAYER
 2
ROSETTE
 70
64
 62
250
 6
CONTINUOUS
 0
LAYER
 2
HALTER_2
 70
64
 62
250
 6
CONTINUOUS
 0
LAYER
 2
HALTER_1
 70
64
 62
250
 6
CONTINUOUS
 0
LAYER
 2
HALTER-CYLINDER
 70
64
 62
250
 6
CONTINUOUS
 0
ENDTAB
 0
ENDSEC
 0
SECTION
 2
BLOCKS
 0
ENDSEC
 0
SECTION
 2
ENTITIES
 0
POLYLINE
 8
OUT
 66
1
 10
0.0
 20
0.0
 30
0.0
 70
64
 71
128
 72
218
 0
VERTEX
 8
OUT
 10
-1.6284
 20
-1.645
 30
31.2636
 70
192
 0
VERTEX
 8
OUT
 10
0.6932
 20
-0.2383
 30
27.2948
 70
192
 0
VERTEX
 8
OUT
 10
-1.4981
 20
-0.5486
 30
28.1062
 70
192
 0
VERTEX
 8
OUT
 10
1.7805
 20
-0.5101
 30
27.7964
 70
192
 0
VERTEX
 8
OUT
 10
0.4892
 20
-0.4157
 30
23.9731
 70
192
 0
VERTEX
 8
OUT
 10
-1.1843
 20
-0.4845
 30
28.1213
 70
192
 0
VERTEX
 8
OUT
 10
-0.422
 20
-0.1767
 30
26.5963
 70
192
 0
VERTEX
 8
OUT
 10
-0.1278
 20
-1.728
 30
32.0191
 70
192
 0
VERTEX
 8
OUT
 10
1.5828
 20
-1.402
 30
31.2071
 70
192
 0
VERTEX
 8
OUT
 10
-0.8643
 20
-0.4533
 30
28.1286
 70
192
 0
VERTEX
 8
OUT
 10
-0.4207
 20
0.1008
 30
24.2203
 70
192
 0
VERTEX
 8
OUT
 10
-1.7342
 20
-0.7686
 30
28.9322
 70
192
 0
VERTEX
 8
OUT
 10
0.8388
 20
-1.6287
 30
31.9195
 70
192
 0
VERTEX
 8
OUT
 10
-1.8286
 20
-1.0458
 30
29.5022
 70
192
 0
VERTEX
 8
OUT
 10
0.7884
 20
-0.1482
 30
26.7459
 70
192
 0
VERTEX
 8
OUT
 10
1.0726
 20
-1.818
 30
31.9689
 70
192
 0
VERTEX
 8
OUT
 10
-0.4275
 20
0.1921
 30
23.4966
 70
192
 0
VERTEX
 8
OUT
 10
-0.893
 20
-1.72
 30
31.8637
 70
192
 0
VERTEX
 8
OUT
 10
0.8673
 20
-0.1253
 30
25.8182
 70
192
 0
VERTEX
 8
OUT
 10
-0.2386
 20
-0.1389
 30
23.4248
 70
192
 0
VERTEX
 8
OUT
 10
1.7442
 20
-1.7818
 30
31.7211
 70
192
 0
VERTEX
 8
OUT
 10
0.4881
 20
-0.3245
 30
23.3837
 70
192
 0
VERTEX
 8
OUT
 10
-0.9075
 20
-0.5127
 30
27.5094
 70
192
 0
VERTEX
 8
OUT
 10
2.1703
 20
-1.528
 30
31.1739
 70
192
 0
VERTEX
 8
OUT
 10
1.7804
 20
-0.6487
 30
28.7928
 70
192
 0
VERTEX
 8
OUT
 10
0.9223
 20
-1.7032
 30
31.9722
 70
192
 0
VERTEX
 8
OUT
 10
1.0536
 20
-1.5438
 30
31.7086
 70
192
 0
VERTEX
 8
OUT
 10
0.2444
 20
-1.5852
 30
31.922
 70
192
 0
VERTEX
 8
OUT
 10
-0.6205
 20
-1.6464
 30
31.8799
 70
192
 0
VERTEX
 8
OUT
 10
-0.3298
 20
0.0596
 30
25.4846
 70
192
 0
VERTEX
 8
OUT
 10
-1.7666
 20
-1.4259
 30
30.9033
 70
192
 0
VERTEX
 8
OUT
 10
0.4485
 20
0.3595
 30
23.5323
 70
192
 0
VERTEX
 8
OUT
 10
0.9299
 20
-0.3079
 30
26.7872
 70
192
 0
VERTEX
 8
OUT
 10
2.0221
 20
-0.5515
 30
28.0676
 70
192
 0
VERTEX
 8
OUT
 10
0.0729
 20
-0.4639
 30
23.9438
 70
192
 0
VERTEX
 8
OUT
 10
-1.7771
 20
-0.849
 30
28.8284
 70
192
 0
VERTEX
 8
OUT
 10
0.8975
 20
0.0942
 30
24.2197
 70
192
 0
VERTEX
 8
OUT
 10
0.3952
 20
-1.4767
 30
31.6004
 70
192
 0
VERTEX
 8
OUT
 10
1.0048
 20
-0.2751
 30
27.2057
 70
192
 0
VERTEX
 8
OUT
 10
-1.1922
 20
-1.4795
 30
31.3667
 70
192
 0
VERTEX
 8
OUT
 10
0.8862
 20
0.0727
 30
25.0381
 70
192
 0
VERTEX
 8
OUT
 10
-0.4127
 20
0.0852
 30
24.3912
 70
192
 0
VERTEX
 8
OUT
 10
1.106
 20
-0.4278
 30
27.2366
 70
192
 0
VERTEX
 8
OUT
 10
-0.4068
 20
0.2973
 30
23.5191
 70
192
 0
VERTEX
 8
OUT
 10
-1.8163
 20
-1.1637
 30
30.1356
 70
192
 0
VERTEX
 8
OUT
 10
0.4721
 20
-0.8299
 30
29.6657
 70
192
 0
VERTEX
 8
OUT
 10
2.2659
 20
-0.7579
 30
28.7656
 70
192
 0
VERTEX
 8
OUT
 10
-0.3783
 20
-0.2404
 30
27.1965
 70
192
 0
VERTEX
 8
OUT
 10
2.2961
 20
-1.3369
 30
30.4079
 70
192
 0
VERTEX
 8
OUT
 10
-1.3355
 20
-1.7908
 30
31.6792
 70
192
 0
VERTEX
 8
OUT
 10
1.7852
 20
-1.6327
 30
31.6511
 70
192
 0
VERTEX
 8
OUT
 10
-0.523
 20
-0.2755
 30
27.0925
 70
192
 0
VERTEX
 8
OUT
 10
-0.2643
 20
0.3389
 30
23.5279
 70
192
 0
VERTEX
 8
OUT
 10
-0.487
 20
-0.3601
 30
26.9924
 70
192
 0
VERTEX
 8
OUT
 10
1.0589
 20
-1.3609
 30
31.2142
 70
192
 0
VERTEX
 8
OUT
 10
1.3601
 20
-0.9661
 30
30.0002
 70
192
 0
VERTEX
 8
OUT
 10
-0.8391
 20
-1.6033
 30
31.7608
 70
192
 0
VERTEX
 8
OUT
 10
1.8949
 20
-1.77
 30
31.6072
 70
192
 0
VERTEX
 8
OUT
 10
2.103
 20
-1.4926
 30
31.1852
 70
192
 0
VERTEX
 8
OUT
 10
-1.557
 20
-1.6561
 30
31.4837
 70
192
 0
VERTEX
 8
OUT
 10
2.0138
 20
-0.7678
 30
29.123
 70
192
 0
VERTEX
 8
OUT
 10
-1.6873
 20
-1.113
 30
30.1514
 70
192
 0
VERTEX
 8
OUT
 10
2.2661
 20
-0.8511
 30
28.8358
 70
192
 0
VERTEX
 8
OUT
 10
-0.9786
 20
-0.976
 30
29.9972
 70
192
 0
VERTEX
 8
OUT
 10
0.8857
 20
0.2818
 30
23.5157
 70
192
 0
VERTEX
 8
OUT
 10
1.9701
 20
-1.2617
 30
30.6918
 70
192
 0
VERTEX
 8
OUT
 10
-0.1519
 20
-1.7964
 30
32.0208
 70
192
 0
VERTEX
 8
OUT
 10
-0.1661
 20
-0.7349
 30
29.3268
 70
192
 0
VERTEX
 8
OUT
 10
-1.8001
 20
-0.8521
 30
29.0929
 70
192
 0
VERTEX
 8
OUT
 10
-0.0131
 20
0.3565
 30
23.5316
 70
192
 0
VERTEX
 8
OUT
 10
1.1101
 20
-0.3282
 30
27.5726
 70
192
 0
VERTEX
 8
OUT
 10
-1.7695
 20
-1.4731
 30
30.7834
 70
192
 0
VERTEX
 8
OUT
 10
-1.5826
 20
-1.4121
 30
31.0259
 70
192
 0
VERTEX
 8
OUT
 10
-0.3748
 20
-0.0413
 30
25.3038
 70
192
 0
VERTEX
 8
OUT
 10
-1.5521
 20
-0.6553
 30
28.081
 70
192
 0
VERTEX
 8
OUT
 10
-1.3936
 20
-1.3139
 30
30.8655
 70
192
 0
VERTEX
 8
OUT
 10
-0.2913
 20
-1.7038
 30
31.9958
 70
192
 0
VERTEX
 8
OUT
 10
2.2804
 20
-0.9301
 30
29.4446
 70
192
 0
VERTEX
 8
OUT
 10
-0.6617
 20
-0.3373
 30
27.39
 70
192
 0
VERTEX
 8
OUT
 10
-1.6737
 20
-0.6352
 30
28.4126
 70
192
 0
VERTEX
 8
OUT
 10
1.7414
 20
-0.4923
 30
28.1194
 70
192
 0
VERTEX
 8
OUT
 10
1.3395
 20
-0.5009
 30
27.4672
 70
192
 0
VERTEX
 8
OUT
 10
-0.3407
 20
-0.0875
 30
24.1521
 70
192
 0
VERTEX
 8
OUT
 10
-0.6779
 20
-0.4537
 30
27.3161
 70
192
 0
VERTEX
 8
OUT
 10
-1.4439
 20
-0.5433
 30
27.9043
 70
192
 0
VERTEX
 8
OUT
 10
2.18
 20
-1.2384
 30
30.506
 70
192
 0
VERTEX
 8
OUT
 10
-1.8272
 20
-1.2275
 30
30.0757
 70
192
 0
VERTEX
 8
OUT
 10
0.0307
 20
-0.3645
 30
23.3748
 70
192
 0
VERTEX
 8
OUT
 10
-1.3549
 20
-0.7967
 30
29.3027
 70
192
 0
VERTEX
 8
OUT
 10
-0.675
 20
-1.3708
 30
31.2118
 70
192
 0
VERTEX
 8
OUT
 10
0.9027
 20
-0.1517
 30
26.4469
 70
192
 0
VERTEX
 8
OUT
 10
-0.1829
 20
-0.2409
 30
27.2942
 70
192
 0
VERTEX
 8
OUT
 10
0.857
 20
0.0842
 30
25.2647
 70
192
 0
VERTEX
 8
OUT
 10
1.9769
 20
-1.4594
 30
31.1943
 70
192
 0
VERTEX
 8
OUT
 10
-1.1962
 20
-0.4565
 30
27.8131
 70
192
 0
VERTEX
 8
OUT
 10
-1.3785
 20
-1.6778
 30
31.6842
 70
192
 0
VERTEX
 8
OUT
 10
0.8869
 20
0.0792
 30
24.3671
 70
192
 0
VERTEX
 8
OUT
 10
-0.2939
 20
-1.5612
 30
31.7955
 70
192
 0
VERTEX
 8
OUT
 10
-1.3993
 20
-0.6203
 30
28.6158
 70
192
 0
VERTEX
 8
OUT
 10
2.2953
 20
-1.3228
 30
30.5966
 70
192
 0
VERTEX
 8
OUT
 10
1.3225
 20
-0.3762
 30
27.5679
 70
192
 0
VERTEX
 8
OUT
 10
-0.1447
 20
-0.324
 30
24.0267
 70
192
 0
VERTEX
 8
OUT
 10
1.4327
 20
-1.6191
 30
31.7617
 70
192
 0
VERTEX
 8
OUT
 10
0.7663
 20
0.3363
 30
23.5274
 70
192
 0
VERTEX
 8
OUT
 10
1.9908
 20
-0.6259
 30
27.9618
 70
192
 0
VERTEX
 8
OUT
 10
-0.4003
 20
-0.2424
 30
26.44
 70
192
 0
VERTEX
 8
OUT
 10
0.7679
 20
-0.9414
 30
30.0076
 70
192
 0
VERTEX
 8
OUT
 10
2.1823
 20
-1.5871
 30
31.1057
 70
192
 0
VERTEX
 8
OUT
 10
0.7328
 20
-0.2
 30
24.0951
 70
192
 0
VERTEX
 8
OUT
 10
1.0251
 20
-0.4696
 30
28.3048
 70
192
 0
VERTEX
 8
OUT
 10
2.0435
 20
-1.6552
 30
31.5193
 70
192
 0
VERTEX
 8
OUT
 10
-0.3843
 20
0.0738
 30
25.2628
 70
192
 0
VERTEX
 8
OUT
 10
0.6444
 20
-0.1924
 30
23.413
 70
192
 0
VERTEX
 8
OUT
 10
0.2713
 20
-0.4145
 30
23.3637
 70
192
 0
VERTEX
 8
OUT
 10
-1.3974
 20
-0.6034
 30
27.8697
 70
192
 0
VERTEX
 8
OUT
 10
2.3143
 20
-1.2219
 30
30.0573
 70
192
 0
VERTEX
 8
OUT
 10
-0.4661
 20
-0.896
 30
29.8294
 70
192
 0
VERTEX
 8
OUT
 10
2.0633
 20
-0.6153
 30
28.4331
 70
192
 0
VERTEX
 8
OUT
 10
-0.5351
 20
-1.8189
 30
31.9771
 70
192
 0
VERTEX
 8
OUT
 10
0.3278
 20
-0.4782
 30
23.9358
 70
192
 0
VERTEX
 8
OUT
 10
0.3685
 20
-1.6813
 30
32.0181
 70
192
 0
VERTEX
 8
OUT
 10
1.7567
 20
-1.2338
 30
30.6974
 70
192
 0
VERTEX
 8
OUT
 10
-0.8187
 20
-0.4093
 30
27.4774
 70
192
 0
VERTEX
 8
OUT
 10
1.4902
 20
-1.7122
 30
31.8301
 70
192
 0
VERTEX
 8
OUT
 10
0.7985
 20
0.0058
 30
23.4563
 70
192
 0
VERTEX
 8
OUT
 10
0.2444
 20
-1.7844
 30
32.0445
 70
192
 0
VERTEX
 8
OUT
 10
0.6
 20
-1.7897
 30
32.0254
 70
192
 0
VERTEX
 8
OUT
 10
-1.6064
 20
-1.5726
 30
31.3388
 70
192
 0
VERTEX
 8
OUT
 10
0
 20
0
 30
0
 70
128
 71
68
 72
70
 73
92
 74
92
 0
VERTEX
 8
OUT
 10
0
 20
0
 30
0
 70
128
 71
31
 72
87
 73
72
 74
72
 0
VERTEX
 8
OUT
 10
0
 20
0
 30
0
 70
128
 71
21
 72
16
 73
58
 74
58
 0
VERTEX
 8
OUT
 10
0
 20
0
 30
0
 70
128
 71
46
 72
32
 73
70
 74
70
 0
VERTEX
 8
OUT
 10
0
 20
0
 30
0
 70
128
 71
47
 72
34
 73
118
 74
118
 0
VERTEX
 8
OUT
 10
0
 20
0
 30
0
 70
128
 71
47
 72
105
 73
34
 74
34
 0
VERTEX
 8
OUT
 10
0
 20
0
 30
0
 70
128
 71
32
 72
125
 73
113
 74
113
 0
VERTEX
 8
OUT
 10
0
 20
0
 30
0
 70
128
 71
39
 72
91
 73
15
 74
15
 0
VERTEX
 8
OUT
 10
0
 20
0
 30
0
 70
128
 71
5
 72
113
 73
109
 74
109
 0
VERTEX
 8
OUT
 10
0
 20
0
 30
0
 70
128
 71
70
 72
20
 73
53
 74
53
 0
VERTEX
 8
OUT
 10
0
 20
0
 30
0
 70
128
 71
83
 72
17
 73
20
 74
20
 0
VERTEX
 8
OUT
 10
0
 20
0
 30
0
 70
128
 71
103
 72
51
 73
27
 74
27
 0
VERTEX
 8
OUT
 10
0
 20
0
 30
0
 70
128
 71
98
 72
29
 73
77
 74
77
 0
VERTEX
 8
OUT
 10
0
 20
0
 30
0
 70
128
 71
81
 72
2
 73
110
 74
110
 0
VERTEX
 8
OUT
 10
0
 20
0
 30
0
 70
128
 71
11
 72
17
 73
83
 74
83
 0
VERTEX
 8
OUT
 10
0
 20
0
 30
0
 70
128
 71
90
 72
117
 73
64
 74
64
 0
VERTEX
 8
OUT
 10
0
 20
0
 30
0
 70
128
 71
29
 72
57
 73
96
 74
96
 0
VERTEX
 8
OUT
 10
0
 20
0
 30
0
 70
128
 71
48
 72
30
 73
7
 74
7
 0
VERTEX
 8
OUT
 10
0
 20
0
 30
0
 70
128
 71
46
 72
70
 73
68
 74
68
 0
VERTEX
 8
OUT
 10
0
 20
0
 30
0
 70
128
 71
3
 72
95
 73
85
 74
85
 0
VERTEX
 8
OUT
 10
0
 20
0
 30
0
 70
128
 71
80
 72
95
 73
3
 74
3
 0
VERTEX
 8
OUT
 10
0
 20
0
 30
0
 70
128
 71
90
 72
64
 73
89
 74
89
 0
VERTEX
 8
OUT
 10
0
 20
0
 30
0
 70
128
 71
26
 72
13
 73
121
 74
121
 0
VERTEX
 8
OUT
 10
0
 20
0
 30
0
 70
128
 71
41
 72
93
 73
91
 74
91
 0
VERTEX
 8
OUT
 10
0
 20
0
 30
0
 70
128
 71
86
 72
78
 73
61
 74
61
 0
VERTEX
 8
OUT
 10
0
 20
0
 30
0
 70
128
 71
6
 72
48
 73
79
 74
79
 0
VERTEX
 8
OUT
 10
0
 20
0
 30
0
 70
128
 71
49
 72
116
 73
100
 74
100
 0
VERTEX
 8
OUT
 10
0
 20
0
 30
0
 70
128
 71
76
 72
12
 73
62
 74
62
 0
VERTEX
 8
OUT
 10
0
 20
0
 30
0
 70
128
 71
111
 72
24
 73
59
 74
59
 0
VERTEX
 8
OUT
 10
0
 20
0
 30
0
 70
128
 71
92
 72
30
 73
48
 74
48
 0
VERTEX
 8
OUT
 10
0
 20
0
 30
0
 70
128
 71
82
 72
43
 73
39
 74
39
 0
VERTEX
 8
OUT
 10
0
 20
0
 30
0
 70
128
 71
127
 72
16
 73
121
 74
121
 0
VERTEX
 8
OUT
 10
0
 20
0
 30
0
 70
128
 71
45
 72
69
 73
14
 74
14
 0
VERTEX
 8
OUT
 10
0
 20
0
 30
0
 70
128
 71
83
 72
20
 73
102
 74
102
 0
VERTEX
 8
OUT
 10
0
 20
0
 30
0
 70
128
 71
2
 72
32
 73
46
 74
46
 0
VERTEX
 8
OUT
 10
0
 20
0
 30
0
 70
128
 71
24
 72
100
 73
59
 74
59
 0
VERTEX
 8
OUT
 10
0
 20
0
 30
0
 70
128
 71
28
 72
27
 73
38
 74
38
 0
VERTEX
 8
OUT
 10
0
 20
0
 30
0
 70
128
 71
117
 72
10
 73
64
 74
64
 0
VERTEX
 8
OUT
 10
0
 20
0
 30
0
 70
128
 71
78
 72
47
 73
118
 74
118
 0
VERTEX
 8
OUT
 10
0
 20
0
 30
0
 70
128
 71
27
 72
122
 73
55
 74
55
 0
VERTEX
 8
OUT
 10
0
 20
0
 30
0
 70
128
 71
51
 72
111
 73
59
 74
59
 0
VERTEX
 8
OUT
 10
0
 20
0
 30
0
 70
128
 71
97
 72
65
 73
41
 74
41
 0
VERTEX
 8
OUT
 10
0
 20
0
 30
0
 70
128
 71
17
 72
11
 73
42
 74
42
 0
VERTEX
 8
OUT
 10
0
 20
0
 30
0
 70
128
 71
85
 72
115
 73
75
 74
75
 0
VERTEX
 8
OUT
 10
0
 20
0
 30
0
 70
128
 71
62
 72
12
 73
45
 74
45
 0
VERTEX
 8
OUT
 10
0
 20
0
 30
0
 70
128
 71
108
 72
111
 73
58
 74
58
 0
VERTEX
 8
OUT
 10
0
 20
0
 30
0
 70
128
 71
123
 72
84
 73
23
 74
23
 0
VERTEX
 8
OUT
 10
0
 20
0
 30
0
 70
128
 71
108
 72
49
 73
100
 74
100
 0
VERTEX
 8
OUT
 10
0
 20
0
 30
0
 70
128
 71
12
 72
80
 73
69
 74
69
 0
VERTEX
 8
OUT
 10
0
 20
0
 30
0
 70
128
 71
34
 72
71
 73
81
 74
81
 0
VERTEX
 8
OUT
 10
0
 20
0
 30
0
 70
128
 71
100
 72
78
 73
86
 74
86
 0
VERTEX
 8
OUT
 10
0
 20
0
 30
0
 70
128
 71
119
 72
77
 73
18
 74
18
 0
VERTEX
 8
OUT
 10
0
 20
0
 30
0
 70
128
 71
85
 72
23
 73
115
 74
115
 0
VERTEX
 8
OUT
 10
0
 20
0
 30
0
 70
128
 71
121
 72
13
 73
28
 74
28
 0
VERTEX
 8
OUT
 10
0
 20
0
 30
0
 70
128
 71
52
 72
7
 73
54
 74
54
 0
VERTEX
 8
OUT
 10
0
 20
0
 30
0
 70
128
 71
5
 72
114
 73
22
 74
22
 0
VERTEX
 8
OUT
 10
0
 20
0
 30
0
 70
128
 71
95
 72
79
 73
123
 74
123
 0
VERTEX
 8
OUT
 10
0
 20
0
 30
0
 70
128
 71
78
 72
118
 73
61
 74
61
 0
VERTEX
 8
OUT
 10
0
 20
0
 30
0
 70
128
 71
28
 72
98
 73
77
 74
77
 0
VERTEX
 8
OUT
 10
0
 20
0
 30
0
 70
128
 71
105
 72
82
 73
4
 74
4
 0
VERTEX
 8
OUT
 10
0
 20
0
 30
0
 70
128
 71
90
 72
40
 73
57
 74
57
 0
VERTEX
 8
OUT
 10
0
 20
0
 30
0
 70
128
 71
101
 72
39
 73
71
 74
71
 0
VERTEX
 8
OUT
 10
0
 20
0
 30
0
 70
128
 71
73
 72
76
 73
62
 74
62
 0
VERTEX
 8
OUT
 10
0
 20
0
 30
0
 70
128
 71
33
 72
19
 73
91
 74
91
 0
VERTEX
 8
OUT
 10
0
 20
0
 30
0
 70
128
 71
117
 72
92
 73
10
 74
10
 0
VERTEX
 8
OUT
 10
0
 20
0
 30
0
 70
128
 71
121
 72
28
 73
77
 74
77
 0
VERTEX
 8
OUT
 10
0
 20
0
 30
0
 70
128
 71
37
 72
65
 73
97
 74
97
 0
VERTEX
 8
OUT
 10
0
 20
0
 30
0
 70
128
 71
28
 72
46
 73
117
 74
117
 0
VERTEX
 8
OUT
 10
0
 20
0
 30
0
 70
128
 71
89
 72
99
 73
76
 74
76
 0
VERTEX
 8
OUT
 10
0
 20
0
 30
0
 70
128
 71
34
 72
101
 73
71
 74
71
 0
VERTEX
 8
OUT
 10
0
 20
0
 30
0
 70
128
 71
16
 72
21
 73
124
 74
124
 0
VERTEX
 8
OUT
 10
0
 20
0
 30
0
 70
128
 71
42
 72
74
 73
17
 74
17
 0
VERTEX
 8
OUT
 10
0
 20
0
 30
0
 70
128
 71
127
 72
121
 73
8
 74
8
 0
VERTEX
 8
OUT
 10
0
 20
0
 30
0
 70
128
 71
88
 72
32
 73
114
 74
114
 0
VERTEX
 8
OUT
 10
0
 20
0
 30
0
 70
128
 71
124
 72
103
 73
26
 74
26
 0
VERTEX
 8
OUT
 10
0
 20
0
 30
0
 70
128
 71
34
 72
105
 73
4
 74
4
 0
VERTEX
 8
OUT
 10
0
 20
0
 30
0
 70
128
 71
111
 72
108
 73
24
 74
24
 0
VERTEX
 8
OUT
 10
0
 20
0
 30
0
 70
128
 71
116
 72
63
 73
47
 74
47
 0
VERTEX
 8
OUT
 10
0
 20
0
 30
0
 70
128
 71
16
 72
124
 73
26
 74
26
 0
VERTEX
 8
OUT
 10
0
 20
0
 30
0
 70
128
 71
63
 72
105
 73
47
 74
47
 0
VERTEX
 8
OUT
 10
0
 20
0
 30
0
 70
128
 71
29
 72
96
 73
18
 74
18
 0
VERTEX
 8
OUT
 10
0
 20
0
 30
0
 70
128
 71
75
 72
115
 73
23
 74
23
 0
VERTEX
 8
OUT
 10
0
 20
0
 30
0
 70
128
 71
80
 72
75
 73
36
 74
36
 0
VERTEX
 8
OUT
 10
0
 20
0
 30
0
 70
128
 71
32
 72
22
 73
114
 74
114
 0
VERTEX
 8
OUT
 10
0
 20
0
 30
0
 70
128
 71
126
 72
8
 73
67
 74
67
 0
VERTEX
 8
OUT
 10
0
 20
0
 30
0
 70
128
 71
73
 72
62
 73
31
 74
31
 0
VERTEX
 8
OUT
 10
0
 20
0
 30
0
 70
128
 71
109
 72
125
 73
37
 74
37
 0
VERTEX
 8
OUT
 10
0
 20
0
 30
0
 70
128
 71
107
 72
110
 73
46
 74
46
 0
VERTEX
 8
OUT
 10
0
 20
0
 30
0
 70
128
 71
124
 72
21
 73
51
 74
51
 0
VERTEX
 8
OUT
 10
0
 20
0
 30
0
 70
128
 71
37
 72
125
 73
65
 74
65
 0
VERTEX
 8
OUT
 10
0
 20
0
 30
0
 70
128
 71
43
 72
33
 73
39
 74
39
 0
VERTEX
 8
OUT
 10
0
 20
0
 30
0
 70
128
 71
19
 72
41
 73
91
 74
91
 0
VERTEX
 8
OUT
 10
0
 20
0
 30
0
 70
128
 71
32
 72
88
 73
70
 74
70
 0
VERTEX
 8
OUT
 10
0
 20
0
 30
0
 70
128
 71
54
 72
7
 73
106
 74
106
 0
VERTEX
 8
OUT
 10
0
 20
0
 30
0
 70
128
 71
92
 72
53
 73
30
 74
30
 0
VERTEX
 8
OUT
 10
0
 20
0
 30
0
 70
128
 71
77
 72
29
 73
18
 74
18
 0
VERTEX
 8
OUT
 10
0
 20
0
 30
0
 70
128
 71
102
 72
20
 73
88
 74
88
 0
VERTEX
 8
OUT
 10
0
 20
0
 30
0
 70
128
 71
56
 72
110
 73
107
 74
107
 0
VERTEX
 8
OUT
 10
0
 20
0
 30
0
 70
128
 71
27
 72
55
 73
38
 74
38
 0
VERTEX
 8
OUT
 10
0
 20
0
 30
0
 70
128
 71
27
 72
94
 73
9
 74
9
 0
VERTEX
 8
OUT
 10
0
 20
0
 30
0
 70
128
 71
95
 72
123
 73
85
 74
85
 0
VERTEX
 8
OUT
 10
0
 20
0
 30
0
 70
128
 71
62
 72
45
 73
31
 74
31
 0
VERTEX
 8
OUT
 10
0
 20
0
 30
0
 70
128
 71
10
 72
48
 73
6
 74
6
 0
VERTEX
 8
OUT
 10
0
 20
0
 30
0
 70
128
 71
59
 72
86
 73
94
 74
94
 0
VERTEX
 8
OUT
 10
0
 20
0
 30
0
 70
128
 71
85
 72
123
 73
23
 74
23
 0
VERTEX
 8
OUT
 10
0
 20
0
 30
0
 70
128
 71
92
 72
70
 73
53
 74
53
 0
VERTEX
 8
OUT
 10
0
 20
0
 30
0
 70
128
 71
121
 72
77
 73
8
 74
8
 0
VERTEX
 8
OUT
 10
0
 20
0
 30
0
 70
128
 71
38
 72
46
 73
28
 74
28
 0
VERTEX
 8
OUT
 10
0
 20
0
 30
0
 70
128
 71
4
 72
101
 73
34
 74
34
 0
VERTEX
 8
OUT
 10
0
 20
0
 30
0
 70
128
 71
71
 72
15
 73
2
 74
2
 0
VERTEX
 8
OUT
 10
0
 20
0
 30
0
 70
128
 71
9
 72
66
 73
122
 74
122
 0
VERTEX
 8
OUT
 10
0
 20
0
 30
0
 70
128
 71
98
 72
28
 73
90
 74
90
 0
VERTEX
 8
OUT
 10
0
 20
0
 30
0
 70
128
 71
100
 72
47
 73
78
 74
78
 0
VERTEX
 8
OUT
 10
0
 20
0
 30
0
 70
128
 71
69
 72
80
 73
36
 74
36
 0
VERTEX
 8
OUT
 10
0
 20
0
 30
0
 70
128
 71
51
 72
59
 73
94
 74
94
 0
VERTEX
 8
OUT
 10
0
 20
0
 30
0
 70
128
 71
28
 72
117
 73
90
 74
90
 0
VERTEX
 8
OUT
 10
0
 20
0
 30
0
 70
128
 71
96
 72
60
 73
50
 74
50
 0
VERTEX
 8
OUT
 10
0
 20
0
 30
0
 70
128
 71
41
 72
65
 73
93
 74
93
 0
VERTEX
 8
OUT
 10
0
 20
0
 30
0
 70
128
 71
81
 72
71
 73
2
 74
2
 0
VERTEX
 8
OUT
 10
0
 20
0
 30
0
 70
128
 71
90
 72
76
 73
40
 74
40
 0
VERTEX
 8
OUT
 10
0
 20
0
 30
0
 70
128
 71
32
 72
104
 73
125
 74
125
 0
VERTEX
 8
OUT
 10
0
 20
0
 30
0
 70
128
 71
21
 72
111
 73
51
 74
51
 0
VERTEX
 8
OUT
 10
0
 20
0
 30
0
 70
128
 71
92
 72
48
 73
10
 74
10
 0
VERTEX
 8
OUT
 10
0
 20
0
 30
0
 70
128
 71
18
 72
96
 73
119
 74
119
 0
VERTEX
 8
OUT
 10
0
 20
0
 30
0
 70
128
 71
6
 72
79
 73
95
 74
95
 0
VERTEX
 8
OUT
 10
0
 20
0
 30
0
 70
128
 71
90
 72
89
 73
76
 74
76
 0
VERTEX
 8
OUT
 10
0
 20
0
 30
0
 70
128
 71
96
 72
128
 73
60
 74
60
 0
VERTEX
 8
OUT
 10
0
 20
0
 30
0
 70
128
 71
60
 72
1
 73
50
 74
50
 0
VERTEX
 8
OUT
 10
0
 20
0
 30
0
 70
128
 71
119
 72
96
 73
50
 74
50
 0
VERTEX
 8
OUT
 10
0
 20
0
 30
0
 70
128
 71
57
 72
98
 73
90
 74
90
 0
VERTEX
 8
OUT
 10
0
 20
0
 30
0
 70
128
 71
48
 72
7
 73
52
 74
52
 0
VERTEX
 8
OUT
 10
0
 20
0
 30
0
 70
128
 71
60
 72
31
 73
1
 74
1
 0
VERTEX
 8
OUT
 10
0
 20
0
 30
0
 70
128
 71
96
 72
40
 73
73
 74
73
 0
VERTEX
 8
OUT
 10
0
 20
0
 30
0
 70
128
 71
128
 72
31
 73
60
 74
60
 0
VERTEX
 8
OUT
 10
0
 20
0
 30
0
 70
128
 71
30
 72
44
 73
112
 74
112
 0
VERTEX
 8
OUT
 10
0
 20
0
 30
0
 70
128
 71
98
 72
57
 73
29
 74
29
 0
VERTEX
 8
OUT
 10
0
 20
0
 30
0
 70
128
 71
104
 72
65
 73
125
 74
125
 0
VERTEX
 8
OUT
 10
0
 20
0
 30
0
 70
128
 71
68
 72
92
 73
117
 74
117
 0
VERTEX
 8
OUT
 10
0
 20
0
 30
0
 70
128
 71
51
 72
94
 73
27
 74
27
 0
VERTEX
 8
OUT
 10
0
 20
0
 30
0
 70
128
 71
91
 72
93
 73
15
 74
15
 0
VERTEX
 8
OUT
 10
0
 20
0
 30
0
 70
128
 71
31
 72
45
 73
87
 74
87
 0
VERTEX
 8
OUT
 10
0
 20
0
 30
0
 70
128
 71
118
 72
34
 73
81
 74
81
 0
VERTEX
 8
OUT
 10
0
 20
0
 30
0
 70
128
 71
69
 72
36
 73
14
 74
14
 0
VERTEX
 8
OUT
 10
0
 20
0
 30
0
 70
128
 71
38
 72
107
 73
46
 74
46
 0
VERTEX
 8
OUT
 10
0
 20
0
 30
0
 70
128
 71
94
 72
86
 73
66
 74
66
 0
VERTEX
 8
OUT
 10
0
 20
0
 30
0
 70
128
 71
21
 72
58
 73
111
 74
111
 0
VERTEX
 8
OUT
 10
0
 20
0
 30
0
 70
128
 71
35
 72
114
 73
120
 74
120
 0
VERTEX
 8
OUT
 10
0
 20
0
 30
0
 70
128
 71
44
 72
53
 73
17
 74
17
 0
VERTEX
 8
OUT
 10
0
 20
0
 30
0
 70
128
 71
123
 72
79
 73
84
 74
84
 0
VERTEX
 8
OUT
 10
0
 20
0
 30
0
 70
128
 71
16
 72
26
 73
121
 74
121
 0
VERTEX
 8
OUT
 10
0
 20
0
 30
0
 70
128
 71
9
 72
122
 73
27
 74
27
 0
VERTEX
 8
OUT
 10
0
 20
0
 30
0
 70
128
 71
30
 72
53
 73
44
 74
44
 0
VERTEX
 8
OUT
 10
0
 20
0
 30
0
 70
128
 71
73
 72
31
 73
128
 74
128
 0
VERTEX
 8
OUT
 10
0
 20
0
 30
0
 70
128
 71
3
 72
85
 73
80
 74
80
 0
VERTEX
 8
OUT
 10
0
 20
0
 30
0
 70
128
 71
99
 72
6
 73
80
 74
80
 0
VERTEX
 8
OUT
 10
0
 20
0
 30
0
 70
128
 71
82
 72
39
 73
101
 74
101
 0
VERTEX
 8
OUT
 10
0
 20
0
 30
0
 70
128
 71
71
 72
39
 73
15
 74
15
 0
VERTEX
 8
OUT
 10
0
 20
0
 30
0
 70
128
 71
5
 72
22
 73
113
 74
113
 0
VERTEX
 8
OUT
 10
0
 20
0
 30
0
 70
128
 71
102
 72
88
 73
35
 74
35
 0
VERTEX
 8
OUT
 10
0
 20
0
 30
0
 70
128
 71
12
 72
99
 73
80
 74
80
 0
VERTEX
 8
OUT
 10
0
 20
0
 30
0
 70
128
 71
4
 72
82
 73
101
 74
101
 0
VERTEX
 8
OUT
 10
0
 20
0
 30
0
 70
128
 71
76
 72
99
 73
12
 74
12
 0
VERTEX
 8
OUT
 10
0
 20
0
 30
0
 70
128
 71
45
 72
14
 73
87
 74
87
 0
VERTEX
 8
OUT
 10
0
 20
0
 30
0
 70
128
 71
57
 72
40
 73
96
 74
96
 0
VERTEX
 8
OUT
 10
0
 20
0
 30
0
 70
128
 71
25
 72
81
 73
110
 74
110
 0
VERTEX
 8
OUT
 10
0
 20
0
 30
0
 70
128
 71
5
 72
35
 73
120
 74
120
 0
VERTEX
 8
OUT
 10
0
 20
0
 30
0
 70
128
 71
93
 72
65
 73
104
 74
104
 0
VERTEX
 8
OUT
 10
0
 20
0
 30
0
 70
128
 71
94
 72
66
 73
9
 74
9
 0
VERTEX
 8
OUT
 10
0
 20
0
 30
0
 70
128
 71
122
 72
56
 73
55
 74
55
 0
VERTEX
 8
OUT
 10
0
 20
0
 30
0
 70
128
 71
26
 72
103
 73
13
 74
13
 0
VERTEX
 8
OUT
 10
0
 20
0
 30
0
 70
128
 71
66
 72
61
 73
122
 74
122
 0
VERTEX
 8
OUT
 10
0
 20
0
 30
0
 70
128
 71
124
 72
51
 73
103
 74
103
 0
VERTEX
 8
OUT
 10
0
 20
0
 30
0
 70
128
 71
35
 72
88
 73
114
 74
114
 0
VERTEX
 8
OUT
 10
0
 20
0
 30
0
 70
128
 71
55
 72
56
 73
107
 74
107
 0
VERTEX
 8
OUT
 10
0
 20
0
 30
0
 70
128
 71
19
 72
97
 73
41
 74
41
 0
VERTEX
 8
OUT
 10
0
 20
0
 30
0
 70
128
 71
110
 72
2
 73
46
 74
46
 0
VERTEX
 8
OUT
 10
0
 20
0
 30
0
 70
128
 71
117
 72
46
 73
68
 74
68
 0
VERTEX
 8
OUT
 10
0
 20
0
 30
0
 70
128
 71
93
 72
104
 73
15
 74
15
 0
VERTEX
 8
OUT
 10
0
 20
0
 30
0
 70
128
 71
89
 72
10
 73
99
 74
99
 0
VERTEX
 8
OUT
 10
0
 20
0
 30
0
 70
128
 71
53
 72
20
 73
17
 74
17
 0
VERTEX
 8
OUT
 10
0
 20
0
 30
0
 70
128
 71
79
 72
52
 73
84
 74
84
 0
VERTEX
 8
OUT
 10
0
 20
0
 30
0
 70
128
 71
8
 72
77
 73
119
 74
119
 0
VERTEX
 8
OUT
 10
0
 20
0
 30
0
 70
128
 71
96
 72
73
 73
128
 74
128
 0
VERTEX
 8
OUT
 10
0
 20
0
 30
0
 70
128
 71
13
 72
27
 73
28
 74
28
 0
VERTEX
 8
OUT
 10
0
 20
0
 30
0
 70
128
 71
31
 72
72
 73
1
 74
1
 0
VERTEX
 8
OUT
 10
0
 20
0
 30
0
 70
128
 71
2
 72
104
 73
32
 74
32
 0
VERTEX
 8
OUT
 10
0
 20
0
 30
0
 70
128
 71
122
 72
25
 73
56
 74
56
 0
VERTEX
 8
OUT
 10
0
 20
0
 30
0
 70
128
 71
7
 72
74
 73
106
 74
106
 0
VERTEX
 8
OUT
 10
0
 20
0
 30
0
 70
128
 71
113
 72
125
 73
109
 74
109
 0
VERTEX
 8
OUT
 10
0
 20
0
 30
0
 70
128
 71
61
 72
118
 73
25
 74
25
 0
VERTEX
 8
OUT
 10
0
 20
0
 30
0
 70
128
 71
10
 72
6
 73
99
 74
99
 0
VERTEX
 8
OUT
 10
0
 20
0
 30
0
 70
128
 71
100
 72
116
 73
47
 74
47
 0
VERTEX
 8
OUT
 10
0
 20
0
 30
0
 70
128
 71
59
 72
100
 73
86
 74
86
 0
VERTEX
 8
OUT
 10
0
 20
0
 30
0
 70
128
 71
48
 72
52
 73
79
 74
79
 0
VERTEX
 8
OUT
 10
0
 20
0
 30
0
 70
128
 71
13
 72
103
 73
27
 74
27
 0
VERTEX
 8
OUT
 10
0
 20
0
 30
0
 70
128
 71
45
 72
12
 73
69
 74
69
 0
VERTEX
 8
OUT
 10
0
 20
0
 30
0
 70
128
 71
118
 72
81
 73
25
 74
25
 0
VERTEX
 8
OUT
 10
0
 20
0
 30
0
 70
128
 71
55
 72
107
 73
38
 74
38
 0
VERTEX
 8
OUT
 10
0
 20
0
 30
0
 70
128
 71
108
 72
100
 73
24
 74
24
 0
VERTEX
 8
OUT
 10
0
 20
0
 30
0
 70
128
 71
54
 72
84
 73
52
 74
52
 0
VERTEX
 8
OUT
 10
0
 20
0
 30
0
 70
128
 71
56
 72
25
 73
110
 74
110
 0
VERTEX
 8
OUT
 10
0
 20
0
 30
0
 70
128
 71
8
 72
126
 73
127
 74
127
 0
VERTEX
 8
OUT
 10
0
 20
0
 30
0
 70
128
 71
61
 72
25
 73
122
 74
122
 0
VERTEX
 8
OUT
 10
0
 20
0
 30
0
 70
128
 71
8
 72
119
 73
67
 74
67
 0
VERTEX
 8
OUT
 10
0
 20
0
 30
0
 70
128
 71
80
 72
85
 73
75
 74
75
 0
VERTEX
 8
OUT
 10
0
 20
0
 30
0
 70
128
 71
39
 72
33
 73
91
 74
91
 0
VERTEX
 8
OUT
 10
0
 20
0
 30
0
 70
128
 71
112
 72
44
 73
17
 74
17
 0
VERTEX
 8
OUT
 10
0
 20
0
 30
0
 70
128
 71
88
 72
20
 73
70
 74
70
 0
VERTEX
 8
OUT
 10
0
 20
0
 30
0
 70
128
 71
6
 72
95
 73
80
 74
80
 0
VERTEX
 8
OUT
 10
0
 20
0
 30
0
 70
128
 71
64
 72
10
 73
89
 74
89
 0
VERTEX
 8
OUT
 10
0
 20
0
 30
0
 70
128
 71
40
 72
76
 73
73
 74
73
 0
VERTEX
 8
OUT
 10
0
 20
0
 30
0
 70
128
 71
112
 72
17
 73
74
 74
74
 0
VERTEX
 8
OUT
 10
0
 20
0
 30
0
 70
128
 71
7
 72
112
 73
74
 74
74
 0
VERTEX
 8
OUT
 10
0
 20
0
 30
0
 70
128
 71
30
 72
112
 73
7
 74
7
 0
VERTEX
 8
OUT
 10
0
 20
0
 30
0
 70
128
 71
120
 72
114
 73
5
 74
5
 0
VERTEX
 8
OUT
 10
0
 20
0
 30
0
 70
128
 71
86
 72
61
 73
66
 74
66
 0
VERTEX
 8
OUT
 10
0
 20
0
 30
0
 70
128
 71
32
 72
113
 73
22
 74
22
 0
VERTEX
 8
OUT
 10
0
 20
0
 30
0
 70
128
 71
15
 72
104
 73
2
 74
2
 0
SEQEND
 0
POLYLINE
 8
MID
 66
1
 10
0.0
 20
0.0
 30
0.0
 70
64
 71
336
 72
609
 0
VERTEX
 8
MID
 10
0.8793
 20
-0.6385
 30
26.7067
 70
192
 0
VERTEX
 8
MID
 10
-0.1156
 20
-0.794
 30
26.668
 70
192
 0
VERTEX
 8
MID
 10
0.4871
 20
-0.7281
 30
26.0659
 70
192
 0
VERTEX
 8
MID
 10
-0.2136
 20
-0.5307
 30
25.7942
 70
192
 0
VERTEX
 8
MID
 10
2.1075
 20
-1.0945
 30
28.8577
 70
192
 0
VERTEX
 8
MID
 10
-0.3719
 20
-0.0768
 30
24.8195
 70
192
 0
VERTEX
 8
MID
 10
-0.9202
 20
-1.9876
 30
31.3981
 70
192
 0
VERTEX
 8
MID
 10
-1.5254
 20
-1.7316
 30
30.9673
 70
192
 0
VERTEX
 8
MID
 10
-1.6724
 20
-1.3327
 30
29.583
 70
192
 0
VERTEX
 8
MID
 10
2.2468
 20
-1.1182
 30
29.2157
 70
192
 0
VERTEX
 8
MID
 10
-1.566
 20
-1.722
 30
31.3231
 70
192
 0
VERTEX
 8
MID
 10
-0.2778
 20
-0.4046
 30
25.6597
 70
192
 0
VERTEX
 8
MID
 10
-1.5493
 20
-1.3881
 30
29.5461
 70
192
 0
VERTEX
 8
MID
 10
2.3126
 20
-1.051
 30
29.5194
 70
192
 0
VERTEX
 8
MID
 10
2.0428
 20
-1.4494
 30
29.7637
 70
192
 0
VERTEX
 8
MID
 10
0.945
 20
-0.3287
 30
26.8768
 70
192
 0
VERTEX
 8
MID
 10
-1.2427
 20
-0.923
 30
28.0517
 70
192
 0
VERTEX
 8
MID
 10
2.158
 20
-1.6079
 30
30.7978
 70
192
 0
VERTEX
 8
MID
 10
-0.2409
 20
-1.812
 30
32.041
 70
192
 0
VERTEX
 8
MID
 10
-0.8789
 20
-0.9494
 30
27.8432
 70
192
 0
VERTEX
 8
MID
 10
1.0451
 20
-0.4016
 30
27.1595
 70
192
 0
VERTEX
 8
MID
 10
-1.3563
 20
-1.8233
 30
31.6221
 70
192
 0
VERTEX
 8
MID
 10
-0.5382
 20
-0.7253
 30
27.1364
 70
192
 0
VERTEX
 8
MID
 10
2.3065
 20
-1.2369
 30
30.1058
 70
192
 0
VERTEX
 8
MID
 10
0.3094
 20
-0.6522
 30
25.1644
 70
192
 0
VERTEX
 8
MID
 10
-1.3632
 20
-0.6006
 30
27.8583
 70
192
 0
VERTEX
 8
MID
 10
0.6893
 20
-0.4117
 30
25.2088
 70
192
 0
VERTEX
 8
MID
 10
1.3575
 20
-0.7472
 30
27.5217
 70
192
 0
VERTEX
 8
MID
 10
-0.4192
 20
0.094
 30
24.2986
 70
192
 0
VERTEX
 8
MID
 10
-0.2623
 20
-0.6137
 30
26.2488
 70
192
 0
VERTEX
 8
MID
 10
0.6866
 20
-0.2575
 30
24.0993
 70
192
 0
VERTEX
 8
MID
 10
1.6951
 20
-1.8102
 30
31.7653
 70
192
 0
VERTEX
 8
MID
 10
-0.2752
 20
-0.6512
 30
26.3962
 70
192
 0
VERTEX
 8
MID
 10
-0.1118
 20
-0.6217
 30
25.7774
 70
192
 0
VERTEX
 8
MID
 10
0.0036
 20
-0.8323
 30
26.8107
 70
192
 0
VERTEX
 8
MID
 10
-1.8141
 20
-1.2187
 30
29.7811
 70
192
 0
VERTEX
 8
MID
 10
-0.2637
 20
-0.7815
 30
26.8249
 70
192
 0
VERTEX
 8
MID
 10
-1.7701
 20
-1.1188
 30
29.2575
 70
192
 0
VERTEX
 8
MID
 10
-0.3648
 20
-2.0616
 30
31.664
 70
192
 0
VERTEX
 8
MID
 10
-1.7816
 20
-1.3716
 30
30.1255
 70
192
 0
VERTEX
 8
MID
 10
1.9339
 20
-1.7877
 30
31.1111
 70
192
 0
VERTEX
 8
MID
 10
0.2682
 20
-2.0443
 30
31.8832
 70
192
 0
VERTEX
 8
MID
 10
-1.6066
 20
-1.1137
 30
28.8974
 70
192
 0
VERTEX
 8
MID
 10
1.2366
 20
-0.5796
 30
27.3813
 70
192
 0
VERTEX
 8
MID
 10
1.9448
 20
-1.1703
 30
28.835
 70
192
 0
VERTEX
 8
MID
 10
1.7533
 20
-0.6882
 30
27.7942
 70
192
 0
VERTEX
 8
MID
 10
1.9648
 20
-1.7816
 30
31.4731
 70
192
 0
VERTEX
 8
MID
 10
0.1534
 20
-0.488
 30
23.9673
 70
192
 0
VERTEX
 8
MID
 10
1.6968
 20
-0.7565
 30
27.7817
 70
192
 0
VERTEX
 8
MID
 10
1.8882
 20
-1.7488
 30
30.7372
 70
192
 0
VERTEX
 8
MID
 10
0.7224
 20
-0.3002
 30
24.7787
 70
192
 0
VERTEX
 8
MID
 10
2.2041
 20
-1.0173
 30
28.8835
 70
192
 0
VERTEX
 8
MID
 10
-1.6107
 20
-1.6788
 30
30.9826
 70
192
 0
VERTEX
 8
MID
 10
-1.8254
 20
-1.2374
 30
30.1056
 70
192
 0
VERTEX
 8
MID
 10
-0.4865
 20
-1.8299
 30
32.018
 70
192
 0
VERTEX
 8
MID
 10
0.7832
 20
-1.8132
 30
32.043
 70
192
 0
VERTEX
 8
MID
 10
-1.6344
 20
-1.1678
 30
29.0682
 70
192
 0
VERTEX
 8
MID
 10
0.8071
 20
-1.9649
 30
31.9321
 70
192
 0
VERTEX
 8
MID
 10
-0.91
 20
-0.7125
 30
27.53
 70
192
 0
VERTEX
 8
MID
 10
1.9676
 20
-1.5928
 30
30.1848
 70
192
 0
VERTEX
 8
MID
 10
-1.6284
 20
-1.6563
 30
31.2946
 70
192
 0
VERTEX
 8
MID
 10
-0.1719
 20
-0.9182
 30
27.3844
 70
192
 0
VERTEX
 8
MID
 10
1.7437
 20
-1.1917
 30
28.7238
 70
192
 0
VERTEX
 8
MID
 10
-0.6485
 20
-0.4475
 30
27.3072
 70
192
 0
VERTEX
 8
MID
 10
-0.2973
 20
-0.2209
 30
24.7931
 70
192
 0
VERTEX
 8
MID
 10
-1.777
 20
-1.0266
 30
29.0921
 70
192
 0
VERTEX
 8
MID
 10
0.8319
 20
-0.1776
 30
25.2504
 70
192
 0
VERTEX
 8
MID
 10
-0.4947
 20
-0.8031
 30
27.2232
 70
192
 0
VERTEX
 8
MID
 10
1.4621
 20
-1.956
 30
31.2285
 70
192
 0
VERTEX
 8
MID
 10
-1.0105
 20
-1.956
 30
31.6293
 70
192
 0
VERTEX
 8
MID
 10
0.3284
 20
-0.4851
 30
23.9683
 70
192
 0
VERTEX
 8
MID
 10
1.1524
 20
-0.5921
 30
27.2754
 70
192
 0
VERTEX
 8
MID
 10
1.8151
 20
-1.0862
 30
28.5128
 70
192
 0
VERTEX
 8
MID
 10
0.2185
 20
-0.6841
 30
25.3842
 70
192
 0
VERTEX
 8
MID
 10
1.038
 20
-0.8463
 30
27.4042
 70
192
 0
VERTEX
 8
MID
 10
2.0312
 20
-1.3723
 30
29.482
 70
192
 0
VERTEX
 8
MID
 10
2.1764
 20
-1.4459
 30
30.0479
 70
192
 0
VERTEX
 8
MID
 10
0.8818
 20
-0.2336
 30
26.4159
 70
192
 0
VERTEX
 8
MID
 10
0.1529
 20
-0.7902
 30
26.3583
 70
192
 0
VERTEX
 8
MID
 10
-0.5547
 20
-0.4038
 30
27.1575
 70
192
 0
VERTEX
 8
MID
 10
0.7728
 20
-0.6347
 30
26.3995
 70
192
 0
VERTEX
 8
MID
 10
-1.8238
 20
-1.294
 30
30.2746
 70
192
 0
VERTEX
 8
MID
 10
2.2508
 20
-1.4796
 30
30.6521
 70
192
 0
VERTEX
 8
MID
 10
-0.8377
 20
-0.6443
 30
27.4587
 70
192
 0
VERTEX
 8
MID
 10
0.63
 20
-0.631
 30
25.9321
 70
192
 0
VERTEX
 8
MID
 10
-0.365
 20
-0.3595
 30
26.1392
 70
192
 0
VERTEX
 8
MID
 10
-0.96
 20
-1.1224
 30
28.3898
 70
192
 0
VERTEX
 8
MID
 10
1.9676
 20
-1.2972
 30
29.1877
 70
192
 0
VERTEX
 8
MID
 10
-0.1591
 20
-0.4641
 30
25.1994
 70
192
 0
VERTEX
 8
MID
 10
-1.7701
 20
-1.2474
 30
29.5978
 70
192
 0
VERTEX
 8
MID
 10
0.6068
 20
-0.4312
 30
24.7546
 70
192
 0
VERTEX
 8
MID
 10
0.9346
 20
-0.4982
 30
26.7362
 70
192
 0
VERTEX
 8
MID
 10
1.0345
 20
-0.7042
 30
27.1405
 70
192
 0
VERTEX
 8
MID
 10
2.0158
 20
-0.7268
 30
28.0984
 70
192
 0
VERTEX
 8
MID
 10
-1.0898
 20
-0.8897
 30
27.8518
 70
192
 0
VERTEX
 8
MID
 10
0.1865
 20
-0.8589
 30
26.9573
 70
192
 0
VERTEX
 8
MID
 10
0.8458
 20
-0.2347
 30
25.69
 70
192
 0
VERTEX
 8
MID
 10
0.0757
 20
-0.9297
 30
27.381
 70
192
 0
VERTEX
 8
MID
 10
1.1698
 20
-2.027
 30
31.6457
 70
192
 0
VERTEX
 8
MID
 10
1.2089
 20
-1.0998
 30
28.2083
 70
192
 0
VERTEX
 8
MID
 10
0.4766
 20
-2.0282
 30
31.889
 70
192
 0
VERTEX
 8
MID
 10
-1.4991
 20
-1.5716
 30
30.1153
 70
192
 0
VERTEX
 8
MID
 10
0.5561
 20
-0.5798
 30
25.4036
 70
192
 0
VERTEX
 8
MID
 10
0.8904
 20
0.0865
 30
24.3846
 70
192
 0
VERTEX
 8
MID
 10
-0.3791
 20
-0.2904
 30
26.151
 70
192
 0
VERTEX
 8
MID
 10
-0.3514
 20
-0.742
 30
26.835
 70
192
 0
VERTEX
 8
MID
 10
1.0264
 20
-0.5296
 30
27.0302
 70
192
 0
VERTEX
 8
MID
 10
-0.6337
 20
-0.8685
 30
27.4915
 70
192
 0
VERTEX
 8
MID
 10
0.9926
 20
-1.9093
 30
31.9555
 70
192
 0
VERTEX
 8
MID
 10
2.2876
 20
-1.3929
 30
30.5646
 70
192
 0
VERTEX
 8
MID
 10
-0.2805
 20
-0.3483
 30
25.4449
 70
192
 0
VERTEX
 8
MID
 10
0.7911
 20
-0.5026
 30
26.1138
 70
192
 0
VERTEX
 8
MID
 10
-0.8851
 20
-1.923
 30
31.7854
 70
192
 0
VERTEX
 8
MID
 10
-1.6928
 20
-1.127
 30
29.0752
 70
192
 0
VERTEX
 8
MID
 10
-1.5786
 20
-1.6785
 30
30.8011
 70
192
 0
VERTEX
 8
MID
 10
2.205
 20
-1.5064
 30
30.4362
 70
192
 0
VERTEX
 8
MID
 10
-1.3986
 20
-1.1358
 30
28.7145
 70
192
 0
VERTEX
 8
MID
 10
-0.4186
 20
0.0861
 30
24.2443
 70
192
 0
VERTEX
 8
MID
 10
-1.5521
 20
-0.663
 30
28.1135
 70
192
 0
VERTEX
 8
MID
 10
0.5921
 20
-0.8341
 30
26.9632
 70
192
 0
VERTEX
 8
MID
 10
0.6617
 20
-2.0875
 30
31.4233
 70
192
 0
VERTEX
 8
MID
 10
0.273
 20
-1.7906
 30
32.0579
 70
192
 0
VERTEX
 8
MID
 10
1.5576
 20
-1.9395
 30
31.6387
 70
192
 0
VERTEX
 8
MID
 10
2.2518
 20
-0.9439
 30
28.9094
 70
192
 0
VERTEX
 8
MID
 10
-0.1586
 20
-1.9966
 30
31.918
 70
192
 0
VERTEX
 8
MID
 10
0.0588
 20
-0.6822
 30
25.61
 70
192
 0
VERTEX
 8
MID
 10
-0.3843
 20
-0.4656
 30
26.4342
 70
192
 0
VERTEX
 8
MID
 10
0.2713
 20
-0.9499
 30
27.4717
 70
192
 0
VERTEX
 8
MID
 10
0.8277
 20
-2.0676
 30
31.6611
 70
192
 0
VERTEX
 8
MID
 10
-1.2343
 20
-0.8228
 30
27.8626
 70
192
 0
VERTEX
 8
MID
 10
0.0459
 20
-0.4556
 30
23.9853
 70
192
 0
VERTEX
 8
MID
 10
1.1139
 20
-1.8269
 30
31.9804
 70
192
 0
VERTEX
 8
MID
 10
1.9818
 20
-1.6757
 30
30.5671
 70
192
 0
VERTEX
 8
MID
 10
-0.7981
 20
-1.957
 30
31.0596
 70
192
 0
VERTEX
 8
MID
 10
1.7724
 20
-1.8357
 30
31.6818
 70
192
 0
VERTEX
 8
MID
 10
-0.6633
 20
-0.6077
 30
27.2719
 70
192
 0
VERTEX
 8
MID
 10
1.0684
 20
-0.655
 30
27.1501
 70
192
 0
VERTEX
 8
MID
 10
0.9921
 20
-2.0631
 30
31.4418
 70
192
 0
VERTEX
 8
MID
 10
-1.8107
 20
-1.1118
 30
29.4395
 70
192
 0
VERTEX
 8
MID
 10
-1.6061
 20
-0.8698
 30
28.4086
 70
192
 0
VERTEX
 8
MID
 10
0.795
 20
-0.3513
 30
25.6692
 70
192
 0
VERTEX
 8
MID
 10
-0.2347
 20
-0.3114
 30
24.7766
 70
192
 0
VERTEX
 8
MID
 10
0.0153
 20
-0.6314
 30
25.3941
 70
192
 0
VERTEX
 8
MID
 10
-1.1553
 20
-1.8268
 30
30.7497
 70
192
 0
VERTEX
 8
MID
 10
1.5637
 20
-0.8415
 30
27.7672
 70
192
 0
VERTEX
 8
MID
 10
0.8395
 20
-0.1043
 30
24.8144
 70
192
 0
VERTEX
 8
MID
 10
1.8859
 20
-0.6103
 30
27.9025
 70
192
 0
VERTEX
 8
MID
 10
2.1036
 20
-1.3405
 30
29.4949
 70
192
 0
VERTEX
 8
MID
 10
-0.6437
 20
-0.6766
 30
27.2552
 70
192
 0
VERTEX
 8
MID
 10
-0.3967
 20
0.0265
 30
24.8385
 70
192
 0
VERTEX
 8
MID
 10
-1.3473
 20
-1.2177
 30
28.8786
 70
192
 0
VERTEX
 8
MID
 10
-1.71
 20
-0.8275
 30
28.5913
 70
192
 0
VERTEX
 8
MID
 10
-0.5985
 20
-0.5874
 30
27.1633
 70
192
 0
VERTEX
 8
MID
 10
0.3438
 20
-2.0995
 30
31.572
 70
192
 0
VERTEX
 8
MID
 10
1.2561
 20
-0.8103
 30
27.5061
 70
192
 0
VERTEX
 8
MID
 10
-1.2435
 20
-1.8083
 30
31.7462
 70
192
 0
VERTEX
 8
MID
 10
2.1553
 20
-1.1972
 30
29.1843
 70
192
 0
VERTEX
 8
MID
 10
-1.5133
 20
-1.2275
 30
29.0574
 70
192
 0
VERTEX
 8
MID
 10
0.3172
 20
-0.8043
 30
26.5087
 70
192
 0
VERTEX
 8
MID
 10
1.4607
 20
-1.8183
 30
31.8608
 70
192
 0
VERTEX
 8
MID
 10
-1.1792
 20
-1.8928
 30
31.658
 70
192
 0
VERTEX
 8
MID
 10
0.3845
 20
-0.469
 30
23.9768
 70
192
 0
VERTEX
 8
MID
 10
0.7908
 20
-0.8719
 30
27.3011
 70
192
 0
VERTEX
 8
MID
 10
0.1563
 20
-0.6773
 30
25.3855
 70
192
 0
VERTEX
 8
MID
 10
-0.3439
 20
-0.1877
 30
25.2486
 70
192
 0
VERTEX
 8
MID
 10
1.4938
 20
-1.9771
 30
31.4856
 70
192
 0
VERTEX
 8
MID
 10
1.3516
 20
-1.9844
 30
31.6702
 70
192
 0
VERTEX
 8
MID
 10
-1.4842
 20
-0.6354
 30
28.0012
 70
192
 0
VERTEX
 8
MID
 10
-0.4737
 20
-0.8458
 30
27.3097
 70
192
 0
VERTEX
 8
MID
 10
-1.54
 20
-1.5017
 30
29.9147
 70
192
 0
VERTEX
 8
MID
 10
-0.7033
 20
-2.019
 30
31.6483
 70
192
 0
VERTEX
 8
MID
 10
-0.1482
 20
-0.3301
 30
24.0592
 70
192
 0
VERTEX
 8
MID
 10
-1.196
 20
-1.879
 30
31.0956
 70
192
 0
VERTEX
 8
MID
 10
-0.0083
 20
-2.0904
 30
31.6323
 70
192
 0
VERTEX
 8
MID
 10
1.9072
 20
-1.8082
 30
31.5526
 70
192
 0
VERTEX
 8
MID
 10
-1.4707
 20
-1.6986
 30
30.6104
 70
192
 0
VERTEX
 8
MID
 10
1.1513
 20
-0.4524
 30
27.3277
 70
192
 0
VERTEX
 8
MID
 10
-0.4551
 20
-0.3296
 30
26.8684
 70
192
 0
VERTEX
 8
MID
 10
2.1277
 20
-1.6581
 30
31.1614
 70
192
 0
VERTEX
 8
MID
 10
-0.5422
 20
-1.8904
 30
31.9631
 70
192
 0
VERTEX
 8
MID
 10
0.9331
 20
-0.8095
 30
27.2208
 70
192
 0
VERTEX
 8
MID
 10
-1.7045
 20
-1.4543
 30
30.1104
 70
192
 0
VERTEX
 8
MID
 10
2.2604
 20
-0.8498
 30
28.8331
 70
192
 0
VERTEX
 8
MID
 10
-0.6529
 20
-2.0328
 30
31.3817
 70
192
 0
VERTEX
 8
MID
 10
-1.4744
 20
-1.7591
 30
31.5704
 70
192
 0
VERTEX
 8
MID
 10
-1.7683
 20
-1.3012
 30
29.7686
 70
192
 0
VERTEX
 8
MID
 10
0.2456
 20
-1.9196
 30
32.0311
 70
192
 0
VERTEX
 8
MID
 10
-0.5914
 20
-0.7433
 30
27.2386
 70
192
 0
VERTEX
 8
MID
 10
-0.1272
 20
-2.0872
 30
31.422
 70
192
 0
VERTEX
 8
MID
 10
-0.3528
 20
-1.0763
 30
28.0318
 70
192
 0
VERTEX
 8
MID
 10
-0.1425
 20
-0.3885
 30
24.5368
 70
192
 0
VERTEX
 8
MID
 10
2.2609
 20
-1.2732
 30
29.7136
 70
192
 0
VERTEX
 8
MID
 10
1.899
 20
-0.7678
 30
27.9743
 70
192
 0
VERTEX
 8
MID
 10
-0.3845
 20
-1.9497
 30
31.9388
 70
192
 0
VERTEX
 8
MID
 10
1.7646
 20
-1.8524
 30
31.0842
 70
192
 0
VERTEX
 8
MID
 10
-1.7175
 20
-1.5472
 30
30.6506
 70
192
 0
VERTEX
 8
MID
 10
-0.3884
 20
0.001
 30
24.2232
 70
192
 0
VERTEX
 8
MID
 10
-0.6492
 20
-1.994
 30
31.7497
 70
192
 0
VERTEX
 8
MID
 10
-1.3778
 20
-1.6917
 30
30.4244
 70
192
 0
VERTEX
 8
MID
 10
-1.7586
 20
-1.4956
 30
30.8481
 70
192
 0
VERTEX
 8
MID
 10
0.9478
 20
-0.6252
 30
26.8614
 70
192
 0
VERTEX
 8
MID
 10
0.4298
 20
-0.6494
 30
25.3908
 70
192
 0
VERTEX
 8
MID
 10
-0.3179
 20
-0.1242
 30
24.168
 70
192
 0
VERTEX
 8
MID
 10
0.6797
 20
-0.4656
 30
25.4241
 70
192
 0
VERTEX
 8
MID
 10
2.061
 20
-1.6396
 30
30.5832
 70
192
 0
VERTEX
 8
MID
 10
1.6737
 20
-1.9226
 30
31.5086
 70
192
 0
VERTEX
 8
MID
 10
0.7106
 20
-0.5596
 30
25.946
 70
192
 0
VERTEX
 8
MID
 10
-1.6856
 20
-1.6109
 30
31.001
 70
192
 0
VERTEX
 8
MID
 10
2.0199
 20
-1.7299
 30
31.4919
 70
192
 0
VERTEX
 8
MID
 10
0.4726
 20
-1.7948
 30
32.056
 70
192
 0
VERTEX
 8
MID
 10
0.8022
 20
-0.92
 30
27.4788
 70
192
 0
VERTEX
 8
MID
 10
2.2233
 20
-1.3123
 30
29.6943
 70
192
 0
VERTEX
 8
MID
 10
1.9609
 20
-0.7948
 30
28.0822
 70
192
 0
VERTEX
 8
MID
 10
0.0058
 20
-2.0977
 30
31.5249
 70
192
 0
VERTEX
 8
MID
 10
1.8011
 20
-1.7356
 30
30.54
 70
192
 0
VERTEX
 8
MID
 10
0.8383
 20
-0.4044
 30
26.1314
 70
192
 0
VERTEX
 8
MID
 10
0.8744
 20
0.008
 30
24.988
 70
192
 0
VERTEX
 8
MID
 10
-1.6343
 20
-1.4078
 30
29.7503
 70
192
 0
VERTEX
 8
MID
 10
-0.4821
 20
-0.5735
 30
26.8728
 70
192
 0
VERTEX
 8
MID
 10
2.0505
 20
-1.5612
 30
30.2049
 70
192
 0
VERTEX
 8
MID
 10
-0.2822
 20
-1.914
 30
31.9968
 70
192
 0
VERTEX
 8
MID
 10
0.4956
 20
-0.418
 30
24.0081
 70
192
 0
VERTEX
 8
MID
 10
1.1195
 20
-2.0001
 30
31.7477
 70
192
 0
VERTEX
 8
MID
 10
1.0047
 20
-2.0233
 30
31.2104
 70
192
 0
VERTEX
 8
MID
 10
0.6677
 20
-0.8889
 30
27.2961
 70
192
 0
VERTEX
 8
MID
 10
-1.6953
 20
-0.9642
 30
28.7437
 70
192
 0
VERTEX
 8
MID
 10
1.5209
 20
-1.8796
 30
30.8767
 70
192
 0
VERTEX
 8
MID
 10
-1.5927
 20
-1.3194
 30
29.4034
 70
192
 0
VERTEX
 8
MID
 10
-0.3974
 20
-0.6406
 30
26.7068
 70
192
 0
VERTEX
 8
MID
 10
0.6357
 20
-2.0933
 30
31.4787
 70
192
 0
VERTEX
 8
MID
 10
0.8499
 20
-0.5261
 30
26.4225
 70
192
 0
VERTEX
 8
MID
 10
0.0715
 20
-1.8731
 30
32.0488
 70
192
 0
VERTEX
 8
MID
 10
0.2465
 20
-1.9853
 30
31.9706
 70
192
 0
VERTEX
 8
MID
 10
-0.3053
 20
-2.04
 30
31.7604
 70
192
 0
VERTEX
 8
MID
 10
-1.8237
 20
-1.0145
 30
29.3995
 70
192
 0
VERTEX
 8
MID
 10
-0.3745
 20
-0.1269
 30
25.4842
 70
192
 0
VERTEX
 8
MID
 10
2.1564
 20
-1.504
 30
30.2301
 70
192
 0
VERTEX
 8
MID
 10
0.8669
 20
-0.0715
 30
25.4942
 70
192
 0
VERTEX
 8
MID
 10
-0.4212
 20
-2.0712
 30
31.4994
 70
192
 0
VERTEX
 8
MID
 10
0.407
 20
-0.7812
 30
26.3609
 70
192
 0
VERTEX
 8
MID
 10
-0.7068
 20
-1.0106
 30
27.9304
 70
192
 0
VERTEX
 8
MID
 10
1.136
 20
-0.6579
 30
27.2593
 70
192
 0
VERTEX
 8
MID
 10
0.7205
 20
-0.7145
 30
26.5348
 70
192
 0
VERTEX
 8
MID
 10
0.829
 20
-0.0601
 30
24.1987
 70
192
 0
VERTEX
 8
MID
 10
1.5176
 20
-1.8985
 30
31.7566
 70
192
 0
VERTEX
 8
MID
 10
-0.7359
 20
-0.4772
 30
27.4061
 70
192
 0
VERTEX
 8
MID
 10
-1.7691
 20
-1.4757
 30
30.6672
 70
192
 0
VERTEX
 8
MID
 10
-1.4427
 20
-0.9792
 30
28.3882
 70
192
 0
VERTEX
 8
MID
 10
1.6653
 20
-1.8489
 30
30.8913
 70
192
 0
VERTEX
 8
MID
 10
0.0431
 20
-1.7969
 30
32.0557
 70
192
 0
VERTEX
 8
MID
 10
0.8653
 20
0.0134
 30
24.2269
 70
192
 0
VERTEX
 8
MID
 10
1.815
 20
-1.8438
 30
31.6148
 70
192
 0
VERTEX
 8
MID
 10
-0.2733
 20
-0.8865
 30
27.2976
 70
192
 0
VERTEX
 8
MID
 10
2.1388
 20
-0.8071
 30
28.414
 70
192
 0
VERTEX
 8
MID
 10
-1.4196
 20
-0.7592
 30
27.9757
 70
192
 0
VERTEX
 8
MID
 10
2.3012
 20
-1.2801
 30
30.1241
 70
192
 0
VERTEX
 8
MID
 10
-1.5313
 20
-1.7301
 30
31.4919
 70
192
 0
VERTEX
 8
MID
 10
0.1424
 20
-1.0665
 30
27.9326
 70
192
 0
VERTEX
 8
MID
 10
-1.3505
 20
-1.8466
 30
31.2816
 70
192
 0
VERTEX
 8
MID
 10
1.3773
 20
-0.5148
 30
27.5273
 70
192
 0
VERTEX
 8
MID
 10
0.9601
 20
-2.0684
 30
31.5634
 70
192
 0
VERTEX
 8
MID
 10
-0.3962
 20
-0.3927
 30
26.4476
 70
192
 0
VERTEX
 8
MID
 10
0.0256
 20
-0.5728
 30
24.9537
 70
192
 0
VERTEX
 8
MID
 10
2.2723
 20
-1.3501
 30
30.0919
 70
192
 0
VERTEX
 8
MID
 10
-1.7202
 20
-0.787
 30
28.5993
 70
192
 0
VERTEX
 8
MID
 10
-0.3888
 20
-0.2309
 30
26.3872
 70
192
 0
VERTEX
 8
MID
 10
1.3159
 20
-1.9499
 30
31.0398
 70
192
 0
VERTEX
 8
MID
 10
2.0524
 20
-1.7215
 30
31.1372
 70
192
 0
VERTEX
 8
MID
 10
-1.5611
 20
-0.9911
 30
28.5619
 70
192
 0
VERTEX
 8
MID
 10
-1.6573
 20
-1.5669
 30
30.4594
 70
192
 0
VERTEX
 8
MID
 10
2.2884
 20
-1.0432
 30
29.2467
 70
192
 0
VERTEX
 8
MID
 10
1.5482
 20
-1.1447
 30
28.4839
 70
192
 0
VERTEX
 8
MID
 10
-0.4879
 20
-0.5022
 30
26.8872
 70
192
 0
VERTEX
 8
MID
 10
2.1316
 20
-0.9219
 30
28.5559
 70
192
 0
VERTEX
 8
MID
 10
1.9978
 20
-1.7345
 30
30.9414
 70
192
 0
VERTEX
 8
MID
 10
1.0253
 20
-0.7684
 30
27.2315
 70
192
 0
VERTEX
 8
MID
 10
1.8949
 20
-1.7813
 30
31.6382
 70
192
 0
VERTEX
 8
MID
 10
0.1129
 20
-2.0779
 30
31.7306
 70
192
 0
VERTEX
 8
MID
 10
1.613
 20
-0.9222
 30
27.9454
 70
192
 0
VERTEX
 8
MID
 10
2
 20
-1.0822
 30
28.6851
 70
192
 0
VERTEX
 8
MID
 10
2.0121
 20
-0.9317
 30
28.3809
 70
192
 0
VERTEX
 8
MID
 10
1.2679
 20
-2.0251
 30
31.4631
 70
192
 0
VERTEX
 8
MID
 10
-1.2889
 20
-0.6331
 30
27.8045
 70
192
 0
VERTEX
 8
MID
 10
0.5919
 20
-1.942
 30
31.9904
 70
192
 0
VERTEX
 8
MID
 10
-0.8576
 20
-1.8198
 30
31.8983
 70
192
 0
VERTEX
 8
MID
 10
0.4023
 20
-1.8666
 30
32.0511
 70
192
 0
VERTEX
 8
MID
 10
1.9727
 20
-0.6349
 30
28.0013
 70
192
 0
VERTEX
 8
MID
 10
-1.7891
 20
-0.8868
 30
28.9621
 70
192
 0
VERTEX
 8
MID
 10
0.5833
 20
-0.7893
 30
26.6682
 70
192
 0
VERTEX
 8
MID
 10
-1.2491
 20
-0.7153
 30
27.7886
 70
192
 0
VERTEX
 8
MID
 10
2.1075
 20
-0.7018
 30
28.2705
 70
192
 0
VERTEX
 8
MID
 10
0.3527
 20
-0.8927
 30
27.1986
 70
192
 0
VERTEX
 8
MID
 10
-0.3784
 20
-0.0627
 30
25.4233
 70
192
 0
VERTEX
 8
MID
 10
-0.4658
 20
-2.0297
 30
31.2318
 70
192
 0
VERTEX
 8
MID
 10
-1.3331
 20
-0.8289
 30
27.9621
 70
192
 0
VERTEX
 8
MID
 10
1.4462
 20
-0.9674
 30
27.9376
 70
192
 0
VERTEX
 8
MID
 10
1.8627
 20
-0.865
 30
28.0655
 70
192
 0
VERTEX
 8
MID
 10
0.6007
 20
-0.5446
 30
25.4099
 70
192
 0
VERTEX
 8
MID
 10
-1.4815
 20
-0.7856
 30
28.0844
 70
192
 0
VERTEX
 8
MID
 10
-0.29
 20
-0.1643
 30
24.1478
 70
192
 0
VERTEX
 8
MID
 10
-0.3263
 20
-0.2644
 30
25.4598
 70
192
 0
VERTEX
 8
MID
 10
1.4143
 20
-0.6812
 30
27.5379
 70
192
 0
VERTEX
 8
MID
 10
-0.6886
 20
-2.0371
 30
31.5239
 70
192
 0
VERTEX
 8
MID
 10
0.3804
 20
-2.0868
 30
31.3609
 70
192
 0
VERTEX
 8
MID
 10
-0.8998
 20
-0.519
 30
27.54
 70
192
 0
VERTEX
 8
MID
 10
2.2869
 20
-1.1832
 30
29.5665
 70
192
 0
VERTEX
 8
MID
 10
-1.0767
 20
-1.954
 30
31.4945
 70
192
 0
VERTEX
 8
MID
 10
-1.489
 20
-1.3012
 30
29.2246
 70
192
 0
VERTEX
 8
MID
 10
0.8082
 20
-0.7028
 30
26.6914
 70
192
 0
VERTEX
 8
MID
 10
-0.5837
 20
-0.6575
 30
27.1496
 70
192
 0
VERTEX
 8
MID
 10
-0.3472
 20
-0.5609
 30
26.4157
 70
192
 0
VERTEX
 8
MID
 10
1.7934
 20
-0.8996
 30
28.0573
 70
192
 0
VERTEX
 8
MID
 10
0.7834
 20
-1.0757
 30
28.012
 70
192
 0
VERTEX
 8
MID
 10
-1.5995
 20
-0.7581
 30
28.2593
 70
192
 0
VERTEX
 8
MID
 10
-0.0938
 20
-0.4915
 30
24.969
 70
192
 0
VERTEX
 8
MID
 10
0.5926
 20
-2.0876
 30
31.6389
 70
192
 0
VERTEX
 8
MID
 10
1.6703
 20
-0.6055
 30
27.7237
 70
192
 0
VERTEX
 8
MID
 10
-1.2634
 20
-1.8911
 30
31.4333
 70
192
 0
VERTEX
 8
MID
 10
0.6306
 20
-0.6959
 30
26.2297
 70
192
 0
VERTEX
 8
MID
 10
-1.1616
 20
-1.8691
 30
31.7221
 70
192
 0
VERTEX
 8
MID
 10
-1.3953
 20
-1.8319
 30
31.4548
 70
192
 0
VERTEX
 8
MID
 10
0.5404
 20
-1.0693
 30
27.9542
 70
192
 0
VERTEX
 8
MID
 10
0.7924
 20
-0.2587
 30
25.236
 70
192
 0
VERTEX
 8
MID
 10
-1.3205
 20
-1.7849
 30
30.7671
 70
192
 0
VERTEX
 8
MID
 10
0.4933
 20
-0.5522
 30
24.9578
 70
192
 0
VERTEX
 8
MID
 10
2.1913
 20
-1.5849
 30
31.0012
 70
192
 0
VERTEX
 8
MID
 10
-0.0997
 20
-0.7213
 30
26.2236
 70
192
 0
VERTEX
 8
MID
 10
1.3105
 20
-0.994
 30
27.9331
 70
192
 0
VERTEX
 8
MID
 10
1.2672
 20
-1.9604
 30
31.7684
 70
192
 0
VERTEX
 8
MID
 10
-0.3297
 20
-0.4565
 30
26.1222
 70
192
 0
VERTEX
 8
MID
 10
-1.0895
 20
-0.9701
 30
28.0406
 70
192
 0
VERTEX
 8
MID
 10
-0.8128
 20
-0.7955
 30
27.5095
 70
192
 0
VERTEX
 8
MID
 10
0.9053
 20
-0.4399
 30
26.5942
 70
192
 0
VERTEX
 8
MID
 10
0.8728
 20
-0.3394
 30
26.3002
 70
192
 0
VERTEX
 8
MID
 10
2.1731
 20
-1.5987
 30
31.1367
 70
192
 0
VERTEX
 8
MID
 10
0.4318
 20
-1.4424
 30
29.5929
 70
192
 0
VERTEX
 8
MID
 10
0
 20
0
 30
0
 70
128
 71
224
 72
138
 73
121
 74
121
 0
VERTEX
 8
MID
 10
0
 20
0
 30
0
 70
128
 71
130
 72
332
 73
95
 74
95
 0
VERTEX
 8
MID
 10
0
 20
0
 30
0
 70
128
 71
111
 72
301
 73
142
 74
142
 0
VERTEX
 8
MID
 10
0
 20
0
 30
0
 70
128
 71
112
 72
207
 73
204
 74
204
 0
VERTEX
 8
MID
 10
0
 20
0
 30
0
 70
128
 71
149
 72
310
 73
23
 74
23
 0
VERTEX
 8
MID
 10
0
 20
0
 30
0
 70
128
 71
100
 72
211
 73
328
 74
328
 0
VERTEX
 8
MID
 10
0
 20
0
 30
0
 70
128
 71
91
 72
31
 73
51
 74
51
 0
VERTEX
 8
MID
 10
0
 20
0
 30
0
 70
128
 71
94
 72
193
 73
287
 74
287
 0
VERTEX
 8
MID
 10
0
 20
0
 30
0
 70
128
 71
89
 72
191
 73
315
 74
315
 0
VERTEX
 8
MID
 10
0
 20
0
 30
0
 70
128
 71
4
 72
89
 73
34
 74
34
 0
VERTEX
 8
MID
 10
0
 20
0
 30
0
 70
128
 71
130
 72
59
 73
332
 74
332
 0
VERTEX
 8
MID
 10
0
 20
0
 30
0
 70
128
 71
95
 72
332
 73
108
 74
108
 0
VERTEX
 8
MID
 10
0
 20
0
 30
0
 70
128
 71
187
 72
286
 73
232
 74
232
 0
VERTEX
 8
MID
 10
0
 20
0
 30
0
 70
128
 71
226
 72
269
 73
43
 74
43
 0
VERTEX
 8
MID
 10
0
 20
0
 30
0
 70
128
 71
270
 72
182
 73
102
 74
102
 0
VERTEX
 8
MID
 10
0
 20
0
 30
0
 70
128
 71
212
 72
10
 73
306
 74
306
 0
VERTEX
 8
MID
 10
0
 20
0
 30
0
 70
128
 71
49
 72
302
 73
46
 74
46
 0
VERTEX
 8
MID
 10
0
 20
0
 30
0
 70
128
 71
46
 72
302
 73
317
 74
317
 0
VERTEX
 8
MID
 10
0
 20
0
 30
0
 70
128
 71
5
 72
281
 73
274
 74
274
 0
VERTEX
 8
MID
 10
0
 20
0
 30
0
 70
128
 71
202
 72
25
 73
162
 74
162
 0
VERTEX
 8
MID
 10
0
 20
0
 30
0
 70
128
 71
37
 72
327
 73
2
 74
2
 0
VERTEX
 8
MID
 10
0
 20
0
 30
0
 70
128
 71
302
 72
242
 73
72
 74
72
 0
VERTEX
 8
MID
 10
0
 20
0
 30
0
 70
128
 71
64
 72
80
 73
153
 74
153
 0
VERTEX
 8
MID
 10
0
 20
0
 30
0
 70
128
 71
84
 72
149
 73
59
 74
59
 0
VERTEX
 8
MID
 10
0
 20
0
 30
0
 70
128
 71
165
 72
65
 73
301
 74
301
 0
VERTEX
 8
MID
 10
0
 20
0
 30
0
 70
128
 71
157
 72
280
 73
5
 74
5
 0
VERTEX
 8
MID
 10
0
 20
0
 30
0
 70
128
 71
31
 72
91
 73
222
 74
222
 0
VERTEX
 8
MID
 10
0
 20
0
 30
0
 70
128
 71
68
 72
106
 73
37
 74
37
 0
VERTEX
 8
MID
 10
0
 20
0
 30
0
 70
128
 71
112
 72
141
 73
216
 74
216
 0
VERTEX
 8
MID
 10
0
 20
0
 30
0
 70
128
 71
74
 72
25
 73
159
 74
159
 0
VERTEX
 8
MID
 10
0
 20
0
 30
0
 70
128
 71
272
 72
336
 73
100
 74
100
 0
VERTEX
 8
MID
 10
0
 20
0
 30
0
 70
128
 71
204
 72
298
 73
27
 74
27
 0
VERTEX
 8
MID
 10
0
 20
0
 30
0
 70
128
 71
65
 72
203
 73
300
 74
300
 0
VERTEX
 8
MID
 10
0
 20
0
 30
0
 70
128
 71
161
 72
321
 73
318
 74
318
 0
VERTEX
 8
MID
 10
0
 20
0
 30
0
 70
128
 71
297
 72
49
 73
193
 74
193
 0
VERTEX
 8
MID
 10
0
 20
0
 30
0
 70
128
 71
206
 72
195
 73
41
 74
41
 0
VERTEX
 8
MID
 10
0
 20
0
 30
0
 70
128
 71
245
 72
123
 73
135
 74
135
 0
VERTEX
 8
MID
 10
0
 20
0
 30
0
 70
128
 71
7
 72
134
 73
184
 74
184
 0
VERTEX
 8
MID
 10
0
 20
0
 30
0
 70
128
 71
8
 72
115
 73
176
 74
176
 0
VERTEX
 8
MID
 10
0
 20
0
 30
0
 70
128
 71
53
 72
196
 73
115
 74
115
 0
VERTEX
 8
MID
 10
0
 20
0
 30
0
 70
128
 71
87
 72
336
 73
151
 74
151
 0
VERTEX
 8
MID
 10
0
 20
0
 30
0
 70
128
 71
36
 72
139
 73
90
 74
90
 0
VERTEX
 8
MID
 10
0
 20
0
 30
0
 70
128
 71
265
 72
314
 73
152
 74
152
 0
VERTEX
 8
MID
 10
0
 20
0
 30
0
 70
128
 71
265
 72
119
 73
314
 74
314
 0
VERTEX
 8
MID
 10
0
 20
0
 30
0
 70
128
 71
311
 72
330
 73
30
 74
30
 0
VERTEX
 8
MID
 10
0
 20
0
 30
0
 70
128
 71
173
 72
144
 73
134
 74
134
 0
VERTEX
 8
MID
 10
0
 20
0
 30
0
 70
128
 71
200
 72
82
 73
247
 74
247
 0
VERTEX
 8
MID
 10
0
 20
0
 30
0
 70
128
 71
279
 72
145
 73
297
 74
297
 0
VERTEX
 8
MID
 10
0
 20
0
 30
0
 70
128
 71
18
 72
83
 73
326
 74
326
 0
VERTEX
 8
MID
 10
0
 20
0
 30
0
 70
128
 71
128
 72
292
 73
225
 74
225
 0
VERTEX
 8
MID
 10
0
 20
0
 30
0
 70
128
 71
88
 72
76
 73
336
 74
336
 0
VERTEX
 8
MID
 10
0
 20
0
 30
0
 70
128
 71
302
 72
260
 73
317
 74
317
 0
VERTEX
 8
MID
 10
0
 20
0
 30
0
 70
128
 71
325
 72
91
 73
103
 74
103
 0
VERTEX
 8
MID
 10
0
 20
0
 30
0
 70
128
 71
245
 72
135
 73
32
 74
32
 0
VERTEX
 8
MID
 10
0
 20
0
 30
0
 70
128
 71
59
 72
149
 73
188
 74
188
 0
VERTEX
 8
MID
 10
0
 20
0
 30
0
 70
128
 71
171
 72
303
 73
39
 74
39
 0
VERTEX
 8
MID
 10
0
 20
0
 30
0
 70
128
 71
256
 72
14
 73
24
 74
24
 0
VERTEX
 8
MID
 10
0
 20
0
 30
0
 70
128
 71
86
 72
301
 73
111
 74
111
 0
VERTEX
 8
MID
 10
0
 20
0
 30
0
 70
128
 71
268
 72
326
 73
179
 74
179
 0
VERTEX
 8
MID
 10
0
 20
0
 30
0
 70
128
 71
257
 72
11
 73
321
 74
321
 0
VERTEX
 8
MID
 10
0
 20
0
 30
0
 70
128
 71
289
 72
243
 73
163
 74
163
 0
VERTEX
 8
MID
 10
0
 20
0
 30
0
 70
128
 71
245
 72
32
 73
160
 74
160
 0
VERTEX
 8
MID
 10
0
 20
0
 30
0
 70
128
 71
17
 72
331
 73
117
 74
117
 0
VERTEX
 8
MID
 10
0
 20
0
 30
0
 70
128
 71
266
 72
293
 73
236
 74
236
 0
VERTEX
 8
MID
 10
0
 20
0
 30
0
 70
128
 71
145
 72
28
 73
49
 74
49
 0
VERTEX
 8
MID
 10
0
 20
0
 30
0
 70
128
 71
266
 72
236
 73
105
 74
105
 0
VERTEX
 8
MID
 10
0
 20
0
 30
0
 70
128
 71
23
 72
106
 73
68
 74
68
 0
VERTEX
 8
MID
 10
0
 20
0
 30
0
 70
128
 71
194
 72
180
 73
113
 74
113
 0
VERTEX
 8
MID
 10
0
 20
0
 30
0
 70
128
 71
295
 72
130
 73
17
 74
17
 0
VERTEX
 8
MID
 10
0
 20
0
 30
0
 70
128
 71
144
 72
199
 73
336
 74
336
 0
VERTEX
 8
MID
 10
0
 20
0
 30
0
 70
128
 71
308
 72
13
 73
228
 74
228
 0
VERTEX
 8
MID
 10
0
 20
0
 30
0
 70
128
 71
298
 72
103
 73
91
 74
91
 0
VERTEX
 8
MID
 10
0
 20
0
 30
0
 70
128
 71
223
 72
99
 73
167
 74
167
 0
VERTEX
 8
MID
 10
0
 20
0
 30
0
 70
128
 71
9
 72
57
 73
228
 74
228
 0
VERTEX
 8
MID
 10
0
 20
0
 30
0
 70
128
 71
267
 72
227
 73
69
 74
69
 0
VERTEX
 8
MID
 10
0
 20
0
 30
0
 70
128
 71
97
 72
67
 73
78
 74
78
 0
VERTEX
 8
MID
 10
0
 20
0
 30
0
 70
128
 71
186
 72
90
 73
9
 74
9
 0
VERTEX
 8
MID
 10
0
 20
0
 30
0
 70
128
 71
240
 72
25
 73
202
 74
202
 0
VERTEX
 8
MID
 10
0
 20
0
 30
0
 70
128
 71
293
 72
150
 73
118
 74
118
 0
VERTEX
 8
MID
 10
0
 20
0
 30
0
 70
128
 71
73
 72
312
 73
280
 74
280
 0
VERTEX
 8
MID
 10
0
 20
0
 30
0
 70
128
 71
25
 72
71
 73
162
 74
162
 0
VERTEX
 8
MID
 10
0
 20
0
 30
0
 70
128
 71
209
 72
179
 73
335
 74
335
 0
VERTEX
 8
MID
 10
0
 20
0
 30
0
 70
128
 71
234
 72
39
 73
278
 74
278
 0
VERTEX
 8
MID
 10
0
 20
0
 30
0
 70
128
 71
198
 72
171
 73
234
 74
234
 0
VERTEX
 8
MID
 10
0
 20
0
 30
0
 70
128
 71
225
 72
211
 73
313
 74
313
 0
VERTEX
 8
MID
 10
0
 20
0
 30
0
 70
128
 71
233
 72
125
 73
42
 74
42
 0
VERTEX
 8
MID
 10
0
 20
0
 30
0
 70
128
 71
327
 72
143
 73
126
 74
126
 0
VERTEX
 8
MID
 10
0
 20
0
 30
0
 70
128
 71
102
 72
199
 73
176
 74
176
 0
VERTEX
 8
MID
 10
0
 20
0
 30
0
 70
128
 71
158
 72
248
 73
117
 74
117
 0
VERTEX
 8
MID
 10
0
 20
0
 30
0
 70
128
 71
20
 72
108
 73
253
 74
253
 0
VERTEX
 8
MID
 10
0
 20
0
 30
0
 70
128
 71
193
 72
46
 73
147
 74
147
 0
VERTEX
 8
MID
 10
0
 20
0
 30
0
 70
128
 71
12
 72
89
 73
4
 74
4
 0
VERTEX
 8
MID
 10
0
 20
0
 30
0
 70
128
 71
304
 72
294
 73
336
 74
336
 0
VERTEX
 8
MID
 10
0
 20
0
 30
0
 70
128
 71
22
 72
185
 73
321
 74
321
 0
VERTEX
 8
MID
 10
0
 20
0
 30
0
 70
128
 71
51
 72
244
 73
146
 74
146
 0
VERTEX
 8
MID
 10
0
 20
0
 30
0
 70
128
 71
86
 72
111
 73
330
 74
330
 0
VERTEX
 8
MID
 10
0
 20
0
 30
0
 70
128
 71
204
 72
27
 73
141
 74
141
 0
VERTEX
 8
MID
 10
0
 20
0
 30
0
 70
128
 71
243
 72
81
 73
309
 74
309
 0
VERTEX
 8
MID
 10
0
 20
0
 30
0
 70
128
 71
62
 72
35
 73
96
 74
96
 0
VERTEX
 8
MID
 10
0
 20
0
 30
0
 70
128
 71
236
 72
165
 73
301
 74
301
 0
VERTEX
 8
MID
 10
0
 20
0
 30
0
 70
128
 71
289
 72
3
 73
319
 74
319
 0
VERTEX
 8
MID
 10
0
 20
0
 30
0
 70
128
 71
90
 72
114
 73
9
 74
9
 0
VERTEX
 8
MID
 10
0
 20
0
 30
0
 70
128
 71
215
 72
227
 73
336
 74
336
 0
VERTEX
 8
MID
 10
0
 20
0
 30
0
 70
128
 71
212
 72
157
 73
10
 74
10
 0
VERTEX
 8
MID
 10
0
 20
0
 30
0
 70
128
 71
113
 72
161
 73
70
 74
70
 0
VERTEX
 8
MID
 10
0
 20
0
 30
0
 70
128
 71
307
 72
173
 73
7
 74
7
 0
VERTEX
 8
MID
 10
0
 20
0
 30
0
 70
128
 71
284
 72
101
 73
58
 74
58
 0
VERTEX
 8
MID
 10
0
 20
0
 30
0
 70
128
 71
2
 72
126
 73
79
 74
79
 0
VERTEX
 8
MID
 10
0
 20
0
 30
0
 70
128
 71
129
 72
261
 73
99
 74
99
 0
VERTEX
 8
MID
 10
0
 20
0
 30
0
 70
128
 71
190
 72
62
 73
98
 74
98
 0
VERTEX
 8
MID
 10
0
 20
0
 30
0
 70
128
 71
2
 72
35
 73
253
 74
253
 0
VERTEX
 8
MID
 10
0
 20
0
 30
0
 70
128
 71
34
 72
263
 73
143
 74
143
 0
VERTEX
 8
MID
 10
0
 20
0
 30
0
 70
128
 71
109
 72
132
 73
56
 74
56
 0
VERTEX
 8
MID
 10
0
 20
0
 30
0
 70
128
 71
206
 72
47
 73
175
 74
175
 0
VERTEX
 8
MID
 10
0
 20
0
 30
0
 70
128
 71
138
 72
224
 73
267
 74
267
 0
VERTEX
 8
MID
 10
0
 20
0
 30
0
 70
128
 71
143
 72
263
 73
164
 74
164
 0
VERTEX
 8
MID
 10
0
 20
0
 30
0
 70
128
 71
314
 72
119
 73
299
 74
299
 0
VERTEX
 8
MID
 10
0
 20
0
 30
0
 70
128
 71
92
 72
231
 73
333
 74
333
 0
VERTEX
 8
MID
 10
0
 20
0
 30
0
 70
128
 71
302
 72
44
 73
260
 74
260
 0
VERTEX
 8
MID
 10
0
 20
0
 30
0
 70
128
 71
50
 72
133
 73
205
 74
205
 0
VERTEX
 8
MID
 10
0
 20
0
 30
0
 70
128
 71
151
 72
336
 73
308
 74
308
 0
VERTEX
 8
MID
 10
0
 20
0
 30
0
 70
128
 71
65
 72
300
 73
142
 74
142
 0
VERTEX
 8
MID
 10
0
 20
0
 30
0
 70
128
 71
334
 72
216
 73
97
 74
97
 0
VERTEX
 8
MID
 10
0
 20
0
 30
0
 70
128
 71
59
 72
188
 73
332
 74
332
 0
VERTEX
 8
MID
 10
0
 20
0
 30
0
 70
128
 71
278
 72
154
 73
42
 74
42
 0
VERTEX
 8
MID
 10
0
 20
0
 30
0
 70
128
 71
327
 72
34
 73
143
 74
143
 0
VERTEX
 8
MID
 10
0
 20
0
 30
0
 70
128
 71
140
 72
295
 73
248
 74
248
 0
VERTEX
 8
MID
 10
0
 20
0
 30
0
 70
128
 71
322
 72
225
 73
313
 74
313
 0
VERTEX
 8
MID
 10
0
 20
0
 30
0
 70
128
 71
321
 72
11
 73
259
 74
259
 0
VERTEX
 8
MID
 10
0
 20
0
 30
0
 70
128
 71
284
 72
58
 73
109
 74
109
 0
VERTEX
 8
MID
 10
0
 20
0
 30
0
 70
128
 71
109
 72
245
 73
132
 74
132
 0
VERTEX
 8
MID
 10
0
 20
0
 30
0
 70
128
 71
148
 72
157
 73
212
 74
212
 0
VERTEX
 8
MID
 10
0
 20
0
 30
0
 70
128
 71
148
 72
88
 73
157
 74
157
 0
VERTEX
 8
MID
 10
0
 20
0
 30
0
 70
128
 71
96
 72
240
 73
292
 74
292
 0
VERTEX
 8
MID
 10
0
 20
0
 30
0
 70
128
 71
169
 72
37
 73
253
 74
253
 0
VERTEX
 8
MID
 10
0
 20
0
 30
0
 70
128
 71
89
 72
142
 73
191
 74
191
 0
VERTEX
 8
MID
 10
0
 20
0
 30
0
 70
128
 71
40
 72
186
 73
182
 74
182
 0
VERTEX
 8
MID
 10
0
 20
0
 30
0
 70
128
 71
167
 72
166
 73
206
 74
206
 0
VERTEX
 8
MID
 10
0
 20
0
 30
0
 70
128
 71
26
 72
290
 73
255
 74
255
 0
VERTEX
 8
MID
 10
0
 20
0
 30
0
 70
128
 71
142
 72
172
 73
191
 74
191
 0
VERTEX
 8
MID
 10
0
 20
0
 30
0
 70
128
 71
155
 72
93
 73
242
 74
242
 0
VERTEX
 8
MID
 10
0
 20
0
 30
0
 70
128
 71
259
 72
324
 73
173
 74
173
 0
VERTEX
 8
MID
 10
0
 20
0
 30
0
 70
128
 71
87
 72
190
 73
336
 74
336
 0
VERTEX
 8
MID
 10
0
 20
0
 30
0
 70
128
 71
306
 72
14
 73
256
 74
256
 0
VERTEX
 8
MID
 10
0
 20
0
 30
0
 70
128
 71
72
 72
21
 73
177
 74
177
 0
VERTEX
 8
MID
 10
0
 20
0
 30
0
 70
128
 71
78
 72
67
 73
238
 74
238
 0
VERTEX
 8
MID
 10
0
 20
0
 30
0
 70
128
 71
157
 72
52
 73
10
 74
10
 0
VERTEX
 8
MID
 10
0
 20
0
 30
0
 70
128
 71
160
 72
32
 73
209
 74
209
 0
VERTEX
 8
MID
 10
0
 20
0
 30
0
 70
128
 71
272
 72
328
 73
296
 74
296
 0
VERTEX
 8
MID
 10
0
 20
0
 30
0
 70
128
 71
82
 72
54
 73
36
 74
36
 0
VERTEX
 8
MID
 10
0
 20
0
 30
0
 70
128
 71
258
 72
322
 73
336
 74
336
 0
VERTEX
 8
MID
 10
0
 20
0
 30
0
 70
128
 71
268
 72
18
 73
326
 74
326
 0
VERTEX
 8
MID
 10
0
 20
0
 30
0
 70
128
 71
72
 72
242
 73
21
 74
21
 0
VERTEX
 8
MID
 10
0
 20
0
 30
0
 70
128
 71
5
 72
274
 73
52
 74
52
 0
VERTEX
 8
MID
 10
0
 20
0
 30
0
 70
128
 71
64
 72
153
 73
136
 74
136
 0
VERTEX
 8
MID
 10
0
 20
0
 30
0
 70
128
 71
234
 72
171
 73
39
 74
39
 0
VERTEX
 8
MID
 10
0
 20
0
 30
0
 70
128
 71
62
 72
96
 73
98
 74
98
 0
VERTEX
 8
MID
 10
0
 20
0
 30
0
 70
128
 71
333
 72
334
 73
78
 74
78
 0
VERTEX
 8
MID
 10
0
 20
0
 30
0
 70
128
 71
176
 72
199
 73
324
 74
324
 0
VERTEX
 8
MID
 10
0
 20
0
 30
0
 70
128
 71
38
 72
66
 73
114
 74
114
 0
VERTEX
 8
MID
 10
0
 20
0
 30
0
 70
128
 71
101
 72
129
 73
223
 74
223
 0
VERTEX
 8
MID
 10
0
 20
0
 30
0
 70
128
 71
330
 72
4
 73
30
 74
30
 0
VERTEX
 8
MID
 10
0
 20
0
 30
0
 70
128
 71
316
 72
261
 73
129
 74
129
 0
VERTEX
 8
MID
 10
0
 20
0
 30
0
 70
128
 71
99
 72
282
 73
166
 74
166
 0
VERTEX
 8
MID
 10
0
 20
0
 30
0
 70
128
 71
116
 72
77
 73
264
 74
264
 0
VERTEX
 8
MID
 10
0
 20
0
 30
0
 70
128
 71
52
 72
274
 73
254
 74
254
 0
VERTEX
 8
MID
 10
0
 20
0
 30
0
 70
128
 71
47
 72
41
 73
268
 74
268
 0
VERTEX
 8
MID
 10
0
 20
0
 30
0
 70
128
 71
292
 72
240
 73
120
 74
120
 0
VERTEX
 8
MID
 10
0
 20
0
 30
0
 70
128
 71
63
 72
88
 73
336
 74
336
 0
VERTEX
 8
MID
 10
0
 20
0
 30
0
 70
128
 71
88
 72
45
 73
157
 74
157
 0
VERTEX
 8
MID
 10
0
 20
0
 30
0
 70
128
 71
85
 72
204
 73
207
 74
207
 0
VERTEX
 8
MID
 10
0
 20
0
 30
0
 70
128
 71
127
 72
86
 73
330
 74
330
 0
VERTEX
 8
MID
 10
0
 20
0
 30
0
 70
128
 71
96
 72
79
 73
159
 74
159
 0
VERTEX
 8
MID
 10
0
 20
0
 30
0
 70
128
 71
246
 72
64
 73
136
 74
136
 0
VERTEX
 8
MID
 10
0
 20
0
 30
0
 70
128
 71
182
 72
218
 73
102
 74
102
 0
VERTEX
 8
MID
 10
0
 20
0
 30
0
 70
128
 71
185
 72
257
 73
321
 74
321
 0
VERTEX
 8
MID
 10
0
 20
0
 30
0
 70
128
 71
300
 72
172
 73
142
 74
142
 0
VERTEX
 8
MID
 10
0
 20
0
 30
0
 70
128
 71
46
 72
317
 73
147
 74
147
 0
VERTEX
 8
MID
 10
0
 20
0
 30
0
 70
128
 71
262
 72
105
 73
86
 74
86
 0
VERTEX
 8
MID
 10
0
 20
0
 30
0
 70
128
 71
263
 72
131
 73
164
 74
164
 0
VERTEX
 8
MID
 10
0
 20
0
 30
0
 70
128
 71
220
 72
133
 73
60
 74
60
 0
VERTEX
 8
MID
 10
0
 20
0
 30
0
 70
128
 71
88
 72
63
 73
45
 74
45
 0
VERTEX
 8
MID
 10
0
 20
0
 30
0
 70
128
 71
156
 72
22
 73
320
 74
320
 0
VERTEX
 8
MID
 10
0
 20
0
 30
0
 70
128
 71
136
 72
153
 73
310
 74
310
 0
VERTEX
 8
MID
 10
0
 20
0
 30
0
 70
128
 71
195
 72
275
 73
41
 74
41
 0
VERTEX
 8
MID
 10
0
 20
0
 30
0
 70
128
 71
239
 72
184
 73
189
 74
189
 0
VERTEX
 8
MID
 10
0
 20
0
 30
0
 70
128
 71
243
 72
85
 73
81
 74
81
 0
VERTEX
 8
MID
 10
0
 20
0
 30
0
 70
128
 71
80
 72
178
 73
273
 74
273
 0
VERTEX
 8
MID
 10
0
 20
0
 30
0
 70
128
 71
269
 72
140
 73
248
 74
248
 0
VERTEX
 8
MID
 10
0
 20
0
 30
0
 70
128
 71
247
 72
40
 73
196
 74
196
 0
VERTEX
 8
MID
 10
0
 20
0
 30
0
 70
128
 71
27
 72
91
 73
51
 74
51
 0
VERTEX
 8
MID
 10
0
 20
0
 30
0
 70
128
 71
223
 72
167
 73
329
 74
329
 0
VERTEX
 8
MID
 10
0
 20
0
 30
0
 70
128
 71
58
 72
329
 73
109
 74
109
 0
VERTEX
 8
MID
 10
0
 20
0
 30
0
 70
128
 71
54
 72
235
 73
139
 74
139
 0
VERTEX
 8
MID
 10
0
 20
0
 30
0
 70
128
 71
28
 72
155
 73
242
 74
242
 0
VERTEX
 8
MID
 10
0
 20
0
 30
0
 70
128
 71
60
 72
215
 73
336
 74
336
 0
VERTEX
 8
MID
 10
0
 20
0
 30
0
 70
128
 71
164
 72
131
 73
48
 74
48
 0
VERTEX
 8
MID
 10
0
 20
0
 30
0
 70
128
 71
104
 72
217
 73
251
 74
251
 0
VERTEX
 8
MID
 10
0
 20
0
 30
0
 70
128
 71
28
 72
242
 73
302
 74
302
 0
VERTEX
 8
MID
 10
0
 20
0
 30
0
 70
128
 71
3
 72
202
 73
85
 74
85
 0
VERTEX
 8
MID
 10
0
 20
0
 30
0
 70
128
 71
133
 72
220
 73
205
 74
205
 0
VERTEX
 8
MID
 10
0
 20
0
 30
0
 70
128
 71
188
 72
23
 73
68
 74
68
 0
VERTEX
 8
MID
 10
0
 20
0
 30
0
 70
128
 71
230
 72
121
 73
138
 74
138
 0
VERTEX
 8
MID
 10
0
 20
0
 30
0
 70
128
 71
106
 72
327
 73
37
 74
37
 0
VERTEX
 8
MID
 10
0
 20
0
 30
0
 70
128
 71
281
 72
213
 73
274
 74
274
 0
VERTEX
 8
MID
 10
0
 20
0
 30
0
 70
128
 71
318
 72
173
 73
307
 74
307
 0
VERTEX
 8
MID
 10
0
 20
0
 30
0
 70
128
 71
233
 72
42
 73
101
 74
101
 0
VERTEX
 8
MID
 10
0
 20
0
 30
0
 70
128
 71
211
 72
163
 73
328
 74
328
 0
VERTEX
 8
MID
 10
0
 20
0
 30
0
 70
128
 71
219
 72
127
 73
311
 74
311
 0
VERTEX
 8
MID
 10
0
 20
0
 30
0
 70
128
 71
143
 72
164
 73
126
 74
126
 0
VERTEX
 8
MID
 10
0
 20
0
 30
0
 70
128
 71
211
 72
225
 73
163
 74
163
 0
VERTEX
 8
MID
 10
0
 20
0
 30
0
 70
128
 71
52
 72
254
 73
183
 74
183
 0
VERTEX
 8
MID
 10
0
 20
0
 30
0
 70
128
 71
274
 72
213
 73
94
 74
94
 0
VERTEX
 8
MID
 10
0
 20
0
 30
0
 70
128
 71
30
 72
4
 73
34
 74
34
 0
VERTEX
 8
MID
 10
0
 20
0
 30
0
 70
128
 71
229
 72
311
 73
33
 74
33
 0
VERTEX
 8
MID
 10
0
 20
0
 30
0
 70
128
 71
15
 72
212
 73
77
 74
77
 0
VERTEX
 8
MID
 10
0
 20
0
 30
0
 70
128
 71
282
 72
69
 73
166
 74
166
 0
VERTEX
 8
MID
 10
0
 20
0
 30
0
 70
128
 71
115
 72
270
 73
176
 74
176
 0
VERTEX
 8
MID
 10
0
 20
0
 30
0
 70
128
 71
194
 72
198
 73
125
 74
125
 0
VERTEX
 8
MID
 10
0
 20
0
 30
0
 70
128
 71
67
 72
146
 73
251
 74
251
 0
VERTEX
 8
MID
 10
0
 20
0
 30
0
 70
128
 71
26
 72
283
 73
290
 74
290
 0
VERTEX
 8
MID
 10
0
 20
0
 30
0
 70
128
 71
200
 72
247
 73
208
 74
208
 0
VERTEX
 8
MID
 10
0
 20
0
 30
0
 70
128
 71
77
 72
212
 73
192
 74
192
 0
VERTEX
 8
MID
 10
0
 20
0
 30
0
 70
128
 71
278
 72
39
 73
174
 74
174
 0
VERTEX
 8
MID
 10
0
 20
0
 30
0
 70
128
 71
126
 72
164
 73
79
 74
79
 0
VERTEX
 8
MID
 10
0
 20
0
 30
0
 70
128
 71
114
 72
226
 73
43
 74
43
 0
VERTEX
 8
MID
 10
0
 20
0
 30
0
 70
128
 71
294
 72
304
 73
189
 74
189
 0
VERTEX
 8
MID
 10
0
 20
0
 30
0
 70
128
 71
110
 72
256
 73
24
 74
24
 0
VERTEX
 8
MID
 10
0
 20
0
 30
0
 70
128
 71
193
 72
147
 73
287
 74
287
 0
VERTEX
 8
MID
 10
0
 20
0
 30
0
 70
128
 71
35
 72
79
 73
96
 74
96
 0
VERTEX
 8
MID
 10
0
 20
0
 30
0
 70
128
 71
139
 72
66
 73
38
 74
38
 0
VERTEX
 8
MID
 10
0
 20
0
 30
0
 70
128
 71
202
 72
103
 73
85
 74
85
 0
VERTEX
 8
MID
 10
0
 20
0
 30
0
 70
128
 71
242
 72
137
 73
107
 74
107
 0
VERTEX
 8
MID
 10
0
 20
0
 30
0
 70
128
 71
297
 72
145
 73
49
 74
49
 0
VERTEX
 8
MID
 10
0
 20
0
 30
0
 70
128
 71
294
 72
189
 73
184
 74
184
 0
VERTEX
 8
MID
 10
0
 20
0
 30
0
 70
128
 71
272
 72
63
 73
336
 74
336
 0
VERTEX
 8
MID
 10
0
 20
0
 30
0
 70
128
 71
170
 72
13
 73
336
 74
336
 0
VERTEX
 8
MID
 10
0
 20
0
 30
0
 70
128
 71
332
 72
188
 73
169
 74
169
 0
VERTEX
 8
MID
 10
0
 20
0
 30
0
 70
128
 71
67
 72
251
 73
217
 74
217
 0
VERTEX
 8
MID
 10
0
 20
0
 30
0
 70
128
 71
114
 72
43
 73
57
 74
57
 0
VERTEX
 8
MID
 10
0
 20
0
 30
0
 70
128
 71
220
 72
15
 73
77
 74
77
 0
VERTEX
 8
MID
 10
0
 20
0
 30
0
 70
128
 71
307
 72
7
 73
303
 74
303
 0
VERTEX
 8
MID
 10
0
 20
0
 30
0
 70
128
 71
201
 72
231
 73
92
 74
92
 0
VERTEX
 8
MID
 10
0
 20
0
 30
0
 70
128
 71
33
 72
30
 73
34
 74
34
 0
VERTEX
 8
MID
 10
0
 20
0
 30
0
 70
128
 71
271
 72
183
 73
14
 74
14
 0
VERTEX
 8
MID
 10
0
 20
0
 30
0
 70
128
 71
326
 72
83
 73
110
 74
110
 0
VERTEX
 8
MID
 10
0
 20
0
 30
0
 70
128
 71
57
 72
43
 73
158
 74
158
 0
VERTEX
 8
MID
 10
0
 20
0
 30
0
 70
128
 71
242
 72
107
 73
21
 74
21
 0
VERTEX
 8
MID
 10
0
 20
0
 30
0
 70
128
 71
266
 72
105
 73
262
 74
262
 0
VERTEX
 8
MID
 10
0
 20
0
 30
0
 70
128
 71
321
 72
259
 73
318
 74
318
 0
VERTEX
 8
MID
 10
0
 20
0
 30
0
 70
128
 71
274
 72
94
 73
254
 74
254
 0
VERTEX
 8
MID
 10
0
 20
0
 30
0
 70
128
 71
271
 72
124
 73
183
 74
183
 0
VERTEX
 8
MID
 10
0
 20
0
 30
0
 70
128
 71
57
 72
158
 73
228
 74
228
 0
VERTEX
 8
MID
 10
0
 20
0
 30
0
 70
128
 71
330
 72
12
 73
4
 74
4
 0
VERTEX
 8
MID
 10
0
 20
0
 30
0
 70
128
 71
196
 72
270
 73
115
 74
115
 0
VERTEX
 8
MID
 10
0
 20
0
 30
0
 70
128
 71
175
 72
209
 73
277
 74
277
 0
VERTEX
 8
MID
 10
0
 20
0
 30
0
 70
128
 71
66
 72
152
 73
226
 74
226
 0
VERTEX
 8
MID
 10
0
 20
0
 30
0
 70
128
 71
93
 72
137
 73
242
 74
242
 0
VERTEX
 8
MID
 10
0
 20
0
 30
0
 70
128
 71
264
 72
192
 73
306
 74
306
 0
VERTEX
 8
MID
 10
0
 20
0
 30
0
 70
128
 71
158
 72
117
 73
151
 74
151
 0
VERTEX
 8
MID
 10
0
 20
0
 30
0
 70
128
 71
125
 72
198
 73
234
 74
234
 0
VERTEX
 8
MID
 10
0
 20
0
 30
0
 70
128
 71
304
 72
336
 73
224
 74
224
 0
VERTEX
 8
MID
 10
0
 20
0
 30
0
 70
128
 71
11
 72
8
 73
259
 74
259
 0
VERTEX
 8
MID
 10
0
 20
0
 30
0
 70
128
 71
20
 72
253
 73
241
 74
241
 0
VERTEX
 8
MID
 10
0
 20
0
 30
0
 70
128
 71
258
 72
98
 73
128
 74
128
 0
VERTEX
 8
MID
 10
0
 20
0
 30
0
 70
128
 71
284
 72
109
 73
56
 74
56
 0
VERTEX
 8
MID
 10
0
 20
0
 30
0
 70
128
 71
84
 72
136
 73
149
 74
149
 0
VERTEX
 8
MID
 10
0
 20
0
 30
0
 70
128
 71
11
 72
208
 73
53
 74
53
 0
VERTEX
 8
MID
 10
0
 20
0
 30
0
 70
128
 71
231
 72
216
 73
334
 74
334
 0
VERTEX
 8
MID
 10
0
 20
0
 30
0
 70
128
 71
111
 72
142
 73
89
 74
89
 0
VERTEX
 8
MID
 10
0
 20
0
 30
0
 70
128
 71
165
 72
6
 73
65
 74
65
 0
VERTEX
 8
MID
 10
0
 20
0
 30
0
 70
128
 71
310
 72
219
 73
229
 74
229
 0
VERTEX
 8
MID
 10
0
 20
0
 30
0
 70
128
 71
202
 72
325
 73
103
 74
103
 0
VERTEX
 8
MID
 10
0
 20
0
 30
0
 70
128
 71
259
 72
8
 73
324
 74
324
 0
VERTEX
 8
MID
 10
0
 20
0
 30
0
 70
128
 71
23
 72
229
 73
106
 74
106
 0
VERTEX
 8
MID
 10
0
 20
0
 30
0
 70
128
 71
118
 72
197
 73
6
 74
6
 0
VERTEX
 8
MID
 10
0
 20
0
 30
0
 70
128
 71
85
 72
207
 73
81
 74
81
 0
VERTEX
 8
MID
 10
0
 20
0
 30
0
 70
128
 71
264
 72
306
 73
256
 74
256
 0
VERTEX
 8
MID
 10
0
 20
0
 30
0
 70
128
 71
31
 72
244
 73
51
 74
51
 0
VERTEX
 8
MID
 10
0
 20
0
 30
0
 70
128
 71
92
 72
333
 73
16
 74
16
 0
VERTEX
 8
MID
 10
0
 20
0
 30
0
 70
128
 71
173
 72
324
 73
144
 74
144
 0
VERTEX
 8
MID
 10
0
 20
0
 30
0
 70
128
 71
276
 72
1
 73
201
 74
201
 0
VERTEX
 8
MID
 10
0
 20
0
 30
0
 70
128
 71
276
 72
201
 73
93
 74
93
 0
VERTEX
 8
MID
 10
0
 20
0
 30
0
 70
128
 71
285
 72
156
 73
113
 74
113
 0
VERTEX
 8
MID
 10
0
 20
0
 30
0
 70
128
 71
141
 72
27
 73
323
 74
323
 0
VERTEX
 8
MID
 10
0
 20
0
 30
0
 70
128
 71
116
 72
264
 73
83
 74
83
 0
VERTEX
 8
MID
 10
0
 20
0
 30
0
 70
128
 71
70
 72
303
 73
171
 74
171
 0
VERTEX
 8
MID
 10
0
 20
0
 30
0
 70
128
 71
234
 72
278
 73
42
 74
42
 0
VERTEX
 8
MID
 10
0
 20
0
 30
0
 70
128
 71
201
 72
1
 73
231
 74
231
 0
VERTEX
 8
MID
 10
0
 20
0
 30
0
 70
128
 71
13
 72
170
 73
218
 74
218
 0
VERTEX
 8
MID
 10
0
 20
0
 30
0
 70
128
 71
123
 72
252
 73
135
 74
135
 0
VERTEX
 8
MID
 10
0
 20
0
 30
0
 70
128
 71
306
 72
10
 73
271
 74
271
 0
VERTEX
 8
MID
 10
0
 20
0
 30
0
 70
128
 71
84
 72
246
 73
136
 74
136
 0
VERTEX
 8
MID
 10
0
 20
0
 30
0
 70
128
 71
244
 72
251
 73
146
 74
146
 0
VERTEX
 8
MID
 10
0
 20
0
 30
0
 70
128
 71
22
 72
321
 73
161
 74
161
 0
VERTEX
 8
MID
 10
0
 20
0
 30
0
 70
128
 71
90
 72
38
 73
114
 74
114
 0
VERTEX
 8
MID
 10
0
 20
0
 30
0
 70
128
 71
301
 72
65
 73
142
 74
142
 0
VERTEX
 8
MID
 10
0
 20
0
 30
0
 70
128
 71
151
 72
308
 73
158
 74
158
 0
VERTEX
 8
MID
 10
0
 20
0
 30
0
 70
128
 71
226
 72
140
 73
269
 74
269
 0
VERTEX
 8
MID
 10
0
 20
0
 30
0
 70
128
 71
241
 72
253
 73
62
 74
62
 0
VERTEX
 8
MID
 10
0
 20
0
 30
0
 70
128
 71
232
 72
19
 73
55
 74
55
 0
VERTEX
 8
MID
 10
0
 20
0
 30
0
 70
128
 71
214
 72
189
 73
230
 74
230
 0
VERTEX
 8
MID
 10
0
 20
0
 30
0
 70
128
 71
98
 72
96
 73
292
 74
292
 0
VERTEX
 8
MID
 10
0
 20
0
 30
0
 70
128
 71
320
 72
22
 73
161
 74
161
 0
VERTEX
 8
MID
 10
0
 20
0
 30
0
 70
128
 71
305
 72
246
 73
84
 74
84
 0
VERTEX
 8
MID
 10
0
 20
0
 30
0
 70
128
 71
73
 72
279
 73
312
 74
312
 0
VERTEX
 8
MID
 10
0
 20
0
 30
0
 70
128
 71
18
 72
116
 73
83
 74
83
 0
VERTEX
 8
MID
 10
0
 20
0
 30
0
 70
128
 71
80
 72
273
 73
153
 74
153
 0
VERTEX
 8
MID
 10
0
 20
0
 30
0
 70
128
 71
283
 72
59
 73
290
 74
290
 0
VERTEX
 8
MID
 10
0
 20
0
 30
0
 70
128
 71
66
 72
226
 73
114
 74
114
 0
VERTEX
 8
MID
 10
0
 20
0
 30
0
 70
128
 71
87
 72
331
 73
241
 74
241
 0
VERTEX
 8
MID
 10
0
 20
0
 30
0
 70
128
 71
322
 72
128
 73
225
 74
225
 0
VERTEX
 8
MID
 10
0
 20
0
 30
0
 70
128
 71
69
 72
227
 73
249
 74
249
 0
VERTEX
 8
MID
 10
0
 20
0
 30
0
 70
128
 71
329
 72
123
 73
245
 74
245
 0
VERTEX
 8
MID
 10
0
 20
0
 30
0
 70
128
 71
113
 72
70
 73
198
 74
198
 0
VERTEX
 8
MID
 10
0
 20
0
 30
0
 70
128
 71
139
 72
38
 73
90
 74
90
 0
VERTEX
 8
MID
 10
0
 20
0
 30
0
 70
128
 71
305
 72
84
 73
26
 74
26
 0
VERTEX
 8
MID
 10
0
 20
0
 30
0
 70
128
 71
322
 72
313
 73
336
 74
336
 0
VERTEX
 8
MID
 10
0
 20
0
 30
0
 70
128
 71
129
 72
99
 73
223
 74
223
 0
VERTEX
 8
MID
 10
0
 20
0
 30
0
 70
128
 71
139
 72
288
 73
66
 74
66
 0
VERTEX
 8
MID
 10
0
 20
0
 30
0
 70
128
 71
181
 72
309
 73
1
 74
1
 0
VERTEX
 8
MID
 10
0
 20
0
 30
0
 70
128
 71
186
 72
9
 73
218
 74
218
 0
VERTEX
 8
MID
 10
0
 20
0
 30
0
 70
128
 71
15
 72
76
 73
148
 74
148
 0
VERTEX
 8
MID
 10
0
 20
0
 30
0
 70
128
 71
85
 72
298
 73
204
 74
204
 0
VERTEX
 8
MID
 10
0
 20
0
 30
0
 70
128
 71
312
 72
297
 73
281
 74
281
 0
VERTEX
 8
MID
 10
0
 20
0
 30
0
 70
128
 71
123
 72
206
 73
252
 74
252
 0
VERTEX
 8
MID
 10
0
 20
0
 30
0
 70
128
 71
43
 72
269
 73
248
 74
248
 0
VERTEX
 8
MID
 10
0
 20
0
 30
0
 70
128
 71
254
 72
94
 73
291
 74
291
 0
VERTEX
 8
MID
 10
0
 20
0
 30
0
 70
128
 71
196
 72
40
 73
182
 74
182
 0
VERTEX
 8
MID
 10
0
 20
0
 30
0
 70
128
 71
255
 72
290
 73
130
 74
130
 0
VERTEX
 8
MID
 10
0
 20
0
 30
0
 70
128
 71
41
 72
275
 73
18
 74
18
 0
VERTEX
 8
MID
 10
0
 20
0
 30
0
 70
128
 71
296
 72
75
 73
279
 74
279
 0
VERTEX
 8
MID
 10
0
 20
0
 30
0
 70
128
 71
326
 72
110
 73
335
 74
335
 0
VERTEX
 8
MID
 10
0
 20
0
 30
0
 70
128
 71
82
 72
36
 73
40
 74
40
 0
VERTEX
 8
MID
 10
0
 20
0
 30
0
 70
128
 71
7
 72
173
 73
134
 74
134
 0
VERTEX
 8
MID
 10
0
 20
0
 30
0
 70
128
 71
34
 72
89
 73
263
 74
263
 0
VERTEX
 8
MID
 10
0
 20
0
 30
0
 70
128
 71
272
 72
279
 73
63
 74
63
 0
VERTEX
 8
MID
 10
0
 20
0
 30
0
 70
128
 71
50
 72
205
 73
275
 74
275
 0
VERTEX
 8
MID
 10
0
 20
0
 30
0
 70
128
 71
329
 72
245
 73
109
 74
109
 0
VERTEX
 8
MID
 10
0
 20
0
 30
0
 70
128
 71
10
 72
52
 73
124
 74
124
 0
VERTEX
 8
MID
 10
0
 20
0
 30
0
 70
128
 71
212
 72
306
 73
192
 74
192
 0
VERTEX
 8
MID
 10
0
 20
0
 30
0
 70
128
 71
58
 72
223
 73
329
 74
329
 0
VERTEX
 8
MID
 10
0
 20
0
 30
0
 70
128
 71
275
 72
205
 73
18
 74
18
 0
VERTEX
 8
MID
 10
0
 20
0
 30
0
 70
128
 71
120
 72
240
 73
289
 74
289
 0
VERTEX
 8
MID
 10
0
 20
0
 30
0
 70
128
 71
214
 72
230
 73
154
 74
154
 0
VERTEX
 8
MID
 10
0
 20
0
 30
0
 70
128
 71
6
 72
197
 73
65
 74
65
 0
VERTEX
 8
MID
 10
0
 20
0
 30
0
 70
128
 71
45
 72
280
 73
157
 74
157
 0
VERTEX
 8
MID
 10
0
 20
0
 30
0
 70
128
 71
36
 72
90
 73
186
 74
186
 0
VERTEX
 8
MID
 10
0
 20
0
 30
0
 70
128
 71
113
 72
198
 73
194
 74
194
 0
VERTEX
 8
MID
 10
0
 20
0
 30
0
 70
128
 71
61
 72
200
 73
208
 74
208
 0
VERTEX
 8
MID
 10
0
 20
0
 30
0
 70
128
 71
267
 72
224
 73
336
 74
336
 0
VERTEX
 8
MID
 10
0
 20
0
 30
0
 70
128
 71
182
 72
186
 73
218
 74
218
 0
VERTEX
 8
MID
 10
0
 20
0
 30
0
 70
128
 71
280
 72
281
 73
5
 74
5
 0
VERTEX
 8
MID
 10
0
 20
0
 30
0
 70
128
 71
15
 72
60
 73
336
 74
336
 0
VERTEX
 8
MID
 10
0
 20
0
 30
0
 70
128
 71
220
 72
77
 73
237
 74
237
 0
VERTEX
 8
MID
 10
0
 20
0
 30
0
 70
128
 71
47
 72
179
 73
209
 74
209
 0
VERTEX
 8
MID
 10
0
 20
0
 30
0
 70
128
 71
254
 72
291
 73
183
 74
183
 0
VERTEX
 8
MID
 10
0
 20
0
 30
0
 70
128
 71
247
 72
82
 73
40
 74
40
 0
VERTEX
 8
MID
 10
0
 20
0
 30
0
 70
128
 71
304
 72
224
 73
121
 74
121
 0
VERTEX
 8
MID
 10
0
 20
0
 30
0
 70
128
 71
163
 72
243
 73
309
 74
309
 0
VERTEX
 8
MID
 10
0
 20
0
 30
0
 70
128
 71
328
 72
75
 73
296
 74
296
 0
VERTEX
 8
MID
 10
0
 20
0
 30
0
 70
128
 71
297
 72
193
 73
213
 74
213
 0
VERTEX
 8
MID
 10
0
 20
0
 30
0
 70
128
 71
76
 72
88
 73
148
 74
148
 0
VERTEX
 8
MID
 10
0
 20
0
 30
0
 70
128
 71
107
 72
16
 73
21
 74
21
 0
VERTEX
 8
MID
 10
0
 20
0
 30
0
 70
128
 71
134
 72
336
 73
294
 74
294
 0
VERTEX
 8
MID
 10
0
 20
0
 30
0
 70
128
 71
205
 72
237
 73
116
 74
116
 0
VERTEX
 8
MID
 10
0
 20
0
 30
0
 70
128
 71
168
 72
26
 73
255
 74
255
 0
VERTEX
 8
MID
 10
0
 20
0
 30
0
 70
128
 71
76
 72
15
 73
336
 74
336
 0
VERTEX
 8
MID
 10
0
 20
0
 30
0
 70
128
 71
100
 72
313
 73
211
 74
211
 0
VERTEX
 8
MID
 10
0
 20
0
 30
0
 70
128
 71
99
 72
166
 73
167
 74
167
 0
VERTEX
 8
MID
 10
0
 20
0
 30
0
 70
128
 71
331
 72
95
 73
20
 74
20
 0
VERTEX
 8
MID
 10
0
 20
0
 30
0
 70
128
 71
144
 72
324
 73
199
 74
199
 0
VERTEX
 8
MID
 10
0
 20
0
 30
0
 70
128
 71
159
 72
25
 73
240
 74
240
 0
VERTEX
 8
MID
 10
0
 20
0
 30
0
 70
128
 71
15
 72
148
 73
212
 74
212
 0
VERTEX
 8
MID
 10
0
 20
0
 30
0
 70
128
 71
100
 72
336
 73
313
 74
313
 0
VERTEX
 8
MID
 10
0
 20
0
 30
0
 70
128
 71
54
 72
139
 73
36
 74
36
 0
VERTEX
 8
MID
 10
0
 20
0
 30
0
 70
128
 71
136
 72
310
 73
149
 74
149
 0
VERTEX
 8
MID
 10
0
 20
0
 30
0
 70
128
 71
117
 72
331
 73
151
 74
151
 0
VERTEX
 8
MID
 10
0
 20
0
 30
0
 70
128
 71
318
 72
259
 73
173
 74
173
 0
VERTEX
 8
MID
 10
0
 20
0
 30
0
 70
128
 71
281
 72
297
 73
213
 74
213
 0
VERTEX
 8
MID
 10
0
 20
0
 30
0
 70
128
 71
327
 72
126
 73
2
 74
2
 0
VERTEX
 8
MID
 10
0
 20
0
 30
0
 70
128
 71
308
 72
228
 73
158
 74
158
 0
VERTEX
 8
MID
 10
0
 20
0
 30
0
 70
128
 71
55
 72
285
 73
180
 74
180
 0
VERTEX
 8
MID
 10
0
 20
0
 30
0
 70
128
 71
299
 72
255
 73
295
 74
295
 0
VERTEX
 8
MID
 10
0
 20
0
 30
0
 70
128
 71
205
 72
220
 73
237
 74
237
 0
VERTEX
 8
MID
 10
0
 20
0
 30
0
 70
128
 71
187
 72
233
 73
284
 74
284
 0
VERTEX
 8
MID
 10
0
 20
0
 30
0
 70
128
 71
63
 72
279
 73
73
 74
73
 0
VERTEX
 8
MID
 10
0
 20
0
 30
0
 70
128
 71
298
 72
91
 73
27
 74
27
 0
VERTEX
 8
MID
 10
0
 20
0
 30
0
 70
128
 71
61
 72
208
 73
11
 74
11
 0
VERTEX
 8
MID
 10
0
 20
0
 30
0
 70
128
 71
208
 72
247
 73
196
 74
196
 0
VERTEX
 8
MID
 10
0
 20
0
 30
0
 70
128
 71
27
 72
51
 73
323
 74
323
 0
VERTEX
 8
MID
 10
0
 20
0
 30
0
 70
128
 71
149
 72
23
 73
188
 74
188
 0
VERTEX
 8
MID
 10
0
 20
0
 30
0
 70
128
 71
248
 72
295
 73
17
 74
17
 0
VERTEX
 8
MID
 10
0
 20
0
 30
0
 70
128
 71
164
 72
48
 73
74
 74
74
 0
VERTEX
 8
MID
 10
0
 20
0
 30
0
 70
128
 71
137
 72
201
 73
92
 74
92
 0
VERTEX
 8
MID
 10
0
 20
0
 30
0
 70
128
 71
252
 72
175
 73
277
 74
277
 0
VERTEX
 8
MID
 10
0
 20
0
 30
0
 70
128
 71
127
 72
330
 73
311
 74
311
 0
VERTEX
 8
MID
 10
0
 20
0
 30
0
 70
128
 71
141
 72
323
 73
97
 74
97
 0
VERTEX
 8
MID
 10
0
 20
0
 30
0
 70
128
 71
166
 72
195
 73
206
 74
206
 0
VERTEX
 8
MID
 10
0
 20
0
 30
0
 70
128
 71
293
 72
6
 73
165
 74
165
 0
VERTEX
 8
MID
 10
0
 20
0
 30
0
 70
128
 71
107
 72
92
 73
16
 74
16
 0
VERTEX
 8
MID
 10
0
 20
0
 30
0
 70
128
 71
151
 72
331
 73
87
 74
87
 0
VERTEX
 8
MID
 10
0
 20
0
 30
0
 70
128
 71
83
 72
264
 73
110
 74
110
 0
VERTEX
 8
MID
 10
0
 20
0
 30
0
 70
128
 71
47
 72
268
 73
179
 74
179
 0
VERTEX
 8
MID
 10
0
 20
0
 30
0
 70
128
 71
264
 72
256
 73
110
 74
110
 0
VERTEX
 8
MID
 10
0
 20
0
 30
0
 70
128
 71
49
 72
28
 73
302
 74
302
 0
VERTEX
 8
MID
 10
0
 20
0
 30
0
 70
128
 71
102
 72
336
 73
199
 74
199
 0
VERTEX
 8
MID
 10
0
 20
0
 30
0
 70
128
 71
153
 72
219
 73
310
 74
310
 0
VERTEX
 8
MID
 10
0
 20
0
 30
0
 70
128
 71
276
 72
93
 73
155
 74
155
 0
VERTEX
 8
MID
 10
0
 20
0
 30
0
 70
128
 71
145
 72
155
 73
28
 74
28
 0
VERTEX
 8
MID
 10
0
 20
0
 30
0
 70
128
 71
308
 72
336
 73
13
 74
13
 0
VERTEX
 8
MID
 10
0
 20
0
 30
0
 70
128
 71
270
 72
102
 73
176
 74
176
 0
VERTEX
 8
MID
 10
0
 20
0
 30
0
 70
128
 71
333
 72
231
 73
334
 74
334
 0
VERTEX
 8
MID
 10
0
 20
0
 30
0
 70
128
 71
190
 72
98
 73
258
 74
258
 0
VERTEX
 8
MID
 10
0
 20
0
 30
0
 70
128
 71
93
 72
201
 73
137
 74
137
 0
VERTEX
 8
MID
 10
0
 20
0
 30
0
 70
128
 71
135
 72
252
 73
277
 74
277
 0
VERTEX
 8
MID
 10
0
 20
0
 30
0
 70
128
 71
81
 72
207
 73
112
 74
112
 0
VERTEX
 8
MID
 10
0
 20
0
 30
0
 70
128
 71
303
 72
184
 73
239
 74
239
 0
VERTEX
 8
MID
 10
0
 20
0
 30
0
 70
128
 71
187
 72
221
 73
233
 74
233
 0
VERTEX
 8
MID
 10
0
 20
0
 30
0
 70
128
 71
218
 72
9
 73
13
 74
13
 0
VERTEX
 8
MID
 10
0
 20
0
 30
0
 70
128
 71
69
 72
249
 73
195
 74
195
 0
VERTEX
 8
MID
 10
0
 20
0
 30
0
 70
128
 71
174
 72
214
 73
154
 74
154
 0
VERTEX
 8
MID
 10
0
 20
0
 30
0
 70
128
 71
152
 72
140
 73
226
 74
226
 0
VERTEX
 8
MID
 10
0
 20
0
 30
0
 70
128
 71
137
 72
92
 73
107
 74
107
 0
VERTEX
 8
MID
 10
0
 20
0
 30
0
 70
128
 71
284
 72
56
 73
286
 74
286
 0
VERTEX
 8
MID
 10
0
 20
0
 30
0
 70
128
 71
232
 72
221
 73
187
 74
187
 0
VERTEX
 8
MID
 10
0
 20
0
 30
0
 70
128
 71
81
 72
112
 73
231
 74
231
 0
VERTEX
 8
MID
 10
0
 20
0
 30
0
 70
128
 71
1
 72
81
 73
231
 74
231
 0
VERTEX
 8
MID
 10
0
 20
0
 30
0
 70
128
 71
196
 72
182
 73
270
 74
270
 0
VERTEX
 8
MID
 10
0
 20
0
 30
0
 70
128
 71
101
 72
316
 73
129
 74
129
 0
VERTEX
 8
MID
 10
0
 20
0
 30
0
 70
128
 71
26
 72
84
 73
283
 74
283
 0
VERTEX
 8
MID
 10
0
 20
0
 30
0
 70
128
 71
79
 72
164
 73
74
 74
74
 0
VERTEX
 8
MID
 10
0
 20
0
 30
0
 70
128
 71
2
 72
79
 73
35
 74
35
 0
VERTEX
 8
MID
 10
0
 20
0
 30
0
 70
128
 71
232
 72
250
 73
19
 74
19
 0
VERTEX
 8
MID
 10
0
 20
0
 30
0
 70
128
 71
232
 72
55
 73
221
 74
221
 0
VERTEX
 8
MID
 10
0
 20
0
 30
0
 70
128
 71
290
 72
59
 73
130
 74
130
 0
VERTEX
 8
MID
 10
0
 20
0
 30
0
 70
128
 71
227
 72
267
 73
336
 74
336
 0
VERTEX
 8
MID
 10
0
 20
0
 30
0
 70
128
 71
153
 72
273
 73
219
 74
219
 0
VERTEX
 8
MID
 10
0
 20
0
 30
0
 70
128
 71
12
 72
111
 73
89
 74
89
 0
VERTEX
 8
MID
 10
0
 20
0
 30
0
 70
128
 71
303
 72
7
 73
184
 74
184
 0
VERTEX
 8
MID
 10
0
 20
0
 30
0
 70
128
 71
119
 72
168
 73
255
 74
255
 0
VERTEX
 8
MID
 10
0
 20
0
 30
0
 70
128
 71
167
 72
206
 73
123
 74
123
 0
VERTEX
 8
MID
 10
0
 20
0
 30
0
 70
128
 71
156
 72
185
 73
22
 74
22
 0
VERTEX
 8
MID
 10
0
 20
0
 30
0
 70
128
 71
161
 72
318
 73
307
 74
307
 0
VERTEX
 8
MID
 10
0
 20
0
 30
0
 70
128
 71
96
 72
159
 73
240
 74
240
 0
VERTEX
 8
MID
 10
0
 20
0
 30
0
 70
128
 71
179
 72
326
 73
335
 74
335
 0
VERTEX
 8
MID
 10
0
 20
0
 30
0
 70
128
 71
314
 72
299
 73
140
 74
140
 0
VERTEX
 8
MID
 10
0
 20
0
 30
0
 70
128
 71
197
 72
118
 73
29
 74
29
 0
VERTEX
 8
MID
 10
0
 20
0
 30
0
 70
128
 71
39
 72
303
 73
239
 74
239
 0
VERTEX
 8
MID
 10
0
 20
0
 30
0
 70
128
 71
325
 72
222
 73
91
 74
91
 0
VERTEX
 8
MID
 10
0
 20
0
 30
0
 70
128
 71
309
 72
81
 73
1
 74
1
 0
VERTEX
 8
MID
 10
0
 20
0
 30
0
 70
128
 71
190
 72
258
 73
336
 74
336
 0
VERTEX
 8
MID
 10
0
 20
0
 30
0
 70
128
 71
272
 72
100
 73
328
 74
328
 0
VERTEX
 8
MID
 10
0
 20
0
 30
0
 70
128
 71
225
 72
289
 73
163
 74
163
 0
VERTEX
 8
MID
 10
0
 20
0
 30
0
 70
128
 71
39
 72
239
 73
174
 74
174
 0
VERTEX
 8
MID
 10
0
 20
0
 30
0
 70
128
 71
233
 72
101
 73
284
 74
284
 0
VERTEX
 8
MID
 10
0
 20
0
 30
0
 70
128
 71
180
 72
285
 73
113
 74
113
 0
VERTEX
 8
MID
 10
0
 20
0
 30
0
 70
128
 71
231
 72
112
 73
216
 74
216
 0
VERTEX
 8
MID
 10
0
 20
0
 30
0
 70
128
 71
119
 72
255
 73
299
 74
299
 0
VERTEX
 8
MID
 10
0
 20
0
 30
0
 70
128
 71
65
 72
197
 73
203
 74
203
 0
VERTEX
 8
MID
 10
0
 20
0
 30
0
 70
128
 71
41
 72
18
 73
268
 74
268
 0
VERTEX
 8
MID
 10
0
 20
0
 30
0
 70
128
 71
8
 72
176
 73
324
 74
324
 0
VERTEX
 8
MID
 10
0
 20
0
 30
0
 70
128
 71
329
 72
167
 73
123
 74
123
 0
VERTEX
 8
MID
 10
0
 20
0
 30
0
 70
128
 71
249
 72
215
 73
50
 74
50
 0
VERTEX
 8
MID
 10
0
 20
0
 30
0
 70
128
 71
108
 72
169
 73
253
 74
253
 0
VERTEX
 8
MID
 10
0
 20
0
 30
0
 70
128
 71
112
 72
204
 73
141
 74
141
 0
VERTEX
 8
MID
 10
0
 20
0
 30
0
 70
128
 71
97
 72
323
 73
67
 74
67
 0
VERTEX
 8
MID
 10
0
 20
0
 30
0
 70
128
 71
195
 72
50
 73
275
 74
275
 0
VERTEX
 8
MID
 10
0
 20
0
 30
0
 70
128
 71
16
 72
333
 73
78
 74
78
 0
VERTEX
 8
MID
 10
0
 20
0
 30
0
 70
128
 71
53
 72
115
 73
8
 74
8
 0
VERTEX
 8
MID
 10
0
 20
0
 30
0
 70
128
 71
105
 72
236
 73
301
 74
301
 0
VERTEX
 8
MID
 10
0
 20
0
 30
0
 70
128
 71
198
 72
70
 73
171
 74
171
 0
VERTEX
 8
MID
 10
0
 20
0
 30
0
 70
128
 71
215
 72
60
 73
133
 74
133
 0
VERTEX
 8
MID
 10
0
 20
0
 30
0
 70
128
 71
258
 72
128
 73
322
 74
322
 0
VERTEX
 8
MID
 10
0
 20
0
 30
0
 70
128
 71
3
 72
85
 73
319
 74
319
 0
VERTEX
 8
MID
 10
0
 20
0
 30
0
 70
128
 71
43
 72
248
 73
158
 74
158
 0
VERTEX
 8
MID
 10
0
 20
0
 30
0
 70
128
 71
229
 72
33
 73
106
 74
106
 0
VERTEX
 8
MID
 10
0
 20
0
 30
0
 70
128
 71
33
 72
34
 73
327
 74
327
 0
VERTEX
 8
MID
 10
0
 20
0
 30
0
 70
128
 71
105
 72
301
 73
86
 74
86
 0
VERTEX
 8
MID
 10
0
 20
0
 30
0
 70
128
 71
240
 72
3
 73
289
 74
289
 0
VERTEX
 8
MID
 10
0
 20
0
 30
0
 70
128
 71
101
 72
223
 73
58
 74
58
 0
VERTEX
 8
MID
 10
0
 20
0
 30
0
 70
128
 71
320
 72
161
 73
113
 74
113
 0
VERTEX
 8
MID
 10
0
 20
0
 30
0
 70
128
 71
50
 72
215
 73
133
 74
133
 0
VERTEX
 8
MID
 10
0
 20
0
 30
0
 70
128
 71
261
 72
282
 73
99
 74
99
 0
VERTEX
 8
MID
 10
0
 20
0
 30
0
 70
128
 71
144
 72
336
 73
134
 74
134
 0
VERTEX
 8
MID
 10
0
 20
0
 30
0
 70
128
 71
286
 72
210
 73
122
 74
122
 0
VERTEX
 8
MID
 10
0
 20
0
 30
0
 70
128
 71
205
 72
116
 73
18
 74
18
 0
VERTEX
 8
MID
 10
0
 20
0
 30
0
 70
128
 71
9
 72
228
 73
13
 74
13
 0
VERTEX
 8
MID
 10
0
 20
0
 30
0
 70
128
 71
56
 72
210
 73
286
 74
286
 0
VERTEX
 8
MID
 10
0
 20
0
 30
0
 70
128
 71
240
 72
202
 73
3
 74
3
 0
VERTEX
 8
MID
 10
0
 20
0
 30
0
 70
128
 71
132
 72
245
 73
160
 74
160
 0
VERTEX
 8
MID
 10
0
 20
0
 30
0
 70
128
 71
221
 72
194
 73
125
 74
125
 0
VERTEX
 8
MID
 10
0
 20
0
 30
0
 70
128
 71
273
 72
127
 73
219
 74
219
 0
VERTEX
 8
MID
 10
0
 20
0
 30
0
 70
128
 71
206
 72
41
 73
47
 74
47
 0
VERTEX
 8
MID
 10
0
 20
0
 30
0
 70
128
 71
280
 72
312
 73
281
 74
281
 0
VERTEX
 8
MID
 10
0
 20
0
 30
0
 70
128
 71
334
 72
97
 73
78
 74
78
 0
VERTEX
 8
MID
 10
0
 20
0
 30
0
 70
128
 71
235
 72
288
 73
139
 74
139
 0
VERTEX
 8
MID
 10
0
 20
0
 30
0
 70
128
 71
63
 72
73
 73
45
 74
45
 0
VERTEX
 8
MID
 10
0
 20
0
 30
0
 70
128
 71
248
 72
17
 73
117
 74
117
 0
VERTEX
 8
MID
 10
0
 20
0
 30
0
 70
128
 71
154
 72
230
 73
316
 74
316
 0
VERTEX
 8
MID
 10
0
 20
0
 30
0
 70
128
 71
85
 72
103
 73
298
 74
298
 0
VERTEX
 8
MID
 10
0
 20
0
 30
0
 70
128
 71
311
 72
30
 73
33
 74
33
 0
VERTEX
 8
MID
 10
0
 20
0
 30
0
 70
128
 71
166
 72
69
 73
195
 74
195
 0
VERTEX
 8
MID
 10
0
 20
0
 30
0
 70
128
 71
157
 72
5
 73
52
 74
52
 0
VERTEX
 8
MID
 10
0
 20
0
 30
0
 70
128
 71
295
 72
255
 73
130
 74
130
 0
VERTEX
 8
MID
 10
0
 20
0
 30
0
 70
128
 71
163
 72
181
 73
75
 74
75
 0
VERTEX
 8
MID
 10
0
 20
0
 30
0
 70
128
 71
288
 72
265
 73
152
 74
152
 0
VERTEX
 8
MID
 10
0
 20
0
 30
0
 70
128
 71
257
 72
61
 73
11
 74
11
 0
VERTEX
 8
MID
 10
0
 20
0
 30
0
 70
128
 71
150
 72
29
 73
118
 74
118
 0
VERTEX
 8
MID
 10
0
 20
0
 30
0
 70
128
 71
213
 72
193
 73
94
 74
94
 0
VERTEX
 8
MID
 10
0
 20
0
 30
0
 70
128
 71
253
 72
35
 73
62
 74
62
 0
VERTEX
 8
MID
 10
0
 20
0
 30
0
 70
128
 71
178
 72
266
 73
262
 74
262
 0
VERTEX
 8
MID
 10
0
 20
0
 30
0
 70
128
 71
289
 72
319
 73
243
 74
243
 0
VERTEX
 8
MID
 10
0
 20
0
 30
0
 70
128
 71
315
 72
131
 73
263
 74
263
 0
VERTEX
 8
MID
 10
0
 20
0
 30
0
 70
128
 71
282
 72
267
 73
69
 74
69
 0
VERTEX
 8
MID
 10
0
 20
0
 30
0
 70
128
 71
181
 72
163
 73
309
 74
309
 0
VERTEX
 8
MID
 10
0
 20
0
 30
0
 70
128
 71
202
 72
162
 73
222
 74
222
 0
VERTEX
 8
MID
 10
0
 20
0
 30
0
 70
128
 71
219
 72
311
 73
229
 74
229
 0
VERTEX
 8
MID
 10
0
 20
0
 30
0
 70
128
 71
178
 72
262
 73
273
 74
273
 0
VERTEX
 8
MID
 10
0
 20
0
 30
0
 70
128
 71
106
 72
33
 73
327
 74
327
 0
VERTEX
 8
MID
 10
0
 20
0
 30
0
 70
128
 71
230
 72
304
 73
121
 74
121
 0
VERTEX
 8
MID
 10
0
 20
0
 30
0
 70
128
 71
332
 72
169
 73
108
 74
108
 0
VERTEX
 8
MID
 10
0
 20
0
 30
0
 70
128
 71
175
 72
47
 73
209
 74
209
 0
VERTEX
 8
MID
 10
0
 20
0
 30
0
 70
128
 71
188
 72
68
 73
169
 74
169
 0
VERTEX
 8
MID
 10
0
 20
0
 30
0
 70
128
 71
249
 72
50
 73
195
 74
195
 0
VERTEX
 8
MID
 10
0
 20
0
 30
0
 70
128
 71
161
 72
307
 73
70
 74
70
 0
VERTEX
 8
MID
 10
0
 20
0
 30
0
 70
128
 71
45
 72
73
 73
280
 74
280
 0
VERTEX
 8
MID
 10
0
 20
0
 30
0
 70
128
 71
75
 72
155
 73
145
 74
145
 0
VERTEX
 8
MID
 10
0
 20
0
 30
0
 70
128
 71
94
 72
287
 73
291
 74
291
 0
VERTEX
 8
MID
 10
0
 20
0
 30
0
 70
128
 71
293
 72
118
 73
6
 74
6
 0
VERTEX
 8
MID
 10
0
 20
0
 30
0
 70
128
 71
237
 72
77
 73
116
 74
116
 0
VERTEX
 8
MID
 10
0
 20
0
 30
0
 70
128
 71
113
 72
156
 73
320
 74
320
 0
VERTEX
 8
MID
 10
0
 20
0
 30
0
 70
128
 71
243
 72
319
 73
85
 74
85
 0
VERTEX
 8
MID
 10
0
 20
0
 30
0
 70
128
 71
299
 72
295
 73
140
 74
140
 0
VERTEX
 8
MID
 10
0
 20
0
 30
0
 70
128
 71
283
 72
84
 73
59
 74
59
 0
VERTEX
 8
MID
 10
0
 20
0
 30
0
 70
128
 71
227
 72
215
 73
249
 74
249
 0
VERTEX
 8
MID
 10
0
 20
0
 30
0
 70
128
 71
11
 72
53
 73
8
 74
8
 0
VERTEX
 8
MID
 10
0
 20
0
 30
0
 70
128
 71
74
 72
71
 73
25
 74
25
 0
VERTEX
 8
MID
 10
0
 20
0
 30
0
 70
128
 71
17
 72
95
 73
331
 74
331
 0
VERTEX
 8
MID
 10
0
 20
0
 30
0
 70
128
 71
17
 72
130
 73
95
 74
95
 0
VERTEX
 8
MID
 10
0
 20
0
 30
0
 70
128
 71
262
 72
86
 73
127
 74
127
 0
VERTEX
 8
MID
 10
0
 20
0
 30
0
 70
128
 71
208
 72
196
 73
53
 74
53
 0
VERTEX
 8
MID
 10
0
 20
0
 30
0
 70
128
 71
77
 72
192
 73
264
 74
264
 0
VERTEX
 8
MID
 10
0
 20
0
 30
0
 70
128
 71
315
 72
191
 73
172
 74
172
 0
VERTEX
 8
MID
 10
0
 20
0
 30
0
 70
128
 71
95
 72
108
 73
20
 74
20
 0
VERTEX
 8
MID
 10
0
 20
0
 30
0
 70
128
 71
330
 72
111
 73
12
 74
12
 0
VERTEX
 8
MID
 10
0
 20
0
 30
0
 70
128
 71
202
 72
222
 73
325
 74
325
 0
VERTEX
 8
MID
 10
0
 20
0
 30
0
 70
128
 71
310
 72
229
 73
23
 74
23
 0
VERTEX
 8
MID
 10
0
 20
0
 30
0
 70
128
 71
286
 72
122
 73
232
 74
232
 0
VERTEX
 8
MID
 10
0
 20
0
 30
0
 70
128
 71
277
 72
32
 73
135
 74
135
 0
VERTEX
 8
MID
 10
0
 20
0
 30
0
 70
128
 71
9
 72
114
 73
57
 74
57
 0
VERTEX
 8
MID
 10
0
 20
0
 30
0
 70
128
 71
181
 72
1
 73
276
 74
276
 0
VERTEX
 8
MID
 10
0
 20
0
 30
0
 70
128
 71
44
 72
72
 73
177
 74
177
 0
VERTEX
 8
MID
 10
0
 20
0
 30
0
 70
128
 71
323
 72
51
 73
146
 74
146
 0
VERTEX
 8
MID
 10
0
 20
0
 30
0
 70
128
 71
288
 72
152
 73
66
 74
66
 0
VERTEX
 8
MID
 10
0
 20
0
 30
0
 70
128
 71
261
 72
138
 73
282
 74
282
 0
VERTEX
 8
MID
 10
0
 20
0
 30
0
 70
128
 71
312
 72
279
 73
297
 74
297
 0
VERTEX
 8
MID
 10
0
 20
0
 30
0
 70
128
 71
79
 72
74
 73
159
 74
159
 0
VERTEX
 8
MID
 10
0
 20
0
 30
0
 70
128
 71
170
 72
336
 73
102
 74
102
 0
VERTEX
 8
MID
 10
0
 20
0
 30
0
 70
128
 71
174
 72
239
 73
214
 74
214
 0
VERTEX
 8
MID
 10
0
 20
0
 30
0
 70
128
 71
323
 72
146
 73
67
 74
67
 0
VERTEX
 8
MID
 10
0
 20
0
 30
0
 70
128
 71
40
 72
36
 73
186
 74
186
 0
VERTEX
 8
MID
 10
0
 20
0
 30
0
 70
128
 71
216
 72
141
 73
97
 74
97
 0
VERTEX
 8
MID
 10
0
 20
0
 30
0
 70
128
 71
272
 72
296
 73
279
 74
279
 0
VERTEX
 8
MID
 10
0
 20
0
 30
0
 70
128
 71
302
 72
72
 73
44
 74
44
 0
VERTEX
 8
MID
 10
0
 20
0
 30
0
 70
128
 71
152
 72
314
 73
140
 74
140
 0
VERTEX
 8
MID
 10
0
 20
0
 30
0
 70
128
 71
230
 72
189
 73
304
 74
304
 0
VERTEX
 8
MID
 10
0
 20
0
 30
0
 70
128
 71
138
 72
267
 73
282
 74
282
 0
VERTEX
 8
MID
 10
0
 20
0
 30
0
 70
128
 71
221
 72
125
 73
233
 74
233
 0
VERTEX
 8
MID
 10
0
 20
0
 30
0
 70
128
 71
187
 72
284
 73
286
 74
286
 0
VERTEX
 8
MID
 10
0
 20
0
 30
0
 70
128
 71
122
 72
250
 73
232
 74
232
 0
VERTEX
 8
MID
 10
0
 20
0
 30
0
 70
128
 71
316
 72
230
 73
261
 74
261
 0
VERTEX
 8
MID
 10
0
 20
0
 30
0
 70
128
 71
260
 72
44
 73
177
 74
177
 0
VERTEX
 8
MID
 10
0
 20
0
 30
0
 70
128
 71
306
 72
271
 73
14
 74
14
 0
VERTEX
 8
MID
 10
0
 20
0
 30
0
 70
128
 71
42
 72
154
 73
316
 74
316
 0
VERTEX
 8
MID
 10
0
 20
0
 30
0
 70
128
 71
252
 72
206
 73
175
 74
175
 0
VERTEX
 8
MID
 10
0
 20
0
 30
0
 70
128
 71
273
 72
262
 73
127
 74
127
 0
VERTEX
 8
MID
 10
0
 20
0
 30
0
 70
128
 71
89
 72
315
 73
263
 74
263
 0
VERTEX
 8
MID
 10
0
 20
0
 30
0
 70
128
 71
190
 72
241
 73
62
 74
62
 0
VERTEX
 8
MID
 10
0
 20
0
 30
0
 70
128
 71
42
 72
316
 73
101
 74
101
 0
VERTEX
 8
MID
 10
0
 20
0
 30
0
 70
128
 71
315
 72
172
 73
131
 74
131
 0
VERTEX
 8
MID
 10
0
 20
0
 30
0
 70
128
 71
221
 72
180
 73
194
 74
194
 0
VERTEX
 8
MID
 10
0
 20
0
 30
0
 70
128
 71
225
 72
120
 73
289
 74
289
 0
VERTEX
 8
MID
 10
0
 20
0
 30
0
 70
128
 71
10
 72
124
 73
271
 74
271
 0
VERTEX
 8
MID
 10
0
 20
0
 30
0
 70
128
 71
60
 72
15
 73
220
 74
220
 0
VERTEX
 8
MID
 10
0
 20
0
 30
0
 70
128
 71
74
 72
48
 73
71
 74
71
 0
VERTEX
 8
MID
 10
0
 20
0
 30
0
 70
128
 71
292
 72
120
 73
225
 74
225
 0
VERTEX
 8
MID
 10
0
 20
0
 30
0
 70
128
 71
236
 72
293
 73
165
 74
165
 0
VERTEX
 8
MID
 10
0
 20
0
 30
0
 70
128
 71
125
 72
234
 73
42
 74
42
 0
VERTEX
 8
MID
 10
0
 20
0
 30
0
 70
128
 71
278
 72
174
 73
154
 74
154
 0
VERTEX
 8
MID
 10
0
 20
0
 30
0
 70
128
 71
68
 72
37
 73
169
 74
169
 0
VERTEX
 8
MID
 10
0
 20
0
 30
0
 70
128
 71
98
 72
292
 73
128
 74
128
 0
VERTEX
 8
MID
 10
0
 20
0
 30
0
 70
128
 71
70
 72
307
 73
303
 74
303
 0
VERTEX
 8
MID
 10
0
 20
0
 30
0
 70
128
 71
239
 72
189
 73
214
 74
214
 0
VERTEX
 8
MID
 10
0
 20
0
 30
0
 70
128
 71
328
 72
163
 73
75
 74
75
 0
VERTEX
 8
MID
 10
0
 20
0
 30
0
 70
128
 71
260
 72
147
 73
317
 74
317
 0
VERTEX
 8
MID
 10
0
 20
0
 30
0
 70
128
 71
67
 72
217
 73
238
 74
238
 0
VERTEX
 8
MID
 10
0
 20
0
 30
0
 70
128
 71
124
 72
52
 73
183
 74
183
 0
VERTEX
 8
MID
 10
0
 20
0
 30
0
 70
128
 71
279
 72
75
 73
145
 74
145
 0
VERTEX
 8
MID
 10
0
 20
0
 30
0
 70
128
 71
253
 72
37
 73
2
 74
2
 0
VERTEX
 8
MID
 10
0
 20
0
 30
0
 70
128
 71
75
 72
276
 73
155
 74
155
 0
VERTEX
 8
MID
 10
0
 20
0
 30
0
 70
128
 71
170
 72
102
 73
218
 74
218
 0
VERTEX
 8
MID
 10
0
 20
0
 30
0
 70
128
 71
75
 72
181
 73
276
 74
276
 0
VERTEX
 8
MID
 10
0
 20
0
 30
0
 70
128
 71
331
 72
20
 73
241
 74
241
 0
VERTEX
 8
MID
 10
0
 20
0
 30
0
 70
128
 71
134
 72
294
 73
184
 74
184
 0
VERTEX
 8
MID
 10
0
 20
0
 30
0
 70
128
 71
230
 72
138
 73
261
 74
261
 0
VERTEX
 8
MID
 10
0
 20
0
 30
0
 70
128
 71
193
 72
49
 73
46
 74
46
 0
VERTEX
 8
MID
 10
0
 20
0
 30
0
 70
128
 71
241
 72
190
 73
87
 74
87
 0
VERTEX
 8
MID
 10
0
 20
0
 30
0
 70
128
 71
55
 72
180
 73
221
 74
221
 0
SEQEND
 0
POLYLINE
 8
INNER
 66
1
 10
0.0
 20
0.0
 30
0.0
 70
64
 71
104
 72
161
 0
VERTEX
 8
INNER
 10
-1.5261
 20
-1.6
 30
29.8818
 70
192
 0
VERTEX
 8
INNER
 10
-1.0626
 20
-1.7825
 30
30.7726
 70
192
 0
VERTEX
 8
INNER
 10
-1.0053
 20
-1.4027
 30
28.7701
 70
192
 0
VERTEX
 8
INNER
 10
-0.6479
 20
-1.1376
 30
28.1841
 70
192
 0
VERTEX
 8
INNER
 10
-0.741
 20
-1.2187
 30
28.2954
 70
192
 0
VERTEX
 8
INNER
 10
-0.1581
 20
-1.0183
 30
28.037
 70
192
 0
VERTEX
 8
INNER
 10
-1.3152
 20
-1.2346
 30
29.1143
 70
192
 0
VERTEX
 8
INNER
 10
-0.0131
 20
-2.0097
 30
31.3453
 70
192
 0
VERTEX
 8
INNER
 10
2.0055
 20
-1.4328
 30
29.6229
 70
192
 0
VERTEX
 8
INNER
 10
0.8588
 20
-1.0323
 30
28.0993
 70
192
 0
VERTEX
 8
INNER
 10
1.531
 20
-1.6322
 30
30.5352
 70
192
 0
VERTEX
 8
INNER
 10
-0.5884
 20
-1.381
 30
28.5825
 70
192
 0
VERTEX
 8
INNER
 10
0.2818
 20
-2.1022
 30
31.3559
 70
192
 0
VERTEX
 8
INNER
 10
1.6883
 20
-1.2839
 30
29.4891
 70
192
 0
VERTEX
 8
INNER
 10
-1.4409
 20
-1.3718
 30
29.1082
 70
192
 0
VERTEX
 8
INNER
 10
-0.9512
 20
-1.5461
 30
29.1765
 70
192
 0
VERTEX
 8
INNER
 10
-0.8213
 20
-1.0883
 30
28.3405
 70
192
 0
VERTEX
 8
INNER
 10
1.6607
 20
-1.1717
 30
28.9642
 70
192
 0
VERTEX
 8
INNER
 10
-1.2989
 20
-1.6281
 30
29.5737
 70
192
 0
VERTEX
 8
INNER
 10
2.0055
 20
-1.5393
 30
29.5909
 70
192
 0
VERTEX
 8
INNER
 10
1.3278
 20
-1.137
 30
28.305
 70
192
 0
VERTEX
 8
INNER
 10
1.7877
 20
-1.6281
 30
29.5737
 70
192
 0
VERTEX
 8
INNER
 10
1.5787
 20
-1.8149
 30
30.7863
 70
192
 0
VERTEX
 8
INNER
 10
0.7243
 20
-1.0994
 30
28.016
 70
192
 0
VERTEX
 8
INNER
 10
1.2871
 20
-1.9464
 30
30.4742
 70
192
 0
VERTEX
 8
INNER
 10
1.2847
 20
-1.4723
 30
28.9073
 70
192
 0
VERTEX
 8
INNER
 10
0.9228
 20
-1.3229
 30
28.3926
 70
192
 0
VERTEX
 8
INNER
 10
-1.2237
 20
-1.2988
 30
28.7279
 70
192
 0
VERTEX
 8
INNER
 10
1.7837
 20
-1.406
 30
29.8435
 70
192
 0
VERTEX
 8
INNER
 10
-1.3945
 20
-1.6511
 30
30.311
 70
192
 0
VERTEX
 8
INNER
 10
1.9931
 20
-1.6253
 30
29.871
 70
192
 0
VERTEX
 8
INNER
 10
-1.2821
 20
-1.8192
 30
30.5441
 70
192
 0
VERTEX
 8
INNER
 10
0.1337
 20
-1.1176
 30
27.971
 70
192
 0
VERTEX
 8
INNER
 10
1.8852
 20
-1.3072
 30
29.3733
 70
192
 0
VERTEX
 8
INNER
 10
0.0566
 20
-1.3458
 30
28.4132
 70
192
 0
VERTEX
 8
INNER
 10
1.1257
 20
-1.9382
 30
31.1401
 70
192
 0
VERTEX
 8
INNER
 10
-1.0899
 20
-1.2558
 30
28.5582
 70
192
 0
VERTEX
 8
INNER
 10
1.3136
 20
-1.0655
 30
28.4606
 70
192
 0
VERTEX
 8
INNER
 10
0.8462
 20
-1.1737
 30
28.1017
 70
192
 0
VERTEX
 8
INNER
 10
-0.0859
 20
-2.1107
 30
31.297
 70
192
 0
VERTEX
 8
INNER
 10
1.2883
 20
-2.0182
 30
30.9522
 70
192
 0
VERTEX
 8
INNER
 10
-1.137
 20
-1.1617
 30
28.6402
 70
192
 0
VERTEX
 8
INNER
 10
0.1198
 20
-2.0485
 30
30.7406
 70
192
 0
VERTEX
 8
INNER
 10
1.5293
 20
-1.2427
 30
28.5053
 70
192
 0
VERTEX
 8
INNER
 10
-1.4797
 20
-1.3506
 30
29.3424
 70
192
 0
VERTEX
 8
INNER
 10
-1.0702
 20
-1.9312
 30
30.6294
 70
192
 0
VERTEX
 8
INNER
 10
1.9517
 20
-1.5853
 30
30.1112
 70
192
 0
VERTEX
 8
INNER
 10
-0.3003
 20
-1.1355
 30
28.0512
 70
192
 0
VERTEX
 8
INNER
 10
1.3989
 20
-1.7665
 30
29.9049
 70
192
 0
VERTEX
 8
INNER
 10
1.9729
 20
-1.4101
 30
29.2453
 70
192
 0
VERTEX
 8
INNER
 10
0.0083
 20
-1.2224
 30
28.1102
 70
192
 0
VERTEX
 8
INNER
 10
-1.464
 20
-1.6889
 30
30.1587
 70
192
 0
VERTEX
 8
INNER
 10
-0.7892
 20
-2.0037
 30
30.7164
 70
192
 0
VERTEX
 8
INNER
 10
-1.3964
 20
-1.7115
 30
29.9768
 70
192
 0
VERTEX
 8
INNER
 10
-1.3964
 20
-1.5106
 30
29.3149
 70
192
 0
VERTEX
 8
INNER
 10
1.7231
 20
-1.7792
 30
30.0567
 70
192
 0
VERTEX
 8
INNER
 10
0.207
 20
-1.0304
 30
27.9647
 70
192
 0
VERTEX
 8
INNER
 10
0.0187
 20
-2.1288
 30
31.0754
 70
192
 0
VERTEX
 8
INNER
 10
1.7031
 20
-1.5213
 30
30.2054
 70
192
 0
VERTEX
 8
INNER
 10
-1.5167
 20
-1.5393
 30
29.5909
 70
192
 0
VERTEX
 8
INNER
 10
-0.7698
 20
-2.028
 30
30.9072
 70
192
 0
VERTEX
 8
INNER
 10
1.8833
 20
-1.7566
 30
30.2757
 70
192
 0
VERTEX
 8
INNER
 10
-1.2325
 20
-1.1862
 30
28.8406
 70
192
 0
VERTEX
 8
INNER
 10
1.8083
 20
-1.2468
 30
28.8605
 70
192
 0
VERTEX
 8
INNER
 10
1.5514
 20
-1.1282
 30
28.6143
 70
192
 0
VERTEX
 8
INNER
 10
-1.458
 20
-1.5145
 30
29.9761
 70
192
 0
VERTEX
 8
INNER
 10
0.8291
 20
-1.9059
 30
31.1998
 70
192
 0
VERTEX
 8
INNER
 10
0.7959
 20
-2.0736
 30
31.2738
 70
192
 0
VERTEX
 8
INNER
 10
1.2017
 20
-1.8418
 30
31.0159
 70
192
 0
VERTEX
 8
INNER
 10
-0.2892
 20
-1.9516
 30
31.2579
 70
192
 0
VERTEX
 8
INNER
 10
0.7828
 20
-2.1024
 30
30.9996
 70
192
 0
VERTEX
 8
INNER
 10
-0.3777
 20
-2.0655
 30
31.2506
 70
192
 0
VERTEX
 8
INNER
 10
-0.3403
 20
-2.1057
 30
31.1302
 70
192
 0
VERTEX
 8
INNER
 10
-1.2321
 20
-1.8273
 30
30.2609
 70
192
 0
VERTEX
 8
INNER
 10
-0.5637
 20
-1.8289
 30
31.044
 70
192
 0
VERTEX
 8
INNER
 10
1.6792
 20
-1.374
 30
28.8176
 70
192
 0
VERTEX
 8
INNER
 10
1.3251
 20
-1.3547
 30
28.5826
 70
192
 0
VERTEX
 8
INNER
 10
0.3528
 20
-1.9783
 30
31.3345
 70
192
 0
VERTEX
 8
INNER
 10
-1.5182
 20
-1.4541
 30
29.6935
 70
192
 0
VERTEX
 8
INNER
 10
1.7521
 20
-1.7364
 30
30.5609
 70
192
 0
VERTEX
 8
INNER
 10
1.6768
 20
-1.5752
 30
29.3419
 70
192
 0
VERTEX
 8
INNER
 10
-0.9074
 20
-1.8484
 30
30.1645
 70
192
 0
VERTEX
 8
INNER
 10
-1.0632
 20
-1.6809
 30
30.6194
 70
192
 0
VERTEX
 8
INNER
 10
0.4894
 20
-2.1344
 30
31.2125
 70
192
 0
VERTEX
 8
INNER
 10
-0.839
 20
-1.9582
 30
31.0282
 70
192
 0
VERTEX
 8
INNER
 10
1.7125
 20
-1.8619
 30
30.5832
 70
192
 0
VERTEX
 8
INNER
 10
0.0728
 20
-1.6549
 30
29.5442
 70
192
 0
VERTEX
 8
INNER
 10
0.426
 20
-1.6879
 30
29.6526
 70
192
 0
VERTEX
 8
INNER
 10
0.3916
 20
-1.6432
 30
29.5051
 70
192
 0
VERTEX
 8
INNER
 10
0.0735
 20
-1.6982
 30
29.6872
 70
192
 0
VERTEX
 8
INNER
 10
0.2221
 20
-1.7303
 30
29.7901
 70
192
 0
VERTEX
 8
INNER
 10
0.2162
 20
-1.6239
 30
29.4399
 70
192
 0
VERTEX
 8
INNER
 10
0.4369
 20
-1.6762
 30
29.6144
 70
192
 0
VERTEX
 8
INNER
 10
0.4112
 20
-1.704
 30
29.7052
 70
192
 0
VERTEX
 8
INNER
 10
0.2449
 20
-1.7321
 30
29.7958
 70
192
 0
VERTEX
 8
INNER
 10
0.2449
 20
-1.6217
 30
29.4326
 70
192
 0
VERTEX
 8
INNER
 10
0.4112
 20
-1.6487
 30
29.5236
 70
192
 0
VERTEX
 8
INNER
 10
0.3409
 20
-1.7246
 30
29.7716
 70
192
 0
VERTEX
 8
INNER
 10
0.0529
 20
-1.676
 30
29.6145
 70
192
 0
VERTEX
 8
INNER
 10
0.3409
 20
-1.6289
 30
29.457
 70
192
 0
VERTEX
 8
INNER
 10
0.1489
 20
-1.7244
 30
29.7716
 70
192
 0
VERTEX
 8
INNER
 10
0.0786
 20
-1.7037
 30
29.7053
 70
192
 0
VERTEX
 8
INNER
 10
0.0786
 20
-1.6487
 30
29.5236
 70
192
 0
VERTEX
 8
INNER
 10
0.1489
 20
-1.6289
 30
29.457
 70
192
 0
VERTEX
 8
INNER
 10
0
 20
0
 30
0
 70
128
 71
43
 72
82
 73
53
 74
53
 0
VERTEX
 8
INNER
 10
0
 20
0
 30
0
 70
128
 71
50
 72
76
 73
81
 74
81
 0
VERTEX
 8
INNER
 10
0
 20
0
 30
0
 70
128
 71
68
 72
84
 73
13
 74
13
 0
VERTEX
 8
INNER
 10
0
 20
0
 30
0
 70
128
 71
68
 72
71
 73
84
 74
84
 0
VERTEX
 8
INNER
 10
0
 20
0
 30
0
 70
128
 71
70
 72
72
 73
85
 74
85
 0
VERTEX
 8
INNER
 10
0
 20
0
 30
0
 70
128
 71
2
 72
85
 73
32
 74
32
 0
VERTEX
 8
INNER
 10
0
 20
0
 30
0
 70
128
 71
83
 72
2
 73
30
 74
30
 0
VERTEX
 8
INNER
 10
0
 20
0
 30
0
 70
128
 71
8
 72
72
 73
70
 74
70
 0
VERTEX
 8
INNER
 10
0
 20
0
 30
0
 70
128
 71
37
 72
12
 73
5
 74
5
 0
VERTEX
 8
INNER
 10
0
 20
0
 30
0
 70
128
 71
69
 72
36
 73
67
 74
67
 0
VERTEX
 8
INNER
 10
0
 20
0
 30
0
 70
128
 71
75
 72
85
 73
2
 74
2
 0
VERTEX
 8
INNER
 10
0
 20
0
 30
0
 70
128
 71
62
 72
86
 73
80
 74
80
 0
VERTEX
 8
INNER
 10
0
 20
0
 30
0
 70
128
 71
52
 72
54
 73
1
 74
1
 0
VERTEX
 8
INNER
 10
0
 20
0
 30
0
 70
128
 71
6
 72
33
 73
57
 74
57
 0
VERTEX
 8
INNER
 10
0
 20
0
 30
0
 70
128
 71
72
 72
61
 73
85
 74
85
 0
VERTEX
 8
INNER
 10
0
 20
0
 30
0
 70
128
 71
39
 72
77
 73
44
 74
44
 0
VERTEX
 8
INNER
 10
0
 20
0
 30
0
 70
128
 71
93
 72
88
 73
49
 74
26
 0
VERTEX
 8
INNER
 10
0
 20
0
 30
0
 70
128
 71
26
 72
89
 73
97
 74
97
 0
VERTEX
 8
INNER
 10
0
 20
0
 30
0
 70
128
 71
26
 72
97
 73
93
 74
93
 0
VERTEX
 8
INNER
 10
0
 20
0
 30
0
 70
128
 71
35
 72
26
 73
27
 74
27
 0
VERTEX
 8
INNER
 10
0
 20
0
 30
0
 70
128
 71
2
 72
32
 73
30
 74
30
 0
VERTEX
 8
INNER
 10
0
 20
0
 30
0
 70
128
 71
62
 72
56
 73
86
 74
86
 0
VERTEX
 8
INNER
 10
0
 20
0
 30
0
 70
128
 71
23
 72
80
 73
86
 74
86
 0
VERTEX
 8
INNER
 10
0
 20
0
 30
0
 70
128
 71
61
 72
53
 73
46
 74
46
 0
VERTEX
 8
INNER
 10
0
 20
0
 30
0
 70
128
 71
83
 72
30
 73
66
 74
66
 0
VERTEX
 8
INNER
 10
0
 20
0
 30
0
 70
128
 71
56
 72
25
 73
86
 74
86
 0
VERTEX
 8
INNER
 10
0
 20
0
 30
0
 70
128
 71
17
 72
4
 73
6
 74
6
 0
VERTEX
 8
INNER
 10
0
 20
0
 30
0
 70
128
 71
55
 72
16
 73
3
 74
3
 0
VERTEX
 8
INNER
 10
0
 20
0
 30
0
 70
128
 71
30
 72
1
 73
66
 74
66
 0
VERTEX
 8
INNER
 10
0
 20
0
 30
0
 70
128
 71
4
 72
5
 73
48
 74
48
 0
VERTEX
 8
INNER
 10
0
 20
0
 30
0
 70
128
 71
81
 72
22
 73
50
 74
50
 0
VERTEX
 8
INNER
 10
0
 20
0
 30
0
 70
128
 71
85
 72
46
 73
32
 74
32
 0
VERTEX
 8
INNER
 10
0
 20
0
 30
0
 70
128
 71
77
 72
26
 73
76
 74
76
 0
VERTEX
 8
INNER
 10
0
 20
0
 30
0
 70
128
 71
74
 72
82
 73
54
 74
54
 0
VERTEX
 8
INNER
 10
0
 20
0
 30
0
 70
128
 71
9
 72
20
 73
31
 74
31
 0
VERTEX
 8
INNER
 10
0
 20
0
 30
0
 70
128
 71
66
 72
79
 73
45
 74
45
 0
VERTEX
 8
INNER
 10
0
 20
0
 30
0
 70
128
 71
49
 72
88
 73
94
 74
94
 0
VERTEX
 8
INNER
 10
0
 20
0
 30
0
 70
128
 71
95
 72
91
 73
43
 74
43
 0
VERTEX
 8
INNER
 10
0
 20
0
 30
0
 70
128
 71
49
 72
94
 73
98
 74
98
 0
VERTEX
 8
INNER
 10
0
 20
0
 30
0
 70
128
 71
98
 72
95
 73
43
 74
49
 0
VERTEX
 8
INNER
 10
0
 20
0
 30
0
 70
128
 71
51
 72
12
 73
35
 74
35
 0
VERTEX
 8
INNER
 10
0
 20
0
 30
0
 70
128
 71
20
 72
50
 73
22
 74
22
 0
VERTEX
 8
INNER
 10
0
 20
0
 30
0
 70
128
 71
17
 72
5
 73
4
 74
4
 0
VERTEX
 8
INNER
 10
0
 20
0
 30
0
 70
128
 71
21
 72
44
 73
38
 74
38
 0
VERTEX
 8
INNER
 10
0
 20
0
 30
0
 70
128
 71
72
 72
73
 73
61
 74
61
 0
VERTEX
 8
INNER
 10
0
 20
0
 30
0
 70
128
 71
28
 72
3
 73
37
 74
37
 0
VERTEX
 8
INNER
 10
0
 20
0
 30
0
 70
128
 71
14
 72
9
 73
29
 74
29
 0
VERTEX
 8
INNER
 10
0
 20
0
 30
0
 70
128
 71
76
 72
26
 73
81
 74
81
 0
VERTEX
 8
INNER
 10
0
 20
0
 30
0
 70
128
 71
58
 72
84
 73
71
 74
71
 0
VERTEX
 8
INNER
 10
0
 20
0
 30
0
 70
128
 71
65
 72
44
 73
64
 74
64
 0
VERTEX
 8
INNER
 10
0
 20
0
 30
0
 70
128
 71
32
 72
46
 73
74
 74
74
 0
VERTEX
 8
INNER
 10
0
 20
0
 30
0
 70
128
 71
14
 72
34
 73
9
 74
9
 0
VERTEX
 8
INNER
 10
0
 20
0
 30
0
 70
128
 71
73
 72
58
 73
61
 74
61
 0
VERTEX
 8
INNER
 10
0
 20
0
 30
0
 70
128
 71
39
 72
27
 73
77
 74
77
 0
VERTEX
 8
INNER
 10
0
 20
0
 30
0
 70
128
 71
18
 72
64
 73
34
 74
34
 0
VERTEX
 8
INNER
 10
0
 20
0
 30
0
 70
128
 71
33
 72
35
 73
27
 74
27
 0
VERTEX
 8
INNER
 10
0
 20
0
 30
0
 70
128
 71
46
 72
53
 73
74
 74
74
 0
VERTEX
 8
INNER
 10
0
 20
0
 30
0
 70
128
 71
64
 72
50
 73
34
 74
34
 0
VERTEX
 8
INNER
 10
0
 20
0
 30
0
 70
128
 71
74
 72
53
 73
82
 74
82
 0
VERTEX
 8
INNER
 10
0
 20
0
 30
0
 70
128
 71
19
 72
16
 73
55
 74
55
 0
VERTEX
 8
INNER
 10
0
 20
0
 30
0
 70
128
 71
82
 72
16
 73
19
 74
19
 0
VERTEX
 8
INNER
 10
0
 20
0
 30
0
 70
128
 71
29
 72
9
 73
47
 74
47
 0
VERTEX
 8
INNER
 10
0
 20
0
 30
0
 70
128
 71
69
 72
23
 73
36
 74
36
 0
VERTEX
 8
INNER
 10
0
 20
0
 30
0
 70
128
 71
9
 72
31
 73
47
 74
47
 0
VERTEX
 8
INNER
 10
0
 20
0
 30
0
 70
128
 71
3
 72
12
 73
37
 74
37
 0
VERTEX
 8
INNER
 10
0
 20
0
 30
0
 70
128
 71
35
 72
92
 73
96
 74
96
 0
VERTEX
 8
INNER
 10
0
 20
0
 30
0
 70
128
 71
100
 72
89
 73
26
 74
35
 0
VERTEX
 8
INNER
 10
0
 20
0
 30
0
 70
128
 71
35
 72
96
 73
100
 74
100
 0
VERTEX
 8
INNER
 10
0
 20
0
 30
0
 70
128
 71
45
 72
15
 73
7
 74
7
 0
VERTEX
 8
INNER
 10
0
 20
0
 30
0
 70
128
 71
13
 72
40
 73
8
 74
8
 0
VERTEX
 8
INNER
 10
0
 20
0
 30
0
 70
128
 71
42
 72
37
 73
17
 74
17
 0
VERTEX
 8
INNER
 10
0
 20
0
 30
0
 70
128
 71
25
 72
43
 73
71
 74
71
 0
VERTEX
 8
INNER
 10
0
 20
0
 30
0
 70
128
 71
48
 72
51
 73
33
 74
33
 0
VERTEX
 8
INNER
 10
0
 20
0
 30
0
 70
128
 71
25
 72
71
 73
41
 74
41
 0
VERTEX
 8
INNER
 10
0
 20
0
 30
0
 70
128
 71
99
 72
87
 73
16
 74
82
 0
VERTEX
 8
INNER
 10
0
 20
0
 30
0
 70
128
 71
82
 72
90
 73
99
 74
99
 0
VERTEX
 8
INNER
 10
0
 20
0
 30
0
 70
128
 71
24
 72
39
 73
21
 74
21
 0
VERTEX
 8
INNER
 10
0
 20
0
 30
0
 70
128
 71
28
 72
37
 73
42
 74
42
 0
VERTEX
 8
INNER
 10
0
 20
0
 30
0
 70
128
 71
10
 72
57
 73
24
 74
24
 0
VERTEX
 8
INNER
 10
0
 20
0
 30
0
 70
128
 71
8
 72
40
 73
72
 74
72
 0
VERTEX
 8
INNER
 10
0
 20
0
 30
0
 70
128
 71
51
 72
35
 73
33
 74
33
 0
VERTEX
 8
INNER
 10
0
 20
0
 30
0
 70
128
 71
66
 72
45
 73
7
 74
7
 0
VERTEX
 8
INNER
 10
0
 20
0
 30
0
 70
128
 71
57
 72
33
 73
24
 74
24
 0
VERTEX
 8
INNER
 10
0
 20
0
 30
0
 70
128
 71
27
 72
26
 73
77
 74
77
 0
VERTEX
 8
INNER
 10
0
 20
0
 30
0
 70
128
 71
64
 72
76
 73
50
 74
50
 0
VERTEX
 8
INNER
 10
0
 20
0
 30
0
 70
128
 71
38
 72
44
 73
65
 74
65
 0
VERTEX
 8
INNER
 10
0
 20
0
 30
0
 70
128
 71
29
 72
47
 73
59
 74
59
 0
VERTEX
 8
INNER
 10
0
 20
0
 30
0
 70
128
 71
5
 72
12
 73
51
 74
51
 0
VERTEX
 8
INNER
 10
0
 20
0
 30
0
 70
128
 71
33
 72
27
 73
39
 74
39
 0
VERTEX
 8
INNER
 10
0
 20
0
 30
0
 70
128
 71
31
 72
22
 73
56
 74
56
 0
VERTEX
 8
INNER
 10
0
 20
0
 30
0
 70
128
 71
86
 72
25
 73
41
 74
41
 0
VERTEX
 8
INNER
 10
0
 20
0
 30
0
 70
128
 71
63
 72
28
 73
42
 74
42
 0
VERTEX
 8
INNER
 10
0
 20
0
 30
0
 70
128
 71
37
 72
5
 73
17
 74
17
 0
VERTEX
 8
INNER
 10
0
 20
0
 30
0
 70
128
 71
67
 72
36
 73
68
 74
68
 0
VERTEX
 8
INNER
 10
0
 20
0
 30
0
 70
128
 71
43
 72
91
 73
101
 74
82
 0
VERTEX
 8
INNER
 10
0
 20
0
 30
0
 70
128
 71
102
 72
90
 73
82
 74
82
 0
VERTEX
 8
INNER
 10
0
 20
0
 30
0
 70
128
 71
11
 72
23
 73
69
 74
69
 0
VERTEX
 8
INNER
 10
0
 20
0
 30
0
 70
128
 71
101
 72
102
 73
82
 74
82
 0
VERTEX
 8
INNER
 10
0
 20
0
 30
0
 70
128
 71
66
 72
1
 73
79
 74
79
 0
VERTEX
 8
INNER
 10
0
 20
0
 30
0
 70
128
 71
10
 72
21
 73
38
 74
38
 0
VERTEX
 8
INNER
 10
0
 20
0
 30
0
 70
128
 71
24
 72
33
 73
39
 74
39
 0
VERTEX
 8
INNER
 10
0
 20
0
 30
0
 70
128
 71
31
 72
56
 73
62
 74
62
 0
VERTEX
 8
INNER
 10
0
 20
0
 30
0
 70
128
 71
56
 72
22
 73
49
 74
49
 0
VERTEX
 8
INNER
 10
0
 20
0
 30
0
 70
128
 71
60
 72
19
 73
55
 74
55
 0
VERTEX
 8
INNER
 10
0
 20
0
 30
0
 70
128
 71
11
 72
80
 73
23
 74
23
 0
VERTEX
 8
INNER
 10
0
 20
0
 30
0
 70
128
 71
3
 72
16
 73
12
 74
12
 0
VERTEX
 8
INNER
 10
0
 20
0
 30
0
 70
128
 71
36
 72
41
 73
68
 74
68
 0
VERTEX
 8
INNER
 10
0
 20
0
 30
0
 70
128
 71
45
 72
60
 73
55
 74
55
 0
VERTEX
 8
INNER
 10
0
 20
0
 30
0
 70
128
 71
15
 72
3
 73
28
 74
28
 0
VERTEX
 8
INNER
 10
0
 20
0
 30
0
 70
128
 71
70
 72
85
 73
75
 74
75
 0
VERTEX
 8
INNER
 10
0
 20
0
 30
0
 70
128
 71
41
 72
71
 73
68
 74
68
 0
VERTEX
 8
INNER
 10
0
 20
0
 30
0
 70
128
 71
47
 72
31
 73
62
 74
62
 0
VERTEX
 8
INNER
 10
0
 20
0
 30
0
 70
128
 71
7
 72
15
 73
63
 74
63
 0
VERTEX
 8
INNER
 10
0
 20
0
 30
0
 70
128
 71
30
 72
52
 73
1
 74
1
 0
VERTEX
 8
INNER
 10
0
 20
0
 30
0
 70
128
 71
1
 72
60
 73
79
 74
79
 0
VERTEX
 8
INNER
 10
0
 20
0
 30
0
 70
128
 71
6
 72
48
 73
33
 74
33
 0
VERTEX
 8
INNER
 10
0
 20
0
 30
0
 70
128
 71
65
 72
64
 73
18
 74
18
 0
VERTEX
 8
INNER
 10
0
 20
0
 30
0
 70
128
 71
16
 72
87
 73
103
 74
103
 0
VERTEX
 8
INNER
 10
0
 20
0
 30
0
 70
128
 71
22
 72
81
 73
49
 74
49
 0
VERTEX
 8
INNER
 10
0
 20
0
 30
0
 70
128
 71
61
 72
46
 73
85
 74
85
 0
VERTEX
 8
INNER
 10
0
 20
0
 30
0
 70
128
 71
45
 72
55
 73
15
 74
15
 0
VERTEX
 8
INNER
 10
0
 20
0
 30
0
 70
128
 71
5
 72
51
 73
48
 74
48
 0
VERTEX
 8
INNER
 10
0
 20
0
 30
0
 70
128
 71
13
 72
84
 73
40
 74
40
 0
VERTEX
 8
INNER
 10
0
 20
0
 30
0
 70
128
 71
44
 72
77
 73
76
 74
76
 0
VERTEX
 8
INNER
 10
0
 20
0
 30
0
 70
128
 71
75
 72
2
 73
83
 74
83
 0
VERTEX
 8
INNER
 10
0
 20
0
 30
0
 70
128
 71
30
 72
32
 73
52
 74
52
 0
VERTEX
 8
INNER
 10
0
 20
0
 30
0
 70
128
 71
1
 72
54
 73
60
 74
60
 0
VERTEX
 8
INNER
 10
0
 20
0
 30
0
 70
128
 71
58
 72
43
 73
61
 74
61
 0
VERTEX
 8
INNER
 10
0
 20
0
 30
0
 70
128
 71
16
 72
103
 73
104
 74
104
 0
VERTEX
 8
INNER
 10
0
 20
0
 30
0
 70
128
 71
32
 72
74
 73
52
 74
52
 0
VERTEX
 8
INNER
 10
0
 20
0
 30
0
 70
128
 71
52
 72
74
 73
54
 74
54
 0
VERTEX
 8
INNER
 10
0
 20
0
 30
0
 70
128
 71
71
 72
43
 73
58
 74
58
 0
VERTEX
 8
INNER
 10
0
 20
0
 30
0
 70
128
 71
50
 72
20
 73
9
 74
9
 0
VERTEX
 8
INNER
 10
0
 20
0
 30
0
 70
128
 71
104
 72
92
 73
35
 74
16
 0
VERTEX
 8
INNER
 10
0
 20
0
 30
0
 70
128
 71
79
 72
60
 73
45
 74
45
 0
VERTEX
 8
INNER
 10
0
 20
0
 30
0
 70
128
 71
15
 72
55
 73
3
 74
3
 0
VERTEX
 8
INNER
 10
0
 20
0
 30
0
 70
128
 71
26
 72
49
 73
81
 74
81
 0
VERTEX
 8
INNER
 10
0
 20
0
 30
0
 70
128
 71
67
 72
68
 73
78
 74
78
 0
VERTEX
 8
INNER
 10
0
 20
0
 30
0
 70
128
 71
6
 72
4
 73
48
 74
48
 0
VERTEX
 8
INNER
 10
0
 20
0
 30
0
 70
128
 71
56
 72
49
 73
25
 74
25
 0
VERTEX
 8
INNER
 10
0
 20
0
 30
0
 70
128
 71
20
 72
22
 73
31
 74
31
 0
VERTEX
 8
INNER
 10
0
 20
0
 30
0
 70
128
 71
21
 72
39
 73
44
 74
44
 0
VERTEX
 8
INNER
 10
0
 20
0
 30
0
 70
128
 71
54
 72
82
 73
19
 74
19
 0
VERTEX
 8
INNER
 10
0
 20
0
 30
0
 70
128
 71
40
 72
58
 73
73
 74
73
 0
VERTEX
 8
INNER
 10
0
 20
0
 30
0
 70
128
 71
78
 72
13
 73
8
 74
8
 0
VERTEX
 8
INNER
 10
0
 20
0
 30
0
 70
128
 71
54
 72
19
 73
60
 74
60
 0
VERTEX
 8
INNER
 10
0
 20
0
 30
0
 70
128
 71
15
 72
28
 73
63
 74
63
 0
VERTEX
 8
INNER
 10
0
 20
0
 30
0
 70
128
 71
47
 72
62
 73
80
 74
80
 0
VERTEX
 8
INNER
 10
0
 20
0
 30
0
 70
128
 71
25
 72
49
 73
43
 74
43
 0
VERTEX
 8
INNER
 10
0
 20
0
 30
0
 70
128
 71
84
 72
58
 73
40
 74
40
 0
VERTEX
 8
INNER
 10
0
 20
0
 30
0
 70
128
 71
86
 72
41
 73
23
 74
23
 0
VERTEX
 8
INNER
 10
0
 20
0
 30
0
 70
128
 71
23
 72
41
 73
36
 74
36
 0
VERTEX
 8
INNER
 10
0
 20
0
 30
0
 70
128
 71
16
 72
35
 73
12
 74
12
 0
VERTEX
 8
INNER
 10
0
 20
0
 30
0
 70
128
 71
10
 72
24
 73
21
 74
21
 0
VERTEX
 8
INNER
 10
0
 20
0
 30
0
 70
128
 71
43
 72
53
 73
61
 74
61
 0
VERTEX
 8
INNER
 10
0
 20
0
 30
0
 70
128
 71
40
 72
73
 73
72
 74
72
 0
VERTEX
 8
INNER
 10
0
 20
0
 30
0
 70
128
 71
59
 72
47
 73
11
 74
11
 0
VERTEX
 8
INNER
 10
0
 20
0
 30
0
 70
128
 71
47
 72
80
 73
11
 74
11
 0
VERTEX
 8
INNER
 10
0
 20
0
 30
0
 70
128
 71
44
 72
76
 73
64
 74
64
 0
VERTEX
 8
INNER
 10
0
 20
0
 30
0
 70
128
 71
34
 72
50
 73
9
 74
9
 0
VERTEX
 8
INNER
 10
0
 20
0
 30
0
 70
128
 71
68
 72
13
 73
78
 74
78
 0
SEQEND
 0
POLYLINE
 8
CYLINDER
 66
1
 10
0.0
 20
0.0
 30
0.0
 70
64
 71
50
 72
60
 0
VERTEX
 8
CYLINDER
 10
0.2449
 20
-1.2942
 30
29.7306
 70
192
 0
VERTEX
 8
CYLINDER
 10
0.2449
 20
-1.677
 30
29.6146
 70
192
 0
VERTEX
 8
CYLINDER
 10
0.4279
 20
-1.2942
 30
29.7306
 70
192
 0
VERTEX
 8
CYLINDER
 10
0.4479
 20
-1.3133
 30
29.7248
 70
192
 0
VERTEX
 8
CYLINDER
 10
0.4479
 20
-1.6579
 30
29.6204
 70
192
 0
VERTEX
 8
CYLINDER
 10
0.4279
 20
-1.677
 30
29.6146
 70
192
 0
VERTEX
 8
CYLINDER
 10
0.4034
 20
-1.3211
 30
29.8187
 70
192
 0
VERTEX
 8
CYLINDER
 10
0.4207
 20
-1.3431
 30
29.8224
 70
192
 0
VERTEX
 8
CYLINDER
 10
0.4207
 20
-1.6872
 30
29.7165
 70
192
 0
VERTEX
 8
CYLINDER
 10
0.4034
 20
-1.7034
 30
29.7011
 70
192
 0
VERTEX
 8
CYLINDER
 10
0.3364
 20
-1.341
 30
29.8831
 70
192
 0
VERTEX
 8
CYLINDER
 10
0.3464
 20
-1.3652
 30
29.8938
 70
192
 0
VERTEX
 8
CYLINDER
 10
0.3464
 20
-1.709
 30
29.7867
 70
192
 0
VERTEX
 8
CYLINDER
 10
0.3364
 20
-1.723
 30
29.7644
 70
192
 0
VERTEX
 8
CYLINDER
 10
0.2449
 20
-1.3483
 30
29.9066
 70
192
 0
VERTEX
 8
CYLINDER
 10
0.2449
 20
-1.3734
 30
29.9199
 70
192
 0
VERTEX
 8
CYLINDER
 10
0.2449
 20
-1.717
 30
29.8124
 70
192
 0
VERTEX
 8
CYLINDER
 10
0.2449
 20
-1.7302
 30
29.7876
 70
192
 0
VERTEX
 8
CYLINDER
 10
0.1534
 20
-1.341
 30
29.8831
 70
192
 0
VERTEX
 8
CYLINDER
 10
0.1434
 20
-1.3652
 30
29.8938
 70
192
 0
VERTEX
 8
CYLINDER
 10
0.1434
 20
-1.709
 30
29.7867
 70
192
 0
VERTEX
 8
CYLINDER
 10
0.1534
 20
-1.723
 30
29.7644
 70
192
 0
VERTEX
 8
CYLINDER
 10
0.0864
 20
-1.3211
 30
29.8187
 70
192
 0
VERTEX
 8
CYLINDER
 10
0.069
 20
-1.3431
 30
29.8224
 70
192
 0
VERTEX
 8
CYLINDER
 10
0.069
 20
-1.6872
 30
29.7165
 70
192
 0
VERTEX
 8
CYLINDER
 10
0.0864
 20
-1.7034
 30
29.7011
 70
192
 0
VERTEX
 8
CYLINDER
 10
0.0618
 20
-1.2942
 30
29.7306
 70
192
 0
VERTEX
 8
CYLINDER
 10
0.0418
 20
-1.3133
 30
29.7248
 70
192
 0
VERTEX
 8
CYLINDER
 10
0.0418
 20
-1.6579
 30
29.6204
 70
192
 0
VERTEX
 8
CYLINDER
 10
0.0618
 20
-1.677
 30
29.6146
 70
192
 0
VERTEX
 8
CYLINDER
 10
0.0864
 20
-1.2677
 30
29.6424
 70
192
 0
VERTEX
 8
CYLINDER
 10
0.069
 20
-1.284
 30
29.6271
 70
192
 0
VERTEX
 8
CYLINDER
 10
0.069
 20
-1.6289
 30
29.5242
 70
192
 0
VERTEX
 8
CYLINDER
 10
0.0864
 20
-1.6509
 30
29.5279
 70
192
 0
VERTEX
 8
CYLINDER
 10
0.1534
 20
-1.2485
 30
29.5778
 70
192
 0
VERTEX
 8
CYLINDER
 10
0.1434
 20
-1.2627
 30
29.5555
 70
192
 0
VERTEX
 8
CYLINDER
 10
0.1434
 20
-1.608
 30
29.4537
 70
192
 0
VERTEX
 8
CYLINDER
 10
0.1534
 20
-1.6321
 30
29.4645
 70
192
 0
VERTEX
 8
CYLINDER
 10
0.2449
 20
-1.2415
 30
29.5542
 70
192
 0
VERTEX
 8
CYLINDER
 10
0.2449
 20
-1.255
 30
29.5292
 70
192
 0
VERTEX
 8
CYLINDER
 10
0.2449
 20
-1.6005
 30
29.4279
 70
192
 0
VERTEX
 8
CYLINDER
 10
0.2449
 20
-1.6252
 30
29.4412
 70
192
 0
VERTEX
 8
CYLINDER
 10
0.3364
 20
-1.2485
 30
29.5778
 70
192
 0
VERTEX
 8
CYLINDER
 10
0.3464
 20
-1.2627
 30
29.5555
 70
192
 0
VERTEX
 8
CYLINDER
 10
0.3464
 20
-1.608
 30
29.4537
 70
192
 0
VERTEX
 8
CYLINDER
 10
0.3364
 20
-1.6321
 30
29.4645
 70
192
 0
VERTEX
 8
CYLINDER
 10
0.4034
 20
-1.2677
 30
29.6424
 70
192
 0
VERTEX
 8
CYLINDER
 10
0.4207
 20
-1.284
 30
29.6271
 70
192
 0
VERTEX
 8
CYLINDER
 10
0.4207
 20
-1.6289
 30
29.5242
 70
192
 0
VERTEX
 8
CYLINDER
 10
0.4034
 20
-1.6509
 30
29.5279
 70
192
 0
VERTEX
 8
CYLINDER
 10
0
 20
0
 30
0
 70
128
 71
1
 72
3
 73
7
 74
7
 0
VERTEX
 8
CYLINDER
 10
0
 20
0
 30
0
 70
128
 71
3
 72
4
 73
8
 74
7
 0
VERTEX
 8
CYLINDER
 10
0
 20
0
 30
0
 70
128
 71
4
 72
5
 73
9
 74
8
 0
VERTEX
 8
CYLINDER
 10
0
 20
0
 30
0
 70
128
 71
5
 72
6
 73
10
 74
9
 0
VERTEX
 8
CYLINDER
 10
0
 20
0
 30
0
 70
128
 71
6
 72
2
 73
10
 74
10
 0
VERTEX
 8
CYLINDER
 10
0
 20
0
 30
0
 70
128
 71
1
 72
7
 73
11
 74
11
 0
VERTEX
 8
CYLINDER
 10
0
 20
0
 30
0
 70
128
 71
7
 72
8
 73
12
 74
11
 0
VERTEX
 8
CYLINDER
 10
0
 20
0
 30
0
 70
128
 71
8
 72
9
 73
13
 74
12
 0
VERTEX
 8
CYLINDER
 10
0
 20
0
 30
0
 70
128
 71
9
 72
10
 73
14
 74
13
 0
VERTEX
 8
CYLINDER
 10
0
 20
0
 30
0
 70
128
 71
10
 72
2
 73
14
 74
14
 0
VERTEX
 8
CYLINDER
 10
0
 20
0
 30
0
 70
128
 71
1
 72
11
 73
15
 74
15
 0
VERTEX
 8
CYLINDER
 10
0
 20
0
 30
0
 70
128
 71
11
 72
12
 73
16
 74
15
 0
VERTEX
 8
CYLINDER
 10
0
 20
0
 30
0
 70
128
 71
12
 72
13
 73
17
 74
16
 0
VERTEX
 8
CYLINDER
 10
0
 20
0
 30
0
 70
128
 71
13
 72
14
 73
18
 74
17
 0
VERTEX
 8
CYLINDER
 10
0
 20
0
 30
0
 70
128
 71
14
 72
2
 73
18
 74
18
 0
VERTEX
 8
CYLINDER
 10
0
 20
0
 30
0
 70
128
 71
1
 72
15
 73
19
 74
19
 0
VERTEX
 8
CYLINDER
 10
0
 20
0
 30
0
 70
128
 71
15
 72
16
 73
20
 74
19
 0
VERTEX
 8
CYLINDER
 10
0
 20
0
 30
0
 70
128
 71
16
 72
17
 73
21
 74
20
 0
VERTEX
 8
CYLINDER
 10
0
 20
0
 30
0
 70
128
 71
17
 72
18
 73
22
 74
21
 0
VERTEX
 8
CYLINDER
 10
0
 20
0
 30
0
 70
128
 71
18
 72
2
 73
22
 74
22
 0
VERTEX
 8
CYLINDER
 10
0
 20
0
 30
0
 70
128
 71
1
 72
19
 73
23
 74
23
 0
VERTEX
 8
CYLINDER
 10
0
 20
0
 30
0
 70
128
 71
19
 72
20
 73
24
 74
23
 0
VERTEX
 8
CYLINDER
 10
0
 20
0
 30
0
 70
128
 71
20
 72
21
 73
25
 74
24
 0
VERTEX
 8
CYLINDER
 10
0
 20
0
 30
0
 70
128
 71
21
 72
22
 73
26
 74
25
 0
VERTEX
 8
CYLINDER
 10
0
 20
0
 30
0
 70
128
 71
22
 72
2
 73
26
 74
26
 0
VERTEX
 8
CYLINDER
 10
0
 20
0
 30
0
 70
128
 71
1
 72
23
 73
27
 74
27
 0
VERTEX
 8
CYLINDER
 10
0
 20
0
 30
0
 70
128
 71
23
 72
24
 73
28
 74
27
 0
VERTEX
 8
CYLINDER
 10
0
 20
0
 30
0
 70
128
 71
24
 72
25
 73
29
 74
28
 0
VERTEX
 8
CYLINDER
 10
0
 20
0
 30
0
 70
128
 71
25
 72
26
 73
30
 74
29
 0
VERTEX
 8
CYLINDER
 10
0
 20
0
 30
0
 70
128
 71
26
 72
2
 73
30
 74
30
 0
VERTEX
 8
CYLINDER
 10
0
 20
0
 30
0
 70
128
 71
1
 72
27
 73
31
 74
31
 0
VERTEX
 8
CYLINDER
 10
0
 20
0
 30
0
 70
128
 71
27
 72
28
 73
32
 74
31
 0
VERTEX
 8
CYLINDER
 10
0
 20
0
 30
0
 70
128
 71
28
 72
29
 73
33
 74
32
 0
VERTEX
 8
CYLINDER
 10
0
 20
0
 30
0
 70
128
 71
29
 72
30
 73
34
 74
33
 0
VERTEX
 8
CYLINDER
 10
0
 20
0
 30
0
 70
128
 71
30
 72
2
 73
34
 74
34
 0
VERTEX
 8
CYLINDER
 10
0
 20
0
 30
0
 70
128
 71
1
 72
31
 73
35
 74
35
 0
VERTEX
 8
CYLINDER
 10
0
 20
0
 30
0
 70
128
 71
31
 72
32
 73
36
 74
35
 0
VERTEX
 8
CYLINDER
 10
0
 20
0
 30
0
 70
128
 71
32
 72
33
 73
37
 74
36
 0
VERTEX
 8
CYLINDER
 10
0
 20
0
 30
0
 70
128
 71
33
 72
34
 73
38
 74
37
 0
VERTEX
 8
CYLINDER
 10
0
 20
0
 30
0
 70
128
 71
34
 72
2
 73
38
 74
38
 0
VERTEX
 8
CYLINDER
 10
0
 20
0
 30
0
 70
128
 71
1
 72
35
 73
39
 74
39
 0
VERTEX
 8
CYLINDER
 10
0
 20
0
 30
0
 70
128
 71
35
 72
36
 73
40
 74
39
 0
VERTEX
 8
CYLINDER
 10
0
 20
0
 30
0
 70
128
 71
36
 72
37
 73
41
 74
40
 0
VERTEX
 8
CYLINDER
 10
0
 20
0
 30
0
 70
128
 71
37
 72
38
 73
42
 74
41
 0
VERTEX
 8
CYLINDER
 10
0
 20
0
 30
0
 70
128
 71
38
 72
2
 73
42
 74
42
 0
VERTEX
 8
CYLINDER
 10
0
 20
0
 30
0
 70
128
 71
1
 72
39
 73
43
 74
43
 0
VERTEX
 8
CYLINDER
 10
0
 20
0
 30
0
 70
128
 71
39
 72
40
 73
44
 74
43
 0
VERTEX
 8
CYLINDER
 10
0
 20
0
 30
0
 70
128
 71
40
 72
41
 73
45
 74
44
 0
VERTEX
 8
CYLINDER
 10
0
 20
0
 30
0
 70
128
 71
41
 72
42
 73
46
 74
45
 0
VERTEX
 8
CYLINDER
 10
0
 20
0
 30
0
 70
128
 71
42
 72
2
 73
46
 74
46
 0
VERTEX
 8
CYLINDER
 10
0
 20
0
 30
0
 70
128
 71
1
 72
43
 73
47
 74
47
 0
VERTEX
 8
CYLINDER
 10
0
 20
0
 30
0
 70
128
 71
43
 72
44
 73
48
 74
47
 0
VERTEX
 8
CYLINDER
 10
0
 20
0
 30
0
 70
128
 71
44
 72
45
 73
49
 74
48
 0
VERTEX
 8
CYLINDER
 10
0
 20
0
 30
0
 70
128
 71
45
 72
46
 73
50
 74
49
 0
VERTEX
 8
CYLINDER
 10
0
 20
0
 30
0
 70
128
 71
46
 72
2
 73
50
 74
50
 0
VERTEX
 8
CYLINDER
 10
0
 20
0
 30
0
 70
128
 71
1
 72
47
 73
3
 74
3
 0
VERTEX
 8
CYLINDER
 10
0
 20
0
 30
0
 70
128
 71
47
 72
48
 73
4
 74
3
 0
VERTEX
 8
CYLINDER
 10
0
 20
0
 30
0
 70
128
 71
48
 72
49
 73
5
 74
4
 0
VERTEX
 8
CYLINDER
 10
0
 20
0
 30
0
 70
128
 71
49
 72
50
 73
6
 74
5
 0
VERTEX
 8
CYLINDER
 10
0
 20
0
 30
0
 70
128
 71
50
 72
2
 73
6
 74
6
 0
SEQEND
 0
POLYLINE
 8
TUBE_33
 66
1
 10
0.0
 20
0.0
 30
0.0
 70
64
 71
840
 72
588
 0
VERTEX
 8
TUBE_33
 10
0.0466
 20
-1.8041
 30
30.3442
 70
192
 0
VERTEX
 8
TUBE_33
 10
0.0656
 20
-1.8211
 30
30.3941
 70
192
 0
VERTEX
 8
TUBE_33
 10
0.0656
 20
-1.9725
 30
30.3424
 70
192
 0
VERTEX
 8
TUBE_33
 10
0.0466
 20
-1.9557
 30
30.2928
 70
192
 0
VERTEX
 8
TUBE_33
 10
-0.0098
 20
-1.9562
 30
30.2943
 70
192
 0
VERTEX
 8
TUBE_33
 10
-0.0257
 20
-1.8219
 30
30.3966
 70
192
 0
VERTEX
 8
TUBE_33
 10
0.0209
 20
-1.8322
 30
30.4265
 70
192
 0
VERTEX
 8
TUBE_33
 10
0.0209
 20
-1.9835
 30
30.3746
 70
192
 0
VERTEX
 8
TUBE_33
 10
-0.0257
 20
-1.9734
 30
30.3449
 70
192
 0
VERTEX
 8
TUBE_33
 10
-0.0098
 20
-1.8046
 30
30.3457
 70
192
 0
VERTEX
 8
TUBE_33
 10
-0.1483
 20
-1.7947
 30
30.3164
 70
192
 0
VERTEX
 8
TUBE_33
 10
-0.1483
 20
-1.9463
 30
30.2652
 70
192
 0
VERTEX
 8
TUBE_33
 10
-0.1515
 20
-1.9286
 30
30.2125
 70
192
 0
VERTEX
 8
TUBE_33
 10
-0.2009
 20
-1.8012
 30
30.3356
 70
192
 0
VERTEX
 8
TUBE_33
 10
-0.2009
 20
-1.9528
 30
30.2843
 70
192
 0
VERTEX
 8
TUBE_33
 10
-0.2366
 20
-1.939
 30
30.2435
 70
192
 0
VERTEX
 8
TUBE_33
 10
-0.1515
 20
-1.7769
 30
30.2633
 70
192
 0
VERTEX
 8
TUBE_33
 10
-0.2061
 20
-1.9241
 30
30.1991
 70
192
 0
VERTEX
 8
TUBE_33
 10
-0.2061
 20
-1.7724
 30
30.2498
 70
192
 0
VERTEX
 8
TUBE_33
 10
-0.2366
 20
-1.7874
 30
30.2945
 70
192
 0
VERTEX
 8
TUBE_33
 10
-0.3303
 20
-1.7508
 30
30.1848
 70
192
 0
VERTEX
 8
TUBE_33
 10
-0.3303
 20
-1.9027
 30
30.1346
 70
192
 0
VERTEX
 8
TUBE_33
 10
-0.4085
 20
-1.8882
 30
30.0904
 70
192
 0
VERTEX
 8
TUBE_33
 10
-0.3175
 20
-1.8858
 30
30.0831
 70
192
 0
VERTEX
 8
TUBE_33
 10
-0.3865
 20
-1.7523
 30
30.1894
 70
192
 0
VERTEX
 8
TUBE_33
 10
-0.3865
 20
-1.9042
 30
30.1391
 70
192
 0
VERTEX
 8
TUBE_33
 10
-0.3175
 20
-1.7338
 30
30.133
 70
192
 0
VERTEX
 8
TUBE_33
 10
-0.3658
 20
-1.8768
 30
30.0558
 70
192
 0
VERTEX
 8
TUBE_33
 10
-0.3658
 20
-1.7248
 30
30.1055
 70
192
 0
VERTEX
 8
TUBE_33
 10
-0.4085
 20
-1.7362
 30
30.1404
 70
192
 0
VERTEX
 8
TUBE_33
 10
-0.4655
 20
-1.6938
 30
30.0099
 70
192
 0
VERTEX
 8
TUBE_33
 10
-0.4655
 20
-1.8461
 30
29.9609
 70
192
 0
VERTEX
 8
TUBE_33
 10
-0.5273
 20
-1.8259
 30
29.8977
 70
192
 0
VERTEX
 8
TUBE_33
 10
-0.4378
 20
-1.8313
 30
29.9148
 70
192
 0
VERTEX
 8
TUBE_33
 10
-0.476
 20
-1.8189
 30
29.8757
 70
192
 0
VERTEX
 8
TUBE_33
 10
-0.5273
 20
-1.6735
 30
29.9463
 70
192
 0
VERTEX
 8
TUBE_33
 10
-0.5209
 20
-1.6904
 30
29.9993
 70
192
 0
VERTEX
 8
TUBE_33
 10
-0.5209
 20
-1.8427
 30
29.9504
 70
192
 0
VERTEX
 8
TUBE_33
 10
-0.4378
 20
-1.6789
 30
29.9635
 70
192
 0
VERTEX
 8
TUBE_33
 10
-0.476
 20
-1.6664
 30
29.9241
 70
192
 0
VERTEX
 8
TUBE_33
 10
-0.5432
 20
-1.6292
 30
29.8056
 70
192
 0
VERTEX
 8
TUBE_33
 10
-0.5432
 20
-1.7819
 30
29.758
 70
192
 0
VERTEX
 8
TUBE_33
 10
-0.5027
 20
-1.7704
 30
29.721
 70
192
 0
VERTEX
 8
TUBE_33
 10
-0.5276
 20
-1.7557
 30
29.6733
 70
192
 0
VERTEX
 8
TUBE_33
 10
-0.5834
 20
-1.6051
 30
29.7279
 70
192
 0
VERTEX
 8
TUBE_33
 10
-0.5931
 20
-1.6214
 30
29.7806
 70
192
 0
VERTEX
 8
TUBE_33
 10
-0.5931
 20
-1.7742
 30
29.7332
 70
192
 0
VERTEX
 8
TUBE_33
 10
-0.5834
 20
-1.7581
 30
29.6808
 70
192
 0
VERTEX
 8
TUBE_33
 10
-0.5027
 20
-1.6176
 30
29.7683
 70
192
 0
VERTEX
 8
TUBE_33
 10
-0.5276
 20
-1.6028
 30
29.7202
 70
192
 0
VERTEX
 8
TUBE_33
 10
-0.5568
 20
-1.5627
 30
29.5882
 70
192
 0
VERTEX
 8
TUBE_33
 10
-0.5568
 20
-1.7159
 30
29.5421
 70
192
 0
VERTEX
 8
TUBE_33
 10
-0.5724
 20
-1.6906
 30
29.4571
 70
192
 0
VERTEX
 8
TUBE_33
 10
-0.5069
 20
-1.7085
 30
29.5173
 70
192
 0
VERTEX
 8
TUBE_33
 10
-0.5724
 20
-1.5372
 30
29.5026
 70
192
 0
VERTEX
 8
TUBE_33
 10
-0.5973
 20
-1.5515
 30
29.5508
 70
192
 0
VERTEX
 8
TUBE_33
 10
-0.5973
 20
-1.7048
 30
29.505
 70
192
 0
VERTEX
 8
TUBE_33
 10
-0.5069
 20
-1.5552
 30
29.5631
 70
192
 0
VERTEX
 8
TUBE_33
 10
-0.5165
 20
-1.6928
 30
29.4647
 70
192
 0
VERTEX
 8
TUBE_33
 10
-0.5165
 20
-1.5395
 30
29.5102
 70
192
 0
VERTEX
 8
TUBE_33
 10
-0.4501
 20
-1.4968
 30
29.3646
 70
192
 0
VERTEX
 8
TUBE_33
 10
-0.5054
 20
-1.4999
 30
29.3753
 70
192
 0
VERTEX
 8
TUBE_33
 10
-0.5054
 20
-1.6536
 30
29.3308
 70
192
 0
VERTEX
 8
TUBE_33
 10
-0.4501
 20
-1.6505
 30
29.3202
 70
192
 0
VERTEX
 8
TUBE_33
 10
-0.4437
 20
-1.6353
 30
29.2671
 70
192
 0
VERTEX
 8
TUBE_33
 10
-0.5332
 20
-1.4864
 30
29.3285
 70
192
 0
VERTEX
 8
TUBE_33
 10
-0.5332
 20
-1.6402
 30
29.2842
 70
192
 0
VERTEX
 8
TUBE_33
 10
-0.495
 20
-1.6289
 30
29.2448
 70
192
 0
VERTEX
 8
TUBE_33
 10
-0.4437
 20
-1.4815
 30
29.3112
 70
192
 0
VERTEX
 8
TUBE_33
 10
-0.495
 20
-1.4751
 30
29.2888
 70
192
 0
VERTEX
 8
TUBE_33
 10
-0.3932
 20
-1.4455
 30
29.1844
 70
192
 0
VERTEX
 8
TUBE_33
 10
-0.3932
 20
-1.5996
 30
29.1412
 70
192
 0
VERTEX
 8
TUBE_33
 10
-0.3369
 20
-1.6009
 30
29.1458
 70
192
 0
VERTEX
 8
TUBE_33
 10
-0.4059
 20
-1.4309
 30
29.1319
 70
192
 0
VERTEX
 8
TUBE_33
 10
-0.4059
 20
-1.585
 30
29.089
 70
192
 0
VERTEX
 8
TUBE_33
 10
-0.3576
 20
-1.5774
 30
29.0613
 70
192
 0
VERTEX
 8
TUBE_33
 10
-0.3369
 20
-1.4468
 30
29.189
 70
192
 0
VERTEX
 8
TUBE_33
 10
-0.315
 20
-1.5871
 30
29.0964
 70
192
 0
VERTEX
 8
TUBE_33
 10
-0.315
 20
-1.433
 30
29.1393
 70
192
 0
VERTEX
 8
TUBE_33
 10
-0.3576
 20
-1.4232
 30
29.104
 70
192
 0
VERTEX
 8
TUBE_33
 10
-0.1765
 20
-1.4085
 30
29.0507
 70
192
 0
VERTEX
 8
TUBE_33
 10
-0.2291
 20
-1.4032
 30
29.0311
 70
192
 0
VERTEX
 8
TUBE_33
 10
-0.2291
 20
-1.5575
 30
28.989
 70
192
 0
VERTEX
 8
TUBE_33
 10
-0.1713
 20
-1.5393
 30
28.9217
 70
192
 0
VERTEX
 8
TUBE_33
 10
-0.1765
 20
-1.5628
 30
29.0084
 70
192
 0
VERTEX
 8
TUBE_33
 10
-0.1408
 20
-1.5515
 30
28.9669
 70
192
 0
VERTEX
 8
TUBE_33
 10
-0.2259
 20
-1.3885
 30
28.9771
 70
192
 0
VERTEX
 8
TUBE_33
 10
-0.2259
 20
-1.543
 30
28.9354
 70
192
 0
VERTEX
 8
TUBE_33
 10
-0.1408
 20
-1.3971
 30
29.0089
 70
192
 0
VERTEX
 8
TUBE_33
 10
-0.1713
 20
-1.3848
 30
28.9634
 70
192
 0
VERTEX
 8
TUBE_33
 10
0.0182
 20
-1.3842
 30
28.9611
 70
192
 0
VERTEX
 8
TUBE_33
 10
-0.0265
 20
-1.3753
 30
28.9281
 70
192
 0
VERTEX
 8
TUBE_33
 10
-0.0265
 20
-1.5299
 30
28.8866
 70
192
 0
VERTEX
 8
TUBE_33
 10
0.0489
 20
-1.5168
 30
28.8376
 70
192
 0
VERTEX
 8
TUBE_33
 10
0.0182
 20
-1.5387
 30
28.9194
 70
192
 0
VERTEX
 8
TUBE_33
 10
0.0648
 20
-1.5305
 30
28.8891
 70
192
 0
VERTEX
 8
TUBE_33
 10
0.0489
 20
-1.3622
 30
28.8786
 70
192
 0
VERTEX
 8
TUBE_33
 10
-0.0075
 20
-1.3617
 30
28.8771
 70
192
 0
VERTEX
 8
TUBE_33
 10
-0.0075
 20
-1.5164
 30
28.836
 70
192
 0
VERTEX
 8
TUBE_33
 10
0.0648
 20
-1.376
 30
28.9306
 70
192
 0
VERTEX
 8
TUBE_33
 10
0.1982
 20
-1.3635
 30
28.8838
 70
192
 0
VERTEX
 8
TUBE_33
 10
0.1982
 20
-1.5182
 30
28.8427
 70
192
 0
VERTEX
 8
TUBE_33
 10
0.285
 20
-1.5111
 30
28.8159
 70
192
 0
VERTEX
 8
TUBE_33
 10
0.2313
 20
-1.5298
 30
28.8862
 70
192
 0
VERTEX
 8
TUBE_33
 10
0.285
 20
-1.5253
 30
28.8696
 70
192
 0
VERTEX
 8
TUBE_33
 10
0.2313
 20
-1.352
 30
28.84
 70
192
 0
VERTEX
 8
TUBE_33
 10
0.2313
 20
-1.5067
 30
28.7992
 70
192
 0
VERTEX
 8
TUBE_33
 10
0.2313
 20
-1.3752
 30
28.9276
 70
192
 0
VERTEX
 8
TUBE_33
 10
0.285
 20
-1.3707
 30
28.9109
 70
192
 0
VERTEX
 8
TUBE_33
 10
0.285
 20
-1.3564
 30
28.8568
 70
192
 0
VERTEX
 8
TUBE_33
 10
0.4457
 20
-1.382
 30
28.9531
 70
192
 0
VERTEX
 8
TUBE_33
 10
0.4267
 20
-1.3684
 30
28.9021
 70
192
 0
VERTEX
 8
TUBE_33
 10
0.4267
 20
-1.523
 30
28.8609
 70
192
 0
VERTEX
 8
TUBE_33
 10
0.4457
 20
-1.5365
 30
28.9115
 70
192
 0
VERTEX
 8
TUBE_33
 10
0.4714
 20
-1.3596
 30
28.8691
 70
192
 0
VERTEX
 8
TUBE_33
 10
0.4714
 20
-1.5143
 30
28.8281
 70
192
 0
VERTEX
 8
TUBE_33
 10
0.518
 20
-1.5223
 30
28.8584
 70
192
 0
VERTEX
 8
TUBE_33
 10
0.5021
 20
-1.5361
 30
28.91
 70
192
 0
VERTEX
 8
TUBE_33
 10
0.5021
 20
-1.3816
 30
28.9515
 70
192
 0
VERTEX
 8
TUBE_33
 10
0.518
 20
-1.3677
 30
28.8996
 70
192
 0
VERTEX
 8
TUBE_33
 10
0.6406
 20
-1.3897
 30
28.9814
 70
192
 0
VERTEX
 8
TUBE_33
 10
0.6406
 20
-1.5441
 30
28.9396
 70
192
 0
VERTEX
 8
TUBE_33
 10
0.7289
 20
-1.5501
 30
28.9617
 70
192
 0
VERTEX
 8
TUBE_33
 10
0.6438
 20
-1.5587
 30
28.9932
 70
192
 0
VERTEX
 8
TUBE_33
 10
0.6984
 20
-1.5624
 30
29.0068
 70
192
 0
VERTEX
 8
TUBE_33
 10
0.6932
 20
-1.3844
 30
28.9618
 70
192
 0
VERTEX
 8
TUBE_33
 10
0.6932
 20
-1.5389
 30
28.9201
 70
192
 0
VERTEX
 8
TUBE_33
 10
0.6438
 20
-1.4043
 30
29.0353
 70
192
 0
VERTEX
 8
TUBE_33
 10
0.6984
 20
-1.4081
 30
29.0491
 70
192
 0
VERTEX
 8
TUBE_33
 10
0.7289
 20
-1.3957
 30
29.0036
 70
192
 0
VERTEX
 8
TUBE_33
 10
0.8098
 20
-1.4408
 30
29.1676
 70
192
 0
VERTEX
 8
TUBE_33
 10
0.8226
 20
-1.4262
 30
29.115
 70
192
 0
VERTEX
 8
TUBE_33
 10
0.8226
 20
-1.5804
 30
29.0723
 70
192
 0
VERTEX
 8
TUBE_33
 10
0.9008
 20
-1.5929
 30
29.1171
 70
192
 0
VERTEX
 8
TUBE_33
 10
0.8098
 20
-1.5949
 30
29.1245
 70
192
 0
VERTEX
 8
TUBE_33
 10
0.9008
 20
-1.4388
 30
29.1601
 70
192
 0
VERTEX
 8
TUBE_33
 10
0.8788
 20
-1.4249
 30
29.1104
 70
192
 0
VERTEX
 8
TUBE_33
 10
0.8788
 20
-1.5791
 30
29.0677
 70
192
 0
VERTEX
 8
TUBE_33
 10
0.8581
 20
-1.6027
 30
29.1522
 70
192
 0
VERTEX
 8
TUBE_33
 10
0.8581
 20
-1.4486
 30
29.1954
 70
192
 0
VERTEX
 8
TUBE_33
 10
0.9578
 20
-1.476
 30
29.292
 70
192
 0
VERTEX
 8
TUBE_33
 10
0.9578
 20
-1.6298
 30
29.248
 70
192
 0
VERTEX
 8
TUBE_33
 10
0.9301
 20
-1.6432
 30
29.2946
 70
192
 0
VERTEX
 8
TUBE_33
 10
1.0196
 20
-1.4944
 30
29.3562
 70
192
 0
VERTEX
 8
TUBE_33
 10
1.0132
 20
-1.479
 30
29.3027
 70
192
 0
VERTEX
 8
TUBE_33
 10
1.0132
 20
-1.6329
 30
29.2587
 70
192
 0
VERTEX
 8
TUBE_33
 10
1.0196
 20
-1.6481
 30
29.3118
 70
192
 0
VERTEX
 8
TUBE_33
 10
0.9301
 20
-1.4894
 30
29.3389
 70
192
 0
VERTEX
 8
TUBE_33
 10
0.9683
 20
-1.6545
 30
29.334
 70
192
 0
VERTEX
 8
TUBE_33
 10
0.9683
 20
-1.5009
 30
29.3786
 70
192
 0
VERTEX
 8
TUBE_33
 10
0.995
 20
-1.5469
 30
29.5352
 70
192
 0
VERTEX
 8
TUBE_33
 10
1.0355
 20
-1.5358
 30
29.4978
 70
192
 0
VERTEX
 8
TUBE_33
 10
1.0355
 20
-1.6892
 30
29.4524
 70
192
 0
VERTEX
 8
TUBE_33
 10
0.995
 20
-1.7002
 30
29.4895
 70
192
 0
VERTEX
 8
TUBE_33
 10
1.0199
 20
-1.7145
 30
29.5374
 70
192
 0
VERTEX
 8
TUBE_33
 10
1.0854
 20
-1.5432
 30
29.5228
 70
192
 0
VERTEX
 8
TUBE_33
 10
1.0854
 20
-1.6966
 30
29.4772
 70
192
 0
VERTEX
 8
TUBE_33
 10
1.0757
 20
-1.7122
 30
29.5298
 70
192
 0
VERTEX
 8
TUBE_33
 10
1.0199
 20
-1.5613
 30
29.5834
 70
192
 0
VERTEX
 8
TUBE_33
 10
1.0757
 20
-1.559
 30
29.5757
 70
192
 0
VERTEX
 8
TUBE_33
 10
0.9992
 20
-1.609
 30
29.7404
 70
192
 0
VERTEX
 8
TUBE_33
 10
1.0491
 20
-1.6013
 30
29.7154
 70
192
 0
VERTEX
 8
TUBE_33
 10
1.0491
 20
-1.7543
 30
29.6685
 70
192
 0
VERTEX
 8
TUBE_33
 10
1.0647
 20
-1.7804
 30
29.7532
 70
192
 0
VERTEX
 8
TUBE_33
 10
0.9992
 20
-1.7619
 30
29.6933
 70
192
 0
VERTEX
 8
TUBE_33
 10
1.0088
 20
-1.7781
 30
29.7457
 70
192
 0
VERTEX
 8
TUBE_33
 10
1.0896
 20
-1.6128
 30
29.7528
 70
192
 0
VERTEX
 8
TUBE_33
 10
1.0896
 20
-1.7657
 30
29.7055
 70
192
 0
VERTEX
 8
TUBE_33
 10
1.0088
 20
-1.6253
 30
29.7932
 70
192
 0
VERTEX
 8
TUBE_33
 10
1.0647
 20
-1.6277
 30
29.8008
 70
192
 0
VERTEX
 8
TUBE_33
 10
0.9977
 20
-1.6674
 30
29.9273
 70
192
 0
VERTEX
 8
TUBE_33
 10
0.9977
 20
-1.8199
 30
29.8789
 70
192
 0
VERTEX
 8
TUBE_33
 10
0.9873
 20
-1.8471
 30
29.9641
 70
192
 0
VERTEX
 8
TUBE_33
 10
0.9424
 20
-1.8233
 30
29.8894
 70
192
 0
VERTEX
 8
TUBE_33
 10
0.9873
 20
-1.6948
 30
30.0131
 70
192
 0
VERTEX
 8
TUBE_33
 10
1.0255
 20
-1.6822
 30
29.9738
 70
192
 0
VERTEX
 8
TUBE_33
 10
1.0255
 20
-1.8346
 30
29.9251
 70
192
 0
VERTEX
 8
TUBE_33
 10
0.9424
 20
-1.6708
 30
29.9379
 70
192
 0
VERTEX
 8
TUBE_33
 10
0.936
 20
-1.8401
 30
29.9421
 70
192
 0
VERTEX
 8
TUBE_33
 10
0.936
 20
-1.6877
 30
29.991
 70
192
 0
VERTEX
 8
TUBE_33
 10
0.8292
 20
-1.7268
 30
30.1118
 70
192
 0
VERTEX
 8
TUBE_33
 10
0.8855
 20
-1.7283
 30
30.1164
 70
192
 0
VERTEX
 8
TUBE_33
 10
0.8855
 20
-1.8804
 30
30.0666
 70
192
 0
VERTEX
 8
TUBE_33
 10
0.8292
 20
-1.8789
 30
30.0621
 70
192
 0
VERTEX
 8
TUBE_33
 10
0.8073
 20
-1.8949
 30
30.1108
 70
192
 0
VERTEX
 8
TUBE_33
 10
0.8982
 20
-1.7453
 30
30.1682
 70
192
 0
VERTEX
 8
TUBE_33
 10
0.8982
 20
-1.8973
 30
30.1181
 70
192
 0
VERTEX
 8
TUBE_33
 10
0.8499
 20
-1.9063
 30
30.1454
 70
192
 0
VERTEX
 8
TUBE_33
 10
0.8073
 20
-1.7429
 30
30.1609
 70
192
 0
VERTEX
 8
TUBE_33
 10
0.8499
 20
-1.7544
 30
30.1957
 70
192
 0
VERTEX
 8
TUBE_33
 10
0.7214
 20
-1.7783
 30
30.2675
 70
192
 0
VERTEX
 8
TUBE_33
 10
0.7214
 20
-1.93
 30
30.2167
 70
192
 0
VERTEX
 8
TUBE_33
 10
0.6688
 20
-1.9236
 30
30.1975
 70
192
 0
VERTEX
 8
TUBE_33
 10
0.6636
 20
-1.8007
 30
30.334
 70
192
 0
VERTEX
 8
TUBE_33
 10
0.7182
 20
-1.7961
 30
30.3205
 70
192
 0
VERTEX
 8
TUBE_33
 10
0.7182
 20
-1.9477
 30
30.2693
 70
192
 0
VERTEX
 8
TUBE_33
 10
0.6636
 20
-1.9523
 30
30.2828
 70
192
 0
VERTEX
 8
TUBE_33
 10
0.6688
 20
-1.7719
 30
30.2482
 70
192
 0
VERTEX
 8
TUBE_33
 10
0.6331
 20
-1.9373
 30
30.2384
 70
192
 0
VERTEX
 8
TUBE_33
 10
0.6331
 20
-1.7856
 30
30.2894
 70
192
 0
VERTEX
 8
TUBE_33
 10
0.4741
 20
-1.8015
 30
30.3363
 70
192
 0
VERTEX
 8
TUBE_33
 10
0.5188
 20
-1.8124
 30
30.3687
 70
192
 0
VERTEX
 8
TUBE_33
 10
0.5188
 20
-1.9639
 30
30.3172
 70
192
 0
VERTEX
 8
TUBE_33
 10
0.4434
 20
-1.9803
 30
30.3653
 70
192
 0
VERTEX
 8
TUBE_33
 10
0.4741
 20
-1.953
 30
30.285
 70
192
 0
VERTEX
 8
TUBE_33
 10
0.4275
 20
-1.9631
 30
30.3147
 70
192
 0
VERTEX
 8
TUBE_33
 10
0.4434
 20
-1.829
 30
30.4172
 70
192
 0
VERTEX
 8
TUBE_33
 10
0.4998
 20
-1.8295
 30
30.4187
 70
192
 0
VERTEX
 8
TUBE_33
 10
0.4998
 20
-1.9809
 30
30.3668
 70
192
 0
VERTEX
 8
TUBE_33
 10
0.4275
 20
-1.8116
 30
30.3663
 70
192
 0
VERTEX
 8
TUBE_33
 10
0.261
 20
-1.8126
 30
30.3691
 70
192
 0
VERTEX
 8
TUBE_33
 10
0.2942
 20
-1.8272
 30
30.4121
 70
192
 0
VERTEX
 8
TUBE_33
 10
0.2942
 20
-1.9786
 30
30.3602
 70
192
 0
VERTEX
 8
TUBE_33
 10
0.2073
 20
-1.9876
 30
30.3866
 70
192
 0
VERTEX
 8
TUBE_33
 10
0.261
 20
-1.9641
 30
30.3176
 70
192
 0
VERTEX
 8
TUBE_33
 10
0.2073
 20
-1.9696
 30
30.3339
 70
192
 0
VERTEX
 8
TUBE_33
 10
0.2073
 20
-1.8363
 30
30.4386
 70
192
 0
VERTEX
 8
TUBE_33
 10
0.261
 20
-1.842
 30
30.455
 70
192
 0
VERTEX
 8
TUBE_33
 10
0.261
 20
-1.9932
 30
30.4028
 70
192
 0
VERTEX
 8
TUBE_33
 10
0.2073
 20
-1.8182
 30
30.3855
 70
192
 0
VERTEX
 8
TUBE_33
 10
0.0451
 20
-1.9147
 30
30.6903
 70
192
 0
VERTEX
 8
TUBE_33
 10
0.0451
 20
-2.0658
 30
30.6376
 70
192
 0
VERTEX
 8
TUBE_33
 10
-0.0459
 20
-2.0685
 30
30.6454
 70
192
 0
VERTEX
 8
TUBE_33
 10
0.0229
 20
-2.0487
 30
30.5886
 70
192
 0
VERTEX
 8
TUBE_33
 10
-0.0459
 20
-1.9174
 30
30.698
 70
192
 0
VERTEX
 8
TUBE_33
 10
0.0026
 20
-1.9269
 30
30.7254
 70
192
 0
VERTEX
 8
TUBE_33
 10
0.0026
 20
-2.078
 30
30.6727
 70
192
 0
VERTEX
 8
TUBE_33
 10
-0.0333
 20
-2.0504
 30
30.5934
 70
192
 0
VERTEX
 8
TUBE_33
 10
-0.0333
 20
-1.8993
 30
30.6461
 70
192
 0
VERTEX
 8
TUBE_33
 10
0.0229
 20
-1.8976
 30
30.6413
 70
192
 0
VERTEX
 8
TUBE_33
 10
-0.1939
 20
-1.8909
 30
30.6221
 70
192
 0
VERTEX
 8
TUBE_33
 10
-0.1939
 20
-2.042
 30
30.5694
 70
192
 0
VERTEX
 8
TUBE_33
 10
-0.2844
 20
-2.038
 30
30.5579
 70
192
 0
VERTEX
 8
TUBE_33
 10
-0.204
 20
-2.0237
 30
30.517
 70
192
 0
VERTEX
 8
TUBE_33
 10
-0.2844
 20
-1.8869
 30
30.6105
 70
192
 0
VERTEX
 8
TUBE_33
 10
-0.2436
 20
-1.8997
 30
30.6473
 70
192
 0
VERTEX
 8
TUBE_33
 10
-0.2436
 20
-2.0508
 30
30.5947
 70
192
 0
VERTEX
 8
TUBE_33
 10
-0.2599
 20
-2.0212
 30
30.5098
 70
192
 0
VERTEX
 8
TUBE_33
 10
-0.2599
 20
-1.8702
 30
30.5625
 70
192
 0
VERTEX
 8
TUBE_33
 10
-0.204
 20
-1.8727
 30
30.5697
 70
192
 0
VERTEX
 8
TUBE_33
 10
-0.4611
 20
-1.977
 30
30.382
 70
192
 0
VERTEX
 8
TUBE_33
 10
-0.4108
 20
-1.8503
 30
30.5055
 70
192
 0
VERTEX
 8
TUBE_33
 10
-0.4108
 20
-2.0015
 30
30.4531
 70
192
 0
VERTEX
 8
TUBE_33
 10
-0.4963
 20
-1.9911
 30
30.4231
 70
192
 0
VERTEX
 8
TUBE_33
 10
-0.4083
 20
-1.9833
 30
30.4005
 70
192
 0
VERTEX
 8
TUBE_33
 10
-0.4652
 20
-1.8552
 30
30.5196
 70
192
 0
VERTEX
 8
TUBE_33
 10
-0.4652
 20
-2.0063
 30
30.4671
 70
192
 0
VERTEX
 8
TUBE_33
 10
-0.4083
 20
-1.832
 30
30.4526
 70
192
 0
VERTEX
 8
TUBE_33
 10
-0.4611
 20
-1.8256
 30
30.4339
 70
192
 0
VERTEX
 8
TUBE_33
 10
-0.4963
 20
-1.8399
 30
30.4754
 70
192
 0
VERTEX
 8
TUBE_33
 10
-0.5948
 20
-1.7959
 30
30.3469
 70
192
 0
VERTEX
 8
TUBE_33
 10
-0.5948
 20
-1.9475
 30
30.2955
 70
192
 0
VERTEX
 8
TUBE_33
 10
-0.5798
 20
-1.9303
 30
30.2446
 70
192
 0
VERTEX
 8
TUBE_33
 10
-0.6269
 20
-1.7688
 30
30.2663
 70
192
 0
VERTEX
 8
TUBE_33
 10
-0.6512
 20
-1.7967
 30
30.3492
 70
192
 0
VERTEX
 8
TUBE_33
 10
-0.6512
 20
-1.9483
 30
30.2979
 70
192
 0
VERTEX
 8
TUBE_33
 10
-0.5798
 20
-1.7787
 30
30.2956
 70
192
 0
VERTEX
 8
TUBE_33
 10
-0.671
 20
-1.9316
 30
30.2485
 70
192
 0
VERTEX
 8
TUBE_33
 10
-0.6269
 20
-1.9206
 30
30.2155
 70
192
 0
VERTEX
 8
TUBE_33
 10
-0.671
 20
-1.78
 30
30.2995
 70
192
 0
VERTEX
 8
TUBE_33
 10
-0.7366
 20
-1.7313
 30
30.1532
 70
192
 0
VERTEX
 8
TUBE_33
 10
-0.7366
 20
-1.8833
 30
30.1032
 70
192
 0
VERTEX
 8
TUBE_33
 10
-0.7997
 20
-1.8631
 30
30.0413
 70
192
 0
VERTEX
 8
TUBE_33
 10
-0.7099
 20
-1.868
 30
30.0566
 70
192
 0
VERTEX
 8
TUBE_33
 10
-0.7489
 20
-1.7034
 30
30.0677
 70
192
 0
VERTEX
 8
TUBE_33
 10
-0.7997
 20
-1.7109
 30
30.0908
 70
192
 0
VERTEX
 8
TUBE_33
 10
-0.7922
 20
-1.7282
 30
30.1436
 70
192
 0
VERTEX
 8
TUBE_33
 10
-0.7922
 20
-1.8802
 30
30.0937
 70
192
 0
VERTEX
 8
TUBE_33
 10
-0.7489
 20
-1.8556
 30
30.0183
 70
192
 0
VERTEX
 8
TUBE_33
 10
-0.7099
 20
-1.7159
 30
30.1062
 70
192
 0
VERTEX
 8
TUBE_33
 10
-0.821
 20
-1.786
 30
29.7999
 70
192
 0
VERTEX
 8
TUBE_33
 10
-0.8292
 20
-1.6605
 30
29.9339
 70
192
 0
VERTEX
 8
TUBE_33
 10
-0.8292
 20
-1.813
 30
29.8854
 70
192
 0
VERTEX
 8
TUBE_33
 10
-0.876
 20
-1.7897
 30
29.8117
 70
192
 0
VERTEX
 8
TUBE_33
 10
-0.792
 20
-1.8003
 30
29.8455
 70
192
 0
VERTEX
 8
TUBE_33
 10
-0.821
 20
-1.6333
 30
29.8477
 70
192
 0
VERTEX
 8
TUBE_33
 10
-0.881
 20
-1.6538
 30
29.9129
 70
192
 0
VERTEX
 8
TUBE_33
 10
-0.881
 20
-1.8063
 30
29.8646
 70
192
 0
VERTEX
 8
TUBE_33
 10
-0.792
 20
-1.6477
 30
29.8937
 70
192
 0
VERTEX
 8
TUBE_33
 10
-0.876
 20
-1.637
 30
29.8597
 70
192
 0
VERTEX
 8
TUBE_33
 10
-0.8678
 20
-1.5876
 30
29.7
 70
192
 0
VERTEX
 8
TUBE_33
 10
-0.8678
 20
-1.7406
 30
29.6531
 70
192
 0
VERTEX
 8
TUBE_33
 10
-0.8221
 20
-1.731
 30
29.6218
 70
192
 0
VERTEX
 8
TUBE_33
 10
-0.9134
 20
-1.578
 30
29.6684
 70
192
 0
VERTEX
 8
TUBE_33
 10
-0.9134
 20
-1.731
 30
29.6218
 70
192
 0
VERTEX
 8
TUBE_33
 10
-0.8221
 20
-1.578
 30
29.6684
 70
192
 0
VERTEX
 8
TUBE_33
 10
-0.896
 20
-1.7157
 30
29.5712
 70
192
 0
VERTEX
 8
TUBE_33
 10
-0.8396
 20
-1.7157
 30
29.5712
 70
192
 0
VERTEX
 8
TUBE_33
 10
-0.8396
 20
-1.5625
 30
29.6174
 70
192
 0
VERTEX
 8
TUBE_33
 10
-0.896
 20
-1.5625
 30
29.6174
 70
192
 0
VERTEX
 8
TUBE_33
 10
-0.8037
 20
-1.6484
 30
29.3436
 70
192
 0
VERTEX
 8
TUBE_33
 10
-0.8505
 20
-1.5165
 30
29.463
 70
192
 0
VERTEX
 8
TUBE_33
 10
-0.8505
 20
-1.67
 30
29.4178
 70
192
 0
VERTEX
 8
TUBE_33
 10
-0.8587
 20
-1.6449
 30
29.3317
 70
192
 0
VERTEX
 8
TUBE_33
 10
-0.7986
 20
-1.6639
 30
29.3968
 70
192
 0
VERTEX
 8
TUBE_33
 10
-0.8037
 20
-1.4947
 30
29.3882
 70
192
 0
VERTEX
 8
TUBE_33
 10
-0.8876
 20
-1.5047
 30
29.4225
 70
192
 0
VERTEX
 8
TUBE_33
 10
-0.8876
 20
-1.6582
 30
29.3776
 70
192
 0
VERTEX
 8
TUBE_33
 10
-0.7986
 20
-1.5103
 30
29.4418
 70
192
 0
VERTEX
 8
TUBE_33
 10
-0.8587
 20
-1.4912
 30
29.3763
 70
192
 0
VERTEX
 8
TUBE_33
 10
-0.7152
 20
-1.5872
 30
29.1287
 70
192
 0
VERTEX
 8
TUBE_33
 10
-0.7783
 20
-1.4508
 30
29.2349
 70
192
 0
VERTEX
 8
TUBE_33
 10
-0.7783
 20
-1.6048
 30
29.1913
 70
192
 0
VERTEX
 8
TUBE_33
 10
-0.7228
 20
-1.6021
 30
29.1818
 70
192
 0
VERTEX
 8
TUBE_33
 10
-0.7152
 20
-1.4331
 30
29.1718
 70
192
 0
VERTEX
 8
TUBE_33
 10
-0.805
 20
-1.4374
 30
29.1874
 70
192
 0
VERTEX
 8
TUBE_33
 10
-0.805
 20
-1.5915
 30
29.1442
 70
192
 0
VERTEX
 8
TUBE_33
 10
-0.766
 20
-1.5807
 30
29.1054
 70
192
 0
VERTEX
 8
TUBE_33
 10
-0.7228
 20
-1.4481
 30
29.2253
 70
192
 0
VERTEX
 8
TUBE_33
 10
-0.766
 20
-1.4265
 30
29.1484
 70
192
 0
VERTEX
 8
TUBE_33
 10
-0.5785
 20
-1.5346
 30
28.9374
 70
192
 0
VERTEX
 8
TUBE_33
 10
-0.6547
 20
-1.3932
 30
29.0273
 70
192
 0
VERTEX
 8
TUBE_33
 10
-0.6547
 20
-1.5476
 30
28.9852
 70
192
 0
VERTEX
 8
TUBE_33
 10
-0.5983
 20
-1.5482
 30
28.9876
 70
192
 0
VERTEX
 8
TUBE_33
 10
-0.5785
 20
-1.3801
 30
28.9791
 70
192
 0
VERTEX
 8
TUBE_33
 10
-0.6697
 20
-1.3791
 30
28.9752
 70
192
 0
VERTEX
 8
TUBE_33
 10
-0.6697
 20
-1.5335
 30
28.9335
 70
192
 0
VERTEX
 8
TUBE_33
 10
-0.6226
 20
-1.5256
 30
28.9039
 70
192
 0
VERTEX
 8
TUBE_33
 10
-0.5983
 20
-1.3939
 30
29.0297
 70
192
 0
VERTEX
 8
TUBE_33
 10
-0.6226
 20
-1.3711
 30
28.9454
 70
192
 0
VERTEX
 8
TUBE_33
 10
-0.4004
 20
-1.4926
 30
28.7794
 70
192
 0
VERTEX
 8
TUBE_33
 10
-0.4859
 20
-1.3459
 30
28.8509
 70
192
 0
VERTEX
 8
TUBE_33
 10
-0.4859
 20
-1.5006
 30
28.81
 70
192
 0
VERTEX
 8
TUBE_33
 10
-0.4356
 20
-1.4816
 30
28.7374
 70
192
 0
VERTEX
 8
TUBE_33
 10
-0.4315
 20
-1.5044
 30
28.8243
 70
192
 0
VERTEX
 8
TUBE_33
 10
-0.4004
 20
-1.3378
 30
28.8201
 70
192
 0
VERTEX
 8
TUBE_33
 10
-0.4356
 20
-1.3267
 30
28.7777
 70
192
 0
VERTEX
 8
TUBE_33
 10
-0.4884
 20
-1.3317
 30
28.7967
 70
192
 0
VERTEX
 8
TUBE_33
 10
-0.4884
 20
-1.4865
 30
28.7563
 70
192
 0
VERTEX
 8
TUBE_33
 10
-0.4315
 20
-1.3497
 30
28.8653
 70
192
 0
VERTEX
 8
TUBE_33
 10
-0.2804
 20
-1.3104
 30
28.7146
 70
192
 0
VERTEX
 8
TUBE_33
 10
-0.2804
 20
-1.4654
 30
28.6747
 70
192
 0
VERTEX
 8
TUBE_33
 10
-0.2307
 20
-1.472
 30
28.7003
 70
192
 0
VERTEX
 8
TUBE_33
 10
-0.2703
 20
-1.2968
 30
28.6612
 70
192
 0
VERTEX
 8
TUBE_33
 10
-0.2703
 20
-1.4518
 30
28.6217
 70
192
 0
VERTEX
 8
TUBE_33
 10
-0.2144
 20
-1.45
 30
28.6145
 70
192
 0
VERTEX
 8
TUBE_33
 10
-0.1899
 20
-1.4624
 30
28.663
 70
192
 0
VERTEX
 8
TUBE_33
 10
-0.1899
 20
-1.3074
 30
28.7028
 70
192
 0
VERTEX
 8
TUBE_33
 10
-0.2307
 20
-1.3171
 30
28.7403
 70
192
 0
VERTEX
 8
TUBE_33
 10
-0.2144
 20
-1.2949
 30
28.6539
 70
192
 0
VERTEX
 8
TUBE_33
 10
-0.0485
 20
-1.2877
 30
28.6256
 70
192
 0
VERTEX
 8
TUBE_33
 10
-0.0485
 20
-1.4428
 30
28.5864
 70
192
 0
VERTEX
 8
TUBE_33
 10
-0.006
 20
-1.4518
 30
28.6218
 70
192
 0
VERTEX
 8
TUBE_33
 10
-0.0263
 20
-1.2752
 30
28.5757
 70
192
 0
VERTEX
 8
TUBE_33
 10
-0.0263
 20
-1.4304
 30
28.5368
 70
192
 0
VERTEX
 8
TUBE_33
 10
0.0299
 20
-1.4316
 30
28.5416
 70
192
 0
VERTEX
 8
TUBE_33
 10
0.0424
 20
-1.4448
 30
28.5942
 70
192
 0
VERTEX
 8
TUBE_33
 10
0.0424
 20
-1.2897
 30
28.6335
 70
192
 0
VERTEX
 8
TUBE_33
 10
-0.006
 20
-1.2968
 30
28.6613
 70
192
 0
VERTEX
 8
TUBE_33
 10
0.0299
 20
-1.2764
 30
28.5805
 70
192
 0
VERTEX
 8
TUBE_33
 10
0.285
 20
-1.4403
 30
28.5764
 70
192
 0
VERTEX
 8
TUBE_33
 10
0.1982
 20
-1.2784
 30
28.5885
 70
192
 0
VERTEX
 8
TUBE_33
 10
0.1982
 20
-1.4335
 30
28.5495
 70
192
 0
VERTEX
 8
TUBE_33
 10
0.285
 20
-1.4268
 30
28.5225
 70
192
 0
VERTEX
 8
TUBE_33
 10
0.2313
 20
-1.4445
 30
28.5931
 70
192
 0
VERTEX
 8
TUBE_33
 10
0.285
 20
-1.2716
 30
28.5613
 70
192
 0
VERTEX
 8
TUBE_33
 10
0.2313
 20
-1.2674
 30
28.5445
 70
192
 0
VERTEX
 8
TUBE_33
 10
0.2313
 20
-1.4226
 30
28.5058
 70
192
 0
VERTEX
 8
TUBE_33
 10
0.285
 20
-1.2852
 30
28.6156
 70
192
 0
VERTEX
 8
TUBE_33
 10
0.2313
 20
-1.2894
 30
28.6324
 70
192
 0
VERTEX
 8
TUBE_33
 10
0.5256
 20
-1.449
 30
28.6107
 70
192
 0
VERTEX
 8
TUBE_33
 10
0.4472
 20
-1.2825
 30
28.6051
 70
192
 0
VERTEX
 8
TUBE_33
 10
0.4472
 20
-1.4377
 30
28.5659
 70
192
 0
VERTEX
 8
TUBE_33
 10
0.5382
 20
-1.4357
 30
28.5581
 70
192
 0
VERTEX
 8
TUBE_33
 10
0.4694
 20
-1.4502
 30
28.6155
 70
192
 0
VERTEX
 8
TUBE_33
 10
0.5256
 20
-1.2939
 30
28.6501
 70
192
 0
VERTEX
 8
TUBE_33
 10
0.5382
 20
-1.2806
 30
28.5972
 70
192
 0
VERTEX
 8
TUBE_33
 10
0.4897
 20
-1.2736
 30
28.5693
 70
192
 0
VERTEX
 8
TUBE_33
 10
0.4897
 20
-1.4288
 30
28.5304
 70
192
 0
VERTEX
 8
TUBE_33
 10
0.4694
 20
-1.2952
 30
28.655
 70
192
 0
VERTEX
 8
TUBE_33
 10
0.6862
 20
-1.3002
 30
28.6746
 70
192
 0
VERTEX
 8
TUBE_33
 10
0.6862
 20
-1.4552
 30
28.635
 70
192
 0
VERTEX
 8
TUBE_33
 10
0.7767
 20
-1.4582
 30
28.6467
 70
192
 0
VERTEX
 8
TUBE_33
 10
0.6963
 20
-1.4688
 30
28.688
 70
192
 0
VERTEX
 8
TUBE_33
 10
0.7767
 20
-1.3032
 30
28.6864
 70
192
 0
VERTEX
 8
TUBE_33
 10
0.7359
 20
-1.2936
 30
28.6489
 70
192
 0
VERTEX
 8
TUBE_33
 10
0.7359
 20
-1.4487
 30
28.6094
 70
192
 0
VERTEX
 8
TUBE_33
 10
0.7522
 20
-1.4706
 30
28.6952
 70
192
 0
VERTEX
 8
TUBE_33
 10
0.7522
 20
-1.3157
 30
28.7352
 70
192
 0
VERTEX
 8
TUBE_33
 10
0.6963
 20
-1.3139
 30
28.728
 70
192
 0
VERTEX
 8
TUBE_33
 10
0.9534
 20
-1.5047
 30
28.8256
 70
192
 0
VERTEX
 8
TUBE_33
 10
0.9031
 20
-1.3308
 30
28.7934
 70
192
 0
VERTEX
 8
TUBE_33
 10
0.9031
 20
-1.4856
 30
28.7529
 70
192
 0
VERTEX
 8
TUBE_33
 10
0.9886
 20
-1.4936
 30
28.7835
 70
192
 0
VERTEX
 8
TUBE_33
 10
0.9006
 20
-1.4997
 30
28.8067
 70
192
 0
VERTEX
 8
TUBE_33
 10
0.9534
 20
-1.3501
 30
28.8666
 70
192
 0
VERTEX
 8
TUBE_33
 10
0.9886
 20
-1.3389
 30
28.8242
 70
192
 0
VERTEX
 8
TUBE_33
 10
0.9575
 20
-1.3271
 30
28.779
 70
192
 0
VERTEX
 8
TUBE_33
 10
0.9575
 20
-1.4819
 30
28.7386
 70
192
 0
VERTEX
 8
TUBE_33
 10
0.9006
 20
-1.345
 30
28.8475
 70
192
 0
VERTEX
 8
TUBE_33
 10
1.0871
 20
-1.3737
 30
28.9554
 70
192
 0
VERTEX
 8
TUBE_33
 10
1.0871
 20
-1.5282
 30
28.9138
 70
192
 0
VERTEX
 8
TUBE_33
 10
1.1633
 20
-1.5412
 30
28.9617
 70
192
 0
VERTEX
 8
TUBE_33
 10
1.0721
 20
-1.5422
 30
28.9656
 70
192
 0
VERTEX
 8
TUBE_33
 10
1.1192
 20
-1.3959
 30
29.0373
 70
192
 0
VERTEX
 8
TUBE_33
 10
1.1633
 20
-1.3868
 30
29.0036
 70
192
 0
VERTEX
 8
TUBE_33
 10
1.1435
 20
-1.3731
 30
28.953
 70
192
 0
VERTEX
 8
TUBE_33
 10
1.1435
 20
-1.5276
 30
28.9114
 70
192
 0
VERTEX
 8
TUBE_33
 10
1.0721
 20
-1.3878
 30
29.0075
 70
192
 0
VERTEX
 8
TUBE_33
 10
1.1192
 20
-1.5503
 30
28.9951
 70
192
 0
VERTEX
 8
TUBE_33
 10
1.2289
 20
-1.4276
 30
29.1522
 70
192
 0
VERTEX
 8
TUBE_33
 10
1.2289
 20
-1.5817
 30
29.1092
 70
192
 0
VERTEX
 8
TUBE_33
 10
1.2022
 20
-1.5949
 30
29.1564
 70
192
 0
VERTEX
 8
TUBE_33
 10
1.2412
 20
-1.4519
 30
29.2387
 70
192
 0
VERTEX
 8
TUBE_33
 10
1.2845
 20
-1.4303
 30
29.1618
 70
192
 0
VERTEX
 8
TUBE_33
 10
1.2845
 20
-1.5844
 30
29.1188
 70
192
 0
VERTEX
 8
TUBE_33
 10
1.292
 20
-1.5993
 30
29.1719
 70
192
 0
VERTEX
 8
TUBE_33
 10
1.2412
 20
-1.6058
 30
29.1951
 70
192
 0
VERTEX
 8
TUBE_33
 10
1.2022
 20
-1.4409
 30
29.1997
 70
192
 0
VERTEX
 8
TUBE_33
 10
1.292
 20
-1.4453
 30
29.2153
 70
192
 0
VERTEX
 8
TUBE_33
 10
1.3133
 20
-1.6693
 30
29.4153
 70
192
 0
VERTEX
 8
TUBE_33
 10
1.3215
 20
-1.4905
 30
29.3737
 70
192
 0
VERTEX
 8
TUBE_33
 10
1.3215
 20
-1.6442
 30
29.3292
 70
192
 0
VERTEX
 8
TUBE_33
 10
1.3683
 20
-1.6658
 30
29.4034
 70
192
 0
VERTEX
 8
TUBE_33
 10
1.2843
 20
-1.6559
 30
29.3694
 70
192
 0
VERTEX
 8
TUBE_33
 10
1.3133
 20
-1.5158
 30
29.4604
 70
192
 0
VERTEX
 8
TUBE_33
 10
1.3733
 20
-1.4966
 30
29.3949
 70
192
 0
VERTEX
 8
TUBE_33
 10
1.3733
 20
-1.6503
 30
29.3502
 70
192
 0
VERTEX
 8
TUBE_33
 10
1.2843
 20
-1.5023
 30
29.4143
 70
192
 0
VERTEX
 8
TUBE_33
 10
1.3683
 20
-1.5123
 30
29.4485
 70
192
 0
VERTEX
 8
TUBE_33
 10
1.3319
 20
-1.7379
 30
29.6445
 70
192
 0
VERTEX
 8
TUBE_33
 10
1.3601
 20
-1.5599
 30
29.6087
 70
192
 0
VERTEX
 8
TUBE_33
 10
1.3601
 20
-1.7131
 30
29.5625
 70
192
 0
VERTEX
 8
TUBE_33
 10
1.3144
 20
-1.7225
 30
29.5938
 70
192
 0
VERTEX
 8
TUBE_33
 10
1.3319
 20
-1.5849
 30
29.6912
 70
192
 0
VERTEX
 8
TUBE_33
 10
1.4057
 20
-1.5694
 30
29.6402
 70
192
 0
VERTEX
 8
TUBE_33
 10
1.4057
 20
-1.7225
 30
29.5938
 70
192
 0
VERTEX
 8
TUBE_33
 10
1.3144
 20
-1.5694
 30
29.6402
 70
192
 0
VERTEX
 8
TUBE_33
 10
1.3883
 20
-1.7379
 30
29.6445
 70
192
 0
VERTEX
 8
TUBE_33
 10
1.3883
 20
-1.5849
 30
29.6912
 70
192
 0
VERTEX
 8
TUBE_33
 10
1.296
 20
-1.8084
 30
29.8711
 70
192
 0
VERTEX
 8
TUBE_33
 10
1.3428
 20
-1.6325
 30
29.8452
 70
192
 0
VERTEX
 8
TUBE_33
 10
1.3428
 20
-1.7852
 30
29.7974
 70
192
 0
VERTEX
 8
TUBE_33
 10
1.351
 20
-1.8122
 30
29.8829
 70
192
 0
VERTEX
 8
TUBE_33
 10
1.2909
 20
-1.7917
 30
29.8183
 70
192
 0
VERTEX
 8
TUBE_33
 10
1.296
 20
-1.6559
 30
29.9195
 70
192
 0
VERTEX
 8
TUBE_33
 10
1.351
 20
-1.6597
 30
29.9314
 70
192
 0
VERTEX
 8
TUBE_33
 10
1.3799
 20
-1.6452
 30
29.8855
 70
192
 0
VERTEX
 8
TUBE_33
 10
1.3799
 20
-1.7978
 30
29.8374
 70
192
 0
VERTEX
 8
TUBE_33
 10
1.2909
 20
-1.6391
 30
29.8662
 70
192
 0
VERTEX
 8
TUBE_33
 10
1.2075
 20
-1.877
 30
30.0839
 70
192
 0
VERTEX
 8
TUBE_33
 10
1.2706
 20
-1.7046
 30
30.0715
 70
192
 0
VERTEX
 8
TUBE_33
 10
1.2706
 20
-1.8568
 30
30.022
 70
192
 0
VERTEX
 8
TUBE_33
 10
1.2583
 20
-1.8845
 30
30.1069
 70
192
 0
VERTEX
 8
TUBE_33
 10
1.2151
 20
-1.8599
 30
30.0315
 70
192
 0
VERTEX
 8
TUBE_33
 10
1.2075
 20
-1.725
 30
30.1338
 70
192
 0
VERTEX
 8
TUBE_33
 10
1.2583
 20
-1.7325
 30
30.1569
 70
192
 0
VERTEX
 8
TUBE_33
 10
1.2973
 20
-1.7199
 30
30.1184
 70
192
 0
VERTEX
 8
TUBE_33
 10
1.2973
 20
-1.872
 30
30.0686
 70
192
 0
VERTEX
 8
TUBE_33
 10
1.2151
 20
-1.7077
 30
30.081
 70
192
 0
VERTEX
 8
TUBE_33
 10
1.147
 20
-1.7721
 30
30.2762
 70
192
 0
VERTEX
 8
TUBE_33
 10
1.147
 20
-1.9238
 30
30.2253
 70
192
 0
VERTEX
 8
TUBE_33
 10
1.0906
 20
-1.923
 30
30.2229
 70
192
 0
VERTEX
 8
TUBE_33
 10
1.162
 20
-1.7894
 30
30.3274
 70
192
 0
VERTEX
 8
TUBE_33
 10
1.162
 20
-1.9409
 30
30.2762
 70
192
 0
VERTEX
 8
TUBE_33
 10
1.0906
 20
-1.7713
 30
30.2738
 70
192
 0
VERTEX
 8
TUBE_33
 10
1.1149
 20
-1.9508
 30
30.3052
 70
192
 0
VERTEX
 8
TUBE_33
 10
1.0708
 20
-1.9396
 30
30.2723
 70
192
 0
VERTEX
 8
TUBE_33
 10
1.0708
 20
-1.7881
 30
30.3235
 70
192
 0
VERTEX
 8
TUBE_33
 10
1.1149
 20
-1.7993
 30
30.3567
 70
192
 0
VERTEX
 8
TUBE_33
 10
0.8927
 20
-1.9925
 30
30.4272
 70
192
 0
VERTEX
 8
TUBE_33
 10
0.9782
 20
-1.8309
 30
30.4493
 70
192
 0
VERTEX
 8
TUBE_33
 10
0.9782
 20
-1.9822
 30
30.3972
 70
192
 0
VERTEX
 8
TUBE_33
 10
0.9238
 20
-1.9774
 30
30.3832
 70
192
 0
VERTEX
 8
TUBE_33
 10
0.8927
 20
-1.8413
 30
30.4794
 70
192
 0
VERTEX
 8
TUBE_33
 10
0.9807
 20
-1.8492
 30
30.5023
 70
192
 0
VERTEX
 8
TUBE_33
 10
0.9807
 20
-2.0004
 30
30.4498
 70
192
 0
VERTEX
 8
TUBE_33
 10
0.9279
 20
-2.0068
 30
30.4683
 70
192
 0
VERTEX
 8
TUBE_33
 10
0.9238
 20
-1.8261
 30
30.4352
 70
192
 0
VERTEX
 8
TUBE_33
 10
0.9279
 20
-1.8557
 30
30.5209
 70
192
 0
VERTEX
 8
TUBE_33
 10
0.6822
 20
-2.0323
 30
30.5417
 70
192
 0
VERTEX
 8
TUBE_33
 10
0.7727
 20
-1.8772
 30
30.5827
 70
192
 0
VERTEX
 8
TUBE_33
 10
0.7727
 20
-2.0283
 30
30.5301
 70
192
 0
VERTEX
 8
TUBE_33
 10
0.7067
 20
-2.0491
 30
30.5897
 70
192
 0
VERTEX
 8
TUBE_33
 10
0.723
 20
-2.0195
 30
30.5048
 70
192
 0
VERTEX
 8
TUBE_33
 10
0.6822
 20
-1.8812
 30
30.5943
 70
192
 0
VERTEX
 8
TUBE_33
 10
0.7067
 20
-1.898
 30
30.6423
 70
192
 0
VERTEX
 8
TUBE_33
 10
0.7626
 20
-1.8955
 30
30.6352
 70
192
 0
VERTEX
 8
TUBE_33
 10
0.7626
 20
-2.0466
 30
30.5825
 70
192
 0
VERTEX
 8
TUBE_33
 10
0.723
 20
-1.8684
 30
30.5575
 70
192
 0
VERTEX
 8
TUBE_33
 10
0.4499
 20
-2.0561
 30
30.6097
 70
192
 0
VERTEX
 8
TUBE_33
 10
0.5408
 20
-1.9077
 30
30.6701
 70
192
 0
VERTEX
 8
TUBE_33
 10
0.5408
 20
-2.0588
 30
30.6175
 70
192
 0
VERTEX
 8
TUBE_33
 10
0.4624
 20
-2.0742
 30
30.6617
 70
192
 0
VERTEX
 8
TUBE_33
 10
0.4983
 20
-2.0465
 30
30.5824
 70
192
 0
VERTEX
 8
TUBE_33
 10
0.4499
 20
-1.905
 30
30.6624
 70
192
 0
VERTEX
 8
TUBE_33
 10
0.4624
 20
-1.9231
 30
30.7143
 70
192
 0
VERTEX
 8
TUBE_33
 10
0.5186
 20
-1.9247
 30
30.7191
 70
192
 0
VERTEX
 8
TUBE_33
 10
0.5186
 20
-2.0758
 30
30.6665
 70
192
 0
VERTEX
 8
TUBE_33
 10
0.4983
 20
-1.8954
 30
30.6351
 70
192
 0
VERTEX
 8
TUBE_33
 10
0.2942
 20
-1.9204
 30
30.7066
 70
192
 0
VERTEX
 8
TUBE_33
 10
0.2942
 20
-2.0715
 30
30.6539
 70
192
 0
VERTEX
 8
TUBE_33
 10
0.261
 20
-2.0564
 30
30.6108
 70
192
 0
VERTEX
 8
TUBE_33
 10
0.261
 20
-1.9354
 30
30.7497
 70
192
 0
VERTEX
 8
TUBE_33
 10
0.261
 20
-2.0865
 30
30.697
 70
192
 0
VERTEX
 8
TUBE_33
 10
0.2073
 20
-2.0807
 30
30.6806
 70
192
 0
VERTEX
 8
TUBE_33
 10
0.2073
 20
-2.0622
 30
30.6273
 70
192
 0
VERTEX
 8
TUBE_33
 10
0.2073
 20
-1.9111
 30
30.6799
 70
192
 0
VERTEX
 8
TUBE_33
 10
0.261
 20
-1.9053
 30
30.6635
 70
192
 0
VERTEX
 8
TUBE_33
 10
0.2073
 20
-1.9297
 30
30.7332
 70
192
 0
VERTEX
 8
TUBE_33
 10
0.0287
 20
-2.0097
 30
31.0041
 70
192
 0
VERTEX
 8
TUBE_33
 10
0.0287
 20
-2.1608
 30
30.9515
 70
192
 0
VERTEX
 8
TUBE_33
 10
-0.0514
 20
-1.9953
 30
30.9629
 70
192
 0
VERTEX
 8
TUBE_33
 10
-0.0618
 20
-2.0136
 30
31.0153
 70
192
 0
VERTEX
 8
TUBE_33
 10
-0.0618
 20
-2.1646
 30
30.9626
 70
192
 0
VERTEX
 8
TUBE_33
 10
-0.0123
 20
-2.0224
 30
31.0408
 70
192
 0
VERTEX
 8
TUBE_33
 10
-0.0123
 20
-2.1735
 30
30.9881
 70
192
 0
VERTEX
 8
TUBE_33
 10
0.0045
 20
-2.144
 30
30.9034
 70
192
 0
VERTEX
 8
TUBE_33
 10
-0.0514
 20
-2.1464
 30
30.9102
 70
192
 0
VERTEX
 8
TUBE_33
 10
0.0045
 20
-1.9929
 30
30.956
 70
192
 0
VERTEX
 8
TUBE_33
 10
-0.2293
 20
-1.9885
 30
30.9435
 70
192
 0
VERTEX
 8
TUBE_33
 10
-0.2293
 20
-2.1396
 30
30.8909
 70
192
 0
VERTEX
 8
TUBE_33
 10
-0.3204
 20
-2.138
 30
30.8861
 70
192
 0
VERTEX
 8
TUBE_33
 10
-0.3001
 20
-1.9696
 30
30.8891
 70
192
 0
VERTEX
 8
TUBE_33
 10
-0.2767
 20
-1.9986
 30
30.9724
 70
192
 0
VERTEX
 8
TUBE_33
 10
-0.2767
 20
-2.1497
 30
30.9198
 70
192
 0
VERTEX
 8
TUBE_33
 10
-0.2437
 20
-2.1217
 30
30.8394
 70
192
 0
VERTEX
 8
TUBE_33
 10
-0.3001
 20
-2.1207
 30
30.8364
 70
192
 0
VERTEX
 8
TUBE_33
 10
-0.2437
 20
-1.9706
 30
30.892
 70
192
 0
VERTEX
 8
TUBE_33
 10
-0.3204
 20
-1.9869
 30
30.9387
 70
192
 0
VERTEX
 8
TUBE_33
 10
-0.4753
 20
-2.0847
 30
30.7334
 70
192
 0
VERTEX
 8
TUBE_33
 10
-0.4711
 20
-1.9522
 30
30.8392
 70
192
 0
VERTEX
 8
TUBE_33
 10
-0.4711
 20
-2.1033
 30
30.7865
 70
192
 0
VERTEX
 8
TUBE_33
 10
-0.4753
 20
-1.9337
 30
30.786
 70
192
 0
VERTEX
 8
TUBE_33
 10
-0.5301
 20
-1.9292
 30
30.7733
 70
192
 0
VERTEX
 8
TUBE_33
 10
-0.5233
 20
-1.9592
 30
30.8593
 70
192
 0
VERTEX
 8
TUBE_33
 10
-0.5233
 20
-2.1103
 30
30.8067
 70
192
 0
VERTEX
 8
TUBE_33
 10
-0.5598
 20
-2.0961
 30
30.766
 70
192
 0
VERTEX
 8
TUBE_33
 10
-0.5301
 20
-2.0803
 30
30.7207
 70
192
 0
VERTEX
 8
TUBE_33
 10
-0.5598
 20
-1.945
 30
30.8186
 70
192
 0
VERTEX
 8
TUBE_33
 10
-0.6885
 20
-1.9018
 30
30.6946
 70
192
 0
VERTEX
 8
TUBE_33
 10
-0.6885
 20
-2.0529
 30
30.642
 70
192
 0
VERTEX
 8
TUBE_33
 10
-0.7337
 20
-1.8757
 30
30.6197
 70
192
 0
VERTEX
 8
TUBE_33
 10
-0.7438
 20
-1.9055
 30
30.7054
 70
192
 0
VERTEX
 8
TUBE_33
 10
-0.7438
 20
-2.0566
 30
30.6527
 70
192
 0
VERTEX
 8
TUBE_33
 10
-0.6823
 20
-2.0344
 30
30.589
 70
192
 0
VERTEX
 8
TUBE_33
 10
-0.7717
 20
-2.0405
 30
30.6064
 70
192
 0
VERTEX
 8
TUBE_33
 10
-0.7337
 20
-2.0268
 30
30.567
 70
192
 0
VERTEX
 8
TUBE_33
 10
-0.6823
 20
-1.8833
 30
30.6417
 70
192
 0
VERTEX
 8
TUBE_33
 10
-0.7717
 20
-1.8894
 30
30.6591
 70
192
 0
VERTEX
 8
TUBE_33
 10
-0.8576
 20
-1.9729
 30
30.4121
 70
192
 0
VERTEX
 8
TUBE_33
 10
-0.8741
 20
-1.8392
 30
30.5149
 70
192
 0
VERTEX
 8
TUBE_33
 10
-0.8741
 20
-1.9903
 30
30.4624
 70
192
 0
VERTEX
 8
TUBE_33
 10
-0.9489
 20
-1.8222
 30
30.4658
 70
192
 0
VERTEX
 8
TUBE_33
 10
-0.9489
 20
-1.9735
 30
30.4136
 70
192
 0
VERTEX
 8
TUBE_33
 10
-0.9039
 20
-1.8112
 30
30.4338
 70
192
 0
VERTEX
 8
TUBE_33
 10
-0.9305
 20
-1.8395
 30
30.5159
 70
192
 0
VERTEX
 8
TUBE_33
 10
-0.9305
 20
-1.9907
 30
30.4634
 70
192
 0
VERTEX
 8
TUBE_33
 10
-0.9039
 20
-1.9625
 30
30.3819
 70
192
 0
VERTEX
 8
TUBE_33
 10
-0.8576
 20
-1.8217
 30
30.4642
 70
192
 0
VERTEX
 8
TUBE_33
 10
-1.0215
 20
-1.768
 30
30.3067
 70
192
 0
VERTEX
 8
TUBE_33
 10
-1.0215
 20
-1.9197
 30
30.2557
 70
192
 0
VERTEX
 8
TUBE_33
 10
-0.9954
 20
-1.7522
 30
30.2596
 70
192
 0
VERTEX
 8
TUBE_33
 10
-1.0854
 20
-1.8993
 30
30.1947
 70
192
 0
VERTEX
 8
TUBE_33
 10
-1.0349
 20
-1.7396
 30
30.2216
 70
192
 0
VERTEX
 8
TUBE_33
 10
-1.0771
 20
-1.7651
 30
30.2979
 70
192
 0
VERTEX
 8
TUBE_33
 10
-1.0771
 20
-1.9167
 30
30.2469
 70
192
 0
VERTEX
 8
TUBE_33
 10
-0.9954
 20
-1.904
 30
30.2088
 70
192
 0
VERTEX
 8
TUBE_33
 10
-1.0349
 20
-1.8914
 30
30.1711
 70
192
 0
VERTEX
 8
TUBE_33
 10
-1.0854
 20
-1.7475
 30
30.2453
 70
192
 0
VERTEX
 8
TUBE_33
 10
-1.0909
 20
-1.8304
 30
29.9847
 70
192
 0
VERTEX
 8
TUBE_33
 10
-1.1257
 20
-1.6917
 30
30.0758
 70
192
 0
VERTEX
 8
TUBE_33
 10
-1.1257
 20
-1.8439
 30
30.0264
 70
192
 0
VERTEX
 8
TUBE_33
 10
-1.1224
 20
-1.6639
 30
29.9895
 70
192
 0
VERTEX
 8
TUBE_33
 10
-1.1787
 20
-1.6858
 30
30.0575
 70
192
 0
VERTEX
 8
TUBE_33
 10
-1.1787
 20
-1.838
 30
30.0082
 70
192
 0
VERTEX
 8
TUBE_33
 10
-1.1766
 20
-1.8209
 30
29.9552
 70
192
 0
VERTEX
 8
TUBE_33
 10
-1.1224
 20
-1.8163
 30
29.9407
 70
192
 0
VERTEX
 8
TUBE_33
 10
-1.0909
 20
-1.6782
 30
30.0338
 70
192
 0
VERTEX
 8
TUBE_33
 10
-1.1766
 20
-1.6686
 30
30.0041
 70
192
 0
VERTEX
 8
TUBE_33
 10
-1.1833
 20
-1.6135
 30
29.8299
 70
192
 0
VERTEX
 8
TUBE_33
 10
-1.1833
 20
-1.7662
 30
29.7822
 70
192
 0
VERTEX
 8
TUBE_33
 10
-1.1632
 20
-1.5873
 30
29.7454
 70
192
 0
VERTEX
 8
TUBE_33
 10
-1.2194
 20
-1.5888
 30
29.7503
 70
192
 0
VERTEX
 8
TUBE_33
 10
-1.2194
 20
-1.7417
 30
29.7032
 70
192
 0
VERTEX
 8
TUBE_33
 10
-1.2318
 20
-1.605
 30
29.8026
 70
192
 0
VERTEX
 8
TUBE_33
 10
-1.2318
 20
-1.7578
 30
29.7551
 70
192
 0
VERTEX
 8
TUBE_33
 10
-1.1409
 20
-1.7553
 30
29.7471
 70
192
 0
VERTEX
 8
TUBE_33
 10
-1.1632
 20
-1.7402
 30
29.6983
 70
192
 0
VERTEX
 8
TUBE_33
 10
-1.1409
 20
-1.6025
 30
29.7946
 70
192
 0
VERTEX
 8
TUBE_33
 10
-1.1436
 20
-1.6814
 30
29.5042
 70
192
 0
VERTEX
 8
TUBE_33
 10
-1.1921
 20
-1.5363
 30
29.5773
 70
192
 0
VERTEX
 8
TUBE_33
 10
-1.1921
 20
-1.6895
 30
29.5314
 70
192
 0
VERTEX
 8
TUBE_33
 10
-1.1436
 20
-1.5281
 30
29.5499
 70
192
 0
VERTEX
 8
TUBE_33
 10
-1.156
 20
-1.5125
 30
29.4974
 70
192
 0
VERTEX
 8
TUBE_33
 10
-1.2345
 20
-1.5257
 30
29.5419
 70
192
 0
VERTEX
 8
TUBE_33
 10
-1.2345
 20
-1.679
 30
29.4962
 70
192
 0
VERTEX
 8
TUBE_33
 10
-1.2122
 20
-1.6645
 30
29.4472
 70
192
 0
VERTEX
 8
TUBE_33
 10
-1.156
 20
-1.6659
 30
29.4521
 70
192
 0
VERTEX
 8
TUBE_33
 10
-1.2122
 20
-1.511
 30
29.4925
 70
192
 0
VERTEX
 8
TUBE_33
 10
-1.099
 20
-1.6113
 30
29.2641
 70
192
 0
VERTEX
 8
TUBE_33
 10
-1.152
 20
-1.4628
 30
29.3267
 70
192
 0
VERTEX
 8
TUBE_33
 10
-1.152
 20
-1.6166
 30
29.2825
 70
192
 0
VERTEX
 8
TUBE_33
 10
-1.1011
 20
-1.4421
 30
29.2542
 70
192
 0
VERTEX
 8
TUBE_33
 10
-1.1868
 20
-1.4507
 30
29.2843
 70
192
 0
VERTEX
 8
TUBE_33
 10
-1.1868
 20
-1.6045
 30
29.2404
 70
192
 0
VERTEX
 8
TUBE_33
 10
-1.1554
 20
-1.5919
 30
29.1959
 70
192
 0
VERTEX
 8
TUBE_33
 10
-1.1011
 20
-1.5961
 30
29.2106
 70
192
 0
VERTEX
 8
TUBE_33
 10
-1.099
 20
-1.4575
 30
29.3081
 70
192
 0
VERTEX
 8
TUBE_33
 10
-1.1554
 20
-1.438
 30
29.2395
 70
192
 0
VERTEX
 8
TUBE_33
 10
-1.0643
 20
-1.3953
 30
29.0866
 70
192
 0
VERTEX
 8
TUBE_33
 10
-1.0643
 20
-1.5496
 30
29.0441
 70
192
 0
VERTEX
 8
TUBE_33
 10
-1.0508
 20
-1.3717
 30
29
 70
192
 0
VERTEX
 8
TUBE_33
 10
-1.0508
 20
-1.5261
 30
28.9581
 70
192
 0
VERTEX
 8
TUBE_33
 10
-1.0003
 20
-1.3782
 30
29.0241
 70
192
 0
VERTEX
 8
TUBE_33
 10
-1.0904
 20
-1.3822
 30
29.0386
 70
192
 0
VERTEX
 8
TUBE_33
 10
-1.0904
 20
-1.5365
 30
28.9965
 70
192
 0
VERTEX
 8
TUBE_33
 10
-1.0086
 20
-1.5471
 30
29.0352
 70
192
 0
VERTEX
 8
TUBE_33
 10
-1.0003
 20
-1.5326
 30
28.9821
 70
192
 0
VERTEX
 8
TUBE_33
 10
-1.0086
 20
-1.3929
 30
29.0776
 70
192
 0
VERTEX
 8
TUBE_33
 10
-0.8755
 20
-1.4906
 30
28.8254
 70
192
 0
VERTEX
 8
TUBE_33
 10
-0.9319
 20
-1.3357
 30
28.8654
 70
192
 0
VERTEX
 8
TUBE_33
 10
-0.9319
 20
-1.4904
 30
28.8245
 70
192
 0
VERTEX
 8
TUBE_33
 10
-0.8755
 20
-1.3359
 30
28.8664
 70
192
 0
VERTEX
 8
TUBE_33
 10
-0.8571
 20
-1.3225
 30
28.8151
 70
192
 0
VERTEX
 8
TUBE_33
 10
-0.9021
 20
-1.3139
 30
28.7825
 70
192
 0
VERTEX
 8
TUBE_33
 10
-0.9021
 20
-1.4688
 30
28.7421
 70
192
 0
VERTEX
 8
TUBE_33
 10
-0.9484
 20
-1.322
 30
28.8135
 70
192
 0
VERTEX
 8
TUBE_33
 10
-0.9484
 20
-1.4768
 30
28.773
 70
192
 0
VERTEX
 8
TUBE_33
 10
-0.8571
 20
-1.4772
 30
28.7746
 70
192
 0
VERTEX
 8
TUBE_33
 10
-0.7042
 20
-1.443
 30
28.6421
 70
192
 0
VERTEX
 8
TUBE_33
 10
-0.7594
 20
-1.2852
 30
28.6708
 70
192
 0
VERTEX
 8
TUBE_33
 10
-0.7594
 20
-1.4402
 30
28.6313
 70
192
 0
VERTEX
 8
TUBE_33
 10
-0.6763
 20
-1.276
 30
28.6346
 70
192
 0
VERTEX
 8
TUBE_33
 10
-0.7657
 20
-1.2715
 30
28.6168
 70
192
 0
VERTEX
 8
TUBE_33
 10
-0.7657
 20
-1.4266
 30
28.5776
 70
192
 0
VERTEX
 8
TUBE_33
 10
-0.7143
 20
-1.421
 30
28.5554
 70
192
 0
VERTEX
 8
TUBE_33
 10
-0.6763
 20
-1.4311
 30
28.5953
 70
192
 0
VERTEX
 8
TUBE_33
 10
-0.7042
 20
-1.288
 30
28.6818
 70
192
 0
VERTEX
 8
TUBE_33
 10
-0.7143
 20
-1.2658
 30
28.5944
 70
192
 0
VERTEX
 8
TUBE_33
 10
-0.5005
 20
-1.4051
 30
28.4917
 70
192
 0
VERTEX
 8
TUBE_33
 10
-0.5527
 20
-1.2447
 30
28.5097
 70
192
 0
VERTEX
 8
TUBE_33
 10
-0.5527
 20
-1.4001
 30
28.4713
 70
192
 0
VERTEX
 8
TUBE_33
 10
-0.5005
 20
-1.2498
 30
28.5303
 70
192
 0
VERTEX
 8
TUBE_33
 10
-0.4937
 20
-1.2282
 30
28.4425
 70
192
 0
VERTEX
 8
TUBE_33
 10
-0.4937
 20
-1.3837
 30
28.4045
 70
192
 0
VERTEX
 8
TUBE_33
 10
-0.464
 20
-1.2396
 30
28.4888
 70
192
 0
VERTEX
 8
TUBE_33
 10
-0.5486
 20
-1.2314
 30
28.4555
 70
192
 0
VERTEX
 8
TUBE_33
 10
-0.5486
 20
-1.3868
 30
28.4174
 70
192
 0
VERTEX
 8
TUBE_33
 10
-0.464
 20
-1.3949
 30
28.4505
 70
192
 0
VERTEX
 8
TUBE_33
 10
-0.2714
 20
-1.3776
 30
28.3795
 70
192
 0
VERTEX
 8
TUBE_33
 10
-0.3188
 20
-1.215
 30
28.3878
 70
192
 0
VERTEX
 8
TUBE_33
 10
-0.3188
 20
-1.3705
 30
28.3502
 70
192
 0
VERTEX
 8
TUBE_33
 10
-0.2714
 20
-1.2221
 30
28.4173
 70
192
 0
VERTEX
 8
TUBE_33
 10
-0.2276
 20
-1.2138
 30
28.3829
 70
192
 0
VERTEX
 8
TUBE_33
 10
-0.3044
 20
-1.2023
 30
28.3351
 70
192
 0
VERTEX
 8
TUBE_33
 10
-0.3044
 20
-1.3579
 30
28.2979
 70
192
 0
VERTEX
 8
TUBE_33
 10
-0.248
 20
-1.3572
 30
28.2949
 70
192
 0
VERTEX
 8
TUBE_33
 10
-0.2276
 20
-1.3693
 30
28.3454
 70
192
 0
VERTEX
 8
TUBE_33
 10
-0.248
 20
-1.2016
 30
28.3321
 70
192
 0
VERTEX
 8
TUBE_33
 10
-0.0656
 20
-1.1962
 30
28.3093
 70
192
 0
VERTEX
 8
TUBE_33
 10
-0.0656
 20
-1.3518
 30
28.2723
 70
192
 0
VERTEX
 8
TUBE_33
 10
0.0249
 20
-1.1989
 30
28.3207
 70
192
 0
VERTEX
 8
TUBE_33
 10
-0.0414
 20
-1.1845
 30
28.2601
 70
192
 0
VERTEX
 8
TUBE_33
 10
-0.0414
 20
-1.3403
 30
28.2234
 70
192
 0
VERTEX
 8
TUBE_33
 10
-0.0246
 20
-1.3607
 30
28.3095
 70
192
 0
VERTEX
 8
TUBE_33
 10
0.0145
 20
-1.3419
 30
28.2304
 70
192
 0
VERTEX
 8
TUBE_33
 10
0.0249
 20
-1.3545
 30
28.2836
 70
192
 0
VERTEX
 8
TUBE_33
 10
-0.0246
 20
-1.2051
 30
28.3468
 70
192
 0
VERTEX
 8
TUBE_33
 10
0.0145
 20
-1.1862
 30
28.2671
 70
192
 0
VERTEX
 8
TUBE_33
 10
0.1982
 20
-1.1886
 30
28.2771
 70
192
 0
VERTEX
 8
TUBE_33
 10
0.1982
 20
-1.3443
 30
28.2403
 70
192
 0
VERTEX
 8
TUBE_33
 10
0.285
 20
-1.195
 30
28.3044
 70
192
 0
VERTEX
 8
TUBE_33
 10
0.2313
 20
-1.1782
 30
28.233
 70
192
 0
VERTEX
 8
TUBE_33
 10
0.2313
 20
-1.334
 30
28.1965
 70
192
 0
VERTEX
 8
TUBE_33
 10
0.2313
 20
-1.3546
 30
28.2841
 70
192
 0
VERTEX
 8
TUBE_33
 10
0.285
 20
-1.3379
 30
28.2132
 70
192
 0
VERTEX
 8
TUBE_33
 10
0.285
 20
-1.3507
 30
28.2674
 70
192
 0
VERTEX
 8
TUBE_33
 10
0.2313
 20
-1.199
 30
28.3212
 70
192
 0
VERTEX
 8
TUBE_33
 10
0.285
 20
-1.1821
 30
28.2498
 70
192
 0
VERTEX
 8
TUBE_33
 10
0.4636
 20
-1.1921
 30
28.2923
 70
192
 0
VERTEX
 8
TUBE_33
 10
0.4636
 20
-1.3478
 30
28.2554
 70
192
 0
VERTEX
 8
TUBE_33
 10
0.4878
 20
-1.2039
 30
28.3415
 70
192
 0
VERTEX
 8
TUBE_33
 10
0.5541
 20
-1.1894
 30
28.2809
 70
192
 0
VERTEX
 8
TUBE_33
 10
0.5437
 20
-1.2022
 30
28.3345
 70
192
 0
VERTEX
 8
TUBE_33
 10
0.5046
 20
-1.1833
 30
28.2548
 70
192
 0
VERTEX
 8
TUBE_33
 10
0.5046
 20
-1.339
 30
28.2182
 70
192
 0
VERTEX
 8
TUBE_33
 10
0.4878
 20
-1.3595
 30
28.3043
 70
192
 0
VERTEX
 8
TUBE_33
 10
0.5541
 20
-1.3452
 30
28.2441
 70
192
 0
VERTEX
 8
TUBE_33
 10
0.5437
 20
-1.3578
 30
28.2973
 70
192
 0
VERTEX
 8
TUBE_33
 10
0.7216
 20
-1.2069
 30
28.3543
 70
192
 0
VERTEX
 8
TUBE_33
 10
0.7216
 20
-1.3625
 30
28.317
 70
192
 0
VERTEX
 8
TUBE_33
 10
0.736
 20
-1.2196
 30
28.407
 70
192
 0
VERTEX
 8
TUBE_33
 10
0.7924
 20
-1.2203
 30
28.41
 70
192
 0
VERTEX
 8
TUBE_33
 10
0.8127
 20
-1.2081
 30
28.3592
 70
192
 0
VERTEX
 8
TUBE_33
 10
0.8127
 20
-1.3637
 30
28.3218
 70
192
 0
VERTEX
 8
TUBE_33
 10
0.769
 20
-1.1999
 30
28.3248
 70
192
 0
VERTEX
 8
TUBE_33
 10
0.769
 20
-1.3555
 30
28.2876
 70
192
 0
VERTEX
 8
TUBE_33
 10
0.736
 20
-1.3751
 30
28.3693
 70
192
 0
VERTEX
 8
TUBE_33
 10
0.7924
 20
-1.3758
 30
28.3723
 70
192
 0
VERTEX
 8
TUBE_33
 10
0.9634
 20
-1.2328
 30
28.461
 70
192
 0
VERTEX
 8
TUBE_33
 10
0.9634
 20
-1.3882
 30
28.4229
 70
192
 0
VERTEX
 8
TUBE_33
 10
0.9676
 20
-1.2461
 30
28.5153
 70
192
 0
VERTEX
 8
TUBE_33
 10
1.0521
 20
-1.2379
 30
28.4819
 70
192
 0
VERTEX
 8
TUBE_33
 10
1.0521
 20
-1.3933
 30
28.4437
 70
192
 0
VERTEX
 8
TUBE_33
 10
1.0224
 20
-1.2493
 30
28.5282
 70
192
 0
VERTEX
 8
TUBE_33
 10
1.0156
 20
-1.2277
 30
28.4404
 70
192
 0
VERTEX
 8
TUBE_33
 10
1.0156
 20
-1.3832
 30
28.4024
 70
192
 0
VERTEX
 8
TUBE_33
 10
0.9676
 20
-1.4014
 30
28.4768
 70
192
 0
VERTEX
 8
TUBE_33
 10
1.0224
 20
-1.4046
 30
28.4896
 70
192
 0
VERTEX
 8
TUBE_33
 10
1.1746
 20
-1.4381
 30
28.623
 70
192
 0
VERTEX
 8
TUBE_33
 10
1.1808
 20
-1.2694
 30
28.6085
 70
192
 0
VERTEX
 8
TUBE_33
 10
1.1808
 20
-1.4245
 30
28.5694
 70
192
 0
VERTEX
 8
TUBE_33
 10
1.226
 20
-1.2888
 30
28.6849
 70
192
 0
VERTEX
 8
TUBE_33
 10
1.2361
 20
-1.2666
 30
28.5976
 70
192
 0
VERTEX
 8
TUBE_33
 10
1.2361
 20
-1.4218
 30
28.5585
 70
192
 0
VERTEX
 8
TUBE_33
 10
1.264
 20
-1.4336
 30
28.6054
 70
192
 0
VERTEX
 8
TUBE_33
 10
1.226
 20
-1.4438
 30
28.6453
 70
192
 0
VERTEX
 8
TUBE_33
 10
1.1746
 20
-1.2831
 30
28.6625
 70
192
 0
VERTEX
 8
TUBE_33
 10
1.264
 20
-1.2786
 30
28.6448
 70
192
 0
VERTEX
 8
TUBE_33
 10
1.3664
 20
-1.3164
 30
28.7918
 70
192
 0
VERTEX
 8
TUBE_33
 10
1.3664
 20
-1.4712
 30
28.7514
 70
192
 0
VERTEX
 8
TUBE_33
 10
1.3499
 20
-1.3299
 30
28.8436
 70
192
 0
VERTEX
 8
TUBE_33
 10
1.4412
 20
-1.3295
 30
28.842
 70
192
 0
VERTEX
 8
TUBE_33
 10
1.4412
 20
-1.4842
 30
28.8013
 70
192
 0
VERTEX
 8
TUBE_33
 10
1.3962
 20
-1.3381
 30
28.8747
 70
192
 0
VERTEX
 8
TUBE_33
 10
1.4228
 20
-1.3161
 30
28.7908
 70
192
 0
VERTEX
 8
TUBE_33
 10
1.4228
 20
-1.4709
 30
28.7504
 70
192
 0
VERTEX
 8
TUBE_33
 10
1.3499
 20
-1.4847
 30
28.8029
 70
192
 0
VERTEX
 8
TUBE_33
 10
1.3962
 20
-1.4928
 30
28.8337
 70
192
 0
VERTEX
 8
TUBE_33
 10
1.4877
 20
-1.5402
 30
29.0099
 70
192
 0
VERTEX
 8
TUBE_33
 10
1.5138
 20
-1.3728
 30
29.0042
 70
192
 0
VERTEX
 8
TUBE_33
 10
1.5138
 20
-1.5273
 30
28.9623
 70
192
 0
VERTEX
 8
TUBE_33
 10
1.5778
 20
-1.3899
 30
29.0667
 70
192
 0
VERTEX
 8
TUBE_33
 10
1.5272
 20
-1.3965
 30
29.0908
 70
192
 0
VERTEX
 8
TUBE_33
 10
1.5694
 20
-1.3753
 30
29.0132
 70
192
 0
VERTEX
 8
TUBE_33
 10
1.5694
 20
-1.5297
 30
28.9712
 70
192
 0
VERTEX
 8
TUBE_33
 10
1.5778
 20
-1.5442
 30
29.0243
 70
192
 0
VERTEX
 8
TUBE_33
 10
1.5272
 20
-1.5507
 30
29.0482
 70
192
 0
VERTEX
 8
TUBE_33
 10
1.4877
 20
-1.3859
 30
29.0522
 70
192
 0
VERTEX
 8
TUBE_33
 10
1.618
 20
-1.4377
 30
29.2384
 70
192
 0
VERTEX
 8
TUBE_33
 10
1.618
 20
-1.5916
 30
29.1949
 70
192
 0
VERTEX
 8
TUBE_33
 10
1.6147
 20
-1.4625
 30
29.3256
 70
192
 0
VERTEX
 8
TUBE_33
 10
1.671
 20
-1.4429
 30
29.257
 70
192
 0
VERTEX
 8
TUBE_33
 10
1.671
 20
-1.5968
 30
29.2133
 70
192
 0
VERTEX
 8
TUBE_33
 10
1.5832
 20
-1.6036
 30
29.237
 70
192
 0
VERTEX
 8
TUBE_33
 10
1.6689
 20
-1.6121
 30
29.2668
 70
192
 0
VERTEX
 8
TUBE_33
 10
1.6147
 20
-1.6163
 30
29.2815
 70
192
 0
VERTEX
 8
TUBE_33
 10
1.5832
 20
-1.4497
 30
29.2809
 70
192
 0
VERTEX
 8
TUBE_33
 10
1.6689
 20
-1.4583
 30
29.3109
 70
192
 0
VERTEX
 8
TUBE_33
 10
1.6756
 20
-1.5092
 30
29.4863
 70
192
 0
VERTEX
 8
TUBE_33
 10
1.6756
 20
-1.6627
 30
29.441
 70
192
 0
VERTEX
 8
TUBE_33
 10
1.6555
 20
-1.5344
 30
29.5711
 70
192
 0
VERTEX
 8
TUBE_33
 10
1.7241
 20
-1.5173
 30
29.5137
 70
192
 0
VERTEX
 8
TUBE_33
 10
1.7241
 20
-1.6707
 30
29.4682
 70
192
 0
VERTEX
 8
TUBE_33
 10
1.6332
 20
-1.6731
 30
29.4762
 70
192
 0
VERTEX
 8
TUBE_33
 10
1.7117
 20
-1.6862
 30
29.5203
 70
192
 0
VERTEX
 8
TUBE_33
 10
1.6555
 20
-1.6877
 30
29.5252
 70
192
 0
VERTEX
 8
TUBE_33
 10
1.6332
 20
-1.5197
 30
29.5218
 70
192
 0
VERTEX
 8
TUBE_33
 10
1.7117
 20
-1.5329
 30
29.5662
 70
192
 0
VERTEX
 8
TUBE_33
 10
1.6844
 20
-1.5854
 30
29.7392
 70
192
 0
VERTEX
 8
TUBE_33
 10
1.6844
 20
-1.7383
 30
29.6921
 70
192
 0
VERTEX
 8
TUBE_33
 10
1.6483
 20
-1.61
 30
29.8188
 70
192
 0
VERTEX
 8
TUBE_33
 10
1.7045
 20
-1.6116
 30
29.8237
 70
192
 0
VERTEX
 8
TUBE_33
 10
1.7045
 20
-1.7643
 30
29.7761
 70
192
 0
VERTEX
 8
TUBE_33
 10
1.7268
 20
-1.5963
 30
29.7745
 70
192
 0
VERTEX
 8
TUBE_33
 10
1.7268
 20
-1.7491
 30
29.7272
 70
192
 0
VERTEX
 8
TUBE_33
 10
1.6359
 20
-1.7467
 30
29.7193
 70
192
 0
VERTEX
 8
TUBE_33
 10
1.6483
 20
-1.7628
 30
29.7712
 70
192
 0
VERTEX
 8
TUBE_33
 10
1.6359
 20
-1.5938
 30
29.7665
 70
192
 0
VERTEX
 8
TUBE_33
 10
1.5913
 20
-1.8218
 30
29.9579
 70
192
 0
VERTEX
 8
TUBE_33
 10
1.6443
 20
-1.6636
 30
29.9885
 70
192
 0
VERTEX
 8
TUBE_33
 10
1.6443
 20
-1.816
 30
29.9396
 70
192
 0
VERTEX
 8
TUBE_33
 10
1.5913
 20
-1.6695
 30
30.0068
 70
192
 0
VERTEX
 8
TUBE_33
 10
1.5934
 20
-1.6867
 30
30.0602
 70
192
 0
VERTEX
 8
TUBE_33
 10
1.6791
 20
-1.6771
 30
30.0305
 70
192
 0
VERTEX
 8
TUBE_33
 10
1.6791
 20
-1.8294
 30
29.9814
 70
192
 0
VERTEX
 8
TUBE_33
 10
1.6477
 20
-1.8436
 30
30.0254
 70
192
 0
VERTEX
 8
TUBE_33
 10
1.5934
 20
-1.8389
 30
30.0109
 70
192
 0
VERTEX
 8
TUBE_33
 10
1.6477
 20
-1.6914
 30
30.0748
 70
192
 0
VERTEX
 8
TUBE_33
 10
1.5566
 20
-1.741
 30
30.2257
 70
192
 0
VERTEX
 8
TUBE_33
 10
1.5566
 20
-1.8928
 30
30.1752
 70
192
 0
VERTEX
 8
TUBE_33
 10
1.5009
 20
-1.7439
 30
30.2345
 70
192
 0
VERTEX
 8
TUBE_33
 10
1.4926
 20
-1.7615
 30
30.2871
 70
192
 0
VERTEX
 8
TUBE_33
 10
1.5431
 20
-1.9211
 30
30.2598
 70
192
 0
VERTEX
 8
TUBE_33
 10
1.5827
 20
-1.7567
 30
30.2729
 70
192
 0
VERTEX
 8
TUBE_33
 10
1.5827
 20
-1.9084
 30
30.2221
 70
192
 0
VERTEX
 8
TUBE_33
 10
1.5009
 20
-1.8957
 30
30.184
 70
192
 0
VERTEX
 8
TUBE_33
 10
1.4926
 20
-1.9132
 30
30.2362
 70
192
 0
VERTEX
 8
TUBE_33
 10
1.5431
 20
-1.7694
 30
30.3109
 70
192
 0
VERTEX
 8
TUBE_33
 10
1.3678
 20
-1.9653
 30
30.39
 70
192
 0
VERTEX
 8
TUBE_33
 10
1.4242
 20
-1.8143
 30
30.4429
 70
192
 0
VERTEX
 8
TUBE_33
 10
1.4242
 20
-1.9656
 30
30.3909
 70
192
 0
VERTEX
 8
TUBE_33
 10
1.3678
 20
-1.814
 30
30.4419
 70
192
 0
VERTEX
 8
TUBE_33
 10
1.3494
 20
-1.8313
 30
30.4921
 70
192
 0
VERTEX
 8
TUBE_33
 10
1.4407
 20
-1.8318
 30
30.4937
 70
192
 0
VERTEX
 8
TUBE_33
 10
1.4407
 20
-1.983
 30
30.4413
 70
192
 0
VERTEX
 8
TUBE_33
 10
1.3944
 20
-1.9935
 30
30.4715
 70
192
 0
VERTEX
 8
TUBE_33
 10
1.3494
 20
-1.9825
 30
30.4397
 70
192
 0
VERTEX
 8
TUBE_33
 10
1.3944
 20
-1.8424
 30
30.524
 70
192
 0
VERTEX
 8
TUBE_33
 10
1.1965
 20
-2.0279
 30
30.5701
 70
192
 0
VERTEX
 8
TUBE_33
 10
1.2517
 20
-1.8805
 30
30.6335
 70
192
 0
VERTEX
 8
TUBE_33
 10
1.2517
 20
-2.0316
 30
30.5809
 70
192
 0
VERTEX
 8
TUBE_33
 10
1.1686
 20
-1.8929
 30
30.6691
 70
192
 0
VERTEX
 8
TUBE_33
 10
1.258
 20
-1.899
 30
30.6865
 70
192
 0
VERTEX
 8
TUBE_33
 10
1.258
 20
-2.0501
 30
30.6338
 70
192
 0
VERTEX
 8
TUBE_33
 10
1.2066
 20
-2.0577
 30
30.6558
 70
192
 0
VERTEX
 8
TUBE_33
 10
1.1686
 20
-2.044
 30
30.6164
 70
192
 0
VERTEX
 8
TUBE_33
 10
1.1965
 20
-1.8768
 30
30.6228
 70
192
 0
VERTEX
 8
TUBE_33
 10
1.2066
 20
-1.9066
 30
30.7085
 70
192
 0
VERTEX
 8
TUBE_33
 10
0.9928
 20
-2.0796
 30
30.7186
 70
192
 0
VERTEX
 8
TUBE_33
 10
1.045
 20
-1.9355
 30
30.7914
 70
192
 0
VERTEX
 8
TUBE_33
 10
1.045
 20
-2.0866
 30
30.7388
 70
192
 0
VERTEX
 8
TUBE_33
 10
0.9928
 20
-1.9285
 30
30.7713
 70
192
 0
VERTEX
 8
TUBE_33
 10
0.986
 20
-1.9585
 30
30.8573
 70
192
 0
VERTEX
 8
TUBE_33
 10
0.986
 20
-2.1096
 30
30.8046
 70
192
 0
VERTEX
 8
TUBE_33
 10
0.9563
 20
-1.9427
 30
30.812
 70
192
 0
VERTEX
 8
TUBE_33
 10
1.0409
 20
-1.9541
 30
30.8446
 70
192
 0
VERTEX
 8
TUBE_33
 10
1.0409
 20
-2.1052
 30
30.7919
 70
192
 0
VERTEX
 8
TUBE_33
 10
0.9563
 20
-2.0938
 30
30.7593
 70
192
 0
VERTEX
 8
TUBE_33
 10
0.8111
 20
-1.9771
 30
30.9108
 70
192
 0
VERTEX
 8
TUBE_33
 10
0.8111
 20
-2.1282
 30
30.8581
 70
192
 0
VERTEX
 8
TUBE_33
 10
0.7199
 20
-1.9788
 30
30.9156
 70
192
 0
VERTEX
 8
TUBE_33
 10
0.7403
 20
-1.9961
 30
30.9652
 70
192
 0
VERTEX
 8
TUBE_33
 10
0.7403
 20
-2.1472
 30
30.9126
 70
192
 0
VERTEX
 8
TUBE_33
 10
0.7967
 20
-1.9951
 30
30.9623
 70
192
 0
VERTEX
 8
TUBE_33
 10
0.7967
 20
-2.1462
 30
30.9096
 70
192
 0
VERTEX
 8
TUBE_33
 10
0.7637
 20
-2.1182
 30
30.8292
 70
192
 0
VERTEX
 8
TUBE_33
 10
0.7199
 20
-2.1299
 30
30.8629
 70
192
 0
VERTEX
 8
TUBE_33
 10
0.7637
 20
-1.9671
 30
30.8819
 70
192
 0
VERTEX
 8
TUBE_33
 10
0.5579
 20
-2.0039
 30
30.9875
 70
192
 0
VERTEX
 8
TUBE_33
 10
0.5579
 20
-2.155
 30
30.9348
 70
192
 0
VERTEX
 8
TUBE_33
 10
0.4674
 20
-2
 30
30.9764
 70
192
 0
VERTEX
 8
TUBE_33
 10
0.4778
 20
-2.1693
 30
30.9761
 70
192
 0
VERTEX
 8
TUBE_33
 10
0.5337
 20
-2.0206
 30
31.0356
 70
192
 0
VERTEX
 8
TUBE_33
 10
0.5337
 20
-2.1717
 30
30.983
 70
192
 0
VERTEX
 8
TUBE_33
 10
0.5169
 20
-2.1422
 30
30.8982
 70
192
 0
VERTEX
 8
TUBE_33
 10
0.4674
 20
-2.1511
 30
30.9237
 70
192
 0
VERTEX
 8
TUBE_33
 10
0.5169
 20
-1.9911
 30
30.9509
 70
192
 0
VERTEX
 8
TUBE_33
 10
0.4778
 20
-2.0182
 30
31.0287
 70
192
 0
VERTEX
 8
TUBE_33
 10
0.261
 20
-2.1509
 30
30.9232
 70
192
 0
VERTEX
 8
TUBE_33
 10
0.2942
 20
-2.0148
 30
31.019
 70
192
 0
VERTEX
 8
TUBE_33
 10
0.2942
 20
-2.1659
 30
30.9663
 70
192
 0
VERTEX
 8
TUBE_33
 10
0.2073
 20
-2.0056
 30
30.9923
 70
192
 0
VERTEX
 8
TUBE_33
 10
0.261
 20
-2.0299
 30
31.0621
 70
192
 0
VERTEX
 8
TUBE_33
 10
0.261
 20
-2.181
 30
31.0094
 70
192
 0
VERTEX
 8
TUBE_33
 10
0.2073
 20
-2.1752
 30
30.993
 70
192
 0
VERTEX
 8
TUBE_33
 10
0.2073
 20
-2.1566
 30
30.9397
 70
192
 0
VERTEX
 8
TUBE_33
 10
0.261
 20
-1.9998
 30
30.9759
 70
192
 0
VERTEX
 8
TUBE_33
 10
0.2073
 20
-2.0241
 30
31.0456
 70
192
 0
VERTEX
 8
TUBE_33
 10
0
 20
0
 30
0
 70
128
 71
2
 72
3
 73
8
 74
7
 0
VERTEX
 8
TUBE_33
 10
0
 20
0
 30
0
 70
128
 71
10
 72
5
 73
4
 74
1
 0
VERTEX
 8
TUBE_33
 10
0
 20
0
 30
0
 70
128
 71
6
 72
9
 73
5
 74
10
 0
VERTEX
 8
TUBE_33
 10
0
 20
0
 30
0
 70
128
 71
1
 72
4
 73
3
 74
2
 0
VERTEX
 8
TUBE_33
 10
0
 20
0
 30
0
 70
128
 71
7
 72
8
 73
9
 74
6
 0
VERTEX
 8
TUBE_33
 10
0
 20
0
 30
0
 70
128
 71
3
 72
4
 73
5
 74
8
 0
VERTEX
 8
TUBE_33
 10
0
 20
0
 30
0
 70
128
 71
5
 72
9
 73
8
 74
8
 0
VERTEX
 8
TUBE_33
 10
0
 20
0
 30
0
 70
128
 71
11
 72
12
 73
15
 74
14
 0
VERTEX
 8
TUBE_33
 10
0
 20
0
 30
0
 70
128
 71
19
 72
18
 73
13
 74
17
 0
VERTEX
 8
TUBE_33
 10
0
 20
0
 30
0
 70
128
 71
20
 72
16
 73
18
 74
19
 0
VERTEX
 8
TUBE_33
 10
0
 20
0
 30
0
 70
128
 71
17
 72
13
 73
12
 74
11
 0
VERTEX
 8
TUBE_33
 10
0
 20
0
 30
0
 70
128
 71
14
 72
15
 73
16
 74
20
 0
VERTEX
 8
TUBE_33
 10
0
 20
0
 30
0
 70
128
 71
12
 72
13
 73
18
 74
15
 0
VERTEX
 8
TUBE_33
 10
0
 20
0
 30
0
 70
128
 71
18
 72
16
 73
15
 74
15
 0
VERTEX
 8
TUBE_33
 10
0
 20
0
 30
0
 70
128
 71
21
 72
22
 73
26
 74
25
 0
VERTEX
 8
TUBE_33
 10
0
 20
0
 30
0
 70
128
 71
29
 72
28
 73
24
 74
27
 0
VERTEX
 8
TUBE_33
 10
0
 20
0
 30
0
 70
128
 71
30
 72
23
 73
28
 74
29
 0
VERTEX
 8
TUBE_33
 10
0
 20
0
 30
0
 70
128
 71
27
 72
24
 73
22
 74
21
 0
VERTEX
 8
TUBE_33
 10
0
 20
0
 30
0
 70
128
 71
25
 72
26
 73
23
 74
30
 0
VERTEX
 8
TUBE_33
 10
0
 20
0
 30
0
 70
128
 71
22
 72
24
 73
28
 74
26
 0
VERTEX
 8
TUBE_33
 10
0
 20
0
 30
0
 70
128
 71
28
 72
23
 73
26
 74
26
 0
VERTEX
 8
TUBE_33
 10
0
 20
0
 30
0
 70
128
 71
31
 72
32
 73
38
 74
37
 0
VERTEX
 8
TUBE_33
 10
0
 20
0
 30
0
 70
128
 71
40
 72
35
 73
34
 74
39
 0
VERTEX
 8
TUBE_33
 10
0
 20
0
 30
0
 70
128
 71
36
 72
33
 73
35
 74
40
 0
VERTEX
 8
TUBE_33
 10
0
 20
0
 30
0
 70
128
 71
39
 72
34
 73
32
 74
31
 0
VERTEX
 8
TUBE_33
 10
0
 20
0
 30
0
 70
128
 71
37
 72
38
 73
33
 74
36
 0
VERTEX
 8
TUBE_33
 10
0
 20
0
 30
0
 70
128
 71
32
 72
34
 73
35
 74
38
 0
VERTEX
 8
TUBE_33
 10
0
 20
0
 30
0
 70
128
 71
35
 72
33
 73
38
 74
38
 0
VERTEX
 8
TUBE_33
 10
0
 20
0
 30
0
 70
128
 71
41
 72
42
 73
47
 74
46
 0
VERTEX
 8
TUBE_33
 10
0
 20
0
 30
0
 70
128
 71
50
 72
44
 73
43
 74
49
 0
VERTEX
 8
TUBE_33
 10
0
 20
0
 30
0
 70
128
 71
45
 72
48
 73
44
 74
50
 0
VERTEX
 8
TUBE_33
 10
0
 20
0
 30
0
 70
128
 71
49
 72
43
 73
42
 74
41
 0
VERTEX
 8
TUBE_33
 10
0
 20
0
 30
0
 70
128
 71
46
 72
47
 73
48
 74
45
 0
VERTEX
 8
TUBE_33
 10
0
 20
0
 30
0
 70
128
 71
42
 72
43
 73
44
 74
47
 0
VERTEX
 8
TUBE_33
 10
0
 20
0
 30
0
 70
128
 71
44
 72
48
 73
47
 74
47
 0
VERTEX
 8
TUBE_33
 10
0
 20
0
 30
0
 70
128
 71
51
 72
52
 73
57
 74
56
 0
VERTEX
 8
TUBE_33
 10
0
 20
0
 30
0
 70
128
 71
60
 72
59
 73
54
 74
58
 0
VERTEX
 8
TUBE_33
 10
0
 20
0
 30
0
 70
128
 71
55
 72
53
 73
59
 74
60
 0
VERTEX
 8
TUBE_33
 10
0
 20
0
 30
0
 70
128
 71
58
 72
54
 73
52
 74
51
 0
VERTEX
 8
TUBE_33
 10
0
 20
0
 30
0
 70
128
 71
56
 72
57
 73
53
 74
55
 0
VERTEX
 8
TUBE_33
 10
0
 20
0
 30
0
 70
128
 71
52
 72
54
 73
59
 74
57
 0
VERTEX
 8
TUBE_33
 10
0
 20
0
 30
0
 70
128
 71
59
 72
53
 73
57
 74
57
 0
VERTEX
 8
TUBE_33
 10
0
 20
0
 30
0
 70
128
 71
62
 72
63
 73
67
 74
66
 0
VERTEX
 8
TUBE_33
 10
0
 20
0
 30
0
 70
128
 71
69
 72
65
 73
64
 74
61
 0
VERTEX
 8
TUBE_33
 10
0
 20
0
 30
0
 70
128
 71
70
 72
68
 73
65
 74
69
 0
VERTEX
 8
TUBE_33
 10
0
 20
0
 30
0
 70
128
 71
61
 72
64
 73
63
 74
62
 0
VERTEX
 8
TUBE_33
 10
0
 20
0
 30
0
 70
128
 71
66
 72
67
 73
68
 74
70
 0
VERTEX
 8
TUBE_33
 10
0
 20
0
 30
0
 70
128
 71
63
 72
64
 73
65
 74
67
 0
VERTEX
 8
TUBE_33
 10
0
 20
0
 30
0
 70
128
 71
65
 72
68
 73
67
 74
67
 0
VERTEX
 8
TUBE_33
 10
0
 20
0
 30
0
 70
128
 71
71
 72
72
 73
75
 74
74
 0
VERTEX
 8
TUBE_33
 10
0
 20
0
 30
0
 70
128
 71
79
 72
78
 73
73
 74
77
 0
VERTEX
 8
TUBE_33
 10
0
 20
0
 30
0
 70
128
 71
80
 72
76
 73
78
 74
79
 0
VERTEX
 8
TUBE_33
 10
0
 20
0
 30
0
 70
128
 71
77
 72
73
 73
72
 74
71
 0
VERTEX
 8
TUBE_33
 10
0
 20
0
 30
0
 70
128
 71
74
 72
75
 73
76
 74
80
 0
VERTEX
 8
TUBE_33
 10
0
 20
0
 30
0
 70
128
 71
72
 72
73
 73
78
 74
75
 0
VERTEX
 8
TUBE_33
 10
0
 20
0
 30
0
 70
128
 71
78
 72
76
 73
75
 74
75
 0
VERTEX
 8
TUBE_33
 10
0
 20
0
 30
0
 70
128
 71
82
 72
83
 73
88
 74
87
 0
VERTEX
 8
TUBE_33
 10
0
 20
0
 30
0
 70
128
 71
89
 72
86
 73
85
 74
81
 0
VERTEX
 8
TUBE_33
 10
0
 20
0
 30
0
 70
128
 71
90
 72
84
 73
86
 74
89
 0
VERTEX
 8
TUBE_33
 10
0
 20
0
 30
0
 70
128
 71
81
 72
85
 73
83
 74
82
 0
VERTEX
 8
TUBE_33
 10
0
 20
0
 30
0
 70
128
 71
87
 72
88
 73
84
 74
90
 0
VERTEX
 8
TUBE_33
 10
0
 20
0
 30
0
 70
128
 71
83
 72
85
 73
86
 74
88
 0
VERTEX
 8
TUBE_33
 10
0
 20
0
 30
0
 70
128
 71
86
 72
84
 73
88
 74
88
 0
VERTEX
 8
TUBE_33
 10
0
 20
0
 30
0
 70
128
 71
92
 72
93
 73
99
 74
98
 0
VERTEX
 8
TUBE_33
 10
0
 20
0
 30
0
 70
128
 71
100
 72
96
 73
95
 74
91
 0
VERTEX
 8
TUBE_33
 10
0
 20
0
 30
0
 70
128
 71
97
 72
94
 73
96
 74
100
 0
VERTEX
 8
TUBE_33
 10
0
 20
0
 30
0
 70
128
 71
91
 72
95
 73
93
 74
92
 0
VERTEX
 8
TUBE_33
 10
0
 20
0
 30
0
 70
128
 71
98
 72
99
 73
94
 74
97
 0
VERTEX
 8
TUBE_33
 10
0
 20
0
 30
0
 70
128
 71
93
 72
95
 73
96
 74
99
 0
VERTEX
 8
TUBE_33
 10
0
 20
0
 30
0
 70
128
 71
96
 72
94
 73
99
 74
99
 0
VERTEX
 8
TUBE_33
 10
0
 20
0
 30
0
 70
128
 71
101
 72
102
 73
107
 74
106
 0
VERTEX
 8
TUBE_33
 10
0
 20
0
 30
0
 70
128
 71
109
 72
105
 73
104
 74
108
 0
VERTEX
 8
TUBE_33
 10
0
 20
0
 30
0
 70
128
 71
110
 72
103
 73
105
 74
109
 0
VERTEX
 8
TUBE_33
 10
0
 20
0
 30
0
 70
128
 71
108
 72
104
 73
102
 74
101
 0
VERTEX
 8
TUBE_33
 10
0
 20
0
 30
0
 70
128
 71
106
 72
107
 73
103
 74
110
 0
VERTEX
 8
TUBE_33
 10
0
 20
0
 30
0
 70
128
 71
102
 72
104
 73
105
 74
107
 0
VERTEX
 8
TUBE_33
 10
0
 20
0
 30
0
 70
128
 71
105
 72
103
 73
107
 74
107
 0
VERTEX
 8
TUBE_33
 10
0
 20
0
 30
0
 70
128
 71
112
 72
113
 73
116
 74
115
 0
VERTEX
 8
TUBE_33
 10
0
 20
0
 30
0
 70
128
 71
119
 72
118
 73
114
 74
111
 0
VERTEX
 8
TUBE_33
 10
0
 20
0
 30
0
 70
128
 71
120
 72
117
 73
118
 74
119
 0
VERTEX
 8
TUBE_33
 10
0
 20
0
 30
0
 70
128
 71
111
 72
114
 73
113
 74
112
 0
VERTEX
 8
TUBE_33
 10
0
 20
0
 30
0
 70
128
 71
115
 72
116
 73
117
 74
120
 0
VERTEX
 8
TUBE_33
 10
0
 20
0
 30
0
 70
128
 71
113
 72
114
 73
118
 74
116
 0
VERTEX
 8
TUBE_33
 10
0
 20
0
 30
0
 70
128
 71
118
 72
117
 73
116
 74
116
 0
VERTEX
 8
TUBE_33
 10
0
 20
0
 30
0
 70
128
 71
121
 72
122
 73
127
 74
126
 0
VERTEX
 8
TUBE_33
 10
0
 20
0
 30
0
 70
128
 71
129
 72
125
 73
124
 74
128
 0
VERTEX
 8
TUBE_33
 10
0
 20
0
 30
0
 70
128
 71
130
 72
123
 73
125
 74
129
 0
VERTEX
 8
TUBE_33
 10
0
 20
0
 30
0
 70
128
 71
128
 72
124
 73
122
 74
121
 0
VERTEX
 8
TUBE_33
 10
0
 20
0
 30
0
 70
128
 71
126
 72
127
 73
123
 74
130
 0
VERTEX
 8
TUBE_33
 10
0
 20
0
 30
0
 70
128
 71
122
 72
124
 73
125
 74
127
 0
VERTEX
 8
TUBE_33
 10
0
 20
0
 30
0
 70
128
 71
125
 72
123
 73
127
 74
127
 0
VERTEX
 8
TUBE_33
 10
0
 20
0
 30
0
 70
128
 71
132
 72
133
 73
138
 74
137
 0
VERTEX
 8
TUBE_33
 10
0
 20
0
 30
0
 70
128
 71
140
 72
139
 73
135
 74
131
 0
VERTEX
 8
TUBE_33
 10
0
 20
0
 30
0
 70
128
 71
136
 72
134
 73
139
 74
140
 0
VERTEX
 8
TUBE_33
 10
0
 20
0
 30
0
 70
128
 71
131
 72
135
 73
133
 74
132
 0
VERTEX
 8
TUBE_33
 10
0
 20
0
 30
0
 70
128
 71
137
 72
138
 73
134
 74
136
 0
VERTEX
 8
TUBE_33
 10
0
 20
0
 30
0
 70
128
 71
133
 72
135
 73
139
 74
138
 0
VERTEX
 8
TUBE_33
 10
0
 20
0
 30
0
 70
128
 71
139
 72
134
 73
138
 74
138
 0
VERTEX
 8
TUBE_33
 10
0
 20
0
 30
0
 70
128
 71
141
 72
142
 73
146
 74
145
 0
VERTEX
 8
TUBE_33
 10
0
 20
0
 30
0
 70
128
 71
150
 72
149
 73
143
 74
148
 0
VERTEX
 8
TUBE_33
 10
0
 20
0
 30
0
 70
128
 71
144
 72
147
 73
149
 74
150
 0
VERTEX
 8
TUBE_33
 10
0
 20
0
 30
0
 70
128
 71
148
 72
143
 73
142
 74
141
 0
VERTEX
 8
TUBE_33
 10
0
 20
0
 30
0
 70
128
 71
145
 72
146
 73
147
 74
144
 0
VERTEX
 8
TUBE_33
 10
0
 20
0
 30
0
 70
128
 71
142
 72
143
 73
149
 74
146
 0
VERTEX
 8
TUBE_33
 10
0
 20
0
 30
0
 70
128
 71
149
 72
147
 73
146
 74
146
 0
VERTEX
 8
TUBE_33
 10
0
 20
0
 30
0
 70
128
 71
152
 72
153
 73
157
 74
156
 0
VERTEX
 8
TUBE_33
 10
0
 20
0
 30
0
 70
128
 71
159
 72
155
 73
154
 74
151
 0
VERTEX
 8
TUBE_33
 10
0
 20
0
 30
0
 70
128
 71
160
 72
158
 73
155
 74
159
 0
VERTEX
 8
TUBE_33
 10
0
 20
0
 30
0
 70
128
 71
151
 72
154
 73
153
 74
152
 0
VERTEX
 8
TUBE_33
 10
0
 20
0
 30
0
 70
128
 71
156
 72
157
 73
158
 74
160
 0
VERTEX
 8
TUBE_33
 10
0
 20
0
 30
0
 70
128
 71
153
 72
154
 73
155
 74
157
 0
VERTEX
 8
TUBE_33
 10
0
 20
0
 30
0
 70
128
 71
155
 72
158
 73
157
 74
157
 0
VERTEX
 8
TUBE_33
 10
0
 20
0
 30
0
 70
128
 71
162
 72
163
 73
168
 74
167
 0
VERTEX
 8
TUBE_33
 10
0
 20
0
 30
0
 70
128
 71
169
 72
166
 73
165
 74
161
 0
VERTEX
 8
TUBE_33
 10
0
 20
0
 30
0
 70
128
 71
170
 72
164
 73
166
 74
169
 0
VERTEX
 8
TUBE_33
 10
0
 20
0
 30
0
 70
128
 71
161
 72
165
 73
163
 74
162
 0
VERTEX
 8
TUBE_33
 10
0
 20
0
 30
0
 70
128
 71
167
 72
168
 73
164
 74
170
 0
VERTEX
 8
TUBE_33
 10
0
 20
0
 30
0
 70
128
 71
163
 72
165
 73
166
 74
168
 0
VERTEX
 8
TUBE_33
 10
0
 20
0
 30
0
 70
128
 71
166
 72
164
 73
168
 74
168
 0
VERTEX
 8
TUBE_33
 10
0
 20
0
 30
0
 70
128
 71
171
 72
172
 73
177
 74
176
 0
VERTEX
 8
TUBE_33
 10
0
 20
0
 30
0
 70
128
 71
180
 72
179
 73
174
 74
178
 0
VERTEX
 8
TUBE_33
 10
0
 20
0
 30
0
 70
128
 71
175
 72
173
 73
179
 74
180
 0
VERTEX
 8
TUBE_33
 10
0
 20
0
 30
0
 70
128
 71
178
 72
174
 73
172
 74
171
 0
VERTEX
 8
TUBE_33
 10
0
 20
0
 30
0
 70
128
 71
176
 72
177
 73
173
 74
175
 0
VERTEX
 8
TUBE_33
 10
0
 20
0
 30
0
 70
128
 71
172
 72
174
 73
179
 74
177
 0
VERTEX
 8
TUBE_33
 10
0
 20
0
 30
0
 70
128
 71
179
 72
173
 73
177
 74
177
 0
VERTEX
 8
TUBE_33
 10
0
 20
0
 30
0
 70
128
 71
182
 72
183
 73
187
 74
186
 0
VERTEX
 8
TUBE_33
 10
0
 20
0
 30
0
 70
128
 71
189
 72
185
 73
184
 74
181
 0
VERTEX
 8
TUBE_33
 10
0
 20
0
 30
0
 70
128
 71
190
 72
188
 73
185
 74
189
 0
VERTEX
 8
TUBE_33
 10
0
 20
0
 30
0
 70
128
 71
181
 72
184
 73
183
 74
182
 0
VERTEX
 8
TUBE_33
 10
0
 20
0
 30
0
 70
128
 71
186
 72
187
 73
188
 74
190
 0
VERTEX
 8
TUBE_33
 10
0
 20
0
 30
0
 70
128
 71
183
 72
184
 73
185
 74
187
 0
VERTEX
 8
TUBE_33
 10
0
 20
0
 30
0
 70
128
 71
185
 72
188
 73
187
 74
187
 0
VERTEX
 8
TUBE_33
 10
0
 20
0
 30
0
 70
128
 71
191
 72
192
 73
196
 74
195
 0
VERTEX
 8
TUBE_33
 10
0
 20
0
 30
0
 70
128
 71
200
 72
199
 73
193
 74
198
 0
VERTEX
 8
TUBE_33
 10
0
 20
0
 30
0
 70
128
 71
194
 72
197
 73
199
 74
200
 0
VERTEX
 8
TUBE_33
 10
0
 20
0
 30
0
 70
128
 71
198
 72
193
 73
192
 74
191
 0
VERTEX
 8
TUBE_33
 10
0
 20
0
 30
0
 70
128
 71
195
 72
196
 73
197
 74
194
 0
VERTEX
 8
TUBE_33
 10
0
 20
0
 30
0
 70
128
 71
192
 72
193
 73
199
 74
196
 0
VERTEX
 8
TUBE_33
 10
0
 20
0
 30
0
 70
128
 71
199
 72
197
 73
196
 74
196
 0
VERTEX
 8
TUBE_33
 10
0
 20
0
 30
0
 70
128
 71
202
 72
203
 73
209
 74
208
 0
VERTEX
 8
TUBE_33
 10
0
 20
0
 30
0
 70
128
 71
210
 72
206
 73
205
 74
201
 0
VERTEX
 8
TUBE_33
 10
0
 20
0
 30
0
 70
128
 71
207
 72
204
 73
206
 74
210
 0
VERTEX
 8
TUBE_33
 10
0
 20
0
 30
0
 70
128
 71
201
 72
205
 73
203
 74
202
 0
VERTEX
 8
TUBE_33
 10
0
 20
0
 30
0
 70
128
 71
208
 72
209
 73
204
 74
207
 0
VERTEX
 8
TUBE_33
 10
0
 20
0
 30
0
 70
128
 71
203
 72
205
 73
206
 74
209
 0
VERTEX
 8
TUBE_33
 10
0
 20
0
 30
0
 70
128
 71
206
 72
204
 73
209
 74
209
 0
VERTEX
 8
TUBE_33
 10
0
 20
0
 30
0
 70
128
 71
212
 72
213
 73
219
 74
218
 0
VERTEX
 8
TUBE_33
 10
0
 20
0
 30
0
 70
128
 71
220
 72
216
 73
215
 74
211
 0
VERTEX
 8
TUBE_33
 10
0
 20
0
 30
0
 70
128
 71
217
 72
214
 73
216
 74
220
 0
VERTEX
 8
TUBE_33
 10
0
 20
0
 30
0
 70
128
 71
211
 72
215
 73
213
 74
212
 0
VERTEX
 8
TUBE_33
 10
0
 20
0
 30
0
 70
128
 71
218
 72
219
 73
214
 74
217
 0
VERTEX
 8
TUBE_33
 10
0
 20
0
 30
0
 70
128
 71
213
 72
215
 73
216
 74
219
 0
VERTEX
 8
TUBE_33
 10
0
 20
0
 30
0
 70
128
 71
216
 72
214
 73
219
 74
219
 0
VERTEX
 8
TUBE_33
 10
0
 20
0
 30
0
 70
128
 71
221
 72
222
 73
227
 74
226
 0
VERTEX
 8
TUBE_33
 10
0
 20
0
 30
0
 70
128
 71
229
 72
228
 73
224
 74
230
 0
VERTEX
 8
TUBE_33
 10
0
 20
0
 30
0
 70
128
 71
230
 72
224
 73
222
 74
221
 0
VERTEX
 8
TUBE_33
 10
0
 20
0
 30
0
 70
128
 71
226
 72
227
 73
223
 74
225
 0
VERTEX
 8
TUBE_33
 10
0
 20
0
 30
0
 70
128
 71
225
 72
223
 73
228
 74
229
 0
VERTEX
 8
TUBE_33
 10
0
 20
0
 30
0
 70
128
 71
222
 72
224
 73
228
 74
227
 0
VERTEX
 8
TUBE_33
 10
0
 20
0
 30
0
 70
128
 71
228
 72
223
 73
227
 74
227
 0
VERTEX
 8
TUBE_33
 10
0
 20
0
 30
0
 70
128
 71
231
 72
232
 73
237
 74
236
 0
VERTEX
 8
TUBE_33
 10
0
 20
0
 30
0
 70
128
 71
239
 72
238
 73
234
 74
240
 0
VERTEX
 8
TUBE_33
 10
0
 20
0
 30
0
 70
128
 71
240
 72
234
 73
232
 74
231
 0
VERTEX
 8
TUBE_33
 10
0
 20
0
 30
0
 70
128
 71
236
 72
237
 73
233
 74
235
 0
VERTEX
 8
TUBE_33
 10
0
 20
0
 30
0
 70
128
 71
235
 72
233
 73
238
 74
239
 0
VERTEX
 8
TUBE_33
 10
0
 20
0
 30
0
 70
128
 71
232
 72
234
 73
238
 74
237
 0
VERTEX
 8
TUBE_33
 10
0
 20
0
 30
0
 70
128
 71
238
 72
233
 73
237
 74
237
 0
VERTEX
 8
TUBE_33
 10
0
 20
0
 30
0
 70
128
 71
242
 72
243
 73
247
 74
246
 0
VERTEX
 8
TUBE_33
 10
0
 20
0
 30
0
 70
128
 71
249
 72
241
 73
245
 74
248
 0
VERTEX
 8
TUBE_33
 10
0
 20
0
 30
0
 70
128
 71
248
 72
245
 73
243
 74
242
 0
VERTEX
 8
TUBE_33
 10
0
 20
0
 30
0
 70
128
 71
246
 72
247
 73
244
 74
250
 0
VERTEX
 8
TUBE_33
 10
0
 20
0
 30
0
 70
128
 71
250
 72
244
 73
241
 74
249
 0
VERTEX
 8
TUBE_33
 10
0
 20
0
 30
0
 70
128
 71
243
 72
245
 73
241
 74
247
 0
VERTEX
 8
TUBE_33
 10
0
 20
0
 30
0
 70
128
 71
241
 72
244
 73
247
 74
247
 0
VERTEX
 8
TUBE_33
 10
0
 20
0
 30
0
 70
128
 71
251
 72
252
 73
256
 74
255
 0
VERTEX
 8
TUBE_33
 10
0
 20
0
 30
0
 70
128
 71
254
 72
259
 73
253
 74
257
 0
VERTEX
 8
TUBE_33
 10
0
 20
0
 30
0
 70
128
 71
257
 72
253
 73
252
 74
251
 0
VERTEX
 8
TUBE_33
 10
0
 20
0
 30
0
 70
128
 71
255
 72
256
 73
258
 74
260
 0
VERTEX
 8
TUBE_33
 10
0
 20
0
 30
0
 70
128
 71
260
 72
258
 73
259
 74
254
 0
VERTEX
 8
TUBE_33
 10
0
 20
0
 30
0
 70
128
 71
252
 72
253
 73
259
 74
256
 0
VERTEX
 8
TUBE_33
 10
0
 20
0
 30
0
 70
128
 71
259
 72
258
 73
256
 74
256
 0
VERTEX
 8
TUBE_33
 10
0
 20
0
 30
0
 70
128
 71
261
 72
262
 73
268
 74
267
 0
VERTEX
 8
TUBE_33
 10
0
 20
0
 30
0
 70
128
 71
265
 72
269
 73
264
 74
270
 0
VERTEX
 8
TUBE_33
 10
0
 20
0
 30
0
 70
128
 71
270
 72
264
 73
262
 74
261
 0
VERTEX
 8
TUBE_33
 10
0
 20
0
 30
0
 70
128
 71
267
 72
268
 73
263
 74
266
 0
VERTEX
 8
TUBE_33
 10
0
 20
0
 30
0
 70
128
 71
266
 72
263
 73
269
 74
265
 0
VERTEX
 8
TUBE_33
 10
0
 20
0
 30
0
 70
128
 71
262
 72
264
 73
269
 74
268
 0
VERTEX
 8
TUBE_33
 10
0
 20
0
 30
0
 70
128
 71
269
 72
263
 73
268
 74
268
 0
VERTEX
 8
TUBE_33
 10
0
 20
0
 30
0
 70
128
 71
272
 72
273
 73
278
 74
277
 0
VERTEX
 8
TUBE_33
 10
0
 20
0
 30
0
 70
128
 71
276
 72
271
 73
275
 74
279
 0
VERTEX
 8
TUBE_33
 10
0
 20
0
 30
0
 70
128
 71
279
 72
275
 73
273
 74
272
 0
VERTEX
 8
TUBE_33
 10
0
 20
0
 30
0
 70
128
 71
277
 72
278
 73
274
 74
280
 0
VERTEX
 8
TUBE_33
 10
0
 20
0
 30
0
 70
128
 71
280
 72
274
 73
271
 74
276
 0
VERTEX
 8
TUBE_33
 10
0
 20
0
 30
0
 70
128
 71
273
 72
275
 73
271
 74
278
 0
VERTEX
 8
TUBE_33
 10
0
 20
0
 30
0
 70
128
 71
271
 72
274
 73
278
 74
278
 0
VERTEX
 8
TUBE_33
 10
0
 20
0
 30
0
 70
128
 71
281
 72
282
 73
285
 74
284
 0
VERTEX
 8
TUBE_33
 10
0
 20
0
 30
0
 70
128
 71
289
 72
288
 73
283
 74
286
 0
VERTEX
 8
TUBE_33
 10
0
 20
0
 30
0
 70
128
 71
286
 72
283
 73
282
 74
281
 0
VERTEX
 8
TUBE_33
 10
0
 20
0
 30
0
 70
128
 71
284
 72
285
 73
287
 74
290
 0
VERTEX
 8
TUBE_33
 10
0
 20
0
 30
0
 70
128
 71
290
 72
287
 73
288
 74
289
 0
VERTEX
 8
TUBE_33
 10
0
 20
0
 30
0
 70
128
 71
282
 72
283
 73
288
 74
285
 0
VERTEX
 8
TUBE_33
 10
0
 20
0
 30
0
 70
128
 71
288
 72
287
 73
285
 74
285
 0
VERTEX
 8
TUBE_33
 10
0
 20
0
 30
0
 70
128
 71
292
 72
293
 73
298
 74
297
 0
VERTEX
 8
TUBE_33
 10
0
 20
0
 30
0
 70
128
 71
296
 72
291
 73
295
 74
299
 0
VERTEX
 8
TUBE_33
 10
0
 20
0
 30
0
 70
128
 71
299
 72
295
 73
293
 74
292
 0
VERTEX
 8
TUBE_33
 10
0
 20
0
 30
0
 70
128
 71
297
 72
298
 73
294
 74
300
 0
VERTEX
 8
TUBE_33
 10
0
 20
0
 30
0
 70
128
 71
300
 72
294
 73
291
 74
296
 0
VERTEX
 8
TUBE_33
 10
0
 20
0
 30
0
 70
128
 71
293
 72
295
 73
291
 74
298
 0
VERTEX
 8
TUBE_33
 10
0
 20
0
 30
0
 70
128
 71
291
 72
294
 73
298
 74
298
 0
VERTEX
 8
TUBE_33
 10
0
 20
0
 30
0
 70
128
 71
302
 72
303
 73
307
 74
306
 0
VERTEX
 8
TUBE_33
 10
0
 20
0
 30
0
 70
128
 71
305
 72
301
 73
304
 74
309
 0
VERTEX
 8
TUBE_33
 10
0
 20
0
 30
0
 70
128
 71
309
 72
304
 73
303
 74
302
 0
VERTEX
 8
TUBE_33
 10
0
 20
0
 30
0
 70
128
 71
306
 72
307
 73
308
 74
310
 0
VERTEX
 8
TUBE_33
 10
0
 20
0
 30
0
 70
128
 71
310
 72
308
 73
301
 74
305
 0
VERTEX
 8
TUBE_33
 10
0
 20
0
 30
0
 70
128
 71
303
 72
304
 73
301
 74
307
 0
VERTEX
 8
TUBE_33
 10
0
 20
0
 30
0
 70
128
 71
301
 72
308
 73
307
 74
307
 0
VERTEX
 8
TUBE_33
 10
0
 20
0
 30
0
 70
128
 71
312
 72
313
 73
317
 74
316
 0
VERTEX
 8
TUBE_33
 10
0
 20
0
 30
0
 70
128
 71
315
 72
311
 73
314
 74
319
 0
VERTEX
 8
TUBE_33
 10
0
 20
0
 30
0
 70
128
 71
319
 72
314
 73
313
 74
312
 0
VERTEX
 8
TUBE_33
 10
0
 20
0
 30
0
 70
128
 71
316
 72
317
 73
318
 74
320
 0
VERTEX
 8
TUBE_33
 10
0
 20
0
 30
0
 70
128
 71
320
 72
318
 73
311
 74
315
 0
VERTEX
 8
TUBE_33
 10
0
 20
0
 30
0
 70
128
 71
313
 72
314
 73
311
 74
317
 0
VERTEX
 8
TUBE_33
 10
0
 20
0
 30
0
 70
128
 71
311
 72
318
 73
317
 74
317
 0
VERTEX
 8
TUBE_33
 10
0
 20
0
 30
0
 70
128
 71
322
 72
323
 73
329
 74
328
 0
VERTEX
 8
TUBE_33
 10
0
 20
0
 30
0
 70
128
 71
326
 72
321
 73
325
 74
330
 0
VERTEX
 8
TUBE_33
 10
0
 20
0
 30
0
 70
128
 71
330
 72
325
 73
323
 74
322
 0
VERTEX
 8
TUBE_33
 10
0
 20
0
 30
0
 70
128
 71
328
 72
329
 73
324
 74
327
 0
VERTEX
 8
TUBE_33
 10
0
 20
0
 30
0
 70
128
 71
327
 72
324
 73
321
 74
326
 0
VERTEX
 8
TUBE_33
 10
0
 20
0
 30
0
 70
128
 71
323
 72
325
 73
321
 74
329
 0
VERTEX
 8
TUBE_33
 10
0
 20
0
 30
0
 70
128
 71
321
 72
324
 73
329
 74
329
 0
VERTEX
 8
TUBE_33
 10
0
 20
0
 30
0
 70
128
 71
331
 72
332
 73
335
 74
334
 0
VERTEX
 8
TUBE_33
 10
0
 20
0
 30
0
 70
128
 71
338
 72
337
 73
333
 74
339
 0
VERTEX
 8
TUBE_33
 10
0
 20
0
 30
0
 70
128
 71
339
 72
333
 73
332
 74
331
 0
VERTEX
 8
TUBE_33
 10
0
 20
0
 30
0
 70
128
 71
334
 72
335
 73
336
 74
340
 0
VERTEX
 8
TUBE_33
 10
0
 20
0
 30
0
 70
128
 71
340
 72
336
 73
337
 74
338
 0
VERTEX
 8
TUBE_33
 10
0
 20
0
 30
0
 70
128
 71
332
 72
333
 73
337
 74
335
 0
VERTEX
 8
TUBE_33
 10
0
 20
0
 30
0
 70
128
 71
337
 72
336
 73
335
 74
335
 0
VERTEX
 8
TUBE_33
 10
0
 20
0
 30
0
 70
128
 71
341
 72
342
 73
345
 74
344
 0
VERTEX
 8
TUBE_33
 10
0
 20
0
 30
0
 70
128
 71
348
 72
347
 73
343
 74
349
 0
VERTEX
 8
TUBE_33
 10
0
 20
0
 30
0
 70
128
 71
349
 72
343
 73
342
 74
341
 0
VERTEX
 8
TUBE_33
 10
0
 20
0
 30
0
 70
128
 71
344
 72
345
 73
346
 74
350
 0
VERTEX
 8
TUBE_33
 10
0
 20
0
 30
0
 70
128
 71
350
 72
346
 73
347
 74
348
 0
VERTEX
 8
TUBE_33
 10
0
 20
0
 30
0
 70
128
 71
342
 72
343
 73
347
 74
345
 0
VERTEX
 8
TUBE_33
 10
0
 20
0
 30
0
 70
128
 71
347
 72
346
 73
345
 74
345
 0
VERTEX
 8
TUBE_33
 10
0
 20
0
 30
0
 70
128
 71
352
 72
353
 73
358
 74
357
 0
VERTEX
 8
TUBE_33
 10
0
 20
0
 30
0
 70
128
 71
359
 72
351
 73
355
 74
360
 0
VERTEX
 8
TUBE_33
 10
0
 20
0
 30
0
 70
128
 71
360
 72
355
 73
353
 74
352
 0
VERTEX
 8
TUBE_33
 10
0
 20
0
 30
0
 70
128
 71
357
 72
358
 73
354
 74
356
 0
VERTEX
 8
TUBE_33
 10
0
 20
0
 30
0
 70
128
 71
356
 72
354
 73
351
 74
359
 0
VERTEX
 8
TUBE_33
 10
0
 20
0
 30
0
 70
128
 71
353
 72
355
 73
351
 74
358
 0
VERTEX
 8
TUBE_33
 10
0
 20
0
 30
0
 70
128
 71
351
 72
354
 73
358
 74
358
 0
VERTEX
 8
TUBE_33
 10
0
 20
0
 30
0
 70
128
 71
362
 72
363
 73
369
 74
368
 0
VERTEX
 8
TUBE_33
 10
0
 20
0
 30
0
 70
128
 71
366
 72
361
 73
365
 74
370
 0
VERTEX
 8
TUBE_33
 10
0
 20
0
 30
0
 70
128
 71
370
 72
365
 73
363
 74
362
 0
VERTEX
 8
TUBE_33
 10
0
 20
0
 30
0
 70
128
 71
368
 72
369
 73
364
 74
367
 0
VERTEX
 8
TUBE_33
 10
0
 20
0
 30
0
 70
128
 71
367
 72
364
 73
361
 74
366
 0
VERTEX
 8
TUBE_33
 10
0
 20
0
 30
0
 70
128
 71
363
 72
365
 73
361
 74
369
 0
VERTEX
 8
TUBE_33
 10
0
 20
0
 30
0
 70
128
 71
361
 72
364
 73
369
 74
369
 0
VERTEX
 8
TUBE_33
 10
0
 20
0
 30
0
 70
128
 71
371
 72
372
 73
377
 74
376
 0
VERTEX
 8
TUBE_33
 10
0
 20
0
 30
0
 70
128
 71
379
 72
378
 73
374
 74
380
 0
VERTEX
 8
TUBE_33
 10
0
 20
0
 30
0
 70
128
 71
380
 72
374
 73
372
 74
371
 0
VERTEX
 8
TUBE_33
 10
0
 20
0
 30
0
 70
128
 71
376
 72
377
 73
373
 74
375
 0
VERTEX
 8
TUBE_33
 10
0
 20
0
 30
0
 70
128
 71
375
 72
373
 73
378
 74
379
 0
VERTEX
 8
TUBE_33
 10
0
 20
0
 30
0
 70
128
 71
372
 72
374
 73
378
 74
377
 0
VERTEX
 8
TUBE_33
 10
0
 20
0
 30
0
 70
128
 71
378
 72
373
 73
377
 74
377
 0
VERTEX
 8
TUBE_33
 10
0
 20
0
 30
0
 70
128
 71
382
 72
383
 73
389
 74
388
 0
VERTEX
 8
TUBE_33
 10
0
 20
0
 30
0
 70
128
 71
386
 72
381
 73
385
 74
390
 0
VERTEX
 8
TUBE_33
 10
0
 20
0
 30
0
 70
128
 71
390
 72
385
 73
383
 74
382
 0
VERTEX
 8
TUBE_33
 10
0
 20
0
 30
0
 70
128
 71
388
 72
389
 73
384
 74
387
 0
VERTEX
 8
TUBE_33
 10
0
 20
0
 30
0
 70
128
 71
387
 72
384
 73
381
 74
386
 0
VERTEX
 8
TUBE_33
 10
0
 20
0
 30
0
 70
128
 71
383
 72
385
 73
381
 74
389
 0
VERTEX
 8
TUBE_33
 10
0
 20
0
 30
0
 70
128
 71
381
 72
384
 73
389
 74
389
 0
VERTEX
 8
TUBE_33
 10
0
 20
0
 30
0
 70
128
 71
391
 72
392
 73
398
 74
397
 0
VERTEX
 8
TUBE_33
 10
0
 20
0
 30
0
 70
128
 71
395
 72
400
 73
394
 74
399
 0
VERTEX
 8
TUBE_33
 10
0
 20
0
 30
0
 70
128
 71
399
 72
394
 73
392
 74
391
 0
VERTEX
 8
TUBE_33
 10
0
 20
0
 30
0
 70
128
 71
397
 72
398
 73
393
 74
396
 0
VERTEX
 8
TUBE_33
 10
0
 20
0
 30
0
 70
128
 71
396
 72
393
 73
400
 74
395
 0
VERTEX
 8
TUBE_33
 10
0
 20
0
 30
0
 70
128
 71
392
 72
394
 73
400
 74
398
 0
VERTEX
 8
TUBE_33
 10
0
 20
0
 30
0
 70
128
 71
400
 72
393
 73
398
 74
398
 0
VERTEX
 8
TUBE_33
 10
0
 20
0
 30
0
 70
128
 71
401
 72
402
 73
406
 74
405
 0
VERTEX
 8
TUBE_33
 10
0
 20
0
 30
0
 70
128
 71
404
 72
408
 73
403
 74
409
 0
VERTEX
 8
TUBE_33
 10
0
 20
0
 30
0
 70
128
 71
409
 72
403
 73
402
 74
401
 0
VERTEX
 8
TUBE_33
 10
0
 20
0
 30
0
 70
128
 71
405
 72
406
 73
407
 74
410
 0
VERTEX
 8
TUBE_33
 10
0
 20
0
 30
0
 70
128
 71
410
 72
407
 73
408
 74
404
 0
VERTEX
 8
TUBE_33
 10
0
 20
0
 30
0
 70
128
 71
402
 72
403
 73
408
 74
406
 0
VERTEX
 8
TUBE_33
 10
0
 20
0
 30
0
 70
128
 71
408
 72
407
 73
406
 74
406
 0
VERTEX
 8
TUBE_33
 10
0
 20
0
 30
0
 70
128
 71
412
 72
413
 73
418
 74
417
 0
VERTEX
 8
TUBE_33
 10
0
 20
0
 30
0
 70
128
 71
416
 72
411
 73
415
 74
419
 0
VERTEX
 8
TUBE_33
 10
0
 20
0
 30
0
 70
128
 71
419
 72
415
 73
413
 74
412
 0
VERTEX
 8
TUBE_33
 10
0
 20
0
 30
0
 70
128
 71
417
 72
418
 73
414
 74
420
 0
VERTEX
 8
TUBE_33
 10
0
 20
0
 30
0
 70
128
 71
420
 72
414
 73
411
 74
416
 0
VERTEX
 8
TUBE_33
 10
0
 20
0
 30
0
 70
128
 71
413
 72
415
 73
411
 74
418
 0
VERTEX
 8
TUBE_33
 10
0
 20
0
 30
0
 70
128
 71
411
 72
414
 73
418
 74
418
 0
VERTEX
 8
TUBE_33
 10
0
 20
0
 30
0
 70
128
 71
422
 72
423
 73
427
 74
426
 0
VERTEX
 8
TUBE_33
 10
0
 20
0
 30
0
 70
128
 71
425
 72
421
 73
424
 74
428
 0
VERTEX
 8
TUBE_33
 10
0
 20
0
 30
0
 70
128
 71
428
 72
424
 73
423
 74
422
 0
VERTEX
 8
TUBE_33
 10
0
 20
0
 30
0
 70
128
 71
426
 72
427
 73
429
 74
430
 0
VERTEX
 8
TUBE_33
 10
0
 20
0
 30
0
 70
128
 71
430
 72
429
 73
421
 74
425
 0
VERTEX
 8
TUBE_33
 10
0
 20
0
 30
0
 70
128
 71
423
 72
424
 73
421
 74
427
 0
VERTEX
 8
TUBE_33
 10
0
 20
0
 30
0
 70
128
 71
421
 72
429
 73
427
 74
427
 0
VERTEX
 8
TUBE_33
 10
0
 20
0
 30
0
 70
128
 71
432
 72
433
 73
439
 74
438
 0
VERTEX
 8
TUBE_33
 10
0
 20
0
 30
0
 70
128
 71
436
 72
431
 73
435
 74
440
 0
VERTEX
 8
TUBE_33
 10
0
 20
0
 30
0
 70
128
 71
440
 72
435
 73
433
 74
432
 0
VERTEX
 8
TUBE_33
 10
0
 20
0
 30
0
 70
128
 71
438
 72
439
 73
434
 74
437
 0
VERTEX
 8
TUBE_33
 10
0
 20
0
 30
0
 70
128
 71
437
 72
434
 73
431
 74
436
 0
VERTEX
 8
TUBE_33
 10
0
 20
0
 30
0
 70
128
 71
433
 72
435
 73
431
 74
439
 0
VERTEX
 8
TUBE_33
 10
0
 20
0
 30
0
 70
128
 71
431
 72
434
 73
439
 74
439
 0
VERTEX
 8
TUBE_33
 10
0
 20
0
 30
0
 70
128
 71
442
 72
443
 73
449
 74
448
 0
VERTEX
 8
TUBE_33
 10
0
 20
0
 30
0
 70
128
 71
446
 72
441
 73
445
 74
450
 0
VERTEX
 8
TUBE_33
 10
0
 20
0
 30
0
 70
128
 71
450
 72
445
 73
443
 74
442
 0
VERTEX
 8
TUBE_33
 10
0
 20
0
 30
0
 70
128
 71
448
 72
449
 73
444
 74
447
 0
VERTEX
 8
TUBE_33
 10
0
 20
0
 30
0
 70
128
 71
447
 72
444
 73
441
 74
446
 0
VERTEX
 8
TUBE_33
 10
0
 20
0
 30
0
 70
128
 71
443
 72
445
 73
441
 74
449
 0
VERTEX
 8
TUBE_33
 10
0
 20
0
 30
0
 70
128
 71
441
 72
444
 73
449
 74
449
 0
VERTEX
 8
TUBE_33
 10
0
 20
0
 30
0
 70
128
 71
451
 72
452
 73
455
 74
454
 0
VERTEX
 8
TUBE_33
 10
0
 20
0
 30
0
 70
128
 71
459
 72
458
 73
453
 74
456
 0
VERTEX
 8
TUBE_33
 10
0
 20
0
 30
0
 70
128
 71
456
 72
453
 73
452
 74
451
 0
VERTEX
 8
TUBE_33
 10
0
 20
0
 30
0
 70
128
 71
454
 72
455
 73
457
 74
460
 0
VERTEX
 8
TUBE_33
 10
0
 20
0
 30
0
 70
128
 71
460
 72
457
 73
458
 74
459
 0
VERTEX
 8
TUBE_33
 10
0
 20
0
 30
0
 70
128
 71
452
 72
453
 73
458
 74
455
 0
VERTEX
 8
TUBE_33
 10
0
 20
0
 30
0
 70
128
 71
458
 72
457
 73
455
 74
455
 0
VERTEX
 8
TUBE_33
 10
0
 20
0
 30
0
 70
128
 71
462
 72
463
 73
467
 74
466
 0
VERTEX
 8
TUBE_33
 10
0
 20
0
 30
0
 70
128
 71
465
 72
461
 73
464
 74
469
 0
VERTEX
 8
TUBE_33
 10
0
 20
0
 30
0
 70
128
 71
469
 72
464
 73
463
 74
462
 0
VERTEX
 8
TUBE_33
 10
0
 20
0
 30
0
 70
128
 71
466
 72
467
 73
468
 74
470
 0
VERTEX
 8
TUBE_33
 10
0
 20
0
 30
0
 70
128
 71
470
 72
468
 73
461
 74
465
 0
VERTEX
 8
TUBE_33
 10
0
 20
0
 30
0
 70
128
 71
463
 72
464
 73
461
 74
467
 0
VERTEX
 8
TUBE_33
 10
0
 20
0
 30
0
 70
128
 71
461
 72
468
 73
467
 74
467
 0
VERTEX
 8
TUBE_33
 10
0
 20
0
 30
0
 70
128
 71
472
 72
473
 73
479
 74
478
 0
VERTEX
 8
TUBE_33
 10
0
 20
0
 30
0
 70
128
 71
476
 72
471
 73
475
 74
480
 0
VERTEX
 8
TUBE_33
 10
0
 20
0
 30
0
 70
128
 71
480
 72
475
 73
473
 74
472
 0
VERTEX
 8
TUBE_33
 10
0
 20
0
 30
0
 70
128
 71
478
 72
479
 73
474
 74
477
 0
VERTEX
 8
TUBE_33
 10
0
 20
0
 30
0
 70
128
 71
477
 72
474
 73
471
 74
476
 0
VERTEX
 8
TUBE_33
 10
0
 20
0
 30
0
 70
128
 71
473
 72
475
 73
471
 74
479
 0
VERTEX
 8
TUBE_33
 10
0
 20
0
 30
0
 70
128
 71
471
 72
474
 73
479
 74
479
 0
VERTEX
 8
TUBE_33
 10
0
 20
0
 30
0
 70
128
 71
482
 72
483
 73
489
 74
488
 0
VERTEX
 8
TUBE_33
 10
0
 20
0
 30
0
 70
128
 71
486
 72
481
 73
485
 74
490
 0
VERTEX
 8
TUBE_33
 10
0
 20
0
 30
0
 70
128
 71
490
 72
485
 73
483
 74
482
 0
VERTEX
 8
TUBE_33
 10
0
 20
0
 30
0
 70
128
 71
488
 72
489
 73
484
 74
487
 0
VERTEX
 8
TUBE_33
 10
0
 20
0
 30
0
 70
128
 71
487
 72
484
 73
481
 74
486
 0
VERTEX
 8
TUBE_33
 10
0
 20
0
 30
0
 70
128
 71
483
 72
485
 73
481
 74
489
 0
VERTEX
 8
TUBE_33
 10
0
 20
0
 30
0
 70
128
 71
481
 72
484
 73
489
 74
489
 0
VERTEX
 8
TUBE_33
 10
0
 20
0
 30
0
 70
128
 71
491
 72
492
 73
495
 74
494
 0
VERTEX
 8
TUBE_33
 10
0
 20
0
 30
0
 70
128
 71
498
 72
497
 73
493
 74
499
 0
VERTEX
 8
TUBE_33
 10
0
 20
0
 30
0
 70
128
 71
499
 72
493
 73
492
 74
491
 0
VERTEX
 8
TUBE_33
 10
0
 20
0
 30
0
 70
128
 71
494
 72
495
 73
496
 74
500
 0
VERTEX
 8
TUBE_33
 10
0
 20
0
 30
0
 70
128
 71
500
 72
496
 73
497
 74
498
 0
VERTEX
 8
TUBE_33
 10
0
 20
0
 30
0
 70
128
 71
492
 72
493
 73
497
 74
495
 0
VERTEX
 8
TUBE_33
 10
0
 20
0
 30
0
 70
128
 71
497
 72
496
 73
495
 74
495
 0
VERTEX
 8
TUBE_33
 10
0
 20
0
 30
0
 70
128
 71
501
 72
502
 73
507
 74
506
 0
VERTEX
 8
TUBE_33
 10
0
 20
0
 30
0
 70
128
 71
503
 72
509
 73
508
 74
510
 0
VERTEX
 8
TUBE_33
 10
0
 20
0
 30
0
 70
128
 71
510
 72
508
 73
502
 74
501
 0
VERTEX
 8
TUBE_33
 10
0
 20
0
 30
0
 70
128
 71
506
 72
507
 73
505
 74
504
 0
VERTEX
 8
TUBE_33
 10
0
 20
0
 30
0
 70
128
 71
504
 72
505
 73
509
 74
503
 0
VERTEX
 8
TUBE_33
 10
0
 20
0
 30
0
 70
128
 71
502
 72
508
 73
509
 74
507
 0
VERTEX
 8
TUBE_33
 10
0
 20
0
 30
0
 70
128
 71
509
 72
505
 73
507
 74
507
 0
VERTEX
 8
TUBE_33
 10
0
 20
0
 30
0
 70
128
 71
511
 72
512
 73
516
 74
515
 0
VERTEX
 8
TUBE_33
 10
0
 20
0
 30
0
 70
128
 71
514
 72
518
 73
517
 74
519
 0
VERTEX
 8
TUBE_33
 10
0
 20
0
 30
0
 70
128
 71
519
 72
517
 73
512
 74
511
 0
VERTEX
 8
TUBE_33
 10
0
 20
0
 30
0
 70
128
 71
515
 72
516
 73
513
 74
520
 0
VERTEX
 8
TUBE_33
 10
0
 20
0
 30
0
 70
128
 71
520
 72
513
 73
518
 74
514
 0
VERTEX
 8
TUBE_33
 10
0
 20
0
 30
0
 70
128
 71
512
 72
517
 73
518
 74
516
 0
VERTEX
 8
TUBE_33
 10
0
 20
0
 30
0
 70
128
 71
518
 72
513
 73
516
 74
516
 0
VERTEX
 8
TUBE_33
 10
0
 20
0
 30
0
 70
128
 71
522
 72
523
 73
527
 74
526
 0
VERTEX
 8
TUBE_33
 10
0
 20
0
 30
0
 70
128
 71
525
 72
529
 73
521
 74
524
 0
VERTEX
 8
TUBE_33
 10
0
 20
0
 30
0
 70
128
 71
524
 72
521
 73
523
 74
522
 0
VERTEX
 8
TUBE_33
 10
0
 20
0
 30
0
 70
128
 71
526
 72
527
 73
528
 74
530
 0
VERTEX
 8
TUBE_33
 10
0
 20
0
 30
0
 70
128
 71
530
 72
528
 73
529
 74
525
 0
VERTEX
 8
TUBE_33
 10
0
 20
0
 30
0
 70
128
 71
523
 72
521
 73
529
 74
527
 0
VERTEX
 8
TUBE_33
 10
0
 20
0
 30
0
 70
128
 71
529
 72
528
 73
527
 74
527
 0
VERTEX
 8
TUBE_33
 10
0
 20
0
 30
0
 70
128
 71
531
 72
532
 73
535
 74
534
 0
VERTEX
 8
TUBE_33
 10
0
 20
0
 30
0
 70
128
 71
533
 72
538
 73
536
 74
539
 0
VERTEX
 8
TUBE_33
 10
0
 20
0
 30
0
 70
128
 71
539
 72
536
 73
532
 74
531
 0
VERTEX
 8
TUBE_33
 10
0
 20
0
 30
0
 70
128
 71
534
 72
535
 73
537
 74
540
 0
VERTEX
 8
TUBE_33
 10
0
 20
0
 30
0
 70
128
 71
540
 72
537
 73
538
 74
533
 0
VERTEX
 8
TUBE_33
 10
0
 20
0
 30
0
 70
128
 71
532
 72
536
 73
538
 74
535
 0
VERTEX
 8
TUBE_33
 10
0
 20
0
 30
0
 70
128
 71
538
 72
537
 73
535
 74
535
 0
VERTEX
 8
TUBE_33
 10
0
 20
0
 30
0
 70
128
 71
542
 72
543
 73
548
 74
547
 0
VERTEX
 8
TUBE_33
 10
0
 20
0
 30
0
 70
128
 71
546
 72
549
 73
541
 74
550
 0
VERTEX
 8
TUBE_33
 10
0
 20
0
 30
0
 70
128
 71
550
 72
541
 73
543
 74
542
 0
VERTEX
 8
TUBE_33
 10
0
 20
0
 30
0
 70
128
 71
547
 72
548
 73
545
 74
544
 0
VERTEX
 8
TUBE_33
 10
0
 20
0
 30
0
 70
128
 71
544
 72
545
 73
549
 74
546
 0
VERTEX
 8
TUBE_33
 10
0
 20
0
 30
0
 70
128
 71
543
 72
541
 73
549
 74
548
 0
VERTEX
 8
TUBE_33
 10
0
 20
0
 30
0
 70
128
 71
549
 72
545
 73
548
 74
548
 0
VERTEX
 8
TUBE_33
 10
0
 20
0
 30
0
 70
128
 71
551
 72
552
 73
557
 74
556
 0
VERTEX
 8
TUBE_33
 10
0
 20
0
 30
0
 70
128
 71
555
 72
559
 73
558
 74
553
 0
VERTEX
 8
TUBE_33
 10
0
 20
0
 30
0
 70
128
 71
553
 72
558
 73
552
 74
551
 0
VERTEX
 8
TUBE_33
 10
0
 20
0
 30
0
 70
128
 71
556
 72
557
 73
554
 74
560
 0
VERTEX
 8
TUBE_33
 10
0
 20
0
 30
0
 70
128
 71
560
 72
554
 73
559
 74
555
 0
VERTEX
 8
TUBE_33
 10
0
 20
0
 30
0
 70
128
 71
552
 72
558
 73
559
 74
557
 0
VERTEX
 8
TUBE_33
 10
0
 20
0
 30
0
 70
128
 71
559
 72
554
 73
557
 74
557
 0
VERTEX
 8
TUBE_33
 10
0
 20
0
 30
0
 70
128
 71
562
 72
563
 73
566
 74
565
 0
VERTEX
 8
TUBE_33
 10
0
 20
0
 30
0
 70
128
 71
564
 72
568
 73
561
 74
569
 0
VERTEX
 8
TUBE_33
 10
0
 20
0
 30
0
 70
128
 71
569
 72
561
 73
563
 74
562
 0
VERTEX
 8
TUBE_33
 10
0
 20
0
 30
0
 70
128
 71
565
 72
566
 73
567
 74
570
 0
VERTEX
 8
TUBE_33
 10
0
 20
0
 30
0
 70
128
 71
570
 72
567
 73
568
 74
564
 0
VERTEX
 8
TUBE_33
 10
0
 20
0
 30
0
 70
128
 71
563
 72
561
 73
568
 74
566
 0
VERTEX
 8
TUBE_33
 10
0
 20
0
 30
0
 70
128
 71
568
 72
567
 73
566
 74
566
 0
VERTEX
 8
TUBE_33
 10
0
 20
0
 30
0
 70
128
 71
571
 72
572
 73
577
 74
576
 0
VERTEX
 8
TUBE_33
 10
0
 20
0
 30
0
 70
128
 71
573
 72
579
 73
578
 74
580
 0
VERTEX
 8
TUBE_33
 10
0
 20
0
 30
0
 70
128
 71
580
 72
578
 73
572
 74
571
 0
VERTEX
 8
TUBE_33
 10
0
 20
0
 30
0
 70
128
 71
576
 72
577
 73
575
 74
574
 0
VERTEX
 8
TUBE_33
 10
0
 20
0
 30
0
 70
128
 71
574
 72
575
 73
579
 74
573
 0
VERTEX
 8
TUBE_33
 10
0
 20
0
 30
0
 70
128
 71
572
 72
578
 73
579
 74
577
 0
VERTEX
 8
TUBE_33
 10
0
 20
0
 30
0
 70
128
 71
579
 72
575
 73
577
 74
577
 0
VERTEX
 8
TUBE_33
 10
0
 20
0
 30
0
 70
128
 71
582
 72
583
 73
587
 74
586
 0
VERTEX
 8
TUBE_33
 10
0
 20
0
 30
0
 70
128
 71
585
 72
589
 73
581
 74
584
 0
VERTEX
 8
TUBE_33
 10
0
 20
0
 30
0
 70
128
 71
584
 72
581
 73
583
 74
582
 0
VERTEX
 8
TUBE_33
 10
0
 20
0
 30
0
 70
128
 71
586
 72
587
 73
588
 74
590
 0
VERTEX
 8
TUBE_33
 10
0
 20
0
 30
0
 70
128
 71
590
 72
588
 73
589
 74
585
 0
VERTEX
 8
TUBE_33
 10
0
 20
0
 30
0
 70
128
 71
583
 72
581
 73
589
 74
587
 0
VERTEX
 8
TUBE_33
 10
0
 20
0
 30
0
 70
128
 71
589
 72
588
 73
587
 74
587
 0
VERTEX
 8
TUBE_33
 10
0
 20
0
 30
0
 70
128
 71
592
 72
593
 73
596
 74
595
 0
VERTEX
 8
TUBE_33
 10
0
 20
0
 30
0
 70
128
 71
594
 72
598
 73
591
 74
599
 0
VERTEX
 8
TUBE_33
 10
0
 20
0
 30
0
 70
128
 71
599
 72
591
 73
593
 74
592
 0
VERTEX
 8
TUBE_33
 10
0
 20
0
 30
0
 70
128
 71
595
 72
596
 73
597
 74
600
 0
VERTEX
 8
TUBE_33
 10
0
 20
0
 30
0
 70
128
 71
600
 72
597
 73
598
 74
594
 0
VERTEX
 8
TUBE_33
 10
0
 20
0
 30
0
 70
128
 71
593
 72
591
 73
598
 74
596
 0
VERTEX
 8
TUBE_33
 10
0
 20
0
 30
0
 70
128
 71
598
 72
597
 73
596
 74
596
 0
VERTEX
 8
TUBE_33
 10
0
 20
0
 30
0
 70
128
 71
601
 72
602
 73
607
 74
606
 0
VERTEX
 8
TUBE_33
 10
0
 20
0
 30
0
 70
128
 71
605
 72
609
 73
608
 74
610
 0
VERTEX
 8
TUBE_33
 10
0
 20
0
 30
0
 70
128
 71
610
 72
608
 73
602
 74
601
 0
VERTEX
 8
TUBE_33
 10
0
 20
0
 30
0
 70
128
 71
606
 72
607
 73
604
 74
603
 0
VERTEX
 8
TUBE_33
 10
0
 20
0
 30
0
 70
128
 71
603
 72
604
 73
609
 74
605
 0
VERTEX
 8
TUBE_33
 10
0
 20
0
 30
0
 70
128
 71
602
 72
608
 73
609
 74
607
 0
VERTEX
 8
TUBE_33
 10
0
 20
0
 30
0
 70
128
 71
609
 72
604
 73
607
 74
607
 0
VERTEX
 8
TUBE_33
 10
0
 20
0
 30
0
 70
128
 71
612
 72
613
 73
619
 74
618
 0
VERTEX
 8
TUBE_33
 10
0
 20
0
 30
0
 70
128
 71
615
 72
620
 73
611
 74
614
 0
VERTEX
 8
TUBE_33
 10
0
 20
0
 30
0
 70
128
 71
614
 72
611
 73
613
 74
612
 0
VERTEX
 8
TUBE_33
 10
0
 20
0
 30
0
 70
128
 71
618
 72
619
 73
617
 74
616
 0
VERTEX
 8
TUBE_33
 10
0
 20
0
 30
0
 70
128
 71
616
 72
617
 73
620
 74
615
 0
VERTEX
 8
TUBE_33
 10
0
 20
0
 30
0
 70
128
 71
613
 72
611
 73
620
 74
619
 0
VERTEX
 8
TUBE_33
 10
0
 20
0
 30
0
 70
128
 71
620
 72
617
 73
619
 74
619
 0
VERTEX
 8
TUBE_33
 10
0
 20
0
 30
0
 70
128
 71
622
 72
623
 73
626
 74
625
 0
VERTEX
 8
TUBE_33
 10
0
 20
0
 30
0
 70
128
 71
624
 72
628
 73
621
 74
629
 0
VERTEX
 8
TUBE_33
 10
0
 20
0
 30
0
 70
128
 71
629
 72
621
 73
623
 74
622
 0
VERTEX
 8
TUBE_33
 10
0
 20
0
 30
0
 70
128
 71
625
 72
626
 73
627
 74
630
 0
VERTEX
 8
TUBE_33
 10
0
 20
0
 30
0
 70
128
 71
630
 72
627
 73
628
 74
624
 0
VERTEX
 8
TUBE_33
 10
0
 20
0
 30
0
 70
128
 71
623
 72
621
 73
628
 74
626
 0
VERTEX
 8
TUBE_33
 10
0
 20
0
 30
0
 70
128
 71
628
 72
627
 73
626
 74
626
 0
VERTEX
 8
TUBE_33
 10
0
 20
0
 30
0
 70
128
 71
632
 72
633
 73
639
 74
638
 0
VERTEX
 8
TUBE_33
 10
0
 20
0
 30
0
 70
128
 71
637
 72
640
 73
631
 74
634
 0
VERTEX
 8
TUBE_33
 10
0
 20
0
 30
0
 70
128
 71
634
 72
631
 73
633
 74
632
 0
VERTEX
 8
TUBE_33
 10
0
 20
0
 30
0
 70
128
 71
638
 72
639
 73
636
 74
635
 0
VERTEX
 8
TUBE_33
 10
0
 20
0
 30
0
 70
128
 71
635
 72
636
 73
640
 74
637
 0
VERTEX
 8
TUBE_33
 10
0
 20
0
 30
0
 70
128
 71
633
 72
631
 73
640
 74
639
 0
VERTEX
 8
TUBE_33
 10
0
 20
0
 30
0
 70
128
 71
640
 72
636
 73
639
 74
639
 0
VERTEX
 8
TUBE_33
 10
0
 20
0
 30
0
 70
128
 71
642
 72
643
 73
647
 74
646
 0
VERTEX
 8
TUBE_33
 10
0
 20
0
 30
0
 70
128
 71
645
 72
649
 73
641
 74
644
 0
VERTEX
 8
TUBE_33
 10
0
 20
0
 30
0
 70
128
 71
644
 72
641
 73
643
 74
642
 0
VERTEX
 8
TUBE_33
 10
0
 20
0
 30
0
 70
128
 71
646
 72
647
 73
648
 74
650
 0
VERTEX
 8
TUBE_33
 10
0
 20
0
 30
0
 70
128
 71
650
 72
648
 73
649
 74
645
 0
VERTEX
 8
TUBE_33
 10
0
 20
0
 30
0
 70
128
 71
643
 72
641
 73
649
 74
647
 0
VERTEX
 8
TUBE_33
 10
0
 20
0
 30
0
 70
128
 71
649
 72
648
 73
647
 74
647
 0
VERTEX
 8
TUBE_33
 10
0
 20
0
 30
0
 70
128
 71
651
 72
652
 73
655
 74
654
 0
VERTEX
 8
TUBE_33
 10
0
 20
0
 30
0
 70
128
 71
653
 72
658
 73
656
 74
659
 0
VERTEX
 8
TUBE_33
 10
0
 20
0
 30
0
 70
128
 71
659
 72
656
 73
652
 74
651
 0
VERTEX
 8
TUBE_33
 10
0
 20
0
 30
0
 70
128
 71
654
 72
655
 73
657
 74
660
 0
VERTEX
 8
TUBE_33
 10
0
 20
0
 30
0
 70
128
 71
660
 72
657
 73
658
 74
653
 0
VERTEX
 8
TUBE_33
 10
0
 20
0
 30
0
 70
128
 71
652
 72
656
 73
658
 74
655
 0
VERTEX
 8
TUBE_33
 10
0
 20
0
 30
0
 70
128
 71
658
 72
657
 73
655
 74
655
 0
VERTEX
 8
TUBE_33
 10
0
 20
0
 30
0
 70
128
 71
661
 72
662
 73
665
 74
664
 0
VERTEX
 8
TUBE_33
 10
0
 20
0
 30
0
 70
128
 71
663
 72
668
 73
666
 74
669
 0
VERTEX
 8
TUBE_33
 10
0
 20
0
 30
0
 70
128
 71
669
 72
666
 73
662
 74
661
 0
VERTEX
 8
TUBE_33
 10
0
 20
0
 30
0
 70
128
 71
664
 72
665
 73
667
 74
670
 0
VERTEX
 8
TUBE_33
 10
0
 20
0
 30
0
 70
128
 71
670
 72
667
 73
668
 74
663
 0
VERTEX
 8
TUBE_33
 10
0
 20
0
 30
0
 70
128
 71
662
 72
666
 73
668
 74
665
 0
VERTEX
 8
TUBE_33
 10
0
 20
0
 30
0
 70
128
 71
668
 72
667
 73
665
 74
665
 0
VERTEX
 8
TUBE_33
 10
0
 20
0
 30
0
 70
128
 71
671
 72
672
 73
677
 74
676
 0
VERTEX
 8
TUBE_33
 10
0
 20
0
 30
0
 70
128
 71
675
 72
680
 73
678
 74
673
 0
VERTEX
 8
TUBE_33
 10
0
 20
0
 30
0
 70
128
 71
673
 72
678
 73
672
 74
671
 0
VERTEX
 8
TUBE_33
 10
0
 20
0
 30
0
 70
128
 71
676
 72
677
 73
679
 74
674
 0
VERTEX
 8
TUBE_33
 10
0
 20
0
 30
0
 70
128
 71
674
 72
679
 73
680
 74
675
 0
VERTEX
 8
TUBE_33
 10
0
 20
0
 30
0
 70
128
 71
672
 72
678
 73
680
 74
677
 0
VERTEX
 8
TUBE_33
 10
0
 20
0
 30
0
 70
128
 71
680
 72
679
 73
677
 74
677
 0
VERTEX
 8
TUBE_33
 10
0
 20
0
 30
0
 70
128
 71
681
 72
682
 73
688
 74
687
 0
VERTEX
 8
TUBE_33
 10
0
 20
0
 30
0
 70
128
 71
684
 72
690
 73
689
 74
683
 0
VERTEX
 8
TUBE_33
 10
0
 20
0
 30
0
 70
128
 71
683
 72
689
 73
682
 74
681
 0
VERTEX
 8
TUBE_33
 10
0
 20
0
 30
0
 70
128
 71
687
 72
688
 73
686
 74
685
 0
VERTEX
 8
TUBE_33
 10
0
 20
0
 30
0
 70
128
 71
685
 72
686
 73
690
 74
684
 0
VERTEX
 8
TUBE_33
 10
0
 20
0
 30
0
 70
128
 71
682
 72
689
 73
690
 74
688
 0
VERTEX
 8
TUBE_33
 10
0
 20
0
 30
0
 70
128
 71
690
 72
686
 73
688
 74
688
 0
VERTEX
 8
TUBE_33
 10
0
 20
0
 30
0
 70
128
 71
691
 72
692
 73
698
 74
697
 0
VERTEX
 8
TUBE_33
 10
0
 20
0
 30
0
 70
128
 71
696
 72
700
 73
699
 74
693
 0
VERTEX
 8
TUBE_33
 10
0
 20
0
 30
0
 70
128
 71
693
 72
699
 73
692
 74
691
 0
VERTEX
 8
TUBE_33
 10
0
 20
0
 30
0
 70
128
 71
697
 72
698
 73
695
 74
694
 0
VERTEX
 8
TUBE_33
 10
0
 20
0
 30
0
 70
128
 71
694
 72
695
 73
700
 74
696
 0
VERTEX
 8
TUBE_33
 10
0
 20
0
 30
0
 70
128
 71
692
 72
699
 73
700
 74
698
 0
VERTEX
 8
TUBE_33
 10
0
 20
0
 30
0
 70
128
 71
700
 72
695
 73
698
 74
698
 0
VERTEX
 8
TUBE_33
 10
0
 20
0
 30
0
 70
128
 71
702
 72
703
 73
706
 74
705
 0
VERTEX
 8
TUBE_33
 10
0
 20
0
 30
0
 70
128
 71
704
 72
708
 73
701
 74
709
 0
VERTEX
 8
TUBE_33
 10
0
 20
0
 30
0
 70
128
 71
709
 72
701
 73
703
 74
702
 0
VERTEX
 8
TUBE_33
 10
0
 20
0
 30
0
 70
128
 71
705
 72
706
 73
707
 74
710
 0
VERTEX
 8
TUBE_33
 10
0
 20
0
 30
0
 70
128
 71
710
 72
707
 73
708
 74
704
 0
VERTEX
 8
TUBE_33
 10
0
 20
0
 30
0
 70
128
 71
703
 72
701
 73
708
 74
706
 0
VERTEX
 8
TUBE_33
 10
0
 20
0
 30
0
 70
128
 71
708
 72
707
 73
706
 74
706
 0
VERTEX
 8
TUBE_33
 10
0
 20
0
 30
0
 70
128
 71
711
 72
712
 73
718
 74
717
 0
VERTEX
 8
TUBE_33
 10
0
 20
0
 30
0
 70
128
 71
716
 72
720
 73
719
 74
713
 0
VERTEX
 8
TUBE_33
 10
0
 20
0
 30
0
 70
128
 71
713
 72
719
 73
712
 74
711
 0
VERTEX
 8
TUBE_33
 10
0
 20
0
 30
0
 70
128
 71
717
 72
718
 73
715
 74
714
 0
VERTEX
 8
TUBE_33
 10
0
 20
0
 30
0
 70
128
 71
714
 72
715
 73
720
 74
716
 0
VERTEX
 8
TUBE_33
 10
0
 20
0
 30
0
 70
128
 71
712
 72
719
 73
720
 74
718
 0
VERTEX
 8
TUBE_33
 10
0
 20
0
 30
0
 70
128
 71
720
 72
715
 73
718
 74
718
 0
VERTEX
 8
TUBE_33
 10
0
 20
0
 30
0
 70
128
 71
722
 72
723
 73
727
 74
726
 0
VERTEX
 8
TUBE_33
 10
0
 20
0
 30
0
 70
128
 71
725
 72
729
 73
721
 74
730
 0
VERTEX
 8
TUBE_33
 10
0
 20
0
 30
0
 70
128
 71
730
 72
721
 73
723
 74
722
 0
VERTEX
 8
TUBE_33
 10
0
 20
0
 30
0
 70
128
 71
726
 72
727
 73
728
 74
724
 0
VERTEX
 8
TUBE_33
 10
0
 20
0
 30
0
 70
128
 71
724
 72
728
 73
729
 74
725
 0
VERTEX
 8
TUBE_33
 10
0
 20
0
 30
0
 70
128
 71
723
 72
721
 73
729
 74
727
 0
VERTEX
 8
TUBE_33
 10
0
 20
0
 30
0
 70
128
 71
729
 72
728
 73
727
 74
727
 0
VERTEX
 8
TUBE_33
 10
0
 20
0
 30
0
 70
128
 71
731
 72
732
 73
735
 74
734
 0
VERTEX
 8
TUBE_33
 10
0
 20
0
 30
0
 70
128
 71
733
 72
738
 73
736
 74
739
 0
VERTEX
 8
TUBE_33
 10
0
 20
0
 30
0
 70
128
 71
739
 72
736
 73
732
 74
731
 0
VERTEX
 8
TUBE_33
 10
0
 20
0
 30
0
 70
128
 71
734
 72
735
 73
737
 74
740
 0
VERTEX
 8
TUBE_33
 10
0
 20
0
 30
0
 70
128
 71
740
 72
737
 73
738
 74
733
 0
VERTEX
 8
TUBE_33
 10
0
 20
0
 30
0
 70
128
 71
732
 72
736
 73
738
 74
735
 0
VERTEX
 8
TUBE_33
 10
0
 20
0
 30
0
 70
128
 71
738
 72
737
 73
735
 74
735
 0
VERTEX
 8
TUBE_33
 10
0
 20
0
 30
0
 70
128
 71
741
 72
742
 73
745
 74
744
 0
VERTEX
 8
TUBE_33
 10
0
 20
0
 30
0
 70
128
 71
743
 72
748
 73
746
 74
749
 0
VERTEX
 8
TUBE_33
 10
0
 20
0
 30
0
 70
128
 71
749
 72
746
 73
742
 74
741
 0
VERTEX
 8
TUBE_33
 10
0
 20
0
 30
0
 70
128
 71
744
 72
745
 73
747
 74
750
 0
VERTEX
 8
TUBE_33
 10
0
 20
0
 30
0
 70
128
 71
750
 72
747
 73
748
 74
743
 0
VERTEX
 8
TUBE_33
 10
0
 20
0
 30
0
 70
128
 71
742
 72
746
 73
748
 74
745
 0
VERTEX
 8
TUBE_33
 10
0
 20
0
 30
0
 70
128
 71
748
 72
747
 73
745
 74
745
 0
VERTEX
 8
TUBE_33
 10
0
 20
0
 30
0
 70
128
 71
751
 72
752
 73
757
 74
756
 0
VERTEX
 8
TUBE_33
 10
0
 20
0
 30
0
 70
128
 71
753
 72
759
 73
758
 74
760
 0
VERTEX
 8
TUBE_33
 10
0
 20
0
 30
0
 70
128
 71
760
 72
758
 73
752
 74
751
 0
VERTEX
 8
TUBE_33
 10
0
 20
0
 30
0
 70
128
 71
756
 72
757
 73
755
 74
754
 0
VERTEX
 8
TUBE_33
 10
0
 20
0
 30
0
 70
128
 71
754
 72
755
 73
759
 74
753
 0
VERTEX
 8
TUBE_33
 10
0
 20
0
 30
0
 70
128
 71
752
 72
758
 73
759
 74
757
 0
VERTEX
 8
TUBE_33
 10
0
 20
0
 30
0
 70
128
 71
759
 72
755
 73
757
 74
757
 0
VERTEX
 8
TUBE_33
 10
0
 20
0
 30
0
 70
128
 71
762
 72
763
 73
767
 74
766
 0
VERTEX
 8
TUBE_33
 10
0
 20
0
 30
0
 70
128
 71
765
 72
769
 73
761
 74
764
 0
VERTEX
 8
TUBE_33
 10
0
 20
0
 30
0
 70
128
 71
764
 72
761
 73
763
 74
762
 0
VERTEX
 8
TUBE_33
 10
0
 20
0
 30
0
 70
128
 71
766
 72
767
 73
768
 74
770
 0
VERTEX
 8
TUBE_33
 10
0
 20
0
 30
0
 70
128
 71
770
 72
768
 73
769
 74
765
 0
VERTEX
 8
TUBE_33
 10
0
 20
0
 30
0
 70
128
 71
763
 72
761
 73
769
 74
767
 0
VERTEX
 8
TUBE_33
 10
0
 20
0
 30
0
 70
128
 71
769
 72
768
 73
767
 74
767
 0
VERTEX
 8
TUBE_33
 10
0
 20
0
 30
0
 70
128
 71
771
 72
772
 73
777
 74
776
 0
VERTEX
 8
TUBE_33
 10
0
 20
0
 30
0
 70
128
 71
774
 72
779
 73
778
 74
773
 0
VERTEX
 8
TUBE_33
 10
0
 20
0
 30
0
 70
128
 71
773
 72
778
 73
772
 74
771
 0
VERTEX
 8
TUBE_33
 10
0
 20
0
 30
0
 70
128
 71
776
 72
777
 73
775
 74
780
 0
VERTEX
 8
TUBE_33
 10
0
 20
0
 30
0
 70
128
 71
780
 72
775
 73
779
 74
774
 0
VERTEX
 8
TUBE_33
 10
0
 20
0
 30
0
 70
128
 71
772
 72
778
 73
779
 74
777
 0
VERTEX
 8
TUBE_33
 10
0
 20
0
 30
0
 70
128
 71
779
 72
775
 73
777
 74
777
 0
VERTEX
 8
TUBE_33
 10
0
 20
0
 30
0
 70
128
 71
782
 72
783
 73
787
 74
786
 0
VERTEX
 8
TUBE_33
 10
0
 20
0
 30
0
 70
128
 71
785
 72
789
 73
781
 74
784
 0
VERTEX
 8
TUBE_33
 10
0
 20
0
 30
0
 70
128
 71
784
 72
781
 73
783
 74
782
 0
VERTEX
 8
TUBE_33
 10
0
 20
0
 30
0
 70
128
 71
786
 72
787
 73
788
 74
790
 0
VERTEX
 8
TUBE_33
 10
0
 20
0
 30
0
 70
128
 71
790
 72
788
 73
789
 74
785
 0
VERTEX
 8
TUBE_33
 10
0
 20
0
 30
0
 70
128
 71
783
 72
781
 73
789
 74
787
 0
VERTEX
 8
TUBE_33
 10
0
 20
0
 30
0
 70
128
 71
789
 72
788
 73
787
 74
787
 0
VERTEX
 8
TUBE_33
 10
0
 20
0
 30
0
 70
128
 71
792
 72
793
 73
796
 74
795
 0
VERTEX
 8
TUBE_33
 10
0
 20
0
 30
0
 70
128
 71
794
 72
798
 73
791
 74
799
 0
VERTEX
 8
TUBE_33
 10
0
 20
0
 30
0
 70
128
 71
799
 72
791
 73
793
 74
792
 0
VERTEX
 8
TUBE_33
 10
0
 20
0
 30
0
 70
128
 71
795
 72
796
 73
797
 74
800
 0
VERTEX
 8
TUBE_33
 10
0
 20
0
 30
0
 70
128
 71
800
 72
797
 73
798
 74
794
 0
VERTEX
 8
TUBE_33
 10
0
 20
0
 30
0
 70
128
 71
793
 72
791
 73
798
 74
796
 0
VERTEX
 8
TUBE_33
 10
0
 20
0
 30
0
 70
128
 71
798
 72
797
 73
796
 74
796
 0
VERTEX
 8
TUBE_33
 10
0
 20
0
 30
0
 70
128
 71
802
 72
803
 73
809
 74
808
 0
VERTEX
 8
TUBE_33
 10
0
 20
0
 30
0
 70
128
 71
807
 72
810
 73
801
 74
804
 0
VERTEX
 8
TUBE_33
 10
0
 20
0
 30
0
 70
128
 71
804
 72
801
 73
803
 74
802
 0
VERTEX
 8
TUBE_33
 10
0
 20
0
 30
0
 70
128
 71
808
 72
809
 73
806
 74
805
 0
VERTEX
 8
TUBE_33
 10
0
 20
0
 30
0
 70
128
 71
805
 72
806
 73
810
 74
807
 0
VERTEX
 8
TUBE_33
 10
0
 20
0
 30
0
 70
128
 71
803
 72
801
 73
810
 74
809
 0
VERTEX
 8
TUBE_33
 10
0
 20
0
 30
0
 70
128
 71
810
 72
806
 73
809
 74
809
 0
VERTEX
 8
TUBE_33
 10
0
 20
0
 30
0
 70
128
 71
811
 72
812
 73
817
 74
816
 0
VERTEX
 8
TUBE_33
 10
0
 20
0
 30
0
 70
128
 71
813
 72
819
 73
818
 74
820
 0
VERTEX
 8
TUBE_33
 10
0
 20
0
 30
0
 70
128
 71
820
 72
818
 73
812
 74
811
 0
VERTEX
 8
TUBE_33
 10
0
 20
0
 30
0
 70
128
 71
816
 72
817
 73
815
 74
814
 0
VERTEX
 8
TUBE_33
 10
0
 20
0
 30
0
 70
128
 71
814
 72
815
 73
819
 74
813
 0
VERTEX
 8
TUBE_33
 10
0
 20
0
 30
0
 70
128
 71
812
 72
818
 73
819
 74
817
 0
VERTEX
 8
TUBE_33
 10
0
 20
0
 30
0
 70
128
 71
819
 72
815
 73
817
 74
817
 0
VERTEX
 8
TUBE_33
 10
0
 20
0
 30
0
 70
128
 71
821
 72
822
 73
826
 74
825
 0
VERTEX
 8
TUBE_33
 10
0
 20
0
 30
0
 70
128
 71
823
 72
828
 73
827
 74
829
 0
VERTEX
 8
TUBE_33
 10
0
 20
0
 30
0
 70
128
 71
829
 72
827
 73
822
 74
821
 0
VERTEX
 8
TUBE_33
 10
0
 20
0
 30
0
 70
128
 71
825
 72
826
 73
824
 74
830
 0
VERTEX
 8
TUBE_33
 10
0
 20
0
 30
0
 70
128
 71
830
 72
824
 73
828
 74
823
 0
VERTEX
 8
TUBE_33
 10
0
 20
0
 30
0
 70
128
 71
822
 72
827
 73
828
 74
826
 0
VERTEX
 8
TUBE_33
 10
0
 20
0
 30
0
 70
128
 71
828
 72
824
 73
826
 74
826
 0
VERTEX
 8
TUBE_33
 10
0
 20
0
 30
0
 70
128
 71
832
 72
833
 73
836
 74
835
 0
VERTEX
 8
TUBE_33
 10
0
 20
0
 30
0
 70
128
 71
834
 72
838
 73
831
 74
839
 0
VERTEX
 8
TUBE_33
 10
0
 20
0
 30
0
 70
128
 71
839
 72
831
 73
833
 74
832
 0
VERTEX
 8
TUBE_33
 10
0
 20
0
 30
0
 70
128
 71
835
 72
836
 73
837
 74
840
 0
VERTEX
 8
TUBE_33
 10
0
 20
0
 30
0
 70
128
 71
840
 72
837
 73
838
 74
834
 0
VERTEX
 8
TUBE_33
 10
0
 20
0
 30
0
 70
128
 71
833
 72
831
 73
838
 74
836
 0
VERTEX
 8
TUBE_33
 10
0
 20
0
 30
0
 70
128
 71
838
 72
837
 73
836
 74
836
 0
SEQEND
 0
POLYLINE
 8
TUBE_45
 66
1
 10
0.0
 20
0.0
 30
0.0
 70
64
 71
200
 72
140
 0
VERTEX
 8
TUBE_45
 10
-0.2083
 20
-1.6153
 30
29.8522
 70
192
 0
VERTEX
 8
TUBE_45
 10
-0.2083
 20
-1.7679
 30
29.8043
 70
192
 0
VERTEX
 8
TUBE_45
 10
-0.2083
 20
-1.5915
 30
29.7757
 70
192
 0
VERTEX
 8
TUBE_45
 10
-0.2556
 20
-1.596
 30
29.7903
 70
192
 0
VERTEX
 8
TUBE_45
 10
-0.2556
 20
-1.7488
 30
29.7429
 70
192
 0
VERTEX
 8
TUBE_45
 10
-0.2556
 20
-1.6107
 30
29.8376
 70
192
 0
VERTEX
 8
TUBE_45
 10
-0.2556
 20
-1.7634
 30
29.7898
 70
192
 0
VERTEX
 8
TUBE_45
 10
-0.1791
 20
-1.7561
 30
29.7664
 70
192
 0
VERTEX
 8
TUBE_45
 10
-0.2083
 20
-1.7443
 30
29.7284
 70
192
 0
VERTEX
 8
TUBE_45
 10
-0.1791
 20
-1.6033
 30
29.814
 70
192
 0
VERTEX
 8
TUBE_45
 10
-0.1605
 20
-1.7223
 30
29.6493
 70
192
 0
VERTEX
 8
TUBE_45
 10
-0.1898
 20
-1.581
 30
29.7343
 70
192
 0
VERTEX
 8
TUBE_45
 10
-0.1898
 20
-1.7339
 30
29.6873
 70
192
 0
VERTEX
 8
TUBE_45
 10
-0.1605
 20
-1.5693
 30
29.6961
 70
192
 0
VERTEX
 8
TUBE_45
 10
-0.1898
 20
-1.5576
 30
29.6578
 70
192
 0
VERTEX
 8
TUBE_45
 10
-0.2371
 20
-1.5765
 30
29.7197
 70
192
 0
VERTEX
 8
TUBE_45
 10
-0.2371
 20
-1.7295
 30
29.6728
 70
192
 0
VERTEX
 8
TUBE_45
 10
-0.2371
 20
-1.7151
 30
29.6258
 70
192
 0
VERTEX
 8
TUBE_45
 10
-0.1898
 20
-1.7107
 30
29.6113
 70
192
 0
VERTEX
 8
TUBE_45
 10
-0.2371
 20
-1.562
 30
29.6724
 70
192
 0
VERTEX
 8
TUBE_45
 10
-0.1196
 20
-1.645
 30
29.9394
 70
192
 0
VERTEX
 8
TUBE_45
 10
-0.1196
 20
-1.7975
 30
29.8909
 70
192
 0
VERTEX
 8
TUBE_45
 10
-0.0903
 20
-1.6329
 30
29.9012
 70
192
 0
VERTEX
 8
TUBE_45
 10
-0.1196
 20
-1.6209
 30
29.863
 70
192
 0
VERTEX
 8
TUBE_45
 10
-0.1669
 20
-1.6255
 30
29.8776
 70
192
 0
VERTEX
 8
TUBE_45
 10
-0.1669
 20
-1.7781
 30
29.8296
 70
192
 0
VERTEX
 8
TUBE_45
 10
-0.1669
 20
-1.6404
 30
29.9248
 70
192
 0
VERTEX
 8
TUBE_45
 10
-0.1669
 20
-1.7929
 30
29.8764
 70
192
 0
VERTEX
 8
TUBE_45
 10
-0.0903
 20
-1.7855
 30
29.853
 70
192
 0
VERTEX
 8
TUBE_45
 10
-0.1196
 20
-1.7736
 30
29.8151
 70
192
 0
VERTEX
 8
TUBE_45
 10
-0.1055
 20
-1.6095
 30
29.8192
 70
192
 0
VERTEX
 8
TUBE_45
 10
-0.1055
 20
-1.7622
 30
29.7716
 70
192
 0
VERTEX
 8
TUBE_45
 10
-0.1055
 20
-1.5858
 30
29.7427
 70
192
 0
VERTEX
 8
TUBE_45
 10
-0.1528
 20
-1.6049
 30
29.8046
 70
192
 0
VERTEX
 8
TUBE_45
 10
-0.1528
 20
-1.7577
 30
29.7571
 70
192
 0
VERTEX
 8
TUBE_45
 10
-0.0762
 20
-1.7504
 30
29.7336
 70
192
 0
VERTEX
 8
TUBE_45
 10
-0.1528
 20
-1.7432
 30
29.7101
 70
192
 0
VERTEX
 8
TUBE_45
 10
-0.1055
 20
-1.7387
 30
29.6956
 70
192
 0
VERTEX
 8
TUBE_45
 10
-0.0762
 20
-1.5976
 30
29.781
 70
192
 0
VERTEX
 8
TUBE_45
 10
-0.1528
 20
-1.5903
 30
29.7573
 70
192
 0
VERTEX
 8
TUBE_45
 10
-0.0303
 20
-1.6119
 30
29.2843
 70
192
 0
VERTEX
 8
TUBE_45
 10
-0.0776
 20
-1.4539
 30
29.3138
 70
192
 0
VERTEX
 8
TUBE_45
 10
-0.0776
 20
-1.6078
 30
29.2697
 70
192
 0
VERTEX
 8
TUBE_45
 10
-0.0303
 20
-1.4582
 30
29.3285
 70
192
 0
VERTEX
 8
TUBE_45
 10
-0.001
 20
-1.4471
 30
29.29
 70
192
 0
VERTEX
 8
TUBE_45
 10
-0.0303
 20
-1.4362
 30
29.2515
 70
192
 0
VERTEX
 8
TUBE_45
 10
-0.0303
 20
-1.5901
 30
29.2079
 70
192
 0
VERTEX
 8
TUBE_45
 10
-0.0776
 20
-1.4404
 30
29.2662
 70
192
 0
VERTEX
 8
TUBE_45
 10
-0.0776
 20
-1.5943
 30
29.2225
 70
192
 0
VERTEX
 8
TUBE_45
 10
-0.001
 20
-1.601
 30
29.2461
 70
192
 0
VERTEX
 8
TUBE_45
 10
0.0928
 20
-1.6084
 30
29.2642
 70
192
 0
VERTEX
 8
TUBE_45
 10
0.0455
 20
-1.4504
 30
29.2936
 70
192
 0
VERTEX
 8
TUBE_45
 10
0.0455
 20
-1.6043
 30
29.2496
 70
192
 0
VERTEX
 8
TUBE_45
 10
0.0928
 20
-1.4546
 30
29.3083
 70
192
 0
VERTEX
 8
TUBE_45
 10
0.0928
 20
-1.4327
 30
29.2313
 70
192
 0
VERTEX
 8
TUBE_45
 10
0.0928
 20
-1.5867
 30
29.1878
 70
192
 0
VERTEX
 8
TUBE_45
 10
0.1221
 20
-1.4436
 30
29.2698
 70
192
 0
VERTEX
 8
TUBE_45
 10
0.0455
 20
-1.4369
 30
29.246
 70
192
 0
VERTEX
 8
TUBE_45
 10
0.0455
 20
-1.5909
 30
29.2024
 70
192
 0
VERTEX
 8
TUBE_45
 10
0.1221
 20
-1.5975
 30
29.226
 70
192
 0
VERTEX
 8
TUBE_45
 10
-0.0909
 20
-1.645
 30
29.3908
 70
192
 0
VERTEX
 8
TUBE_45
 10
-0.1383
 20
-1.4872
 30
29.4211
 70
192
 0
VERTEX
 8
TUBE_45
 10
-0.1383
 20
-1.6408
 30
29.3762
 70
192
 0
VERTEX
 8
TUBE_45
 10
-0.0909
 20
-1.4692
 30
29.3589
 70
192
 0
VERTEX
 8
TUBE_45
 10
-0.0909
 20
-1.6229
 30
29.3145
 70
192
 0
VERTEX
 8
TUBE_45
 10
-0.0617
 20
-1.4803
 30
29.3973
 70
192
 0
VERTEX
 8
TUBE_45
 10
-0.1383
 20
-1.4734
 30
29.3736
 70
192
 0
VERTEX
 8
TUBE_45
 10
-0.1383
 20
-1.6271
 30
29.3291
 70
192
 0
VERTEX
 8
TUBE_45
 10
-0.0617
 20
-1.6339
 30
29.3527
 70
192
 0
VERTEX
 8
TUBE_45
 10
-0.0909
 20
-1.4915
 30
29.4357
 70
192
 0
VERTEX
 8
TUBE_45
 10
-0.014
 20
-1.4822
 30
29.3961
 70
192
 0
VERTEX
 8
TUBE_45
 10
-0.014
 20
-1.6358
 30
29.3515
 70
192
 0
VERTEX
 8
TUBE_45
 10
0.0626
 20
-1.4753
 30
29.3724
 70
192
 0
VERTEX
 8
TUBE_45
 10
-0.014
 20
-1.4684
 30
29.3486
 70
192
 0
VERTEX
 8
TUBE_45
 10
-0.014
 20
-1.6222
 30
29.3043
 70
192
 0
VERTEX
 8
TUBE_45
 10
0.0333
 20
-1.6401
 30
29.366
 70
192
 0
VERTEX
 8
TUBE_45
 10
0.0333
 20
-1.618
 30
29.2897
 70
192
 0
VERTEX
 8
TUBE_45
 10
0.0626
 20
-1.629
 30
29.3279
 70
192
 0
VERTEX
 8
TUBE_45
 10
0.0333
 20
-1.4864
 30
29.4108
 70
192
 0
VERTEX
 8
TUBE_45
 10
0.0333
 20
-1.4642
 30
29.3339
 70
192
 0
VERTEX
 8
TUBE_45
 10
0.5005
 20
-1.4402
 30
29.2656
 70
192
 0
VERTEX
 8
TUBE_45
 10
0.5005
 20
-1.5941
 30
29.2219
 70
192
 0
VERTEX
 8
TUBE_45
 10
0.5005
 20
-1.4538
 30
29.3132
 70
192
 0
VERTEX
 8
TUBE_45
 10
0.5479
 20
-1.458
 30
29.3279
 70
192
 0
VERTEX
 8
TUBE_45
 10
0.5771
 20
-1.6008
 30
29.2455
 70
192
 0
VERTEX
 8
TUBE_45
 10
0.5479
 20
-1.436
 30
29.2509
 70
192
 0
VERTEX
 8
TUBE_45
 10
0.5479
 20
-1.59
 30
29.2073
 70
192
 0
VERTEX
 8
TUBE_45
 10
0.5005
 20
-1.6076
 30
29.2691
 70
192
 0
VERTEX
 8
TUBE_45
 10
0.5479
 20
-1.6118
 30
29.2837
 70
192
 0
VERTEX
 8
TUBE_45
 10
0.5771
 20
-1.447
 30
29.2894
 70
192
 0
VERTEX
 8
TUBE_45
 10
0.5581
 20
-1.4726
 30
29.3708
 70
192
 0
VERTEX
 8
TUBE_45
 10
0.5581
 20
-1.6263
 30
29.3263
 70
192
 0
VERTEX
 8
TUBE_45
 10
0.6054
 20
-1.4907
 30
29.433
 70
192
 0
VERTEX
 8
TUBE_45
 10
0.6347
 20
-1.6331
 30
29.3499
 70
192
 0
VERTEX
 8
TUBE_45
 10
0.6054
 20
-1.4684
 30
29.3561
 70
192
 0
VERTEX
 8
TUBE_45
 10
0.6054
 20
-1.6221
 30
29.3117
 70
192
 0
VERTEX
 8
TUBE_45
 10
0.5581
 20
-1.64
 30
29.3735
 70
192
 0
VERTEX
 8
TUBE_45
 10
0.6054
 20
-1.6442
 30
29.3881
 70
192
 0
VERTEX
 8
TUBE_45
 10
0.5581
 20
-1.4864
 30
29.4183
 70
192
 0
VERTEX
 8
TUBE_45
 10
0.6347
 20
-1.4795
 30
29.3946
 70
192
 0
VERTEX
 8
TUBE_45
 10
0.3743
 20
-1.4361
 30
29.2432
 70
192
 0
VERTEX
 8
TUBE_45
 10
0.3743
 20
-1.5901
 30
29.1996
 70
192
 0
VERTEX
 8
TUBE_45
 10
0.3743
 20
-1.4496
 30
29.2908
 70
192
 0
VERTEX
 8
TUBE_45
 10
0.4509
 20
-1.4429
 30
29.267
 70
192
 0
VERTEX
 8
TUBE_45
 10
0.4216
 20
-1.4538
 30
29.3055
 70
192
 0
VERTEX
 8
TUBE_45
 10
0.4216
 20
-1.432
 30
29.2285
 70
192
 0
VERTEX
 8
TUBE_45
 10
0.4216
 20
-1.5859
 30
29.185
 70
192
 0
VERTEX
 8
TUBE_45
 10
0.3743
 20
-1.6035
 30
29.2469
 70
192
 0
VERTEX
 8
TUBE_45
 10
0.4509
 20
-1.5968
 30
29.2233
 70
192
 0
VERTEX
 8
TUBE_45
 10
0.4216
 20
-1.6077
 30
29.2615
 70
192
 0
VERTEX
 8
TUBE_45
 10
0.437
 20
-1.4683
 30
29.348
 70
192
 0
VERTEX
 8
TUBE_45
 10
0.437
 20
-1.622
 30
29.3037
 70
192
 0
VERTEX
 8
TUBE_45
 10
0.437
 20
-1.482
 30
29.3955
 70
192
 0
VERTEX
 8
TUBE_45
 10
0.4843
 20
-1.4863
 30
29.4102
 70
192
 0
VERTEX
 8
TUBE_45
 10
0.4843
 20
-1.464
 30
29.3333
 70
192
 0
VERTEX
 8
TUBE_45
 10
0.4843
 20
-1.6178
 30
29.2891
 70
192
 0
VERTEX
 8
TUBE_45
 10
0.437
 20
-1.6356
 30
29.3509
 70
192
 0
VERTEX
 8
TUBE_45
 10
0.5135
 20
-1.6288
 30
29.3273
 70
192
 0
VERTEX
 8
TUBE_45
 10
0.4843
 20
-1.6399
 30
29.3654
 70
192
 0
VERTEX
 8
TUBE_45
 10
0.5135
 20
-1.4751
 30
29.3718
 70
192
 0
VERTEX
 8
TUBE_45
 10
0.6798
 20
-1.7485
 30
29.742
 70
192
 0
VERTEX
 8
TUBE_45
 10
0.7271
 20
-1.5912
 30
29.7748
 70
192
 0
VERTEX
 8
TUBE_45
 10
0.7271
 20
-1.744
 30
29.7275
 70
192
 0
VERTEX
 8
TUBE_45
 10
0.6798
 20
-1.5957
 30
29.7894
 70
192
 0
VERTEX
 8
TUBE_45
 10
0.6798
 20
-1.6104
 30
29.8366
 70
192
 0
VERTEX
 8
TUBE_45
 10
0.7564
 20
-1.603
 30
29.813
 70
192
 0
VERTEX
 8
TUBE_45
 10
0.7564
 20
-1.7558
 30
29.7654
 70
192
 0
VERTEX
 8
TUBE_45
 10
0.7271
 20
-1.7676
 30
29.8034
 70
192
 0
VERTEX
 8
TUBE_45
 10
0.6798
 20
-1.7631
 30
29.7889
 70
192
 0
VERTEX
 8
TUBE_45
 10
0.7271
 20
-1.6149
 30
29.8512
 70
192
 0
VERTEX
 8
TUBE_45
 10
0.6396
 20
-1.6195
 30
29.8586
 70
192
 0
VERTEX
 8
TUBE_45
 10
0.6396
 20
-1.7722
 30
29.8107
 70
192
 0
VERTEX
 8
TUBE_45
 10
0.5922
 20
-1.639
 30
29.9203
 70
192
 0
VERTEX
 8
TUBE_45
 10
0.6396
 20
-1.6436
 30
29.9349
 70
192
 0
VERTEX
 8
TUBE_45
 10
0.6396
 20
-1.7961
 30
29.8865
 70
192
 0
VERTEX
 8
TUBE_45
 10
0.6688
 20
-1.6315
 30
29.8967
 70
192
 0
VERTEX
 8
TUBE_45
 10
0.6688
 20
-1.7841
 30
29.8486
 70
192
 0
VERTEX
 8
TUBE_45
 10
0.5922
 20
-1.7767
 30
29.8252
 70
192
 0
VERTEX
 8
TUBE_45
 10
0.5922
 20
-1.7915
 30
29.872
 70
192
 0
VERTEX
 8
TUBE_45
 10
0.5922
 20
-1.6241
 30
29.8732
 70
192
 0
VERTEX
 8
TUBE_45
 10
0.6624
 20
-1.7138
 30
29.6214
 70
192
 0
VERTEX
 8
TUBE_45
 10
0.7098
 20
-1.5562
 30
29.6533
 70
192
 0
VERTEX
 8
TUBE_45
 10
0.7098
 20
-1.7094
 30
29.6069
 70
192
 0
VERTEX
 8
TUBE_45
 10
0.6624
 20
-1.5607
 30
29.668
 70
192
 0
VERTEX
 8
TUBE_45
 10
0.6624
 20
-1.5751
 30
29.7153
 70
192
 0
VERTEX
 8
TUBE_45
 10
0.739
 20
-1.5679
 30
29.6916
 70
192
 0
VERTEX
 8
TUBE_45
 10
0.739
 20
-1.7209
 30
29.6449
 70
192
 0
VERTEX
 8
TUBE_45
 10
0.7098
 20
-1.7325
 30
29.6829
 70
192
 0
VERTEX
 8
TUBE_45
 10
0.6624
 20
-1.7281
 30
29.6684
 70
192
 0
VERTEX
 8
TUBE_45
 10
0.7098
 20
-1.5796
 30
29.7299
 70
192
 0
VERTEX
 8
TUBE_45
 10
0.5769
 20
-1.7429
 30
29.7092
 70
192
 0
VERTEX
 8
TUBE_45
 10
0.6243
 20
-1.5855
 30
29.7417
 70
192
 0
VERTEX
 8
TUBE_45
 10
0.6243
 20
-1.7384
 30
29.6947
 70
192
 0
VERTEX
 8
TUBE_45
 10
0.5769
 20
-1.59
 30
29.7563
 70
192
 0
VERTEX
 8
TUBE_45
 10
0.5769
 20
-1.6046
 30
29.8036
 70
192
 0
VERTEX
 8
TUBE_45
 10
0.6535
 20
-1.5973
 30
29.78
 70
192
 0
VERTEX
 8
TUBE_45
 10
0.6535
 20
-1.7501
 30
29.7326
 70
192
 0
VERTEX
 8
TUBE_45
 10
0.6243
 20
-1.7619
 30
29.7706
 70
192
 0
VERTEX
 8
TUBE_45
 10
0.5769
 20
-1.7574
 30
29.7561
 70
192
 0
VERTEX
 8
TUBE_45
 10
0.6243
 20
-1.6092
 30
29.8182
 70
192
 0
VERTEX
 8
TUBE_45
 10
0.289
 20
-1.7059
 30
30.1354
 70
192
 0
VERTEX
 8
TUBE_45
 10
0.289
 20
-1.858
 30
30.0855
 70
192
 0
VERTEX
 8
TUBE_45
 10
0.2124
 20
-1.6983
 30
30.1118
 70
192
 0
VERTEX
 8
TUBE_45
 10
0.2598
 20
-1.7184
 30
30.1734
 70
192
 0
VERTEX
 8
TUBE_45
 10
0.2598
 20
-1.8704
 30
30.1233
 70
192
 0
VERTEX
 8
TUBE_45
 10
0.2598
 20
-1.8456
 30
30.0477
 70
192
 0
VERTEX
 8
TUBE_45
 10
0.2124
 20
-1.8656
 30
30.1089
 70
192
 0
VERTEX
 8
TUBE_45
 10
0.2124
 20
-1.8504
 30
30.0622
 70
192
 0
VERTEX
 8
TUBE_45
 10
0.2598
 20
-1.6935
 30
30.0973
 70
192
 0
VERTEX
 8
TUBE_45
 10
0.2124
 20
-1.7137
 30
30.1589
 70
192
 0
VERTEX
 8
TUBE_45
 10
0.1481
 20
-1.8307
 30
29.9947
 70
192
 0
VERTEX
 8
TUBE_45
 10
0.1774
 20
-1.6908
 30
30.082
 70
192
 0
VERTEX
 8
TUBE_45
 10
0.1774
 20
-1.843
 30
30.0325
 70
192
 0
VERTEX
 8
TUBE_45
 10
0.1008
 20
-1.6832
 30
30.0584
 70
192
 0
VERTEX
 8
TUBE_45
 10
0.1008
 20
-1.6985
 30
30.1055
 70
192
 0
VERTEX
 8
TUBE_45
 10
0.1008
 20
-1.8506
 30
30.0559
 70
192
 0
VERTEX
 8
TUBE_45
 10
0.1481
 20
-1.7032
 30
30.12
 70
192
 0
VERTEX
 8
TUBE_45
 10
0.1481
 20
-1.8553
 30
30.0703
 70
192
 0
VERTEX
 8
TUBE_45
 10
0.1008
 20
-1.8354
 30
30.0091
 70
192
 0
VERTEX
 8
TUBE_45
 10
0.1481
 20
-1.6785
 30
30.0439
 70
192
 0
VERTEX
 8
TUBE_45
 10
0.3753
 20
-1.8307
 30
29.9947
 70
192
 0
VERTEX
 8
TUBE_45
 10
0.4045
 20
-1.6908
 30
30.082
 70
192
 0
VERTEX
 8
TUBE_45
 10
0.4045
 20
-1.843
 30
30.0325
 70
192
 0
VERTEX
 8
TUBE_45
 10
0.3753
 20
-1.6785
 30
30.0439
 70
192
 0
VERTEX
 8
TUBE_45
 10
0.3279
 20
-1.6832
 30
30.0584
 70
192
 0
VERTEX
 8
TUBE_45
 10
0.3279
 20
-1.6985
 30
30.1055
 70
192
 0
VERTEX
 8
TUBE_45
 10
0.3279
 20
-1.8506
 30
30.0559
 70
192
 0
VERTEX
 8
TUBE_45
 10
0.3753
 20
-1.7032
 30
30.12
 70
192
 0
VERTEX
 8
TUBE_45
 10
0.3753
 20
-1.8553
 30
30.0703
 70
192
 0
VERTEX
 8
TUBE_45
 10
0.3279
 20
-1.8354
 30
30.0091
 70
192
 0
VERTEX
 8
TUBE_45
 10
0.289
 20
-1.6768
 30
30.0318
 70
192
 0
VERTEX
 8
TUBE_45
 10
0.289
 20
-1.8291
 30
29.9826
 70
192
 0
VERTEX
 8
TUBE_45
 10
0.2598
 20
-1.6646
 30
29.9936
 70
192
 0
VERTEX
 8
TUBE_45
 10
0.2124
 20
-1.6692
 30
30.0082
 70
192
 0
VERTEX
 8
TUBE_45
 10
0.2124
 20
-1.6844
 30
30.0553
 70
192
 0
VERTEX
 8
TUBE_45
 10
0.2124
 20
-1.8366
 30
30.006
 70
192
 0
VERTEX
 8
TUBE_45
 10
0.2598
 20
-1.6891
 30
30.0698
 70
192
 0
VERTEX
 8
TUBE_45
 10
0.2598
 20
-1.8413
 30
30.0205
 70
192
 0
VERTEX
 8
TUBE_45
 10
0.2598
 20
-1.8169
 30
29.9448
 70
192
 0
VERTEX
 8
TUBE_45
 10
0.2124
 20
-1.8216
 30
29.9593
 70
192
 0
VERTEX
 8
TUBE_45
 10
0
 20
0
 30
0
 70
128
 71
1
 72
2
 73
7
 74
6
 0
VERTEX
 8
TUBE_45
 10
0
 20
0
 30
0
 70
128
 71
3
 72
9
 73
8
 74
10
 0
VERTEX
 8
TUBE_45
 10
0
 20
0
 30
0
 70
128
 71
10
 72
8
 73
2
 74
1
 0
VERTEX
 8
TUBE_45
 10
0
 20
0
 30
0
 70
128
 71
6
 72
7
 73
5
 74
4
 0
VERTEX
 8
TUBE_45
 10
0
 20
0
 30
0
 70
128
 71
4
 72
5
 73
9
 74
3
 0
VERTEX
 8
TUBE_45
 10
0
 20
0
 30
0
 70
128
 71
2
 72
8
 73
9
 74
7
 0
VERTEX
 8
TUBE_45
 10
0
 20
0
 30
0
 70
128
 71
9
 72
5
 73
7
 74
7
 0
VERTEX
 8
TUBE_45
 10
0
 20
0
 30
0
 70
128
 71
12
 72
13
 73
17
 74
16
 0
VERTEX
 8
TUBE_45
 10
0
 20
0
 30
0
 70
128
 71
15
 72
19
 73
11
 74
14
 0
VERTEX
 8
TUBE_45
 10
0
 20
0
 30
0
 70
128
 71
14
 72
11
 73
13
 74
12
 0
VERTEX
 8
TUBE_45
 10
0
 20
0
 30
0
 70
128
 71
16
 72
17
 73
18
 74
20
 0
VERTEX
 8
TUBE_45
 10
0
 20
0
 30
0
 70
128
 71
20
 72
18
 73
19
 74
15
 0
VERTEX
 8
TUBE_45
 10
0
 20
0
 30
0
 70
128
 71
13
 72
11
 73
19
 74
17
 0
VERTEX
 8
TUBE_45
 10
0
 20
0
 30
0
 70
128
 71
19
 72
18
 73
17
 74
17
 0
VERTEX
 8
TUBE_45
 10
0
 20
0
 30
0
 70
128
 71
21
 72
22
 73
28
 74
27
 0
VERTEX
 8
TUBE_45
 10
0
 20
0
 30
0
 70
128
 71
24
 72
30
 73
29
 74
23
 0
VERTEX
 8
TUBE_45
 10
0
 20
0
 30
0
 70
128
 71
23
 72
29
 73
22
 74
21
 0
VERTEX
 8
TUBE_45
 10
0
 20
0
 30
0
 70
128
 71
27
 72
28
 73
26
 74
25
 0
VERTEX
 8
TUBE_45
 10
0
 20
0
 30
0
 70
128
 71
25
 72
26
 73
30
 74
24
 0
VERTEX
 8
TUBE_45
 10
0
 20
0
 30
0
 70
128
 71
22
 72
29
 73
30
 74
28
 0
VERTEX
 8
TUBE_45
 10
0
 20
0
 30
0
 70
128
 71
30
 72
26
 73
28
 74
28
 0
VERTEX
 8
TUBE_45
 10
0
 20
0
 30
0
 70
128
 71
31
 72
32
 73
35
 74
34
 0
VERTEX
 8
TUBE_45
 10
0
 20
0
 30
0
 70
128
 71
33
 72
38
 73
36
 74
39
 0
VERTEX
 8
TUBE_45
 10
0
 20
0
 30
0
 70
128
 71
39
 72
36
 73
32
 74
31
 0
VERTEX
 8
TUBE_45
 10
0
 20
0
 30
0
 70
128
 71
34
 72
35
 73
37
 74
40
 0
VERTEX
 8
TUBE_45
 10
0
 20
0
 30
0
 70
128
 71
40
 72
37
 73
38
 74
33
 0
VERTEX
 8
TUBE_45
 10
0
 20
0
 30
0
 70
128
 71
32
 72
36
 73
38
 74
35
 0
VERTEX
 8
TUBE_45
 10
0
 20
0
 30
0
 70
128
 71
38
 72
37
 73
35
 74
35
 0
VERTEX
 8
TUBE_45
 10
0
 20
0
 30
0
 70
128
 71
42
 72
43
 73
49
 74
48
 0
VERTEX
 8
TUBE_45
 10
0
 20
0
 30
0
 70
128
 71
45
 72
50
 73
41
 74
44
 0
VERTEX
 8
TUBE_45
 10
0
 20
0
 30
0
 70
128
 71
44
 72
41
 73
43
 74
42
 0
VERTEX
 8
TUBE_45
 10
0
 20
0
 30
0
 70
128
 71
48
 72
49
 73
47
 74
46
 0
VERTEX
 8
TUBE_45
 10
0
 20
0
 30
0
 70
128
 71
46
 72
47
 73
50
 74
45
 0
VERTEX
 8
TUBE_45
 10
0
 20
0
 30
0
 70
128
 71
43
 72
41
 73
50
 74
49
 0
VERTEX
 8
TUBE_45
 10
0
 20
0
 30
0
 70
128
 71
50
 72
47
 73
49
 74
49
 0
VERTEX
 8
TUBE_45
 10
0
 20
0
 30
0
 70
128
 71
52
 72
53
 73
59
 74
58
 0
VERTEX
 8
TUBE_45
 10
0
 20
0
 30
0
 70
128
 71
57
 72
60
 73
51
 74
54
 0
VERTEX
 8
TUBE_45
 10
0
 20
0
 30
0
 70
128
 71
54
 72
51
 73
53
 74
52
 0
VERTEX
 8
TUBE_45
 10
0
 20
0
 30
0
 70
128
 71
58
 72
59
 73
56
 74
55
 0
VERTEX
 8
TUBE_45
 10
0
 20
0
 30
0
 70
128
 71
55
 72
56
 73
60
 74
57
 0
VERTEX
 8
TUBE_45
 10
0
 20
0
 30
0
 70
128
 71
53
 72
51
 73
60
 74
59
 0
VERTEX
 8
TUBE_45
 10
0
 20
0
 30
0
 70
128
 71
60
 72
56
 73
59
 74
59
 0
VERTEX
 8
TUBE_45
 10
0
 20
0
 30
0
 70
128
 71
62
 72
63
 73
68
 74
67
 0
VERTEX
 8
TUBE_45
 10
0
 20
0
 30
0
 70
128
 71
66
 72
69
 73
61
 74
70
 0
VERTEX
 8
TUBE_45
 10
0
 20
0
 30
0
 70
128
 71
70
 72
61
 73
63
 74
62
 0
VERTEX
 8
TUBE_45
 10
0
 20
0
 30
0
 70
128
 71
67
 72
68
 73
65
 74
64
 0
VERTEX
 8
TUBE_45
 10
0
 20
0
 30
0
 70
128
 71
64
 72
65
 73
69
 74
66
 0
VERTEX
 8
TUBE_45
 10
0
 20
0
 30
0
 70
128
 71
63
 72
61
 73
69
 74
68
 0
VERTEX
 8
TUBE_45
 10
0
 20
0
 30
0
 70
128
 71
69
 72
65
 73
68
 74
68
 0
VERTEX
 8
TUBE_45
 10
0
 20
0
 30
0
 70
128
 71
71
 72
72
 73
75
 74
74
 0
VERTEX
 8
TUBE_45
 10
0
 20
0
 30
0
 70
128
 71
73
 72
78
 73
76
 74
79
 0
VERTEX
 8
TUBE_45
 10
0
 20
0
 30
0
 70
128
 71
79
 72
76
 73
72
 74
71
 0
VERTEX
 8
TUBE_45
 10
0
 20
0
 30
0
 70
128
 71
74
 72
75
 73
77
 74
80
 0
VERTEX
 8
TUBE_45
 10
0
 20
0
 30
0
 70
128
 71
80
 72
77
 73
78
 74
73
 0
VERTEX
 8
TUBE_45
 10
0
 20
0
 30
0
 70
128
 71
72
 72
76
 73
78
 74
75
 0
VERTEX
 8
TUBE_45
 10
0
 20
0
 30
0
 70
128
 71
78
 72
77
 73
75
 74
75
 0
VERTEX
 8
TUBE_45
 10
0
 20
0
 30
0
 70
128
 71
81
 72
82
 73
87
 74
86
 0
VERTEX
 8
TUBE_45
 10
0
 20
0
 30
0
 70
128
 71
84
 72
89
 73
88
 74
83
 0
VERTEX
 8
TUBE_45
 10
0
 20
0
 30
0
 70
128
 71
83
 72
88
 73
82
 74
81
 0
VERTEX
 8
TUBE_45
 10
0
 20
0
 30
0
 70
128
 71
86
 72
87
 73
85
 74
90
 0
VERTEX
 8
TUBE_45
 10
0
 20
0
 30
0
 70
128
 71
90
 72
85
 73
89
 74
84
 0
VERTEX
 8
TUBE_45
 10
0
 20
0
 30
0
 70
128
 71
82
 72
88
 73
89
 74
87
 0
VERTEX
 8
TUBE_45
 10
0
 20
0
 30
0
 70
128
 71
89
 72
85
 73
87
 74
87
 0
VERTEX
 8
TUBE_45
 10
0
 20
0
 30
0
 70
128
 71
91
 72
92
 73
96
 74
95
 0
VERTEX
 8
TUBE_45
 10
0
 20
0
 30
0
 70
128
 71
93
 72
98
 73
97
 74
99
 0
VERTEX
 8
TUBE_45
 10
0
 20
0
 30
0
 70
128
 71
99
 72
97
 73
92
 74
91
 0
VERTEX
 8
TUBE_45
 10
0
 20
0
 30
0
 70
128
 71
95
 72
96
 73
94
 74
100
 0
VERTEX
 8
TUBE_45
 10
0
 20
0
 30
0
 70
128
 71
100
 72
94
 73
98
 74
93
 0
VERTEX
 8
TUBE_45
 10
0
 20
0
 30
0
 70
128
 71
92
 72
97
 73
98
 74
96
 0
VERTEX
 8
TUBE_45
 10
0
 20
0
 30
0
 70
128
 71
98
 72
94
 73
96
 74
96
 0
VERTEX
 8
TUBE_45
 10
0
 20
0
 30
0
 70
128
 71
101
 72
102
 73
107
 74
106
 0
VERTEX
 8
TUBE_45
 10
0
 20
0
 30
0
 70
128
 71
105
 72
110
 73
108
 74
103
 0
VERTEX
 8
TUBE_45
 10
0
 20
0
 30
0
 70
128
 71
103
 72
108
 73
102
 74
101
 0
VERTEX
 8
TUBE_45
 10
0
 20
0
 30
0
 70
128
 71
106
 72
107
 73
109
 74
104
 0
VERTEX
 8
TUBE_45
 10
0
 20
0
 30
0
 70
128
 71
104
 72
109
 73
110
 74
105
 0
VERTEX
 8
TUBE_45
 10
0
 20
0
 30
0
 70
128
 71
102
 72
108
 73
110
 74
107
 0
VERTEX
 8
TUBE_45
 10
0
 20
0
 30
0
 70
128
 71
110
 72
109
 73
107
 74
107
 0
VERTEX
 8
TUBE_45
 10
0
 20
0
 30
0
 70
128
 71
111
 72
112
 73
116
 74
115
 0
VERTEX
 8
TUBE_45
 10
0
 20
0
 30
0
 70
128
 71
114
 72
119
 73
117
 74
113
 0
VERTEX
 8
TUBE_45
 10
0
 20
0
 30
0
 70
128
 71
113
 72
117
 73
112
 74
111
 0
VERTEX
 8
TUBE_45
 10
0
 20
0
 30
0
 70
128
 71
115
 72
116
 73
118
 74
120
 0
VERTEX
 8
TUBE_45
 10
0
 20
0
 30
0
 70
128
 71
120
 72
118
 73
119
 74
114
 0
VERTEX
 8
TUBE_45
 10
0
 20
0
 30
0
 70
128
 71
112
 72
117
 73
119
 74
116
 0
VERTEX
 8
TUBE_45
 10
0
 20
0
 30
0
 70
128
 71
119
 72
118
 73
116
 74
116
 0
VERTEX
 8
TUBE_45
 10
0
 20
0
 30
0
 70
128
 71
122
 72
123
 73
127
 74
126
 0
VERTEX
 8
TUBE_45
 10
0
 20
0
 30
0
 70
128
 71
125
 72
129
 73
121
 74
124
 0
VERTEX
 8
TUBE_45
 10
0
 20
0
 30
0
 70
128
 71
124
 72
121
 73
123
 74
122
 0
VERTEX
 8
TUBE_45
 10
0
 20
0
 30
0
 70
128
 71
126
 72
127
 73
128
 74
130
 0
VERTEX
 8
TUBE_45
 10
0
 20
0
 30
0
 70
128
 71
130
 72
128
 73
129
 74
125
 0
VERTEX
 8
TUBE_45
 10
0
 20
0
 30
0
 70
128
 71
123
 72
121
 73
129
 74
127
 0
VERTEX
 8
TUBE_45
 10
0
 20
0
 30
0
 70
128
 71
129
 72
128
 73
127
 74
127
 0
VERTEX
 8
TUBE_45
 10
0
 20
0
 30
0
 70
128
 71
131
 72
132
 73
137
 74
136
 0
VERTEX
 8
TUBE_45
 10
0
 20
0
 30
0
 70
128
 71
133
 72
139
 73
138
 74
140
 0
VERTEX
 8
TUBE_45
 10
0
 20
0
 30
0
 70
128
 71
140
 72
138
 73
132
 74
131
 0
VERTEX
 8
TUBE_45
 10
0
 20
0
 30
0
 70
128
 71
136
 72
137
 73
135
 74
134
 0
VERTEX
 8
TUBE_45
 10
0
 20
0
 30
0
 70
128
 71
134
 72
135
 73
139
 74
133
 0
VERTEX
 8
TUBE_45
 10
0
 20
0
 30
0
 70
128
 71
132
 72
138
 73
139
 74
137
 0
VERTEX
 8
TUBE_45
 10
0
 20
0
 30
0
 70
128
 71
139
 72
135
 73
137
 74
137
 0
VERTEX
 8
TUBE_45
 10
0
 20
0
 30
0
 70
128
 71
142
 72
143
 73
147
 74
146
 0
VERTEX
 8
TUBE_45
 10
0
 20
0
 30
0
 70
128
 71
145
 72
149
 73
141
 74
144
 0
VERTEX
 8
TUBE_45
 10
0
 20
0
 30
0
 70
128
 71
144
 72
141
 73
143
 74
142
 0
VERTEX
 8
TUBE_45
 10
0
 20
0
 30
0
 70
128
 71
146
 72
147
 73
148
 74
150
 0
VERTEX
 8
TUBE_45
 10
0
 20
0
 30
0
 70
128
 71
150
 72
148
 73
149
 74
145
 0
VERTEX
 8
TUBE_45
 10
0
 20
0
 30
0
 70
128
 71
143
 72
141
 73
149
 74
147
 0
VERTEX
 8
TUBE_45
 10
0
 20
0
 30
0
 70
128
 71
149
 72
148
 73
147
 74
147
 0
VERTEX
 8
TUBE_45
 10
0
 20
0
 30
0
 70
128
 71
152
 72
153
 73
157
 74
156
 0
VERTEX
 8
TUBE_45
 10
0
 20
0
 30
0
 70
128
 71
155
 72
159
 73
151
 74
154
 0
VERTEX
 8
TUBE_45
 10
0
 20
0
 30
0
 70
128
 71
154
 72
151
 73
153
 74
152
 0
VERTEX
 8
TUBE_45
 10
0
 20
0
 30
0
 70
128
 71
156
 72
157
 73
158
 74
160
 0
VERTEX
 8
TUBE_45
 10
0
 20
0
 30
0
 70
128
 71
160
 72
158
 73
159
 74
155
 0
VERTEX
 8
TUBE_45
 10
0
 20
0
 30
0
 70
128
 71
153
 72
151
 73
159
 74
157
 0
VERTEX
 8
TUBE_45
 10
0
 20
0
 30
0
 70
128
 71
159
 72
158
 73
157
 74
157
 0
VERTEX
 8
TUBE_45
 10
0
 20
0
 30
0
 70
128
 71
161
 72
162
 73
165
 74
164
 0
VERTEX
 8
TUBE_45
 10
0
 20
0
 30
0
 70
128
 71
163
 72
168
 73
166
 74
169
 0
VERTEX
 8
TUBE_45
 10
0
 20
0
 30
0
 70
128
 71
169
 72
166
 73
162
 74
161
 0
VERTEX
 8
TUBE_45
 10
0
 20
0
 30
0
 70
128
 71
164
 72
165
 73
167
 74
170
 0
VERTEX
 8
TUBE_45
 10
0
 20
0
 30
0
 70
128
 71
170
 72
167
 73
168
 74
163
 0
VERTEX
 8
TUBE_45
 10
0
 20
0
 30
0
 70
128
 71
162
 72
166
 73
168
 74
165
 0
VERTEX
 8
TUBE_45
 10
0
 20
0
 30
0
 70
128
 71
168
 72
167
 73
165
 74
165
 0
VERTEX
 8
TUBE_45
 10
0
 20
0
 30
0
 70
128
 71
172
 72
173
 73
178
 74
177
 0
VERTEX
 8
TUBE_45
 10
0
 20
0
 30
0
 70
128
 71
174
 72
179
 73
171
 74
180
 0
VERTEX
 8
TUBE_45
 10
0
 20
0
 30
0
 70
128
 71
180
 72
171
 73
173
 74
172
 0
VERTEX
 8
TUBE_45
 10
0
 20
0
 30
0
 70
128
 71
177
 72
178
 73
176
 74
175
 0
VERTEX
 8
TUBE_45
 10
0
 20
0
 30
0
 70
128
 71
175
 72
176
 73
179
 74
174
 0
VERTEX
 8
TUBE_45
 10
0
 20
0
 30
0
 70
128
 71
173
 72
171
 73
179
 74
178
 0
VERTEX
 8
TUBE_45
 10
0
 20
0
 30
0
 70
128
 71
179
 72
176
 73
178
 74
178
 0
VERTEX
 8
TUBE_45
 10
0
 20
0
 30
0
 70
128
 71
182
 72
183
 73
189
 74
188
 0
VERTEX
 8
TUBE_45
 10
0
 20
0
 30
0
 70
128
 71
185
 72
190
 73
181
 74
184
 0
VERTEX
 8
TUBE_45
 10
0
 20
0
 30
0
 70
128
 71
184
 72
181
 73
183
 74
182
 0
VERTEX
 8
TUBE_45
 10
0
 20
0
 30
0
 70
128
 71
188
 72
189
 73
187
 74
186
 0
VERTEX
 8
TUBE_45
 10
0
 20
0
 30
0
 70
128
 71
186
 72
187
 73
190
 74
185
 0
VERTEX
 8
TUBE_45
 10
0
 20
0
 30
0
 70
128
 71
183
 72
181
 73
190
 74
189
 0
VERTEX
 8
TUBE_45
 10
0
 20
0
 30
0
 70
128
 71
190
 72
187
 73
189
 74
189
 0
VERTEX
 8
TUBE_45
 10
0
 20
0
 30
0
 70
128
 71
191
 72
192
 73
198
 74
197
 0
VERTEX
 8
TUBE_45
 10
0
 20
0
 30
0
 70
128
 71
194
 72
200
 73
199
 74
193
 0
VERTEX
 8
TUBE_45
 10
0
 20
0
 30
0
 70
128
 71
193
 72
199
 73
192
 74
191
 0
VERTEX
 8
TUBE_45
 10
0
 20
0
 30
0
 70
128
 71
197
 72
198
 73
196
 74
195
 0
VERTEX
 8
TUBE_45
 10
0
 20
0
 30
0
 70
128
 71
195
 72
196
 73
200
 74
194
 0
VERTEX
 8
TUBE_45
 10
0
 20
0
 30
0
 70
128
 71
192
 72
199
 73
200
 74
198
 0
VERTEX
 8
TUBE_45
 10
0
 20
0
 30
0
 70
128
 71
200
 72
196
 73
198
 74
198
 0
SEQEND
 0
POLYLINE
 8
KEGEL_1
 66
1
 10
0.0
 20
0.0
 30
0.0
 70
64
 71
72
 72
36
 0
VERTEX
 8
KEGEL_1
 10
0.2619
 20
-0.0889
 30
22.6521
 70
192
 0
VERTEX
 8
KEGEL_1
 10
0.2621
 20
-0.2288
 30
23.5511
 70
192
 0
VERTEX
 8
KEGEL_1
 10
0.3016
 20
-0.0855
 30
22.6529
 70
192
 0
VERTEX
 8
KEGEL_1
 10
0.6446
 20
-0.2252
 30
23.5519
 70
192
 0
VERTEX
 8
KEGEL_1
 10
0.3401
 20
-0.0753
 30
22.6551
 70
192
 0
VERTEX
 8
KEGEL_1
 10
0.6579
 20
-0.2145
 30
23.5542
 70
192
 0
VERTEX
 8
KEGEL_1
 10
0.3762
 20
-0.0587
 30
22.6588
 70
192
 0
VERTEX
 8
KEGEL_1
 10
0.6622
 20
-0.1971
 30
23.558
 70
192
 0
VERTEX
 8
KEGEL_1
 10
0.4089
 20
-0.0362
 30
22.6637
 70
192
 0
VERTEX
 8
KEGEL_1
 10
0.6628
 20
-0.1734
 30
23.5631
 70
192
 0
VERTEX
 8
KEGEL_1
 10
0.437
 20
-0.0085
 30
22.6698
 70
192
 0
VERTEX
 8
KEGEL_1
 10
0.6638
 20
-0.1441
 30
23.5693
 70
192
 0
VERTEX
 8
KEGEL_1
 10
0.4599
 20
0.0236
 30
22.6769
 70
192
 0
VERTEX
 8
KEGEL_1
 10
0.6642
 20
-0.1101
 30
23.5766
 70
192
 0
VERTEX
 8
KEGEL_1
 10
0.4767
 20
0.0592
 30
22.6848
 70
192
 0
VERTEX
 8
KEGEL_1
 10
0.6644
 20
-0.0724
 30
23.5847
 70
192
 0
VERTEX
 8
KEGEL_1
 10
0.487
 20
0.0971
 30
22.6931
 70
192
 0
VERTEX
 8
KEGEL_1
 10
0.6649
 20
-0.0321
 30
23.5933
 70
192
 0
VERTEX
 8
KEGEL_1
 10
0.4905
 20
0.1362
 30
22.7017
 70
192
 0
VERTEX
 8
KEGEL_1
 10
0.6662
 20
0.0095
 30
23.6021
 70
192
 0
VERTEX
 8
KEGEL_1
 10
0.487
 20
0.1753
 30
22.7103
 70
192
 0
VERTEX
 8
KEGEL_1
 10
0.6662
 20
0.0513
 30
23.611
 70
192
 0
VERTEX
 8
KEGEL_1
 10
0.4767
 20
0.2132
 30
22.7187
 70
192
 0
VERTEX
 8
KEGEL_1
 10
0.667
 20
0.0919
 30
23.6196
 70
192
 0
VERTEX
 8
KEGEL_1
 10
0.4599
 20
0.2487
 30
22.7265
 70
192
 0
VERTEX
 8
KEGEL_1
 10
0.6681
 20
0.13
 30
23.6276
 70
192
 0
VERTEX
 8
KEGEL_1
 10
0.437
 20
0.2809
 30
22.7336
 70
192
 0
VERTEX
 8
KEGEL_1
 10
0.6687
 20
0.1646
 30
23.6349
 70
192
 0
VERTEX
 8
KEGEL_1
 10
0.4089
 20
0.3086
 30
22.7397
 70
192
 0
VERTEX
 8
KEGEL_1
 10
0.6686
 20
0.1945
 30
23.6412
 70
192
 0
VERTEX
 8
KEGEL_1
 10
0.3762
 20
0.3311
 30
22.7447
 70
192
 0
VERTEX
 8
KEGEL_1
 10
0.6688
 20
0.2188
 30
23.6463
 70
192
 0
VERTEX
 8
KEGEL_1
 10
0.3401
 20
0.3477
 30
22.7484
 70
192
 0
VERTEX
 8
KEGEL_1
 10
0.665
 20
0.2368
 30
23.6501
 70
192
 0
VERTEX
 8
KEGEL_1
 10
0.3016
 20
0.3579
 30
22.7506
 70
192
 0
VERTEX
 8
KEGEL_1
 10
0.6518
 20
0.2477
 30
23.6524
 70
192
 0
VERTEX
 8
KEGEL_1
 10
0.2619
 20
0.3613
 30
22.7513
 70
192
 0
VERTEX
 8
KEGEL_1
 10
0.2636
 20
0.2514
 30
23.6531
 70
192
 0
VERTEX
 8
KEGEL_1
 10
0.2223
 20
0.3579
 30
22.7506
 70
192
 0
VERTEX
 8
KEGEL_1
 10
-0.1759
 20
0.2477
 30
23.6524
 70
192
 0
VERTEX
 8
KEGEL_1
 10
0.1838
 20
0.3477
 30
22.7484
 70
192
 0
VERTEX
 8
KEGEL_1
 10
-0.1903
 20
0.2368
 30
23.6501
 70
192
 0
VERTEX
 8
KEGEL_1
 10
0.1477
 20
0.3311
 30
22.7447
 70
192
 0
VERTEX
 8
KEGEL_1
 10
-0.1989
 20
0.2188
 30
23.6463
 70
192
 0
VERTEX
 8
KEGEL_1
 10
0.115
 20
0.3086
 30
22.7397
 70
192
 0
VERTEX
 8
KEGEL_1
 10
-0.1986
 20
0.1945
 30
23.6412
 70
192
 0
VERTEX
 8
KEGEL_1
 10
0.0869
 20
0.2809
 30
22.7336
 70
192
 0
VERTEX
 8
KEGEL_1
 10
-0.1983
 20
0.1646
 30
23.6349
 70
192
 0
VERTEX
 8
KEGEL_1
 10
0.064
 20
0.2487
 30
22.7265
 70
192
 0
VERTEX
 8
KEGEL_1
 10
-0.1979
 20
0.13
 30
23.6276
 70
192
 0
VERTEX
 8
KEGEL_1
 10
0.0472
 20
0.2132
 30
22.7187
 70
192
 0
VERTEX
 8
KEGEL_1
 10
-0.1975
 20
0.0919
 30
23.6196
 70
192
 0
VERTEX
 8
KEGEL_1
 10
0.0369
 20
0.1753
 30
22.7103
 70
192
 0
VERTEX
 8
KEGEL_1
 10
-0.197
 20
0.0513
 30
23.611
 70
192
 0
VERTEX
 8
KEGEL_1
 10
0.0334
 20
0.1362
 30
22.7017
 70
192
 0
VERTEX
 8
KEGEL_1
 10
-0.1965
 20
0.0095
 30
23.6021
 70
192
 0
VERTEX
 8
KEGEL_1
 10
0.0369
 20
0.0971
 30
22.6931
 70
192
 0
VERTEX
 8
KEGEL_1
 10
-0.1961
 20
-0.0321
 30
23.5933
 70
192
 0
VERTEX
 8
KEGEL_1
 10
0.0472
 20
0.0592
 30
22.6848
 70
192
 0
VERTEX
 8
KEGEL_1
 10
-0.1956
 20
-0.0724
 30
23.5847
 70
192
 0
VERTEX
 8
KEGEL_1
 10
0.064
 20
0.0236
 30
22.6769
 70
192
 0
VERTEX
 8
KEGEL_1
 10
-0.1952
 20
-0.1101
 30
23.5766
 70
192
 0
VERTEX
 8
KEGEL_1
 10
0.0869
 20
-0.0085
 30
22.6698
 70
192
 0
VERTEX
 8
KEGEL_1
 10
-0.1948
 20
-0.1441
 30
23.5693
 70
192
 0
VERTEX
 8
KEGEL_1
 10
0.115
 20
-0.0362
 30
22.6637
 70
192
 0
VERTEX
 8
KEGEL_1
 10
-0.1945
 20
-0.1734
 30
23.5631
 70
192
 0
VERTEX
 8
KEGEL_1
 10
0.1477
 20
-0.0587
 30
22.6588
 70
192
 0
VERTEX
 8
KEGEL_1
 10
-0.1942
 20
-0.1971
 30
23.558
 70
192
 0
VERTEX
 8
KEGEL_1
 10
0.1838
 20
-0.0753
 30
22.6551
 70
192
 0
VERTEX
 8
KEGEL_1
 10
-0.1854
 20
-0.2145
 30
23.5542
 70
192
 0
VERTEX
 8
KEGEL_1
 10
0.2223
 20
-0.0855
 30
22.6529
 70
192
 0
VERTEX
 8
KEGEL_1
 10
-0.1709
 20
-0.2252
 30
23.5519
 70
192
 0
VERTEX
 8
KEGEL_1
 10
0
 20
0
 30
0
 70
128
 71
11
 72
12
 73
14
 74
13
 0
VERTEX
 8
KEGEL_1
 10
0
 20
0
 30
0
 70
128
 71
13
 72
14
 73
16
 74
15
 0
VERTEX
 8
KEGEL_1
 10
0
 20
0
 30
0
 70
128
 71
15
 72
16
 73
18
 74
17
 0
VERTEX
 8
KEGEL_1
 10
0
 20
0
 30
0
 70
128
 71
1
 72
2
 73
4
 74
3
 0
VERTEX
 8
KEGEL_1
 10
0
 20
0
 30
0
 70
128
 71
17
 72
18
 73
20
 74
19
 0
VERTEX
 8
KEGEL_1
 10
0
 20
0
 30
0
 70
128
 71
19
 72
20
 73
22
 74
21
 0
VERTEX
 8
KEGEL_1
 10
0
 20
0
 30
0
 70
128
 71
21
 72
22
 73
24
 74
23
 0
VERTEX
 8
KEGEL_1
 10
0
 20
0
 30
0
 70
128
 71
23
 72
24
 73
26
 74
25
 0
VERTEX
 8
KEGEL_1
 10
0
 20
0
 30
0
 70
128
 71
25
 72
26
 73
28
 74
27
 0
VERTEX
 8
KEGEL_1
 10
0
 20
0
 30
0
 70
128
 71
27
 72
28
 73
30
 74
29
 0
VERTEX
 8
KEGEL_1
 10
0
 20
0
 30
0
 70
128
 71
3
 72
4
 73
6
 74
5
 0
VERTEX
 8
KEGEL_1
 10
0
 20
0
 30
0
 70
128
 71
29
 72
30
 73
32
 74
31
 0
VERTEX
 8
KEGEL_1
 10
0
 20
0
 30
0
 70
128
 71
31
 72
32
 73
34
 74
33
 0
VERTEX
 8
KEGEL_1
 10
0
 20
0
 30
0
 70
128
 71
33
 72
34
 73
36
 74
35
 0
VERTEX
 8
KEGEL_1
 10
0
 20
0
 30
0
 70
128
 71
35
 72
36
 73
38
 74
37
 0
VERTEX
 8
KEGEL_1
 10
0
 20
0
 30
0
 70
128
 71
37
 72
38
 73
40
 74
39
 0
VERTEX
 8
KEGEL_1
 10
0
 20
0
 30
0
 70
128
 71
39
 72
40
 73
42
 74
41
 0
VERTEX
 8
KEGEL_1
 10
0
 20
0
 30
0
 70
128
 71
5
 72
6
 73
8
 74
7
 0
VERTEX
 8
KEGEL_1
 10
0
 20
0
 30
0
 70
128
 71
41
 72
42
 73
44
 74
43
 0
VERTEX
 8
KEGEL_1
 10
0
 20
0
 30
0
 70
128
 71
43
 72
44
 73
46
 74
45
 0
VERTEX
 8
KEGEL_1
 10
0
 20
0
 30
0
 70
128
 71
45
 72
46
 73
48
 74
47
 0
VERTEX
 8
KEGEL_1
 10
0
 20
0
 30
0
 70
128
 71
47
 72
48
 73
50
 74
49
 0
VERTEX
 8
KEGEL_1
 10
0
 20
0
 30
0
 70
128
 71
49
 72
50
 73
52
 74
51
 0
VERTEX
 8
KEGEL_1
 10
0
 20
0
 30
0
 70
128
 71
51
 72
52
 73
54
 74
53
 0
VERTEX
 8
KEGEL_1
 10
0
 20
0
 30
0
 70
128
 71
7
 72
8
 73
10
 74
9
 0
VERTEX
 8
KEGEL_1
 10
0
 20
0
 30
0
 70
128
 71
53
 72
54
 73
56
 74
55
 0
VERTEX
 8
KEGEL_1
 10
0
 20
0
 30
0
 70
128
 71
55
 72
56
 73
58
 74
57
 0
VERTEX
 8
KEGEL_1
 10
0
 20
0
 30
0
 70
128
 71
57
 72
58
 73
60
 74
59
 0
VERTEX
 8
KEGEL_1
 10
0
 20
0
 30
0
 70
128
 71
59
 72
60
 73
62
 74
61
 0
VERTEX
 8
KEGEL_1
 10
0
 20
0
 30
0
 70
128
 71
61
 72
62
 73
64
 74
63
 0
VERTEX
 8
KEGEL_1
 10
0
 20
0
 30
0
 70
128
 71
63
 72
64
 73
66
 74
65
 0
VERTEX
 8
KEGEL_1
 10
0
 20
0
 30
0
 70
128
 71
9
 72
10
 73
12
 74
11
 0
VERTEX
 8
KEGEL_1
 10
0
 20
0
 30
0
 70
128
 71
65
 72
66
 73
68
 74
67
 0
VERTEX
 8
KEGEL_1
 10
0
 20
0
 30
0
 70
128
 71
67
 72
68
 73
70
 74
69
 0
VERTEX
 8
KEGEL_1
 10
0
 20
0
 30
0
 70
128
 71
69
 72
70
 73
72
 74
71
 0
VERTEX
 8
KEGEL_1
 10
0
 20
0
 30
0
 70
128
 71
71
 72
72
 73
2
 74
1
 0
SEQEND
 0
POLYLINE
 8
SCHLAUCH_1
 66
1
 10
0.0
 20
0.0
 30
0.0
 70
64
 71
24
 72
16
 0
VERTEX
 8
SCHLAUCH_1
 10
0.3168
 20
0.1034
 30
2.3673
 70
192
 0
VERTEX
 8
SCHLAUCH_1
 10
0.5452
 20
0.08
 30
2.3704
 70
192
 0
VERTEX
 8
SCHLAUCH_1
 10
0.69
 20
-0.0982
 30
2.3776
 70
192
 0
VERTEX
 8
SCHLAUCH_1
 10
0.6666
 20
-0.3265
 30
2.3846
 70
192
 0
VERTEX
 8
SCHLAUCH_1
 10
0.4882
 20
-0.4713
 30
2.3873
 70
192
 0
VERTEX
 8
SCHLAUCH_1
 10
0.2598
 20
-0.4479
 30
2.3842
 70
192
 0
VERTEX
 8
SCHLAUCH_1
 10
0.115
 20
-0.2697
 30
2.377
 70
192
 0
VERTEX
 8
SCHLAUCH_1
 10
0.1385
 20
-0.0414
 30
2.37
 70
192
 0
VERTEX
 8
SCHLAUCH_1
 10
0.1545
 20
0.5996
 30
18.0121
 70
192
 0
VERTEX
 8
SCHLAUCH_1
 10
0.383
 20
0.5762
 30
18.0123
 70
192
 0
VERTEX
 8
SCHLAUCH_1
 10
0.5278
 20
0.398
 30
18.0124
 70
192
 0
VERTEX
 8
SCHLAUCH_1
 10
0.5044
 20
0.1695
 30
18.0124
 70
192
 0
VERTEX
 8
SCHLAUCH_1
 10
0.3261
 20
0.0247
 30
18.0122
 70
192
 0
VERTEX
 8
SCHLAUCH_1
 10
0.0976
 20
0.0481
 30
18.012
 70
192
 0
VERTEX
 8
SCHLAUCH_1
 10
-0.0472
 20
0.2264
 30
18.0119
 70
192
 0
VERTEX
 8
SCHLAUCH_1
 10
-0.0238
 20
0.4549
 30
18.012
 70
192
 0
VERTEX
 8
SCHLAUCH_1
 10
0.1954
 20
0.4483
 30
22.7278
 70
192
 0
VERTEX
 8
SCHLAUCH_1
 10
0.4238
 20
0.425
 30
22.7251
 70
192
 0
VERTEX
 8
SCHLAUCH_1
 10
0.5686
 20
0.2468
 30
22.7181
 70
192
 0
VERTEX
 8
SCHLAUCH_1
 10
0.5452
 20
0.0185
 30
22.711
 70
192
 0
VERTEX
 8
SCHLAUCH_1
 10
0.3669
 20
-0.1263
 30
22.7079
 70
192
 0
VERTEX
 8
SCHLAUCH_1
 10
0.1384
 20
-0.1029
 30
22.7106
 70
192
 0
VERTEX
 8
SCHLAUCH_1
 10
-0.0064
 20
0.0752
 30
22.7176
 70
192
 0
VERTEX
 8
SCHLAUCH_1
 10
0.0171
 20
0.3036
 30
22.7247
 70
192
 0
VERTEX
 8
SCHLAUCH_1
 10
0
 20
0
 30
0
 70
128
 71
1
 72
2
 73
10
 74
9
 0
VERTEX
 8
SCHLAUCH_1
 10
0
 20
0
 30
0
 70
128
 71
2
 72
3
 73
11
 74
10
 0
VERTEX
 8
SCHLAUCH_1
 10
0
 20
0
 30
0
 70
128
 71
3
 72
4
 73
12
 74
11
 0
VERTEX
 8
SCHLAUCH_1
 10
0
 20
0
 30
0
 70
128
 71
4
 72
5
 73
13
 74
12
 0
VERTEX
 8
SCHLAUCH_1
 10
0
 20
0
 30
0
 70
128
 71
5
 72
6
 73
14
 74
13
 0
VERTEX
 8
SCHLAUCH_1
 10
0
 20
0
 30
0
 70
128
 71
6
 72
7
 73
15
 74
14
 0
VERTEX
 8
SCHLAUCH_1
 10
0
 20
0
 30
0
 70
128
 71
7
 72
8
 73
16
 74
15
 0
VERTEX
 8
SCHLAUCH_1
 10
0
 20
0
 30
0
 70
128
 71
8
 72
1
 73
9
 74
16
 0
VERTEX
 8
SCHLAUCH_1
 10
0
 20
0
 30
0
 70
128
 71
9
 72
10
 73
18
 74
17
 0
VERTEX
 8
SCHLAUCH_1
 10
0
 20
0
 30
0
 70
128
 71
10
 72
11
 73
19
 74
18
 0
VERTEX
 8
SCHLAUCH_1
 10
0
 20
0
 30
0
 70
128
 71
11
 72
12
 73
20
 74
19
 0
VERTEX
 8
SCHLAUCH_1
 10
0
 20
0
 30
0
 70
128
 71
12
 72
13
 73
21
 74
20
 0
VERTEX
 8
SCHLAUCH_1
 10
0
 20
0
 30
0
 70
128
 71
13
 72
14
 73
22
 74
21
 0
VERTEX
 8
SCHLAUCH_1
 10
0
 20
0
 30
0
 70
128
 71
14
 72
15
 73
23
 74
22
 0
VERTEX
 8
SCHLAUCH_1
 10
0
 20
0
 30
0
 70
128
 71
15
 72
16
 73
24
 74
23
 0
VERTEX
 8
SCHLAUCH_1
 10
0
 20
0
 30
0
 70
128
 71
16
 72
9
 73
17
 74
24
 0
SEQEND
 0
POLYLINE
 8
K_RPER
 66
1
 10
0.0
 20
0.0
 30
0.0
 70
64
 71
8
 72
6
 0
VERTEX
 8
K_RPER
 10
-2.057
 20
0.3793
 30
0.1405
 70
192
 0
VERTEX
 8
K_RPER
 10
-2.057
 20
0.3793
 30
36.0947
 70
192
 0
VERTEX
 8
K_RPER
 10
-2.057
 20
-0.2207
 30
0.1405
 70
192
 0
VERTEX
 8
K_RPER
 10
-2.057
 20
-0.2207
 30
36.0947
 70
192
 0
VERTEX
 8
K_RPER
 10
-1.057
 20
-0.2207
 30
0.1405
 70
192
 0
VERTEX
 8
K_RPER
 10
-1.057
 20
-0.2207
 30
36.0947
 70
192
 0
VERTEX
 8
K_RPER
 10
-1.057
 20
0.3793
 30
0.1405
 70
192
 0
VERTEX
 8
K_RPER
 10
-1.057
 20
0.3793
 30
36.0947
 70
192
 0
VERTEX
 8
K_RPER
 10
0
 20
0
 30
0
 70
128
 71
1
 72
2
 73
4
 74
3
 0
VERTEX
 8
K_RPER
 10
0
 20
0
 30
0
 70
128
 71
3
 72
4
 73
6
 74
5
 0
VERTEX
 8
K_RPER
 10
0
 20
0
 30
0
 70
128
 71
5
 72
6
 73
8
 74
7
 0
VERTEX
 8
K_RPER
 10
0
 20
0
 30
0
 70
128
 71
7
 72
8
 73
2
 74
1
 0
VERTEX
 8
K_RPER
 10
0
 20
0
 30
0
 70
128
 71
2
 72
8
 73
6
 74
4
 0
VERTEX
 8
K_RPER
 10
0
 20
0
 30
0
 70
128
 71
7
 72
1
 73
3
 74
5
 0
SEQEND
 0
POLYLINE
 8
HALTER_4
 66
1
 10
0.0
 20
0.0
 30
0.0
 70
64
 71
8
 72
6
 0
VERTEX
 8
HALTER_4
 10
-2.057
 20
2.5803
 30
0.9806
 70
192
 0
VERTEX
 8
HALTER_4
 10
-2.057
 20
2.5803
 30
1.6206
 70
192
 0
VERTEX
 8
HALTER_4
 10
-2.057
 20
0.3803
 30
0.9806
 70
192
 0
VERTEX
 8
HALTER_4
 10
-2.057
 20
0.3803
 30
1.6206
 70
192
 0
VERTEX
 8
HALTER_4
 10
-1.057
 20
0.3803
 30
0.9806
 70
192
 0
VERTEX
 8
HALTER_4
 10
-1.057
 20
0.3803
 30
1.6206
 70
192
 0
VERTEX
 8
HALTER_4
 10
-1.057
 20
2.5803
 30
0.9806
 70
192
 0
VERTEX
 8
HALTER_4
 10
-1.057
 20
2.5803
 30
1.6206
 70
192
 0
VERTEX
 8
HALTER_4
 10
0
 20
0
 30
0
 70
128
 71
1
 72
2
 73
4
 74
3
 0
VERTEX
 8
HALTER_4
 10
0
 20
0
 30
0
 70
128
 71
3
 72
4
 73
6
 74
5
 0
VERTEX
 8
HALTER_4
 10
0
 20
0
 30
0
 70
128
 71
5
 72
6
 73
8
 74
7
 0
VERTEX
 8
HALTER_4
 10
0
 20
0
 30
0
 70
128
 71
7
 72
8
 73
2
 74
1
 0
VERTEX
 8
HALTER_4
 10
0
 20
0
 30
0
 70
128
 71
2
 72
8
 73
6
 74
4
 0
VERTEX
 8
HALTER_4
 10
0
 20
0
 30
0
 70
128
 71
7
 72
1
 73
3
 74
5
 0
SEQEND
 0
POLYLINE
 8
ROSETTE_1
 66
1
 10
0.0
 20
0.0
 30
0.0
 70
64
 71
16
 72
14
 0
VERTEX
 8
ROSETTE_1
 10
-2.6826
 20
2.7848
 30
0.3232
 70
192
 0
VERTEX
 8
ROSETTE_1
 10
-2.6847
 20
2.7769
 30
2.3232
 70
192
 0
VERTEX
 8
ROSETTE_1
 10
-0.4847
 20
2.7769
 30
2.5231
 70
192
 0
VERTEX
 8
ROSETTE_1
 10
-0.4848
 20
2.5654
 30
2.5202
 70
192
 0
VERTEX
 8
ROSETTE_1
 10
-0.4847
 20
2.7848
 30
0.1253
 70
192
 0
VERTEX
 8
ROSETTE_1
 10
-2.6805
 20
2.5639
 30
2.333
 70
192
 0
VERTEX
 8
ROSETTE_1
 10
-2.6833
 20
2.5685
 30
0.3232
 70
192
 0
VERTEX
 8
ROSETTE_1
 10
-2.4847
 20
2.5726
 30
2.5229
 70
192
 0
VERTEX
 8
ROSETTE_1
 10
-2.4847
 20
2.7864
 30
2.5202
 70
192
 0
VERTEX
 8
ROSETTE_1
 10
-0.2864
 20
2.5685
 30
2.3331
 70
192
 0
VERTEX
 8
ROSETTE_1
 10
-0.2913
 20
2.5611
 30
0.3232
 70
192
 0
VERTEX
 8
ROSETTE_1
 10
-0.2847
 20
2.7769
 30
0.3232
 70
192
 0
VERTEX
 8
ROSETTE_1
 10
-0.2877
 20
2.7864
 30
2.3231
 70
192
 0
VERTEX
 8
ROSETTE_1
 10
-2.4846
 20
2.558
 30
0.1342
 70
192
 0
VERTEX
 8
ROSETTE_1
 10
-0.4749
 20
2.5639
 30
0.1274
 70
192
 0
VERTEX
 8
ROSETTE_1
 10
-2.4847
 20
2.7769
 30
0.1232
 70
192
 0
VERTEX
 8
ROSETTE_1
 10
0
 20
0
 30
0
 70
128
 71
7
 72
1
 73
2
 74
6
 0
VERTEX
 8
ROSETTE_1
 10
0
 20
0
 30
0
 70
128
 71
8
 72
9
 73
3
 74
4
 0
VERTEX
 8
ROSETTE_1
 10
0
 20
0
 30
0
 70
128
 71
10
 72
13
 73
12
 74
11
 0
VERTEX
 8
ROSETTE_1
 10
0
 20
0
 30
0
 70
128
 71
15
 72
5
 73
16
 74
14
 0
VERTEX
 8
ROSETTE_1
 10
0
 20
0
 30
0
 70
128
 71
13
 72
10
 73
4
 74
3
 0
VERTEX
 8
ROSETTE_1
 10
0
 20
0
 30
0
 70
128
 71
6
 72
2
 73
9
 74
8
 0
VERTEX
 8
ROSETTE_1
 10
0
 20
0
 30
0
 70
128
 71
1
 72
7
 73
14
 74
16
 0
VERTEX
 8
ROSETTE_1
 10
0
 20
0
 30
0
 70
128
 71
5
 72
15
 73
11
 74
12
 0
VERTEX
 8
ROSETTE_1
 10
0
 20
0
 30
0
 70
128
 71
6
 72
10
 73
11
 74
7
 0
VERTEX
 8
ROSETTE_1
 10
0
 20
0
 30
0
 70
128
 71
10
 72
6
 73
8
 74
4
 0
VERTEX
 8
ROSETTE_1
 10
0
 20
0
 30
0
 70
128
 71
11
 72
15
 73
14
 74
7
 0
VERTEX
 8
ROSETTE_1
 10
0
 20
0
 30
0
 70
128
 71
13
 72
3
 73
9
 74
2
 0
VERTEX
 8
ROSETTE_1
 10
0
 20
0
 30
0
 70
128
 71
13
 72
2
 73
1
 74
12
 0
VERTEX
 8
ROSETTE_1
 10
0
 20
0
 30
0
 70
128
 71
12
 72
1
 73
16
 74
5
 0
SEQEND
 0
POLYLINE
 8
HALTER_3
 66
1
 10
0.0
 20
0.0
 30
0.0
 70
64
 71
8
 72
6
 0
VERTEX
 8
HALTER_3
 10
-2.057
 20
2.5803
 30
34.5743
 70
192
 0
VERTEX
 8
HALTER_3
 10
-2.057
 20
2.5803
 30
35.2143
 70
192
 0
VERTEX
 8
HALTER_3
 10
-2.057
 20
0.3803
 30
34.5743
 70
192
 0
VERTEX
 8
HALTER_3
 10
-2.057
 20
0.3803
 30
35.2143
 70
192
 0
VERTEX
 8
HALTER_3
 10
-1.057
 20
0.3803
 30
34.5743
 70
192
 0
VERTEX
 8
HALTER_3
 10
-1.057
 20
0.3803
 30
35.2143
 70
192
 0
VERTEX
 8
HALTER_3
 10
-1.057
 20
2.5803
 30
34.5743
 70
192
 0
VERTEX
 8
HALTER_3
 10
-1.057
 20
2.5803
 30
35.2143
 70
192
 0
VERTEX
 8
HALTER_3
 10
0
 20
0
 30
0
 70
128
 71
1
 72
2
 73
4
 74
3
 0
VERTEX
 8
HALTER_3
 10
0
 20
0
 30
0
 70
128
 71
3
 72
4
 73
6
 74
5
 0
VERTEX
 8
HALTER_3
 10
0
 20
0
 30
0
 70
128
 71
5
 72
6
 73
8
 74
7
 0
VERTEX
 8
HALTER_3
 10
0
 20
0
 30
0
 70
128
 71
7
 72
8
 73
2
 74
1
 0
VERTEX
 8
HALTER_3
 10
0
 20
0
 30
0
 70
128
 71
2
 72
8
 73
6
 74
4
 0
VERTEX
 8
HALTER_3
 10
0
 20
0
 30
0
 70
128
 71
7
 72
1
 73
3
 74
5
 0
SEQEND
 0
POLYLINE
 8
ROSETTE
 66
1
 10
0.0
 20
0.0
 30
0.0
 70
64
 71
16
 72
14
 0
VERTEX
 8
ROSETTE
 10
-2.6824
 20
2.7848
 30
33.8824
 70
192
 0
VERTEX
 8
ROSETTE
 10
-2.6847
 20
2.7769
 30
35.8922
 70
192
 0
VERTEX
 8
ROSETTE
 10
-0.4847
 20
2.7769
 30
36.0922
 70
192
 0
VERTEX
 8
ROSETTE
 10
-0.4848
 20
2.5654
 30
36.0893
 70
192
 0
VERTEX
 8
ROSETTE
 10
-0.285
 20
2.7769
 30
33.8823
 70
192
 0
VERTEX
 8
ROSETTE
 10
-0.4847
 20
2.7848
 30
33.6944
 70
192
 0
VERTEX
 8
ROSETTE
 10
-2.6805
 20
2.5639
 30
35.902
 70
192
 0
VERTEX
 8
ROSETTE
 10
-2.6833
 20
2.5685
 30
33.8923
 70
192
 0
VERTEX
 8
ROSETTE
 10
-2.4847
 20
2.5726
 30
36.092
 70
192
 0
VERTEX
 8
ROSETTE
 10
-2.4847
 20
2.7864
 30
36.0893
 70
192
 0
VERTEX
 8
ROSETTE
 10
-0.2847
 20
2.5749
 30
35.8922
 70
192
 0
VERTEX
 8
ROSETTE
 10
-0.2913
 20
2.5611
 30
33.8923
 70
192
 0
VERTEX
 8
ROSETTE
 10
-0.2877
 20
2.7864
 30
35.8922
 70
192
 0
VERTEX
 8
ROSETTE
 10
-2.4846
 20
2.558
 30
33.7033
 70
192
 0
VERTEX
 8
ROSETTE
 10
-0.4749
 20
2.5639
 30
33.6965
 70
192
 0
VERTEX
 8
ROSETTE
 10
-2.4847
 20
2.7769
 30
33.6923
 70
192
 0
VERTEX
 8
ROSETTE
 10
0
 20
0
 30
0
 70
128
 71
8
 72
1
 73
2
 74
7
 0
VERTEX
 8
ROSETTE
 10
0
 20
0
 30
0
 70
128
 71
9
 72
10
 73
3
 74
4
 0
VERTEX
 8
ROSETTE
 10
0
 20
0
 30
0
 70
128
 71
11
 72
13
 73
5
 74
12
 0
VERTEX
 8
ROSETTE
 10
0
 20
0
 30
0
 70
128
 71
15
 72
6
 73
16
 74
14
 0
VERTEX
 8
ROSETTE
 10
0
 20
0
 30
0
 70
128
 71
13
 72
11
 73
4
 74
3
 0
VERTEX
 8
ROSETTE
 10
0
 20
0
 30
0
 70
128
 71
7
 72
2
 73
10
 74
9
 0
VERTEX
 8
ROSETTE
 10
0
 20
0
 30
0
 70
128
 71
1
 72
8
 73
14
 74
16
 0
VERTEX
 8
ROSETTE
 10
0
 20
0
 30
0
 70
128
 71
6
 72
15
 73
12
 74
5
 0
VERTEX
 8
ROSETTE
 10
0
 20
0
 30
0
 70
128
 71
7
 72
11
 73
12
 74
8
 0
VERTEX
 8
ROSETTE
 10
0
 20
0
 30
0
 70
128
 71
11
 72
7
 73
9
 74
4
 0
VERTEX
 8
ROSETTE
 10
0
 20
0
 30
0
 70
128
 71
12
 72
15
 73
14
 74
8
 0
VERTEX
 8
ROSETTE
 10
0
 20
0
 30
0
 70
128
 71
13
 72
3
 73
10
 74
2
 0
VERTEX
 8
ROSETTE
 10
0
 20
0
 30
0
 70
128
 71
13
 72
2
 73
1
 74
5
 0
VERTEX
 8
ROSETTE
 10
0
 20
0
 30
0
 70
128
 71
5
 72
1
 73
16
 74
6
 0
SEQEND
 0
POLYLINE
 8
HALTER_2
 66
1
 10
0.0
 20
0.0
 30
0.0
 70
64
 71
8
 72
6
 0
VERTEX
 8
HALTER_2
 10
-2.257
 20
0.6295
 30
22.3175
 70
192
 0
VERTEX
 8
HALTER_2
 10
-2.257
 20
0.6295
 30
23.3975
 70
192
 0
VERTEX
 8
HALTER_2
 10
-2.257
 20
-0.4505
 30
22.3175
 70
192
 0
VERTEX
 8
HALTER_2
 10
-2.257
 20
-0.4505
 30
23.3975
 70
192
 0
VERTEX
 8
HALTER_2
 10
-0.857
 20
-0.4505
 30
22.3175
 70
192
 0
VERTEX
 8
HALTER_2
 10
-0.857
 20
-0.4505
 30
23.3975
 70
192
 0
VERTEX
 8
HALTER_2
 10
-0.857
 20
0.6295
 30
22.3175
 70
192
 0
VERTEX
 8
HALTER_2
 10
-0.857
 20
0.6295
 30
23.3975
 70
192
 0
VERTEX
 8
HALTER_2
 10
0
 20
0
 30
0
 70
128
 71
1
 72
2
 73
4
 74
3
 0
VERTEX
 8
HALTER_2
 10
0
 20
0
 30
0
 70
128
 71
3
 72
4
 73
6
 74
5
 0
VERTEX
 8
HALTER_2
 10
0
 20
0
 30
0
 70
128
 71
5
 72
6
 73
8
 74
7
 0
VERTEX
 8
HALTER_2
 10
0
 20
0
 30
0
 70
128
 71
7
 72
8
 73
2
 74
1
 0
VERTEX
 8
HALTER_2
 10
0
 20
0
 30
0
 70
128
 71
2
 72
8
 73
6
 74
4
 0
VERTEX
 8
HALTER_2
 10
0
 20
0
 30
0
 70
128
 71
7
 72
1
 73
3
 74
5
 0
SEQEND
 0
POLYLINE
 8
HALTER_1
 66
1
 10
0.0
 20
0.0
 30
0.0
 70
64
 71
8
 72
6
 0
VERTEX
 8
HALTER_1
 10
-3.0712
 20
0.6295
 30
22.3175
 70
192
 0
VERTEX
 8
HALTER_1
 10
-3.0712
 20
0.6295
 30
23.3975
 70
192
 0
VERTEX
 8
HALTER_1
 10
-3.0712
 20
-0.4505
 30
22.3175
 70
192
 0
VERTEX
 8
HALTER_1
 10
-3.0712
 20
-0.4505
 30
23.3975
 70
192
 0
VERTEX
 8
HALTER_1
 10
-2.2712
 20
-0.4505
 30
22.3175
 70
192
 0
VERTEX
 8
HALTER_1
 10
-2.2712
 20
-0.4505
 30
23.3975
 70
192
 0
VERTEX
 8
HALTER_1
 10
-2.2712
 20
0.6295
 30
22.3175
 70
192
 0
VERTEX
 8
HALTER_1
 10
-2.2712
 20
0.6295
 30
23.3975
 70
192
 0
VERTEX
 8
HALTER_1
 10
0
 20
0
 30
0
 70
128
 71
1
 72
2
 73
4
 74
3
 0
VERTEX
 8
HALTER_1
 10
0
 20
0
 30
0
 70
128
 71
3
 72
4
 73
6
 74
5
 0
VERTEX
 8
HALTER_1
 10
0
 20
0
 30
0
 70
128
 71
5
 72
6
 73
8
 74
7
 0
VERTEX
 8
HALTER_1
 10
0
 20
0
 30
0
 70
128
 71
7
 72
8
 73
2
 74
1
 0
VERTEX
 8
HALTER_1
 10
0
 20
0
 30
0
 70
128
 71
2
 72
8
 73
6
 74
4
 0
VERTEX
 8
HALTER_1
 10
0
 20
0
 30
0
 70
128
 71
7
 72
1
 73
3
 74
5
 0
SEQEND
 0
POLYLINE
 8
HALTER-CYLINDER
 66
1
 10
0.0
 20
0.0
 30
0.0
 70
64
 71
26
 72
31
 0
VERTEX
 8
HALTER-CYLINDER
 10
-0.8593
 20
0.7174
 30
22.4165
 70
192
 0
VERTEX
 8
HALTER-CYLINDER
 10
-0.8593
 20
0.5299
 30
23.4801
 70
192
 0
VERTEX
 8
HALTER-CYLINDER
 10
-0.8593
 20
-0.3462
 30
22.2289
 70
192
 0
VERTEX
 8
HALTER-CYLINDER
 10
-0.8593
 20
-0.5337
 30
23.2925
 70
192
 0
VERTEX
 8
HALTER-CYLINDER
 10
0.6207
 20
-0.3462
 30
22.2289
 70
192
 0
VERTEX
 8
HALTER-CYLINDER
 10
0.6207
 20
-0.5337
 30
23.2925
 70
192
 0
VERTEX
 8
HALTER-CYLINDER
 10
0.6207
 20
0.7174
 30
22.4165
 70
192
 0
VERTEX
 8
HALTER-CYLINDER
 10
0.6207
 20
0.5299
 30
23.4801
 70
192
 0
VERTEX
 8
HALTER-CYLINDER
 10
0.6207
 20
0.2278
 30
23.4268
 70
192
 0
VERTEX
 8
HALTER-CYLINDER
 10
0.6207
 20
0.4153
 30
22.3632
 70
192
 0
VERTEX
 8
HALTER-CYLINDER
 10
0.4278
 20
0.3872
 30
23.4549
 70
192
 0
VERTEX
 8
HALTER-CYLINDER
 10
0.1405
 20
0.3872
 30
23.4549
 70
192
 0
VERTEX
 8
HALTER-CYLINDER
 10
-0.0796
 20
0.2053
 30
23.4228
 70
192
 0
VERTEX
 8
HALTER-CYLINDER
 10
-0.1295
 20
-0.0733
 30
23.3737
 70
192
 0
VERTEX
 8
HALTER-CYLINDER
 10
0.2841
 20
-0.2276
 30
22.2499
 70
192
 0
VERTEX
 8
HALTER-CYLINDER
 10
0.4278
 20
0.5747
 30
22.3913
 70
192
 0
VERTEX
 8
HALTER-CYLINDER
 10
0.5541
 20
-0.3183
 30
23.3305
 70
192
 0
VERTEX
 8
HALTER-CYLINDER
 10
0.2841
 20
-0.4151
 30
23.3135
 70
192
 0
VERTEX
 8
HALTER-CYLINDER
 10
0.5541
 20
-0.1308
 30
22.2669
 70
192
 0
VERTEX
 8
HALTER-CYLINDER
 10
0.1405
 20
0.5747
 30
22.3913
 70
192
 0
VERTEX
 8
HALTER-CYLINDER
 10
-0.0796
 20
0.3929
 30
22.3593
 70
192
 0
VERTEX
 8
HALTER-CYLINDER
 10
0.0141
 20
-0.3183
 30
23.3305
 70
192
 0
VERTEX
 8
HALTER-CYLINDER
 10
-0.1295
 20
0.1142
 30
22.3101
 70
192
 0
VERTEX
 8
HALTER-CYLINDER
 10
0.0141
 20
-0.1308
 30
22.2669
 70
192
 0
VERTEX
 8
HALTER-CYLINDER
 10
0.6207
 20
-0.2048
 30
23.3505
 70
192
 0
VERTEX
 8
HALTER-CYLINDER
 10
0.6207
 20
-0.0172
 30
22.2869
 70
192
 0
VERTEX
 8
HALTER-CYLINDER
 10
0
 20
0
 30
0
 70
128
 71
1
 72
2
 73
4
 74
3
 0
VERTEX
 8
HALTER-CYLINDER
 10
0
 20
0
 30
0
 70
128
 71
3
 72
4
 73
6
 74
5
 0
VERTEX
 8
HALTER-CYLINDER
 10
0
 20
0
 30
0
 70
128
 71
26
 72
5
 73
6
 74
25
 0
VERTEX
 8
HALTER-CYLINDER
 10
0
 20
0
 30
0
 70
128
 71
9
 72
8
 73
7
 74
10
 0
VERTEX
 8
HALTER-CYLINDER
 10
0
 20
0
 30
0
 70
128
 71
7
 72
8
 73
2
 74
1
 0
VERTEX
 8
HALTER-CYLINDER
 10
0
 20
0
 30
0
 70
128
 71
8
 72
9
 73
11
 74
11
 0
VERTEX
 8
HALTER-CYLINDER
 10
0
 20
0
 30
0
 70
128
 71
17
 72
25
 73
6
 74
6
 0
VERTEX
 8
HALTER-CYLINDER
 10
0
 20
0
 30
0
 70
128
 71
18
 72
17
 73
6
 74
6
 0
VERTEX
 8
HALTER-CYLINDER
 10
0
 20
0
 30
0
 70
128
 71
18
 72
6
 73
4
 74
4
 0
VERTEX
 8
HALTER-CYLINDER
 10
0
 20
0
 30
0
 70
128
 71
8
 72
11
 73
12
 74
2
 0
VERTEX
 8
HALTER-CYLINDER
 10
0
 20
0
 30
0
 70
128
 71
2
 72
12
 73
13
 74
13
 0
VERTEX
 8
HALTER-CYLINDER
 10
0
 20
0
 30
0
 70
128
 71
22
 72
18
 73
4
 74
4
 0
VERTEX
 8
HALTER-CYLINDER
 10
0
 20
0
 30
0
 70
128
 71
2
 72
13
 73
14
 74
14
 0
VERTEX
 8
HALTER-CYLINDER
 10
0
 20
0
 30
0
 70
128
 71
22
 72
4
 73
2
 74
14
 0
VERTEX
 8
HALTER-CYLINDER
 10
0
 20
0
 30
0
 70
128
 71
16
 72
10
 73
7
 74
7
 0
VERTEX
 8
HALTER-CYLINDER
 10
0
 20
0
 30
0
 70
128
 71
5
 72
26
 73
19
 74
19
 0
VERTEX
 8
HALTER-CYLINDER
 10
0
 20
0
 30
0
 70
128
 71
5
 72
19
 73
15
 74
15
 0
VERTEX
 8
HALTER-CYLINDER
 10
0
 20
0
 30
0
 70
128
 71
20
 72
16
 73
7
 74
1
 0
VERTEX
 8
HALTER-CYLINDER
 10
0
 20
0
 30
0
 70
128
 71
3
 72
5
 73
15
 74
15
 0
VERTEX
 8
HALTER-CYLINDER
 10
0
 20
0
 30
0
 70
128
 71
21
 72
20
 73
1
 74
1
 0
VERTEX
 8
HALTER-CYLINDER
 10
0
 20
0
 30
0
 70
128
 71
3
 72
15
 73
24
 74
24
 0
VERTEX
 8
HALTER-CYLINDER
 10
0
 20
0
 30
0
 70
128
 71
23
 72
21
 73
1
 74
1
 0
VERTEX
 8
HALTER-CYLINDER
 10
0
 20
0
 30
0
 70
128
 71
1
 72
3
 73
24
 74
23
 0
VERTEX
 8
HALTER-CYLINDER
 10
0
 20
0
 30
0
 70
128
 71
18
 72
15
 73
19
 74
17
 0
VERTEX
 8
HALTER-CYLINDER
 10
0
 20
0
 30
0
 70
128
 71
17
 72
19
 73
26
 74
25
 0
VERTEX
 8
HALTER-CYLINDER
 10
0
 20
0
 30
0
 70
128
 71
9
 72
10
 73
16
 74
11
 0
VERTEX
 8
HALTER-CYLINDER
 10
0
 20
0
 30
0
 70
128
 71
11
 72
16
 73
20
 74
12
 0
VERTEX
 8
HALTER-CYLINDER
 10
0
 20
0
 30
0
 70
128
 71
12
 72
20
 73
21
 74
13
 0
VERTEX
 8
HALTER-CYLINDER
 10
0
 20
0
 30
0
 70
128
 71
23
 72
14
 73
13
 74
21
 0
VERTEX
 8
HALTER-CYLINDER
 10
0
 20
0
 30
0
 70
128
 71
24
 72
22
 73
14
 74
23
 0
VERTEX
 8
HALTER-CYLINDER
 10
0
 20
0
 30
0
 70
128
 71
22
 72
24
 73
15
 74
18
 0
SEQEND
 0
ENDSEC
 0
EOF
