 0
SECTION
 2
HEADER
 9
$ACADVER
 1
AC1009
 0
ENDSEC
 0
SECTION
 2
TABLES
 0
TABLE
 2
LTYPE
 70
1
 0
LTYPE
 2
CONTINUOUS
 70
64
 3
solid line
 72
65
 73
0
 40
0.0
 0
ENDTAB
 0
TABLE
 2
LAYER
 70
6
 0
LAYER
 2
0
 70
0
 62
7
 6
CONTINUOUS
 0
LAYER
 2
120_1626_M
 70
64
 62
7
 6
CONTINUOUS
 0
LAYER
 2
CYLINDER_9
 70
64
 62
250
 6
CONTINUOUS
 0
LAYER
 2
CONE
 70
64
 62
250
 6
CONTINUOUS
 0
LAYER
 2
CYLINDER_8
 70
64
 62
250
 6
CONTINUOUS
 0
LAYER
 2
TUBE_1
 70
64
 62
250
 6
CONTINUOUS
 0
LAYER
 2
TUBE
 70
64
 62
7
 6
CONTINUOUS
 0
LAYER
 2
CYLINDER_7
 70
64
 62
7
 6
CONTINUOUS
 0
LAYER
 2
CYLINDER_6
 70
64
 62
7
 6
CONTINUOUS
 0
LAYER
 2
CYLINDER_5
 70
64
 62
7
 6
CONTINUOUS
 0
LAYER
 2
CYLINDER_4
 70
64
 62
7
 6
CONTINUOUS
 0
LAYER
 2
CYLINDER_3
 70
64
 62
7
 6
CONTINUOUS
 0
LAYER
 2
CYLINDER_2
 70
64
 62
7
 6
CONTINUOUS
 0
LAYER
 2
CYLINDER_1
 70
64
 62
7
 6
CONTINUOUS
 0
LAYER
 2
NULL-_CUBE_
 70
64
 62
250
 6
CONTINUOUS
 0
LAYER
 2
CUBE
 70
64
 62
250
 6
CONTINUOUS
 0
LAYER
 2
ROSETTE
 70
64
 62
250
 6
CONTINUOUS
 0
LAYER
 2
K_RPER
 70
64
 62
250
 6
CONTINUOUS
 0
LAYER
 2
SPHERE
 70
64
 62
250
 6
CONTINUOUS
 0
LAYER
 2
HALTER_1
 70
64
 62
250
 6
CONTINUOUS
 0
LAYER
 2
CYLINDER
 70
64
 62
250
 6
CONTINUOUS
 0
LAYER
 2
SCHLAUCH_1
 70
64
 62
250
 6
CONTINUOUS
 0
ENDTAB
 0
ENDSEC
 0
SECTION
 2
BLOCKS
 0
ENDSEC
 0
SECTION
 2
ENTITIES
 0
POLYLINE
 8
CYLINDER_9
 66
1
 10
0.0
 20
0.0
 30
0.0
 70
64
 71
24
 72
12
 0
VERTEX
 8
CYLINDER_9
 10
0.1969
 20
-3.9566
 30
11.4943
 70
192
 0
VERTEX
 8
CYLINDER_9
 10
0.1969
 20
-3.9566
 30
26.4943
 70
192
 0
VERTEX
 8
CYLINDER_9
 10
0.7719
 20
-3.8025
 30
11.4943
 70
192
 0
VERTEX
 8
CYLINDER_9
 10
0.7719
 20
-3.8025
 30
26.4943
 70
192
 0
VERTEX
 8
CYLINDER_9
 10
1.1928
 20
-3.3816
 30
11.4943
 70
192
 0
VERTEX
 8
CYLINDER_9
 10
1.1928
 20
-3.3816
 30
26.4943
 70
192
 0
VERTEX
 8
CYLINDER_9
 10
1.3469
 20
-2.8066
 30
11.4943
 70
192
 0
VERTEX
 8
CYLINDER_9
 10
1.3469
 20
-2.8066
 30
26.4943
 70
192
 0
VERTEX
 8
CYLINDER_9
 10
1.1928
 20
-2.2316
 30
11.4943
 70
192
 0
VERTEX
 8
CYLINDER_9
 10
1.1928
 20
-2.2316
 30
26.4943
 70
192
 0
VERTEX
 8
CYLINDER_9
 10
0.7719
 20
-1.8107
 30
11.4943
 70
192
 0
VERTEX
 8
CYLINDER_9
 10
0.7719
 20
-1.8107
 30
26.4943
 70
192
 0
VERTEX
 8
CYLINDER_9
 10
0.1969
 20
-1.6566
 30
11.4943
 70
192
 0
VERTEX
 8
CYLINDER_9
 10
0.1969
 20
-1.6566
 30
26.4943
 70
192
 0
VERTEX
 8
CYLINDER_9
 10
-0.3781
 20
-1.8107
 30
11.4943
 70
192
 0
VERTEX
 8
CYLINDER_9
 10
-0.3781
 20
-1.8107
 30
26.4943
 70
192
 0
VERTEX
 8
CYLINDER_9
 10
-0.799
 20
-2.2316
 30
11.4943
 70
192
 0
VERTEX
 8
CYLINDER_9
 10
-0.799
 20
-2.2316
 30
26.4943
 70
192
 0
VERTEX
 8
CYLINDER_9
 10
-0.9531
 20
-2.8066
 30
11.4943
 70
192
 0
VERTEX
 8
CYLINDER_9
 10
-0.9531
 20
-2.8066
 30
26.4943
 70
192
 0
VERTEX
 8
CYLINDER_9
 10
-0.799
 20
-3.3816
 30
11.4943
 70
192
 0
VERTEX
 8
CYLINDER_9
 10
-0.799
 20
-3.3816
 30
26.4943
 70
192
 0
VERTEX
 8
CYLINDER_9
 10
-0.3781
 20
-3.8025
 30
11.4943
 70
192
 0
VERTEX
 8
CYLINDER_9
 10
-0.3781
 20
-3.8025
 30
26.4943
 70
192
 0
VERTEX
 8
CYLINDER_9
 10
0
 20
0
 30
0
 70
128
 71
1
 72
2
 73
4
 74
3
 0
VERTEX
 8
CYLINDER_9
 10
0
 20
0
 30
0
 70
128
 71
3
 72
4
 73
6
 74
5
 0
VERTEX
 8
CYLINDER_9
 10
0
 20
0
 30
0
 70
128
 71
5
 72
6
 73
8
 74
7
 0
VERTEX
 8
CYLINDER_9
 10
0
 20
0
 30
0
 70
128
 71
7
 72
8
 73
10
 74
9
 0
VERTEX
 8
CYLINDER_9
 10
0
 20
0
 30
0
 70
128
 71
9
 72
10
 73
12
 74
11
 0
VERTEX
 8
CYLINDER_9
 10
0
 20
0
 30
0
 70
128
 71
11
 72
12
 73
14
 74
13
 0
VERTEX
 8
CYLINDER_9
 10
0
 20
0
 30
0
 70
128
 71
13
 72
14
 73
16
 74
15
 0
VERTEX
 8
CYLINDER_9
 10
0
 20
0
 30
0
 70
128
 71
15
 72
16
 73
18
 74
17
 0
VERTEX
 8
CYLINDER_9
 10
0
 20
0
 30
0
 70
128
 71
17
 72
18
 73
20
 74
19
 0
VERTEX
 8
CYLINDER_9
 10
0
 20
0
 30
0
 70
128
 71
19
 72
20
 73
22
 74
21
 0
VERTEX
 8
CYLINDER_9
 10
0
 20
0
 30
0
 70
128
 71
21
 72
22
 73
24
 74
23
 0
VERTEX
 8
CYLINDER_9
 10
0
 20
0
 30
0
 70
128
 71
23
 72
24
 73
2
 74
1
 0
SEQEND
 0
POLYLINE
 8
CONE
 66
1
 10
0.0
 20
0.0
 30
0.0
 70
64
 71
50
 72
36
 0
VERTEX
 8
CONE
 10
0.1878
 20
-2.7818
 30
9.5158
 70
192
 0
VERTEX
 8
CONE
 10
0.1878
 20
-2.7818
 30
11.5158
 70
192
 0
VERTEX
 8
CONE
 10
0.1878
 20
-3.6818
 30
9.5158
 70
192
 0
VERTEX
 8
CONE
 10
0.1878
 20
-3.6818
 30
9.5158
 70
192
 0
VERTEX
 8
CONE
 10
0.1878
 20
-3.9318
 30
11.5158
 70
192
 0
VERTEX
 8
CONE
 10
0.1878
 20
-3.9318
 30
11.5158
 70
192
 0
VERTEX
 8
CONE
 10
0.6378
 20
-3.5612
 30
9.5158
 70
192
 0
VERTEX
 8
CONE
 10
0.6378
 20
-3.5612
 30
9.5158
 70
192
 0
VERTEX
 8
CONE
 10
0.7628
 20
-3.7777
 30
11.5158
 70
192
 0
VERTEX
 8
CONE
 10
0.7628
 20
-3.7777
 30
11.5158
 70
192
 0
VERTEX
 8
CONE
 10
0.9673
 20
-3.2318
 30
9.5158
 70
192
 0
VERTEX
 8
CONE
 10
0.9673
 20
-3.2318
 30
9.5158
 70
192
 0
VERTEX
 8
CONE
 10
1.1838
 20
-3.3568
 30
11.5158
 70
192
 0
VERTEX
 8
CONE
 10
1.1838
 20
-3.3568
 30
11.5158
 70
192
 0
VERTEX
 8
CONE
 10
1.0878
 20
-2.7818
 30
9.5158
 70
192
 0
VERTEX
 8
CONE
 10
1.0878
 20
-2.7818
 30
9.5158
 70
192
 0
VERTEX
 8
CONE
 10
1.3378
 20
-2.7818
 30
11.5158
 70
192
 0
VERTEX
 8
CONE
 10
1.3378
 20
-2.7818
 30
11.5158
 70
192
 0
VERTEX
 8
CONE
 10
0.9673
 20
-2.3318
 30
9.5158
 70
192
 0
VERTEX
 8
CONE
 10
0.9673
 20
-2.3318
 30
9.5158
 70
192
 0
VERTEX
 8
CONE
 10
1.1838
 20
-2.2068
 30
11.5158
 70
192
 0
VERTEX
 8
CONE
 10
1.1838
 20
-2.2068
 30
11.5158
 70
192
 0
VERTEX
 8
CONE
 10
0.6378
 20
-2.0024
 30
9.5158
 70
192
 0
VERTEX
 8
CONE
 10
0.6378
 20
-2.0024
 30
9.5158
 70
192
 0
VERTEX
 8
CONE
 10
0.7628
 20
-1.7859
 30
11.5158
 70
192
 0
VERTEX
 8
CONE
 10
0.7628
 20
-1.7859
 30
11.5158
 70
192
 0
VERTEX
 8
CONE
 10
0.1878
 20
-1.8818
 30
9.5158
 70
192
 0
VERTEX
 8
CONE
 10
0.1878
 20
-1.8818
 30
9.5158
 70
192
 0
VERTEX
 8
CONE
 10
0.1878
 20
-1.6318
 30
11.5158
 70
192
 0
VERTEX
 8
CONE
 10
0.1878
 20
-1.6318
 30
11.5158
 70
192
 0
VERTEX
 8
CONE
 10
-0.2622
 20
-2.0024
 30
9.5158
 70
192
 0
VERTEX
 8
CONE
 10
-0.2622
 20
-2.0024
 30
9.5158
 70
192
 0
VERTEX
 8
CONE
 10
-0.3872
 20
-1.7859
 30
11.5158
 70
192
 0
VERTEX
 8
CONE
 10
-0.3872
 20
-1.7859
 30
11.5158
 70
192
 0
VERTEX
 8
CONE
 10
-0.5916
 20
-2.3318
 30
9.5158
 70
192
 0
VERTEX
 8
CONE
 10
-0.5916
 20
-2.3318
 30
9.5158
 70
192
 0
VERTEX
 8
CONE
 10
-0.8081
 20
-2.2068
 30
11.5158
 70
192
 0
VERTEX
 8
CONE
 10
-0.8081
 20
-2.2068
 30
11.5158
 70
192
 0
VERTEX
 8
CONE
 10
-0.7122
 20
-2.7818
 30
9.5158
 70
192
 0
VERTEX
 8
CONE
 10
-0.7122
 20
-2.7818
 30
9.5158
 70
192
 0
VERTEX
 8
CONE
 10
-0.9622
 20
-2.7818
 30
11.5158
 70
192
 0
VERTEX
 8
CONE
 10
-0.9622
 20
-2.7818
 30
11.5158
 70
192
 0
VERTEX
 8
CONE
 10
-0.5916
 20
-3.2318
 30
9.5158
 70
192
 0
VERTEX
 8
CONE
 10
-0.5916
 20
-3.2318
 30
9.5158
 70
192
 0
VERTEX
 8
CONE
 10
-0.8081
 20
-3.3568
 30
11.5158
 70
192
 0
VERTEX
 8
CONE
 10
-0.8081
 20
-3.3568
 30
11.5158
 70
192
 0
VERTEX
 8
CONE
 10
-0.2622
 20
-3.5612
 30
9.5158
 70
192
 0
VERTEX
 8
CONE
 10
-0.2622
 20
-3.5612
 30
9.5158
 70
192
 0
VERTEX
 8
CONE
 10
-0.3872
 20
-3.7777
 30
11.5158
 70
192
 0
VERTEX
 8
CONE
 10
-0.3872
 20
-3.7777
 30
11.5158
 70
192
 0
VERTEX
 8
CONE
 10
0
 20
0
 30
0
 70
128
 71
1
 72
3
 73
7
 74
7
 0
VERTEX
 8
CONE
 10
0
 20
0
 30
0
 70
128
 71
4
 72
5
 73
9
 74
8
 0
VERTEX
 8
CONE
 10
0
 20
0
 30
0
 70
128
 71
6
 72
2
 73
10
 74
10
 0
VERTEX
 8
CONE
 10
0
 20
0
 30
0
 70
128
 71
1
 72
7
 73
11
 74
11
 0
VERTEX
 8
CONE
 10
0
 20
0
 30
0
 70
128
 71
8
 72
9
 73
13
 74
12
 0
VERTEX
 8
CONE
 10
0
 20
0
 30
0
 70
128
 71
10
 72
2
 73
14
 74
14
 0
VERTEX
 8
CONE
 10
0
 20
0
 30
0
 70
128
 71
1
 72
11
 73
15
 74
15
 0
VERTEX
 8
CONE
 10
0
 20
0
 30
0
 70
128
 71
12
 72
13
 73
17
 74
16
 0
VERTEX
 8
CONE
 10
0
 20
0
 30
0
 70
128
 71
14
 72
2
 73
18
 74
18
 0
VERTEX
 8
CONE
 10
0
 20
0
 30
0
 70
128
 71
1
 72
15
 73
19
 74
19
 0
VERTEX
 8
CONE
 10
0
 20
0
 30
0
 70
128
 71
16
 72
17
 73
21
 74
20
 0
VERTEX
 8
CONE
 10
0
 20
0
 30
0
 70
128
 71
18
 72
2
 73
22
 74
22
 0
VERTEX
 8
CONE
 10
0
 20
0
 30
0
 70
128
 71
1
 72
19
 73
23
 74
23
 0
VERTEX
 8
CONE
 10
0
 20
0
 30
0
 70
128
 71
20
 72
21
 73
25
 74
24
 0
VERTEX
 8
CONE
 10
0
 20
0
 30
0
 70
128
 71
22
 72
2
 73
26
 74
26
 0
VERTEX
 8
CONE
 10
0
 20
0
 30
0
 70
128
 71
1
 72
23
 73
27
 74
27
 0
VERTEX
 8
CONE
 10
0
 20
0
 30
0
 70
128
 71
24
 72
25
 73
29
 74
28
 0
VERTEX
 8
CONE
 10
0
 20
0
 30
0
 70
128
 71
26
 72
2
 73
30
 74
30
 0
VERTEX
 8
CONE
 10
0
 20
0
 30
0
 70
128
 71
1
 72
27
 73
31
 74
31
 0
VERTEX
 8
CONE
 10
0
 20
0
 30
0
 70
128
 71
28
 72
29
 73
33
 74
32
 0
VERTEX
 8
CONE
 10
0
 20
0
 30
0
 70
128
 71
30
 72
2
 73
34
 74
34
 0
VERTEX
 8
CONE
 10
0
 20
0
 30
0
 70
128
 71
1
 72
31
 73
35
 74
35
 0
VERTEX
 8
CONE
 10
0
 20
0
 30
0
 70
128
 71
32
 72
33
 73
37
 74
36
 0
VERTEX
 8
CONE
 10
0
 20
0
 30
0
 70
128
 71
34
 72
2
 73
38
 74
38
 0
VERTEX
 8
CONE
 10
0
 20
0
 30
0
 70
128
 71
1
 72
35
 73
39
 74
39
 0
VERTEX
 8
CONE
 10
0
 20
0
 30
0
 70
128
 71
36
 72
37
 73
41
 74
40
 0
VERTEX
 8
CONE
 10
0
 20
0
 30
0
 70
128
 71
38
 72
2
 73
42
 74
42
 0
VERTEX
 8
CONE
 10
0
 20
0
 30
0
 70
128
 71
1
 72
39
 73
43
 74
43
 0
VERTEX
 8
CONE
 10
0
 20
0
 30
0
 70
128
 71
40
 72
41
 73
45
 74
44
 0
VERTEX
 8
CONE
 10
0
 20
0
 30
0
 70
128
 71
42
 72
2
 73
46
 74
46
 0
VERTEX
 8
CONE
 10
0
 20
0
 30
0
 70
128
 71
1
 72
43
 73
47
 74
47
 0
VERTEX
 8
CONE
 10
0
 20
0
 30
0
 70
128
 71
44
 72
45
 73
49
 74
48
 0
VERTEX
 8
CONE
 10
0
 20
0
 30
0
 70
128
 71
46
 72
2
 73
50
 74
50
 0
VERTEX
 8
CONE
 10
0
 20
0
 30
0
 70
128
 71
1
 72
47
 73
3
 74
3
 0
VERTEX
 8
CONE
 10
0
 20
0
 30
0
 70
128
 71
48
 72
49
 73
5
 74
4
 0
VERTEX
 8
CONE
 10
0
 20
0
 30
0
 70
128
 71
50
 72
2
 73
6
 74
6
 0
SEQEND
 0
POLYLINE
 8
CYLINDER_8
 66
1
 10
0.0
 20
0.0
 30
0.0
 70
64
 71
62
 72
45
 0
VERTEX
 8
CYLINDER_8
 10
0.4328
 20
-5.5844
 30
29.1486
 70
192
 0
VERTEX
 8
CYLINDER_8
 10
0.4329
 20
-2.6713
 30
30.2089
 70
192
 0
VERTEX
 8
CYLINDER_8
 10
-3.5672
 20
-5.5843
 30
29.1486
 70
192
 0
VERTEX
 8
CYLINDER_8
 10
-3.5672
 20
-5.5843
 30
29.1486
 70
192
 0
VERTEX
 8
CYLINDER_8
 10
-3.5671
 20
-2.6713
 30
30.2089
 70
192
 0
VERTEX
 8
CYLINDER_8
 10
-3.5671
 20
-2.6713
 30
30.2089
 70
192
 0
VERTEX
 8
CYLINDER_8
 10
-3.2213
 20
-6.1408
 30
30.6774
 70
192
 0
VERTEX
 8
CYLINDER_8
 10
-3.2213
 20
-6.1408
 30
30.6774
 70
192
 0
VERTEX
 8
CYLINDER_8
 10
-3.2213
 20
-3.2277
 30
31.7377
 70
192
 0
VERTEX
 8
CYLINDER_8
 10
-3.2213
 20
-3.2277
 30
31.7377
 70
192
 0
VERTEX
 8
CYLINDER_8
 10
-2.2437
 20
-6.601
 30
31.9419
 70
192
 0
VERTEX
 8
CYLINDER_8
 10
-2.2437
 20
-6.601
 30
31.9419
 70
192
 0
VERTEX
 8
CYLINDER_8
 10
-2.2437
 20
-3.688
 30
33.0022
 70
192
 0
VERTEX
 8
CYLINDER_8
 10
-2.2437
 20
-3.688
 30
33.0022
 70
192
 0
VERTEX
 8
CYLINDER_8
 10
-0.8032
 20
-6.8855
 30
32.7234
 70
192
 0
VERTEX
 8
CYLINDER_8
 10
-0.8032
 20
-6.8855
 30
32.7234
 70
192
 0
VERTEX
 8
CYLINDER_8
 10
-0.8032
 20
-3.9724
 30
33.7837
 70
192
 0
VERTEX
 8
CYLINDER_8
 10
-0.8032
 20
-3.9724
 30
33.7837
 70
192
 0
VERTEX
 8
CYLINDER_8
 10
0.851
 20
-6.9449
 30
32.8868
 70
192
 0
VERTEX
 8
CYLINDER_8
 10
0.851
 20
-6.9449
 30
32.8868
 70
192
 0
VERTEX
 8
CYLINDER_8
 10
0.851
 20
-4.0319
 30
33.947
 70
192
 0
VERTEX
 8
CYLINDER_8
 10
0.851
 20
-4.0319
 30
33.947
 70
192
 0
VERTEX
 8
CYLINDER_8
 10
2.4328
 20
-6.7692
 30
32.4038
 70
192
 0
VERTEX
 8
CYLINDER_8
 10
2.4328
 20
-6.7692
 30
32.4038
 70
192
 0
VERTEX
 8
CYLINDER_8
 10
2.4329
 20
-3.8561
 30
33.464
 70
192
 0
VERTEX
 8
CYLINDER_8
 10
2.4329
 20
-3.8561
 30
33.464
 70
192
 0
VERTEX
 8
CYLINDER_8
 10
3.6689
 20
-6.3885
 30
31.3579
 70
192
 0
VERTEX
 8
CYLINDER_8
 10
3.6689
 20
-6.3885
 30
31.3579
 70
192
 0
VERTEX
 8
CYLINDER_8
 10
3.6689
 20
-3.4755
 30
32.4182
 70
192
 0
VERTEX
 8
CYLINDER_8
 10
3.6689
 20
-3.4755
 30
32.4182
 70
192
 0
VERTEX
 8
CYLINDER_8
 10
4.3454
 20
-5.8688
 30
29.9301
 70
192
 0
VERTEX
 8
CYLINDER_8
 10
4.3454
 20
-5.8688
 30
29.9301
 70
192
 0
VERTEX
 8
CYLINDER_8
 10
4.3454
 20
-2.9558
 30
30.9903
 70
192
 0
VERTEX
 8
CYLINDER_8
 10
4.3454
 20
-2.9558
 30
30.9903
 70
192
 0
VERTEX
 8
CYLINDER_8
 10
4.3454
 20
-5.2999
 30
28.3671
 70
192
 0
VERTEX
 8
CYLINDER_8
 10
4.3454
 20
-5.2999
 30
28.3671
 70
192
 0
VERTEX
 8
CYLINDER_8
 10
4.3454
 20
-2.3869
 30
29.4274
 70
192
 0
VERTEX
 8
CYLINDER_8
 10
4.3454
 20
-2.3869
 30
29.4274
 70
192
 0
VERTEX
 8
CYLINDER_8
 10
3.6689
 20
-4.7802
 30
26.9392
 70
192
 0
VERTEX
 8
CYLINDER_8
 10
3.6689
 20
-4.7802
 30
26.9392
 70
192
 0
VERTEX
 8
CYLINDER_8
 10
3.6689
 20
-1.8672
 30
27.9995
 70
192
 0
VERTEX
 8
CYLINDER_8
 10
3.6689
 20
-1.8672
 30
27.9995
 70
192
 0
VERTEX
 8
CYLINDER_8
 10
2.4328
 20
-4.3996
 30
25.8934
 70
192
 0
VERTEX
 8
CYLINDER_8
 10
2.4328
 20
-4.3996
 30
25.8934
 70
192
 0
VERTEX
 8
CYLINDER_8
 10
2.4329
 20
-1.4865
 30
26.9537
 70
192
 0
VERTEX
 8
CYLINDER_8
 10
2.4329
 20
-1.4865
 30
26.9537
 70
192
 0
VERTEX
 8
CYLINDER_8
 10
0.851
 20
-4.2238
 30
25.4104
 70
192
 0
VERTEX
 8
CYLINDER_8
 10
0.851
 20
-4.2238
 30
25.4104
 70
192
 0
VERTEX
 8
CYLINDER_8
 10
0.851
 20
-1.3107
 30
26.4707
 70
192
 0
VERTEX
 8
CYLINDER_8
 10
0.851
 20
-1.3107
 30
26.4707
 70
192
 0
VERTEX
 8
CYLINDER_8
 10
-0.8032
 20
-4.2832
 30
25.5738
 70
192
 0
VERTEX
 8
CYLINDER_8
 10
-0.8032
 20
-4.2832
 30
25.5738
 70
192
 0
VERTEX
 8
CYLINDER_8
 10
-0.8032
 20
-1.3702
 30
26.6341
 70
192
 0
VERTEX
 8
CYLINDER_8
 10
-0.8032
 20
-1.3702
 30
26.6341
 70
192
 0
VERTEX
 8
CYLINDER_8
 10
-2.2437
 20
-4.5677
 30
26.3553
 70
192
 0
VERTEX
 8
CYLINDER_8
 10
-2.2437
 20
-4.5677
 30
26.3553
 70
192
 0
VERTEX
 8
CYLINDER_8
 10
-2.2437
 20
-1.6546
 30
27.4155
 70
192
 0
VERTEX
 8
CYLINDER_8
 10
-2.2437
 20
-1.6546
 30
27.4155
 70
192
 0
VERTEX
 8
CYLINDER_8
 10
-3.2213
 20
-5.0279
 30
27.6198
 70
192
 0
VERTEX
 8
CYLINDER_8
 10
-3.2213
 20
-5.0279
 30
27.6198
 70
192
 0
VERTEX
 8
CYLINDER_8
 10
-3.2213
 20
-2.1149
 30
28.68
 70
192
 0
VERTEX
 8
CYLINDER_8
 10
-3.2213
 20
-2.1149
 30
28.68
 70
192
 0
VERTEX
 8
CYLINDER_8
 10
0
 20
0
 30
0
 70
128
 71
1
 72
3
 73
7
 74
7
 0
VERTEX
 8
CYLINDER_8
 10
0
 20
0
 30
0
 70
128
 71
4
 72
5
 73
9
 74
8
 0
VERTEX
 8
CYLINDER_8
 10
0
 20
0
 30
0
 70
128
 71
6
 72
2
 73
10
 74
10
 0
VERTEX
 8
CYLINDER_8
 10
0
 20
0
 30
0
 70
128
 71
1
 72
7
 73
11
 74
11
 0
VERTEX
 8
CYLINDER_8
 10
0
 20
0
 30
0
 70
128
 71
8
 72
9
 73
13
 74
12
 0
VERTEX
 8
CYLINDER_8
 10
0
 20
0
 30
0
 70
128
 71
10
 72
2
 73
14
 74
14
 0
VERTEX
 8
CYLINDER_8
 10
0
 20
0
 30
0
 70
128
 71
1
 72
11
 73
15
 74
15
 0
VERTEX
 8
CYLINDER_8
 10
0
 20
0
 30
0
 70
128
 71
12
 72
13
 73
17
 74
16
 0
VERTEX
 8
CYLINDER_8
 10
0
 20
0
 30
0
 70
128
 71
14
 72
2
 73
18
 74
18
 0
VERTEX
 8
CYLINDER_8
 10
0
 20
0
 30
0
 70
128
 71
1
 72
15
 73
19
 74
19
 0
VERTEX
 8
CYLINDER_8
 10
0
 20
0
 30
0
 70
128
 71
16
 72
17
 73
21
 74
20
 0
VERTEX
 8
CYLINDER_8
 10
0
 20
0
 30
0
 70
128
 71
18
 72
2
 73
22
 74
22
 0
VERTEX
 8
CYLINDER_8
 10
0
 20
0
 30
0
 70
128
 71
1
 72
19
 73
23
 74
23
 0
VERTEX
 8
CYLINDER_8
 10
0
 20
0
 30
0
 70
128
 71
20
 72
21
 73
25
 74
24
 0
VERTEX
 8
CYLINDER_8
 10
0
 20
0
 30
0
 70
128
 71
22
 72
2
 73
26
 74
26
 0
VERTEX
 8
CYLINDER_8
 10
0
 20
0
 30
0
 70
128
 71
1
 72
23
 73
27
 74
27
 0
VERTEX
 8
CYLINDER_8
 10
0
 20
0
 30
0
 70
128
 71
24
 72
25
 73
29
 74
28
 0
VERTEX
 8
CYLINDER_8
 10
0
 20
0
 30
0
 70
128
 71
26
 72
2
 73
30
 74
30
 0
VERTEX
 8
CYLINDER_8
 10
0
 20
0
 30
0
 70
128
 71
1
 72
27
 73
31
 74
31
 0
VERTEX
 8
CYLINDER_8
 10
0
 20
0
 30
0
 70
128
 71
28
 72
29
 73
33
 74
32
 0
VERTEX
 8
CYLINDER_8
 10
0
 20
0
 30
0
 70
128
 71
30
 72
2
 73
34
 74
34
 0
VERTEX
 8
CYLINDER_8
 10
0
 20
0
 30
0
 70
128
 71
1
 72
31
 73
35
 74
35
 0
VERTEX
 8
CYLINDER_8
 10
0
 20
0
 30
0
 70
128
 71
32
 72
33
 73
37
 74
36
 0
VERTEX
 8
CYLINDER_8
 10
0
 20
0
 30
0
 70
128
 71
34
 72
2
 73
38
 74
38
 0
VERTEX
 8
CYLINDER_8
 10
0
 20
0
 30
0
 70
128
 71
1
 72
35
 73
39
 74
39
 0
VERTEX
 8
CYLINDER_8
 10
0
 20
0
 30
0
 70
128
 71
36
 72
37
 73
41
 74
40
 0
VERTEX
 8
CYLINDER_8
 10
0
 20
0
 30
0
 70
128
 71
38
 72
2
 73
42
 74
42
 0
VERTEX
 8
CYLINDER_8
 10
0
 20
0
 30
0
 70
128
 71
1
 72
39
 73
43
 74
43
 0
VERTEX
 8
CYLINDER_8
 10
0
 20
0
 30
0
 70
128
 71
40
 72
41
 73
45
 74
44
 0
VERTEX
 8
CYLINDER_8
 10
0
 20
0
 30
0
 70
128
 71
42
 72
2
 73
46
 74
46
 0
VERTEX
 8
CYLINDER_8
 10
0
 20
0
 30
0
 70
128
 71
1
 72
43
 73
47
 74
47
 0
VERTEX
 8
CYLINDER_8
 10
0
 20
0
 30
0
 70
128
 71
44
 72
45
 73
49
 74
48
 0
VERTEX
 8
CYLINDER_8
 10
0
 20
0
 30
0
 70
128
 71
46
 72
2
 73
50
 74
50
 0
VERTEX
 8
CYLINDER_8
 10
0
 20
0
 30
0
 70
128
 71
1
 72
47
 73
51
 74
51
 0
VERTEX
 8
CYLINDER_8
 10
0
 20
0
 30
0
 70
128
 71
48
 72
49
 73
53
 74
52
 0
VERTEX
 8
CYLINDER_8
 10
0
 20
0
 30
0
 70
128
 71
50
 72
2
 73
54
 74
54
 0
VERTEX
 8
CYLINDER_8
 10
0
 20
0
 30
0
 70
128
 71
1
 72
51
 73
55
 74
55
 0
VERTEX
 8
CYLINDER_8
 10
0
 20
0
 30
0
 70
128
 71
52
 72
53
 73
57
 74
56
 0
VERTEX
 8
CYLINDER_8
 10
0
 20
0
 30
0
 70
128
 71
54
 72
2
 73
58
 74
58
 0
VERTEX
 8
CYLINDER_8
 10
0
 20
0
 30
0
 70
128
 71
1
 72
55
 73
59
 74
59
 0
VERTEX
 8
CYLINDER_8
 10
0
 20
0
 30
0
 70
128
 71
56
 72
57
 73
61
 74
60
 0
VERTEX
 8
CYLINDER_8
 10
0
 20
0
 30
0
 70
128
 71
58
 72
2
 73
62
 74
62
 0
VERTEX
 8
CYLINDER_8
 10
0
 20
0
 30
0
 70
128
 71
1
 72
59
 73
3
 74
3
 0
VERTEX
 8
CYLINDER_8
 10
0
 20
0
 30
0
 70
128
 71
60
 72
61
 73
5
 74
4
 0
VERTEX
 8
CYLINDER_8
 10
0
 20
0
 30
0
 70
128
 71
62
 72
2
 73
6
 74
6
 0
SEQEND
 0
POLYLINE
 8
TUBE_1
 66
1
 10
0.0
 20
0.0
 30
0.0
 70
64
 71
90
 72
30
 0
VERTEX
 8
TUBE_1
 10
-3.0699
 20
-6.2167
 30
28.922
 70
192
 0
VERTEX
 8
TUBE_1
 10
-3.5699
 20
-6.2167
 30
28.922
 70
192
 0
VERTEX
 8
TUBE_1
 10
-3.5699
 20
-6.2167
 30
28.922
 70
192
 0
VERTEX
 8
TUBE_1
 10
-3.5699
 20
-5.5589
 30
29.1614
 70
192
 0
VERTEX
 8
TUBE_1
 10
-3.5699
 20
-5.5589
 30
29.1614
 70
192
 0
VERTEX
 8
TUBE_1
 10
-0.6515
 20
-5.0782
 30
25.794
 70
192
 0
VERTEX
 8
TUBE_1
 10
-0.806
 20
-4.9156
 30
25.3472
 70
192
 0
VERTEX
 8
TUBE_1
 10
-3.0699
 20
-6.2167
 30
28.922
 70
192
 0
VERTEX
 8
TUBE_1
 10
-2.7673
 20
-6.7036
 30
30.2597
 70
192
 0
VERTEX
 8
TUBE_1
 10
-3.2241
 20
-6.7731
 30
30.4508
 70
192
 0
VERTEX
 8
TUBE_1
 10
-3.2241
 20
-6.7731
 30
30.4508
 70
192
 0
VERTEX
 8
TUBE_1
 10
-3.2241
 20
-6.1154
 30
30.6902
 70
192
 0
VERTEX
 8
TUBE_1
 10
-3.2241
 20
-6.1154
 30
30.6902
 70
192
 0
VERTEX
 8
TUBE_1
 10
0.8482
 20
-4.8561
 30
25.1838
 70
192
 0
VERTEX
 8
TUBE_1
 10
0.8482
 20
-4.1983
 30
25.4232
 70
192
 0
VERTEX
 8
TUBE_1
 10
-2.7673
 20
-6.7036
 30
30.2597
 70
192
 0
VERTEX
 8
TUBE_1
 10
-1.9119
 20
-7.1063
 30
31.3661
 70
192
 0
VERTEX
 8
TUBE_1
 10
-2.2464
 20
-7.2334
 30
31.7153
 70
192
 0
VERTEX
 8
TUBE_1
 10
-2.2464
 20
-7.2334
 30
31.7153
 70
192
 0
VERTEX
 8
TUBE_1
 10
-2.2464
 20
-6.5756
 30
31.9547
 70
192
 0
VERTEX
 8
TUBE_1
 10
-2.2464
 20
-6.5756
 30
31.9547
 70
192
 0
VERTEX
 8
TUBE_1
 10
0.8482
 20
-4.1983
 30
25.4232
 70
192
 0
VERTEX
 8
TUBE_1
 10
-2.2464
 20
-5.2
 30
26.1287
 70
192
 0
VERTEX
 8
TUBE_1
 10
-1.9119
 20
-7.1063
 30
31.3661
 70
192
 0
VERTEX
 8
TUBE_1
 10
-0.6515
 20
-7.3552
 30
32.05
 70
192
 0
VERTEX
 8
TUBE_1
 10
-0.806
 20
-7.5178
 30
32.4968
 70
192
 0
VERTEX
 8
TUBE_1
 10
-0.806
 20
-7.5178
 30
32.4968
 70
192
 0
VERTEX
 8
TUBE_1
 10
-0.806
 20
-6.86
 30
32.7362
 70
192
 0
VERTEX
 8
TUBE_1
 10
-0.806
 20
-6.86
 30
32.7362
 70
192
 0
VERTEX
 8
TUBE_1
 10
-2.2464
 20
-4.5422
 30
26.3681
 70
192
 0
VERTEX
 8
TUBE_1
 10
0.7959
 20
-5.0262
 30
25.6511
 70
192
 0
VERTEX
 8
TUBE_1
 10
-0.6515
 20
-7.3552
 30
32.05
 70
192
 0
VERTEX
 8
TUBE_1
 10
0.7959
 20
-7.4072
 30
32.1929
 70
192
 0
VERTEX
 8
TUBE_1
 10
0.8482
 20
-7.5773
 30
32.6602
 70
192
 0
VERTEX
 8
TUBE_1
 10
0.8482
 20
-7.5773
 30
32.6602
 70
192
 0
VERTEX
 8
TUBE_1
 10
0.8482
 20
-6.9195
 30
32.8996
 70
192
 0
VERTEX
 8
TUBE_1
 10
0.8482
 20
-6.9195
 30
32.8996
 70
192
 0
VERTEX
 8
TUBE_1
 10
-2.2464
 20
-4.5422
 30
26.3681
 70
192
 0
VERTEX
 8
TUBE_1
 10
-0.806
 20
-4.9156
 30
25.3472
 70
192
 0
VERTEX
 8
TUBE_1
 10
0.7959
 20
-7.4072
 30
32.1929
 70
192
 0
VERTEX
 8
TUBE_1
 10
2.1801
 20
-7.2534
 30
31.7703
 70
192
 0
VERTEX
 8
TUBE_1
 10
2.4301
 20
-7.4015
 30
32.1772
 70
192
 0
VERTEX
 8
TUBE_1
 10
2.4301
 20
-7.4015
 30
32.1772
 70
192
 0
VERTEX
 8
TUBE_1
 10
2.4301
 20
-6.7437
 30
32.4166
 70
192
 0
VERTEX
 8
TUBE_1
 10
2.4301
 20
-6.7437
 30
32.4166
 70
192
 0
VERTEX
 8
TUBE_1
 10
-0.806
 20
-4.2578
 30
25.5866
 70
192
 0
VERTEX
 8
TUBE_1
 10
-1.9119
 20
-5.3271
 30
26.4779
 70
192
 0
VERTEX
 8
TUBE_1
 10
2.1801
 20
-7.2534
 30
31.7703
 70
192
 0
VERTEX
 8
TUBE_1
 10
3.2616
 20
-6.9203
 30
30.8552
 70
192
 0
VERTEX
 8
TUBE_1
 10
3.6661
 20
-7.0208
 30
31.1314
 70
192
 0
VERTEX
 8
TUBE_1
 10
3.6661
 20
-7.0208
 30
31.1314
 70
192
 0
VERTEX
 8
TUBE_1
 10
3.6661
 20
-6.3631
 30
31.3708
 70
192
 0
VERTEX
 8
TUBE_1
 10
3.6661
 20
-6.3631
 30
31.3708
 70
192
 0
VERTEX
 8
TUBE_1
 10
-2.7673
 20
-5.7298
 30
27.5843
 70
192
 0
VERTEX
 8
TUBE_1
 10
-3.2241
 20
-5.6602
 30
27.3932
 70
192
 0
VERTEX
 8
TUBE_1
 10
3.2616
 20
-6.9203
 30
30.8552
 70
192
 0
VERTEX
 8
TUBE_1
 10
3.8536
 20
-6.4656
 30
29.6058
 70
192
 0
VERTEX
 8
TUBE_1
 10
4.3427
 20
-6.5011
 30
29.7035
 70
192
 0
VERTEX
 8
TUBE_1
 10
4.3427
 20
-6.5011
 30
29.7035
 70
192
 0
VERTEX
 8
TUBE_1
 10
4.3427
 20
-5.8434
 30
29.9429
 70
192
 0
VERTEX
 8
TUBE_1
 10
4.3427
 20
-5.8434
 30
29.9429
 70
192
 0
VERTEX
 8
TUBE_1
 10
-3.2241
 20
-5.6602
 30
27.3932
 70
192
 0
VERTEX
 8
TUBE_1
 10
-3.2241
 20
-5.0025
 30
27.6326
 70
192
 0
VERTEX
 8
TUBE_1
 10
3.8536
 20
-6.4656
 30
29.6058
 70
192
 0
VERTEX
 8
TUBE_1
 10
3.8536
 20
-5.9678
 30
28.2382
 70
192
 0
VERTEX
 8
TUBE_1
 10
4.3427
 20
-5.9323
 30
28.1405
 70
192
 0
VERTEX
 8
TUBE_1
 10
4.3427
 20
-5.9323
 30
28.1405
 70
192
 0
VERTEX
 8
TUBE_1
 10
4.3427
 20
-5.2745
 30
28.3799
 70
192
 0
VERTEX
 8
TUBE_1
 10
4.3427
 20
-5.2745
 30
28.3799
 70
192
 0
VERTEX
 8
TUBE_1
 10
-3.2241
 20
-5.0025
 30
27.6326
 70
192
 0
VERTEX
 8
TUBE_1
 10
-0.806
 20
-4.2578
 30
25.5866
 70
192
 0
VERTEX
 8
TUBE_1
 10
3.8536
 20
-5.9678
 30
28.2382
 70
192
 0
VERTEX
 8
TUBE_1
 10
3.2616
 20
-5.5131
 30
26.9888
 70
192
 0
VERTEX
 8
TUBE_1
 10
3.6662
 20
-5.4126
 30
26.7127
 70
192
 0
VERTEX
 8
TUBE_1
 10
3.6662
 20
-5.4126
 30
26.7127
 70
192
 0
VERTEX
 8
TUBE_1
 10
3.6662
 20
-4.7548
 30
26.9521
 70
192
 0
VERTEX
 8
TUBE_1
 10
3.6662
 20
-4.7548
 30
26.9521
 70
192
 0
VERTEX
 8
TUBE_1
 10
-0.6515
 20
-5.0782
 30
25.794
 70
192
 0
VERTEX
 8
TUBE_1
 10
-2.7673
 20
-5.7298
 30
27.5843
 70
192
 0
VERTEX
 8
TUBE_1
 10
3.2616
 20
-5.5131
 30
26.9888
 70
192
 0
VERTEX
 8
TUBE_1
 10
2.1801
 20
-5.18
 30
26.0737
 70
192
 0
VERTEX
 8
TUBE_1
 10
2.4301
 20
-5.0319
 30
25.6668
 70
192
 0
VERTEX
 8
TUBE_1
 10
2.4301
 20
-5.0319
 30
25.6668
 70
192
 0
VERTEX
 8
TUBE_1
 10
2.4301
 20
-4.3741
 30
25.9062
 70
192
 0
VERTEX
 8
TUBE_1
 10
2.4301
 20
-4.3741
 30
25.9062
 70
192
 0
VERTEX
 8
TUBE_1
 10
-1.9119
 20
-5.3271
 30
26.4779
 70
192
 0
VERTEX
 8
TUBE_1
 10
-2.2464
 20
-5.2
 30
26.1287
 70
192
 0
VERTEX
 8
TUBE_1
 10
2.1801
 20
-5.18
 30
26.0737
 70
192
 0
VERTEX
 8
TUBE_1
 10
0.7959
 20
-5.0262
 30
25.6511
 70
192
 0
VERTEX
 8
TUBE_1
 10
0.8482
 20
-4.8561
 30
25.1838
 70
192
 0
VERTEX
 8
TUBE_1
 10
0
 20
0
 30
0
 70
128
 71
1
 72
2
 73
10
 74
9
 0
VERTEX
 8
TUBE_1
 10
0
 20
0
 30
0
 70
128
 71
3
 72
4
 73
12
 74
11
 0
VERTEX
 8
TUBE_1
 10
0
 20
0
 30
0
 70
128
 71
54
 72
55
 73
2
 74
1
 0
VERTEX
 8
TUBE_1
 10
0
 20
0
 30
0
 70
128
 71
62
 72
63
 73
4
 74
3
 0
VERTEX
 8
TUBE_1
 10
0
 20
0
 30
0
 70
128
 71
9
 72
10
 73
18
 74
17
 0
VERTEX
 8
TUBE_1
 10
0
 20
0
 30
0
 70
128
 71
11
 72
12
 73
20
 74
19
 0
VERTEX
 8
TUBE_1
 10
0
 20
0
 30
0
 70
128
 71
89
 72
90
 73
7
 74
6
 0
VERTEX
 8
TUBE_1
 10
0
 20
0
 30
0
 70
128
 71
14
 72
15
 73
46
 74
39
 0
VERTEX
 8
TUBE_1
 10
0
 20
0
 30
0
 70
128
 71
17
 72
18
 73
26
 74
25
 0
VERTEX
 8
TUBE_1
 10
0
 20
0
 30
0
 70
128
 71
19
 72
20
 73
28
 74
27
 0
VERTEX
 8
TUBE_1
 10
0
 20
0
 30
0
 70
128
 71
65
 72
66
 73
74
 74
73
 0
VERTEX
 8
TUBE_1
 10
0
 20
0
 30
0
 70
128
 71
67
 72
68
 73
76
 74
75
 0
VERTEX
 8
TUBE_1
 10
0
 20
0
 30
0
 70
128
 71
25
 72
26
 73
34
 74
33
 0
VERTEX
 8
TUBE_1
 10
0
 20
0
 30
0
 70
128
 71
27
 72
28
 73
36
 74
35
 0
VERTEX
 8
TUBE_1
 10
0
 20
0
 30
0
 70
128
 71
73
 72
74
 73
82
 74
81
 0
VERTEX
 8
TUBE_1
 10
0
 20
0
 30
0
 70
128
 71
75
 72
76
 73
84
 74
83
 0
VERTEX
 8
TUBE_1
 10
0
 20
0
 30
0
 70
128
 71
33
 72
34
 73
42
 74
41
 0
VERTEX
 8
TUBE_1
 10
0
 20
0
 30
0
 70
128
 71
35
 72
36
 73
44
 74
43
 0
VERTEX
 8
TUBE_1
 10
0
 20
0
 30
0
 70
128
 71
6
 72
7
 73
87
 74
86
 0
VERTEX
 8
TUBE_1
 10
0
 20
0
 30
0
 70
128
 71
39
 72
46
 73
30
 74
23
 0
VERTEX
 8
TUBE_1
 10
0
 20
0
 30
0
 70
128
 71
41
 72
42
 73
50
 74
49
 0
VERTEX
 8
TUBE_1
 10
0
 20
0
 30
0
 70
128
 71
43
 72
44
 73
52
 74
51
 0
VERTEX
 8
TUBE_1
 10
0
 20
0
 30
0
 70
128
 71
81
 72
82
 73
90
 74
89
 0
VERTEX
 8
TUBE_1
 10
0
 20
0
 30
0
 70
128
 71
83
 72
84
 73
15
 74
14
 0
VERTEX
 8
TUBE_1
 10
0
 20
0
 30
0
 70
128
 71
49
 72
50
 73
58
 74
57
 0
VERTEX
 8
TUBE_1
 10
0
 20
0
 30
0
 70
128
 71
51
 72
52
 73
60
 74
59
 0
VERTEX
 8
TUBE_1
 10
0
 20
0
 30
0
 70
128
 71
86
 72
87
 73
55
 74
54
 0
VERTEX
 8
TUBE_1
 10
0
 20
0
 30
0
 70
128
 71
23
 72
30
 73
63
 74
62
 0
VERTEX
 8
TUBE_1
 10
0
 20
0
 30
0
 70
128
 71
57
 72
58
 73
66
 74
65
 0
VERTEX
 8
TUBE_1
 10
0
 20
0
 30
0
 70
128
 71
59
 72
60
 73
68
 74
67
 0
SEQEND
 0
POLYLINE
 8
TUBE
 66
1
 10
0.0
 20
0.0
 30
0.0
 70
64
 71
60
 72
15
 0
VERTEX
 8
TUBE
 10
-1.4699
 20
-6.2167
 30
28.922
 70
192
 0
VERTEX
 8
TUBE
 10
-3.0599
 20
-6.2167
 30
28.922
 70
192
 0
VERTEX
 8
TUBE
 10
-3.0599
 20
-6.2167
 30
28.922
 70
192
 0
VERTEX
 8
TUBE
 10
-0.157
 20
-5.5987
 30
27.224
 70
192
 0
VERTEX
 8
TUBE
 10
-0.6484
 20
-5.0815
 30
25.803
 70
192
 0
VERTEX
 8
TUBE
 10
1.3801
 20
-5.6539
 30
27.3758
 70
192
 0
VERTEX
 8
TUBE
 10
2.1751
 20
-5.183
 30
26.0818
 70
192
 0
VERTEX
 8
TUBE
 10
-1.4699
 20
-6.2167
 30
28.922
 70
192
 0
VERTEX
 8
TUBE
 10
-1.3057
 20
-6.481
 30
29.6482
 70
192
 0
VERTEX
 8
TUBE
 10
-2.7582
 20
-6.7022
 30
30.2559
 70
192
 0
VERTEX
 8
TUBE
 10
-2.7582
 20
-6.7022
 30
30.2559
 70
192
 0
VERTEX
 8
TUBE
 10
0.7949
 20
-5.0296
 30
25.6604
 70
192
 0
VERTEX
 8
TUBE
 10
-1.9052
 20
-5.3296
 30
26.4848
 70
192
 0
VERTEX
 8
TUBE
 10
2.1751
 20
-5.183
 30
26.0818
 70
192
 0
VERTEX
 8
TUBE
 10
-0.157
 20
-5.5987
 30
27.224
 70
192
 0
VERTEX
 8
TUBE
 10
-1.3057
 20
-6.481
 30
29.6482
 70
192
 0
VERTEX
 8
TUBE
 10
-0.8413
 20
-6.6996
 30
30.2488
 70
192
 0
VERTEX
 8
TUBE
 10
-1.9052
 20
-7.1038
 30
31.3592
 70
192
 0
VERTEX
 8
TUBE
 10
-1.9052
 20
-7.1038
 30
31.3592
 70
192
 0
VERTEX
 8
TUBE
 10
-1.9052
 20
-5.3296
 30
26.4848
 70
192
 0
VERTEX
 8
TUBE
 10
-1.3057
 20
-5.9524
 30
28.1958
 70
192
 0
VERTEX
 8
TUBE
 10
-0.8413
 20
-5.7338
 30
27.5952
 70
192
 0
VERTEX
 8
TUBE
 10
2.2886
 20
-6.3518
 30
29.2932
 70
192
 0
VERTEX
 8
TUBE
 10
-0.8413
 20
-6.6996
 30
30.2488
 70
192
 0
VERTEX
 8
TUBE
 10
-0.1571
 20
-6.8347
 30
30.62
 70
192
 0
VERTEX
 8
TUBE
 10
-0.6484
 20
-7.3519
 30
32.041
 70
192
 0
VERTEX
 8
TUBE
 10
-0.6484
 20
-7.3519
 30
32.041
 70
192
 0
VERTEX
 8
TUBE
 10
2.2886
 20
-6.0816
 30
28.5508
 70
192
 0
VERTEX
 8
TUBE
 10
0.6287
 20
-5.5704
 30
27.1464
 70
192
 0
VERTEX
 8
TUBE
 10
3.8438
 20
-5.9685
 30
28.2401
 70
192
 0
VERTEX
 8
TUBE
 10
1.3801
 20
-5.6539
 30
27.3758
 70
192
 0
VERTEX
 8
TUBE
 10
-0.1571
 20
-6.8347
 30
30.62
 70
192
 0
VERTEX
 8
TUBE
 10
0.6287
 20
-6.863
 30
30.6976
 70
192
 0
VERTEX
 8
TUBE
 10
0.7949
 20
-7.4038
 30
32.1836
 70
192
 0
VERTEX
 8
TUBE
 10
0.7949
 20
-7.4038
 30
32.1836
 70
192
 0
VERTEX
 8
TUBE
 10
-0.6484
 20
-5.0815
 30
25.803
 70
192
 0
VERTEX
 8
TUBE
 10
3.8438
 20
-5.9685
 30
28.2401
 70
192
 0
VERTEX
 8
TUBE
 10
0.6287
 20
-5.5704
 30
27.1464
 70
192
 0
VERTEX
 8
TUBE
 10
0.7949
 20
-5.0296
 30
25.6604
 70
192
 0
VERTEX
 8
TUBE
 10
0.6287
 20
-6.863
 30
30.6976
 70
192
 0
VERTEX
 8
TUBE
 10
1.3801
 20
-6.7795
 30
30.4682
 70
192
 0
VERTEX
 8
TUBE
 10
2.1751
 20
-7.2504
 30
31.7622
 70
192
 0
VERTEX
 8
TUBE
 10
2.1751
 20
-7.2504
 30
31.7622
 70
192
 0
VERTEX
 8
TUBE
 10
1.9672
 20
-5.8347
 30
27.8726
 70
192
 0
VERTEX
 8
TUBE
 10
-0.8413
 20
-5.7338
 30
27.5952
 70
192
 0
VERTEX
 8
TUBE
 10
2.2886
 20
-6.0816
 30
28.5508
 70
192
 0
VERTEX
 8
TUBE
 10
1.9672
 20
-5.8347
 30
27.8726
 70
192
 0
VERTEX
 8
TUBE
 10
1.3801
 20
-6.7795
 30
30.4682
 70
192
 0
VERTEX
 8
TUBE
 10
1.9672
 20
-6.5987
 30
29.9714
 70
192
 0
VERTEX
 8
TUBE
 10
3.2535
 20
-6.9183
 30
30.8497
 70
192
 0
VERTEX
 8
TUBE
 10
3.2535
 20
-6.9183
 30
30.8497
 70
192
 0
VERTEX
 8
TUBE
 10
-1.3057
 20
-5.9524
 30
28.1958
 70
192
 0
VERTEX
 8
TUBE
 10
-2.7582
 20
-5.7312
 30
27.5881
 70
192
 0
VERTEX
 8
TUBE
 10
3.2536
 20
-5.5151
 30
26.9943
 70
192
 0
VERTEX
 8
TUBE
 10
3.2536
 20
-5.5151
 30
26.9943
 70
192
 0
VERTEX
 8
TUBE
 10
1.9672
 20
-6.5987
 30
29.9714
 70
192
 0
VERTEX
 8
TUBE
 10
2.2886
 20
-6.3518
 30
29.2932
 70
192
 0
VERTEX
 8
TUBE
 10
3.8438
 20
-6.4649
 30
29.6039
 70
192
 0
VERTEX
 8
TUBE
 10
3.8438
 20
-6.4649
 30
29.6039
 70
192
 0
VERTEX
 8
TUBE
 10
-2.7582
 20
-5.7312
 30
27.5881
 70
192
 0
VERTEX
 8
TUBE
 10
0
 20
0
 30
0
 70
128
 71
1
 72
2
 73
10
 74
9
 0
VERTEX
 8
TUBE
 10
0
 20
0
 30
0
 70
128
 71
38
 72
39
 73
5
 74
4
 0
VERTEX
 8
TUBE
 10
0
 20
0
 30
0
 70
128
 71
47
 72
54
 73
7
 74
6
 0
VERTEX
 8
TUBE
 10
0
 20
0
 30
0
 70
128
 71
49
 72
50
 73
58
 74
57
 0
VERTEX
 8
TUBE
 10
0
 20
0
 30
0
 70
128
 71
9
 72
10
 73
18
 74
17
 0
VERTEX
 8
TUBE
 10
0
 20
0
 30
0
 70
128
 71
57
 72
58
 73
30
 74
28
 0
VERTEX
 8
TUBE
 10
0
 20
0
 30
0
 70
128
 71
41
 72
42
 73
50
 74
49
 0
VERTEX
 8
TUBE
 10
0
 20
0
 30
0
 70
128
 71
22
 72
13
 73
53
 74
52
 0
VERTEX
 8
TUBE
 10
0
 20
0
 30
0
 70
128
 71
17
 72
18
 73
26
 74
25
 0
VERTEX
 8
TUBE
 10
0
 20
0
 30
0
 70
128
 71
28
 72
30
 73
54
 74
47
 0
VERTEX
 8
TUBE
 10
0
 20
0
 30
0
 70
128
 71
52
 72
53
 73
2
 74
1
 0
VERTEX
 8
TUBE
 10
0
 20
0
 30
0
 70
128
 71
33
 72
34
 73
42
 74
41
 0
VERTEX
 8
TUBE
 10
0
 20
0
 30
0
 70
128
 71
25
 72
26
 73
34
 74
33
 0
VERTEX
 8
TUBE
 10
0
 20
0
 30
0
 70
128
 71
6
 72
7
 73
39
 74
38
 0
VERTEX
 8
TUBE
 10
0
 20
0
 30
0
 70
128
 71
4
 72
5
 73
13
 74
22
 0
SEQEND
 0
POLYLINE
 8
CYLINDER_7
 66
1
 10
0.0
 20
0.0
 30
0.0
 70
64
 71
25
 72
18
 0
VERTEX
 8
CYLINDER_7
 10
1.8116
 20
-6.2355
 30
28.8965
 70
192
 0
VERTEX
 8
CYLINDER_7
 10
2.0116
 20
-6.2355
 30
28.8965
 70
192
 0
VERTEX
 8
CYLINDER_7
 10
2.0116
 20
-6.2355
 30
28.8965
 70
192
 0
VERTEX
 8
CYLINDER_7
 10
1.9116
 20
-6.2947
 30
29.0592
 70
192
 0
VERTEX
 8
CYLINDER_7
 10
1.9116
 20
-6.2947
 30
29.0592
 70
192
 0
VERTEX
 8
CYLINDER_7
 10
1.7116
 20
-6.2947
 30
29.0592
 70
192
 0
VERTEX
 8
CYLINDER_7
 10
1.7116
 20
-6.2947
 30
29.0592
 70
192
 0
VERTEX
 8
CYLINDER_7
 10
1.6116
 20
-6.2355
 30
28.8965
 70
192
 0
VERTEX
 8
CYLINDER_7
 10
1.6116
 20
-6.2355
 30
28.8965
 70
192
 0
VERTEX
 8
CYLINDER_7
 10
1.7116
 20
-6.1763
 30
28.7337
 70
192
 0
VERTEX
 8
CYLINDER_7
 10
1.7116
 20
-6.1763
 30
28.7337
 70
192
 0
VERTEX
 8
CYLINDER_7
 10
1.9116
 20
-6.1763
 30
28.7337
 70
192
 0
VERTEX
 8
CYLINDER_7
 10
1.9116
 20
-6.1763
 30
28.7337
 70
192
 0
VERTEX
 8
CYLINDER_7
 10
2.0116
 20
-6.3194
 30
28.8659
 70
192
 0
VERTEX
 8
CYLINDER_7
 10
1.9988
 20
-6.327
 30
28.8867
 70
192
 0
VERTEX
 8
CYLINDER_7
 10
1.9116
 20
-6.3787
 30
29.0287
 70
192
 0
VERTEX
 8
CYLINDER_7
 10
1.8861
 20
-6.3787
 30
29.0287
 70
192
 0
VERTEX
 8
CYLINDER_7
 10
1.7116
 20
-6.3787
 30
29.0287
 70
192
 0
VERTEX
 8
CYLINDER_7
 10
1.6988
 20
-6.3711
 30
29.0079
 70
192
 0
VERTEX
 8
CYLINDER_7
 10
1.6116
 20
-6.3194
 30
28.8659
 70
192
 0
VERTEX
 8
CYLINDER_7
 10
1.6244
 20
-6.3119
 30
28.8452
 70
192
 0
VERTEX
 8
CYLINDER_7
 10
1.7116
 20
-6.2602
 30
28.7032
 70
192
 0
VERTEX
 8
CYLINDER_7
 10
1.7371
 20
-6.2602
 30
28.7032
 70
192
 0
VERTEX
 8
CYLINDER_7
 10
1.9116
 20
-6.2602
 30
28.7032
 70
192
 0
VERTEX
 8
CYLINDER_7
 10
1.9244
 20
-6.2677
 30
28.7239
 70
192
 0
VERTEX
 8
CYLINDER_7
 10
0
 20
0
 30
0
 70
128
 71
4
 72
2
 73
1
 74
1
 0
VERTEX
 8
CYLINDER_7
 10
0
 20
0
 30
0
 70
128
 71
3
 72
15
 73
14
 74
14
 0
VERTEX
 8
CYLINDER_7
 10
0
 20
0
 30
0
 70
128
 71
5
 72
16
 73
15
 74
3
 0
VERTEX
 8
CYLINDER_7
 10
0
 20
0
 30
0
 70
128
 71
6
 72
4
 73
1
 74
1
 0
VERTEX
 8
CYLINDER_7
 10
0
 20
0
 30
0
 70
128
 71
5
 72
17
 73
16
 74
16
 0
VERTEX
 8
CYLINDER_7
 10
0
 20
0
 30
0
 70
128
 71
7
 72
18
 73
17
 74
5
 0
VERTEX
 8
CYLINDER_7
 10
0
 20
0
 30
0
 70
128
 71
8
 72
6
 73
1
 74
1
 0
VERTEX
 8
CYLINDER_7
 10
0
 20
0
 30
0
 70
128
 71
7
 72
19
 73
18
 74
18
 0
VERTEX
 8
CYLINDER_7
 10
0
 20
0
 30
0
 70
128
 71
9
 72
20
 73
19
 74
7
 0
VERTEX
 8
CYLINDER_7
 10
0
 20
0
 30
0
 70
128
 71
10
 72
8
 73
1
 74
1
 0
VERTEX
 8
CYLINDER_7
 10
0
 20
0
 30
0
 70
128
 71
9
 72
21
 73
20
 74
20
 0
VERTEX
 8
CYLINDER_7
 10
0
 20
0
 30
0
 70
128
 71
11
 72
22
 73
21
 74
9
 0
VERTEX
 8
CYLINDER_7
 10
0
 20
0
 30
0
 70
128
 71
12
 72
10
 73
1
 74
1
 0
VERTEX
 8
CYLINDER_7
 10
0
 20
0
 30
0
 70
128
 71
11
 72
23
 73
22
 74
22
 0
VERTEX
 8
CYLINDER_7
 10
0
 20
0
 30
0
 70
128
 71
13
 72
24
 73
23
 74
11
 0
VERTEX
 8
CYLINDER_7
 10
0
 20
0
 30
0
 70
128
 71
2
 72
12
 73
1
 74
1
 0
VERTEX
 8
CYLINDER_7
 10
0
 20
0
 30
0
 70
128
 71
13
 72
25
 73
24
 74
24
 0
VERTEX
 8
CYLINDER_7
 10
0
 20
0
 30
0
 70
128
 71
3
 72
14
 73
25
 74
13
 0
SEQEND
 0
POLYLINE
 8
CYLINDER_6
 66
1
 10
0.0
 20
0.0
 30
0.0
 70
64
 71
27
 72
20
 0
VERTEX
 8
CYLINDER_6
 10
-0.4261
 20
-6.6276
 30
29.9737
 70
192
 0
VERTEX
 8
CYLINDER_6
 10
-0.2261
 20
-6.6276
 30
29.9737
 70
192
 0
VERTEX
 8
CYLINDER_6
 10
-0.2261
 20
-6.6276
 30
29.9737
 70
192
 0
VERTEX
 8
CYLINDER_6
 10
-0.3261
 20
-6.6868
 30
30.1364
 70
192
 0
VERTEX
 8
CYLINDER_6
 10
-0.3261
 20
-6.6868
 30
30.1364
 70
192
 0
VERTEX
 8
CYLINDER_6
 10
-0.5261
 20
-6.6868
 30
30.1364
 70
192
 0
VERTEX
 8
CYLINDER_6
 10
-0.5261
 20
-6.6868
 30
30.1364
 70
192
 0
VERTEX
 8
CYLINDER_6
 10
-0.6261
 20
-6.6276
 30
29.9737
 70
192
 0
VERTEX
 8
CYLINDER_6
 10
-0.6261
 20
-6.6276
 30
29.9737
 70
192
 0
VERTEX
 8
CYLINDER_6
 10
-0.5261
 20
-6.5683
 30
29.8109
 70
192
 0
VERTEX
 8
CYLINDER_6
 10
-0.5261
 20
-6.5683
 30
29.8109
 70
192
 0
VERTEX
 8
CYLINDER_6
 10
-0.3261
 20
-6.5683
 30
29.8109
 70
192
 0
VERTEX
 8
CYLINDER_6
 10
-0.3261
 20
-6.5683
 30
29.8109
 70
192
 0
VERTEX
 8
CYLINDER_6
 10
-0.2261
 20
-6.7115
 30
29.9431
 70
192
 0
VERTEX
 8
CYLINDER_6
 10
-0.2389
 20
-6.7191
 30
29.9639
 70
192
 0
VERTEX
 8
CYLINDER_6
 10
-0.3261
 20
-6.7707
 30
30.1059
 70
192
 0
VERTEX
 8
CYLINDER_6
 10
-0.3516
 20
-6.7707
 30
30.1059
 70
192
 0
VERTEX
 8
CYLINDER_6
 10
-0.5261
 20
-6.7707
 30
30.1059
 70
192
 0
VERTEX
 8
CYLINDER_6
 10
-0.5389
 20
-6.7632
 30
30.0851
 70
192
 0
VERTEX
 8
CYLINDER_6
 10
-0.6261
 20
-6.7115
 30
29.9431
 70
192
 0
VERTEX
 8
CYLINDER_6
 10
-0.6261
 20
-6.7115
 30
29.9431
 70
192
 0
VERTEX
 8
CYLINDER_6
 10
-0.6134
 20
-6.7039
 30
29.9224
 70
192
 0
VERTEX
 8
CYLINDER_6
 10
-0.5261
 20
-6.6523
 30
29.7804
 70
192
 0
VERTEX
 8
CYLINDER_6
 10
-0.5006
 20
-6.6523
 30
29.7804
 70
192
 0
VERTEX
 8
CYLINDER_6
 10
-0.3261
 20
-6.6523
 30
29.7804
 70
192
 0
VERTEX
 8
CYLINDER_6
 10
-0.3261
 20
-6.6522
 30
29.7804
 70
192
 0
VERTEX
 8
CYLINDER_6
 10
-0.3134
 20
-6.6598
 30
29.8011
 70
192
 0
VERTEX
 8
CYLINDER_6
 10
0
 20
0
 30
0
 70
128
 71
4
 72
2
 73
1
 74
1
 0
VERTEX
 8
CYLINDER_6
 10
0
 20
0
 30
0
 70
128
 71
3
 72
15
 73
14
 74
14
 0
VERTEX
 8
CYLINDER_6
 10
0
 20
0
 30
0
 70
128
 71
5
 72
16
 73
15
 74
3
 0
VERTEX
 8
CYLINDER_6
 10
0
 20
0
 30
0
 70
128
 71
6
 72
4
 73
1
 74
1
 0
VERTEX
 8
CYLINDER_6
 10
0
 20
0
 30
0
 70
128
 71
5
 72
17
 73
16
 74
16
 0
VERTEX
 8
CYLINDER_6
 10
0
 20
0
 30
0
 70
128
 71
7
 72
18
 73
17
 74
5
 0
VERTEX
 8
CYLINDER_6
 10
0
 20
0
 30
0
 70
128
 71
8
 72
6
 73
1
 74
1
 0
VERTEX
 8
CYLINDER_6
 10
0
 20
0
 30
0
 70
128
 71
7
 72
19
 73
18
 74
18
 0
VERTEX
 8
CYLINDER_6
 10
0
 20
0
 30
0
 70
128
 71
7
 72
21
 73
19
 74
19
 0
VERTEX
 8
CYLINDER_6
 10
0
 20
0
 30
0
 70
128
 71
10
 72
8
 73
1
 74
1
 0
VERTEX
 8
CYLINDER_6
 10
0
 20
0
 30
0
 70
128
 71
9
 72
22
 73
20
 74
20
 0
VERTEX
 8
CYLINDER_6
 10
0
 20
0
 30
0
 70
128
 71
11
 72
23
 73
22
 74
9
 0
VERTEX
 8
CYLINDER_6
 10
0
 20
0
 30
0
 70
128
 71
12
 72
10
 73
1
 74
1
 0
VERTEX
 8
CYLINDER_6
 10
0
 20
0
 30
0
 70
128
 71
11
 72
24
 73
23
 74
23
 0
VERTEX
 8
CYLINDER_6
 10
0
 20
0
 30
0
 70
128
 71
11
 72
26
 73
24
 74
24
 0
VERTEX
 8
CYLINDER_6
 10
0
 20
0
 30
0
 70
128
 71
13
 72
25
 73
26
 74
11
 0
VERTEX
 8
CYLINDER_6
 10
0
 20
0
 30
0
 70
128
 71
2
 72
12
 73
1
 74
1
 0
VERTEX
 8
CYLINDER_6
 10
0
 20
0
 30
0
 70
128
 71
13
 72
27
 73
25
 74
25
 0
VERTEX
 8
CYLINDER_6
 10
0
 20
0
 30
0
 70
128
 71
3
 72
14
 73
27
 74
13
 0
VERTEX
 8
CYLINDER_6
 10
0
 20
0
 30
0
 70
128
 71
7
 72
9
 73
21
 74
21
 0
SEQEND
 0
POLYLINE
 8
CYLINDER_5
 66
1
 10
0.0
 20
0.0
 30
0.0
 70
64
 71
27
 72
21
 0
VERTEX
 8
CYLINDER_5
 10
-0.4261
 20
-5.8595
 30
27.8635
 70
192
 0
VERTEX
 8
CYLINDER_5
 10
-0.2261
 20
-5.8595
 30
27.8635
 70
192
 0
VERTEX
 8
CYLINDER_5
 10
-0.2261
 20
-5.8595
 30
27.8635
 70
192
 0
VERTEX
 8
CYLINDER_5
 10
-0.3261
 20
-5.9188
 30
28.0263
 70
192
 0
VERTEX
 8
CYLINDER_5
 10
-0.3261
 20
-5.9188
 30
28.0263
 70
192
 0
VERTEX
 8
CYLINDER_5
 10
-0.5261
 20
-5.9188
 30
28.0263
 70
192
 0
VERTEX
 8
CYLINDER_5
 10
-0.5261
 20
-5.9188
 30
28.0263
 70
192
 0
VERTEX
 8
CYLINDER_5
 10
-0.6261
 20
-5.8595
 30
27.8635
 70
192
 0
VERTEX
 8
CYLINDER_5
 10
-0.6261
 20
-5.8595
 30
27.8635
 70
192
 0
VERTEX
 8
CYLINDER_5
 10
-0.5261
 20
-5.8003
 30
27.7008
 70
192
 0
VERTEX
 8
CYLINDER_5
 10
-0.5261
 20
-5.8003
 30
27.7008
 70
192
 0
VERTEX
 8
CYLINDER_5
 10
-0.3261
 20
-5.8003
 30
27.7008
 70
192
 0
VERTEX
 8
CYLINDER_5
 10
-0.3261
 20
-5.8003
 30
27.7008
 70
192
 0
VERTEX
 8
CYLINDER_5
 10
-0.2261
 20
-5.9435
 30
27.833
 70
192
 0
VERTEX
 8
CYLINDER_5
 10
-0.2389
 20
-5.951
 30
27.8538
 70
192
 0
VERTEX
 8
CYLINDER_5
 10
-0.3261
 20
-6.0027
 30
27.9958
 70
192
 0
VERTEX
 8
CYLINDER_5
 10
-0.3516
 20
-6.0027
 30
27.9958
 70
192
 0
VERTEX
 8
CYLINDER_5
 10
-0.5261
 20
-6.0027
 30
27.9958
 70
192
 0
VERTEX
 8
CYLINDER_5
 10
-0.5261
 20
-6.0027
 30
27.9958
 70
192
 0
VERTEX
 8
CYLINDER_5
 10
-0.5389
 20
-5.9952
 30
27.975
 70
192
 0
VERTEX
 8
CYLINDER_5
 10
-0.6261
 20
-5.9435
 30
27.833
 70
192
 0
VERTEX
 8
CYLINDER_5
 10
-0.6133
 20
-5.9359
 30
27.8122
 70
192
 0
VERTEX
 8
CYLINDER_5
 10
-0.5261
 20
-5.8842
 30
27.6702
 70
192
 0
VERTEX
 8
CYLINDER_5
 10
-0.5261
 20
-5.8842
 30
27.6703
 70
192
 0
VERTEX
 8
CYLINDER_5
 10
-0.5006
 20
-5.8842
 30
27.6702
 70
192
 0
VERTEX
 8
CYLINDER_5
 10
-0.3261
 20
-5.8842
 30
27.6702
 70
192
 0
VERTEX
 8
CYLINDER_5
 10
-0.3133
 20
-5.8918
 30
27.691
 70
192
 0
VERTEX
 8
CYLINDER_5
 10
0
 20
0
 30
0
 70
128
 71
4
 72
2
 73
1
 74
1
 0
VERTEX
 8
CYLINDER_5
 10
0
 20
0
 30
0
 70
128
 71
3
 72
15
 73
14
 74
14
 0
VERTEX
 8
CYLINDER_5
 10
0
 20
0
 30
0
 70
128
 71
5
 72
16
 73
15
 74
3
 0
VERTEX
 8
CYLINDER_5
 10
0
 20
0
 30
0
 70
128
 71
6
 72
4
 73
1
 74
1
 0
VERTEX
 8
CYLINDER_5
 10
0
 20
0
 30
0
 70
128
 71
5
 72
17
 73
16
 74
16
 0
VERTEX
 8
CYLINDER_5
 10
0
 20
0
 30
0
 70
128
 71
5
 72
19
 73
17
 74
17
 0
VERTEX
 8
CYLINDER_5
 10
0
 20
0
 30
0
 70
128
 71
7
 72
19
 73
5
 74
5
 0
VERTEX
 8
CYLINDER_5
 10
0
 20
0
 30
0
 70
128
 71
8
 72
6
 73
1
 74
1
 0
VERTEX
 8
CYLINDER_5
 10
0
 20
0
 30
0
 70
128
 71
7
 72
20
 73
18
 74
18
 0
VERTEX
 8
CYLINDER_5
 10
0
 20
0
 30
0
 70
128
 71
9
 72
21
 73
20
 74
7
 0
VERTEX
 8
CYLINDER_5
 10
0
 20
0
 30
0
 70
128
 71
10
 72
8
 73
1
 74
1
 0
VERTEX
 8
CYLINDER_5
 10
0
 20
0
 30
0
 70
128
 71
9
 72
22
 73
21
 74
21
 0
VERTEX
 8
CYLINDER_5
 10
0
 20
0
 30
0
 70
128
 71
9
 72
24
 73
22
 74
22
 0
VERTEX
 8
CYLINDER_5
 10
0
 20
0
 30
0
 70
128
 71
24
 72
11
 73
23
 74
23
 0
VERTEX
 8
CYLINDER_5
 10
0
 20
0
 30
0
 70
128
 71
12
 72
10
 73
1
 74
1
 0
VERTEX
 8
CYLINDER_5
 10
0
 20
0
 30
0
 70
128
 71
11
 72
25
 73
23
 74
23
 0
VERTEX
 8
CYLINDER_5
 10
0
 20
0
 30
0
 70
128
 71
13
 72
26
 73
25
 74
11
 0
VERTEX
 8
CYLINDER_5
 10
0
 20
0
 30
0
 70
128
 71
2
 72
12
 73
1
 74
1
 0
VERTEX
 8
CYLINDER_5
 10
0
 20
0
 30
0
 70
128
 71
13
 72
27
 73
26
 74
26
 0
VERTEX
 8
CYLINDER_5
 10
0
 20
0
 30
0
 70
128
 71
3
 72
14
 73
27
 74
13
 0
VERTEX
 8
CYLINDER_5
 10
0
 20
0
 30
0
 70
128
 71
9
 72
11
 73
24
 74
24
 0
SEQEND
 0
POLYLINE
 8
CYLINDER_4
 66
1
 10
0.0
 20
0.0
 30
0.0
 70
64
 71
160
 72
133
 0
VERTEX
 8
CYLINDER_4
 10
0.4333
 20
-6.3243
 30
28.8794
 70
192
 0
VERTEX
 8
CYLINDER_4
 10
2.1047
 20
-6.388
 30
29.0543
 70
192
 0
VERTEX
 8
CYLINDER_4
 10
-1.5667
 20
-6.3243
 30
28.8794
 70
192
 0
VERTEX
 8
CYLINDER_4
 10
-1.5667
 20
-6.3243
 30
28.8794
 70
192
 0
VERTEX
 8
CYLINDER_4
 10
-1.5666
 20
-5.6665
 30
29.1189
 70
192
 0
VERTEX
 8
CYLINDER_4
 10
-1.5666
 20
-5.6665
 30
29.1189
 70
192
 0
VERTEX
 8
CYLINDER_4
 10
-1.3937
 20
-6.6026
 30
29.6439
 70
192
 0
VERTEX
 8
CYLINDER_4
 10
-1.3937
 20
-6.6026
 30
29.6439
 70
192
 0
VERTEX
 8
CYLINDER_4
 10
-1.3937
 20
-5.9448
 30
29.8833
 70
192
 0
VERTEX
 8
CYLINDER_4
 10
-1.3937
 20
-5.9448
 30
29.8833
 70
192
 0
VERTEX
 8
CYLINDER_4
 10
-0.9049
 20
-6.8327
 30
30.2761
 70
192
 0
VERTEX
 8
CYLINDER_4
 10
-0.9049
 20
-6.8327
 30
30.2761
 70
192
 0
VERTEX
 8
CYLINDER_4
 10
-0.9049
 20
-6.1749
 30
30.5155
 70
192
 0
VERTEX
 8
CYLINDER_4
 10
-0.9049
 20
-6.1749
 30
30.5155
 70
192
 0
VERTEX
 8
CYLINDER_4
 10
-0.1847
 20
-6.9749
 30
30.6669
 70
192
 0
VERTEX
 8
CYLINDER_4
 10
-0.1847
 20
-6.9749
 30
30.6669
 70
192
 0
VERTEX
 8
CYLINDER_4
 10
-0.1847
 20
-6.3171
 30
30.9063
 70
192
 0
VERTEX
 8
CYLINDER_4
 10
-0.1847
 20
-6.3171
 30
30.9063
 70
192
 0
VERTEX
 8
CYLINDER_4
 10
0.6424
 20
-7.0046
 30
30.7485
 70
192
 0
VERTEX
 8
CYLINDER_4
 10
0.6424
 20
-7.0046
 30
30.7485
 70
192
 0
VERTEX
 8
CYLINDER_4
 10
0.6424
 20
-6.3468
 30
30.988
 70
192
 0
VERTEX
 8
CYLINDER_4
 10
0.6424
 20
-6.3468
 30
30.988
 70
192
 0
VERTEX
 8
CYLINDER_4
 10
1.4333
 20
-6.9167
 30
30.507
 70
192
 0
VERTEX
 8
CYLINDER_4
 10
1.4333
 20
-6.9167
 30
30.507
 70
192
 0
VERTEX
 8
CYLINDER_4
 10
1.4333
 20
-6.2589
 30
30.7465
 70
192
 0
VERTEX
 8
CYLINDER_4
 10
1.4333
 20
-6.2589
 30
30.7465
 70
192
 0
VERTEX
 8
CYLINDER_4
 10
2.0514
 20
-6.7264
 30
29.9841
 70
192
 0
VERTEX
 8
CYLINDER_4
 10
2.0514
 20
-6.7264
 30
29.9841
 70
192
 0
VERTEX
 8
CYLINDER_4
 10
2.0514
 20
-6.0686
 30
30.2235
 70
192
 0
VERTEX
 8
CYLINDER_4
 10
2.0514
 20
-6.0686
 30
30.2235
 70
192
 0
VERTEX
 8
CYLINDER_4
 10
2.3896
 20
-6.4666
 30
29.2702
 70
192
 0
VERTEX
 8
CYLINDER_4
 10
2.3896
 20
-6.4666
 30
29.2702
 70
192
 0
VERTEX
 8
CYLINDER_4
 10
2.3896
 20
-5.8088
 30
29.5096
 70
192
 0
VERTEX
 8
CYLINDER_4
 10
2.3896
 20
-5.8088
 30
29.5096
 70
192
 0
VERTEX
 8
CYLINDER_4
 10
2.3896
 20
-6.1821
 30
28.4887
 70
192
 0
VERTEX
 8
CYLINDER_4
 10
2.3896
 20
-6.1821
 30
28.4887
 70
192
 0
VERTEX
 8
CYLINDER_4
 10
2.3896
 20
-5.5243
 30
28.7281
 70
192
 0
VERTEX
 8
CYLINDER_4
 10
2.3896
 20
-5.5243
 30
28.7281
 70
192
 0
VERTEX
 8
CYLINDER_4
 10
2.0514
 20
-5.9223
 30
27.7748
 70
192
 0
VERTEX
 8
CYLINDER_4
 10
2.0514
 20
-5.9223
 30
27.7748
 70
192
 0
VERTEX
 8
CYLINDER_4
 10
2.0514
 20
-5.2645
 30
28.0142
 70
192
 0
VERTEX
 8
CYLINDER_4
 10
2.0514
 20
-5.2645
 30
28.0142
 70
192
 0
VERTEX
 8
CYLINDER_4
 10
1.4333
 20
-5.7319
 30
27.2519
 70
192
 0
VERTEX
 8
CYLINDER_4
 10
1.4333
 20
-5.7319
 30
27.2519
 70
192
 0
VERTEX
 8
CYLINDER_4
 10
1.4334
 20
-5.0742
 30
27.4913
 70
192
 0
VERTEX
 8
CYLINDER_4
 10
1.4334
 20
-5.0742
 30
27.4913
 70
192
 0
VERTEX
 8
CYLINDER_4
 10
0.6424
 20
-5.644
 30
27.0104
 70
192
 0
VERTEX
 8
CYLINDER_4
 10
0.6424
 20
-5.644
 30
27.0104
 70
192
 0
VERTEX
 8
CYLINDER_4
 10
0.6424
 20
-4.9863
 30
27.2498
 70
192
 0
VERTEX
 8
CYLINDER_4
 10
0.6424
 20
-4.9863
 30
27.2498
 70
192
 0
VERTEX
 8
CYLINDER_4
 10
-0.1847
 20
-5.6738
 30
27.092
 70
192
 0
VERTEX
 8
CYLINDER_4
 10
-0.1847
 20
-5.6738
 30
27.092
 70
192
 0
VERTEX
 8
CYLINDER_4
 10
-0.1847
 20
-5.016
 30
27.3315
 70
192
 0
VERTEX
 8
CYLINDER_4
 10
-0.1847
 20
-5.016
 30
27.3315
 70
192
 0
VERTEX
 8
CYLINDER_4
 10
-0.9049
 20
-5.816
 30
27.4828
 70
192
 0
VERTEX
 8
CYLINDER_4
 10
-0.9049
 20
-5.816
 30
27.4828
 70
192
 0
VERTEX
 8
CYLINDER_4
 10
-0.9049
 20
-5.1582
 30
27.7222
 70
192
 0
VERTEX
 8
CYLINDER_4
 10
-0.9049
 20
-5.1582
 30
27.7222
 70
192
 0
VERTEX
 8
CYLINDER_4
 10
-1.3937
 20
-6.0461
 30
28.115
 70
192
 0
VERTEX
 8
CYLINDER_4
 10
-1.3937
 20
-6.0461
 30
28.115
 70
192
 0
VERTEX
 8
CYLINDER_4
 10
-1.3937
 20
-5.3883
 30
28.3544
 70
192
 0
VERTEX
 8
CYLINDER_4
 10
-1.3937
 20
-5.3883
 30
28.3544
 70
192
 0
VERTEX
 8
CYLINDER_4
 10
-0.113
 20
-6.4075
 30
29.108
 70
192
 0
VERTEX
 8
CYLINDER_4
 10
-0.698
 20
-6.7541
 30
30.0602
 70
192
 0
VERTEX
 8
CYLINDER_4
 10
-0.1131
 20
-6.4075
 30
29.1081
 70
192
 0
VERTEX
 8
CYLINDER_4
 10
-0.6261
 20
-6.7115
 30
29.9432
 70
192
 0
VERTEX
 8
CYLINDER_4
 10
-0.6261
 20
-6.7115
 30
29.9432
 70
192
 0
VERTEX
 8
CYLINDER_4
 10
-0.9294
 20
-6.5318
 30
29.4496
 70
192
 0
VERTEX
 8
CYLINDER_4
 10
-0.6103
 20
-6.7208
 30
29.9687
 70
192
 0
VERTEX
 8
CYLINDER_4
 10
-0.5261
 20
-6.6523
 30
29.7804
 70
192
 0
VERTEX
 8
CYLINDER_4
 10
-0.5261
 20
-6.6523
 30
29.7804
 70
192
 0
VERTEX
 8
CYLINDER_4
 10
-0.5261
 20
-6.6523
 30
29.7804
 70
192
 0
VERTEX
 8
CYLINDER_4
 10
-0.5015
 20
-6.6522
 30
29.7804
 70
192
 0
VERTEX
 8
CYLINDER_4
 10
-0.4299
 20
-6.6522
 30
29.7803
 70
192
 0
VERTEX
 8
CYLINDER_4
 10
-0.4299
 20
-6.6522
 30
29.7804
 70
192
 0
VERTEX
 8
CYLINDER_4
 10
-0.6104
 20
-6.7208
 30
29.9687
 70
192
 0
VERTEX
 8
CYLINDER_4
 10
-0.1835
 20
-6.9737
 30
30.6635
 70
192
 0
VERTEX
 8
CYLINDER_4
 10
-0.6104
 20
-6.7208
 30
29.9687
 70
192
 0
VERTEX
 8
CYLINDER_4
 10
-0.1836
 20
-6.9736
 30
30.6634
 70
192
 0
VERTEX
 8
CYLINDER_4
 10
0.1218
 20
-6.6522
 30
29.7804
 70
192
 0
VERTEX
 8
CYLINDER_4
 10
-0.5261
 20
-6.7707
 30
30.1059
 70
192
 0
VERTEX
 8
CYLINDER_4
 10
0.0093
 20
-6.7707
 30
30.1059
 70
192
 0
VERTEX
 8
CYLINDER_4
 10
-0.5261
 20
-6.7707
 30
30.1059
 70
192
 0
VERTEX
 8
CYLINDER_4
 10
-0.5261
 20
-6.7707
 30
30.1059
 70
192
 0
VERTEX
 8
CYLINDER_4
 10
-0.1511
 20
-6.7707
 30
30.1059
 70
192
 0
VERTEX
 8
CYLINDER_4
 10
-0.526
 20
-6.7707
 30
30.1059
 70
192
 0
VERTEX
 8
CYLINDER_4
 10
-0.5261
 20
-6.7707
 30
30.1059
 70
192
 0
VERTEX
 8
CYLINDER_4
 10
-0.3261
 20
-6.6522
 30
29.7804
 70
192
 0
VERTEX
 8
CYLINDER_4
 10
-0.265
 20
-6.6885
 30
29.8799
 70
192
 0
VERTEX
 8
CYLINDER_4
 10
-0.2205
 20
-6.7148
 30
29.9523
 70
192
 0
VERTEX
 8
CYLINDER_4
 10
-0.3261
 20
-6.7707
 30
30.1059
 70
192
 0
VERTEX
 8
CYLINDER_4
 10
-0.2369
 20
-6.7178
 30
29.9606
 70
192
 0
VERTEX
 8
CYLINDER_4
 10
-0.2368
 20
-6.7178
 30
29.9606
 70
192
 0
VERTEX
 8
CYLINDER_4
 10
-0.2261
 20
-6.7115
 30
29.9431
 70
192
 0
VERTEX
 8
CYLINDER_4
 10
-0.1727
 20
-6.6798
 30
29.8561
 70
192
 0
VERTEX
 8
CYLINDER_4
 10
-0.3261
 20
-6.7707
 30
30.1059
 70
192
 0
VERTEX
 8
CYLINDER_4
 10
-0.3261
 20
-6.7707
 30
30.1059
 70
192
 0
VERTEX
 8
CYLINDER_4
 10
1.4755
 20
-6.4001
 30
29.0876
 70
192
 0
VERTEX
 8
CYLINDER_4
 10
1.767
 20
-6.2274
 30
28.6131
 70
192
 0
VERTEX
 8
CYLINDER_4
 10
1.4754
 20
-6.4001
 30
29.0876
 70
192
 0
VERTEX
 8
CYLINDER_4
 10
1.7859
 20
-6.4227
 30
29.1496
 70
192
 0
VERTEX
 8
CYLINDER_4
 10
1.6116
 20
-6.3194
 30
28.866
 70
192
 0
VERTEX
 8
CYLINDER_4
 10
1.7859
 20
-6.4227
 30
29.1496
 70
192
 0
VERTEX
 8
CYLINDER_4
 10
1.6116
 20
-6.3194
 30
28.8659
 70
192
 0
VERTEX
 8
CYLINDER_4
 10
1.8523
 20
-6.2602
 30
28.7032
 70
192
 0
VERTEX
 8
CYLINDER_4
 10
1.7116
 20
-6.2602
 30
28.7032
 70
192
 0
VERTEX
 8
CYLINDER_4
 10
1.7116
 20
-6.2602
 30
28.7032
 70
192
 0
VERTEX
 8
CYLINDER_4
 10
2.3896
 20
-6.2602
 30
28.7031
 70
192
 0
VERTEX
 8
CYLINDER_4
 10
1.9249
 20
-6.3787
 30
29.0287
 70
192
 0
VERTEX
 8
CYLINDER_4
 10
1.7116
 20
-6.3787
 30
29.0287
 70
192
 0
VERTEX
 8
CYLINDER_4
 10
1.9248
 20
-6.3787
 30
29.0287
 70
192
 0
VERTEX
 8
CYLINDER_4
 10
1.7509
 20
-6.3787
 30
29.0287
 70
192
 0
VERTEX
 8
CYLINDER_4
 10
1.7116
 20
-6.3787
 30
29.0287
 70
192
 0
VERTEX
 8
CYLINDER_4
 10
1.5117
 20
-6.3787
 30
29.0287
 70
192
 0
VERTEX
 8
CYLINDER_4
 10
2.0209
 20
-6.3249
 30
28.881
 70
192
 0
VERTEX
 8
CYLINDER_4
 10
1.9116
 20
-6.2602
 30
28.7032
 70
192
 0
VERTEX
 8
CYLINDER_4
 10
2.0209
 20
-6.3249
 30
28.8811
 70
192
 0
VERTEX
 8
CYLINDER_4
 10
1.9116
 20
-6.2602
 30
28.7032
 70
192
 0
VERTEX
 8
CYLINDER_4
 10
1.9148
 20
-6.3768
 30
29.0235
 70
192
 0
VERTEX
 8
CYLINDER_4
 10
2.0116
 20
-6.3194
 30
28.8659
 70
192
 0
VERTEX
 8
CYLINDER_4
 10
2.0116
 20
-6.3194
 30
28.8659
 70
192
 0
VERTEX
 8
CYLINDER_4
 10
2.0116
 20
-6.3194
 30
28.8659
 70
192
 0
VERTEX
 8
CYLINDER_4
 10
2.0096
 20
-6.3206
 30
28.8692
 70
192
 0
VERTEX
 8
CYLINDER_4
 10
1.9116
 20
-6.3787
 30
29.0287
 70
192
 0
VERTEX
 8
CYLINDER_4
 10
1.9116
 20
-6.3787
 30
29.0287
 70
192
 0
VERTEX
 8
CYLINDER_4
 10
1.9483
 20
-6.3569
 30
28.9689
 70
192
 0
VERTEX
 8
CYLINDER_4
 10
1.9148
 20
-6.3768
 30
29.0235
 70
192
 0
VERTEX
 8
CYLINDER_4
 10
-0.1797
 20
-5.679
 30
27.1065
 70
192
 0
VERTEX
 8
CYLINDER_4
 10
-0.6039
 20
-5.9303
 30
27.7969
 70
192
 0
VERTEX
 8
CYLINDER_4
 10
-0.5286
 20
-5.8842
 30
27.6702
 70
192
 0
VERTEX
 8
CYLINDER_4
 10
-0.5261
 20
-5.8842
 30
27.6702
 70
192
 0
VERTEX
 8
CYLINDER_4
 10
0.0153
 20
-5.8842
 30
27.6703
 70
192
 0
VERTEX
 8
CYLINDER_4
 10
-0.5261
 20
-5.8842
 30
27.6702
 70
192
 0
VERTEX
 8
CYLINDER_4
 10
-0.4074
 20
-5.8842
 30
27.6702
 70
192
 0
VERTEX
 8
CYLINDER_4
 10
0.0152
 20
-5.8842
 30
27.6703
 70
192
 0
VERTEX
 8
CYLINDER_4
 10
-0.4134
 20
-6.0027
 30
27.9958
 70
192
 0
VERTEX
 8
CYLINDER_4
 10
0.1278
 20
-6.0027
 30
27.9958
 70
192
 0
VERTEX
 8
CYLINDER_4
 10
0.1278
 20
-6.0027
 30
27.9957
 70
192
 0
VERTEX
 8
CYLINDER_4
 10
-0.288
 20
-5.9068
 30
27.7323
 70
192
 0
VERTEX
 8
CYLINDER_4
 10
-0.3261
 20
-5.8842
 30
27.6703
 70
192
 0
VERTEX
 8
CYLINDER_4
 10
-0.3261
 20
-5.8842
 30
27.6702
 70
192
 0
VERTEX
 8
CYLINDER_4
 10
-0.3261
 20
-5.8842
 30
27.6702
 70
192
 0
VERTEX
 8
CYLINDER_4
 10
-0.288
 20
-5.9068
 30
27.7323
 70
192
 0
VERTEX
 8
CYLINDER_4
 10
-0.288
 20
-5.9068
 30
27.7323
 70
192
 0
VERTEX
 8
CYLINDER_4
 10
-0.2175
 20
-5.9486
 30
27.847
 70
192
 0
VERTEX
 8
CYLINDER_4
 10
-0.2498
 20
-5.9575
 30
27.8716
 70
192
 0
VERTEX
 8
CYLINDER_4
 10
-0.2261
 20
-5.9435
 30
27.833
 70
192
 0
VERTEX
 8
CYLINDER_4
 10
-0.1465
 20
-5.8963
 30
27.7034
 70
192
 0
VERTEX
 8
CYLINDER_4
 10
-0.3261
 20
-6.0027
 30
27.9958
 70
192
 0
VERTEX
 8
CYLINDER_4
 10
-0.2312
 20
-5.9465
 30
27.8413
 70
192
 0
VERTEX
 8
CYLINDER_4
 10
-0.9209
 20
-6.1181
 30
28.3129
 70
192
 0
VERTEX
 8
CYLINDER_4
 10
-0.6261
 20
-5.9435
 30
27.833
 70
192
 0
VERTEX
 8
CYLINDER_4
 10
-0.1273
 20
-6.239
 30
28.6449
 70
192
 0
VERTEX
 8
CYLINDER_4
 10
-0.6261
 20
-5.9435
 30
27.833
 70
192
 0
VERTEX
 8
CYLINDER_4
 10
-0.1275
 20
-6.2388
 30
28.6445
 70
192
 0
VERTEX
 8
CYLINDER_4
 10
-0.5261
 20
-6.0027
 30
27.9958
 70
192
 0
VERTEX
 8
CYLINDER_4
 10
-0.5261
 20
-6.0027
 30
27.9958
 70
192
 0
VERTEX
 8
CYLINDER_4
 10
-0.4922
 20
-6.0027
 30
27.9957
 70
192
 0
VERTEX
 8
CYLINDER_4
 10
-0.5663
 20
-6.8424
 30
30.3027
 70
192
 0
VERTEX
 8
CYLINDER_4
 10
0.0418
 20
-6.5429
 30
29.4801
 70
192
 0
VERTEX
 8
CYLINDER_4
 10
0
 20
0
 30
0
 70
128
 71
7
 72
68
 73
3
 74
3
 0
VERTEX
 8
CYLINDER_4
 10
0
 20
0
 30
0
 70
128
 71
4
 72
5
 73
9
 74
8
 0
VERTEX
 8
CYLINDER_4
 10
0
 20
0
 30
0
 70
128
 71
99
 72
39
 73
1
 74
1
 0
VERTEX
 8
CYLINDER_4
 10
0
 20
0
 30
0
 70
128
 71
72
 72
63
 73
65
 74
65
 0
VERTEX
 8
CYLINDER_4
 10
0
 20
0
 30
0
 70
128
 71
68
 72
7
 73
66
 74
66
 0
VERTEX
 8
CYLINDER_4
 10
0
 20
0
 30
0
 70
128
 71
66
 72
7
 73
64
 74
64
 0
VERTEX
 8
CYLINDER_4
 10
0
 20
0
 30
0
 70
128
 71
65
 72
68
 73
72
 74
72
 0
VERTEX
 8
CYLINDER_4
 10
0
 20
0
 30
0
 70
128
 71
64
 72
7
 73
11
 74
11
 0
VERTEX
 8
CYLINDER_4
 10
0
 20
0
 30
0
 70
128
 71
70
 72
73
 73
63
 74
63
 0
VERTEX
 8
CYLINDER_4
 10
0
 20
0
 30
0
 70
128
 71
63
 72
73
 73
74
 74
1
 0
VERTEX
 8
CYLINDER_4
 10
0
 20
0
 30
0
 70
128
 71
75
 72
74
 73
73
 74
73
 0
VERTEX
 8
CYLINDER_4
 10
0
 20
0
 30
0
 70
128
 71
64
 72
78
 73
67
 74
67
 0
VERTEX
 8
CYLINDER_4
 10
0
 20
0
 30
0
 70
128
 71
8
 72
9
 73
13
 74
12
 0
VERTEX
 8
CYLINDER_4
 10
0
 20
0
 30
0
 70
128
 71
128
 72
135
 73
47
 74
47
 0
VERTEX
 8
CYLINDER_4
 10
0
 20
0
 30
0
 70
128
 71
81
 72
79
 73
77
 74
77
 0
VERTEX
 8
CYLINDER_4
 10
0
 20
0
 30
0
 70
128
 71
11
 72
79
 73
159
 74
159
 0
VERTEX
 8
CYLINDER_4
 10
0
 20
0
 30
0
 70
128
 71
77
 72
79
 73
15
 74
15
 0
VERTEX
 8
CYLINDER_4
 10
0
 20
0
 30
0
 70
128
 71
80
 72
88
 73
95
 74
95
 0
VERTEX
 8
CYLINDER_4
 10
0
 20
0
 30
0
 70
128
 71
91
 72
82
 73
92
 74
92
 0
VERTEX
 8
CYLINDER_4
 10
0
 20
0
 30
0
 70
128
 71
92
 72
82
 73
80
 74
80
 0
VERTEX
 8
CYLINDER_4
 10
0
 20
0
 30
0
 70
128
 71
93
 72
92
 73
90
 74
94
 0
VERTEX
 8
CYLINDER_4
 10
0
 20
0
 30
0
 70
128
 71
95
 72
94
 73
90
 74
80
 0
VERTEX
 8
CYLINDER_4
 10
0
 20
0
 30
0
 70
128
 71
95
 72
89
 73
94
 74
94
 0
VERTEX
 8
CYLINDER_4
 10
0
 20
0
 30
0
 70
128
 71
82
 72
85
 73
77
 74
77
 0
VERTEX
 8
CYLINDER_4
 10
0
 20
0
 30
0
 70
128
 71
75
 72
160
 73
74
 74
74
 0
VERTEX
 8
CYLINDER_4
 10
0
 20
0
 30
0
 70
128
 71
12
 72
13
 73
17
 74
16
 0
VERTEX
 8
CYLINDER_4
 10
0
 20
0
 30
0
 70
128
 71
135
 72
132
 73
47
 74
47
 0
VERTEX
 8
CYLINDER_4
 10
0
 20
0
 30
0
 70
128
 71
15
 72
19
 73
77
 74
77
 0
VERTEX
 8
CYLINDER_4
 10
0
 20
0
 30
0
 70
128
 71
16
 72
17
 73
21
 74
20
 0
VERTEX
 8
CYLINDER_4
 10
0
 20
0
 30
0
 70
128
 71
132
 72
138
 73
47
 74
47
 0
VERTEX
 8
CYLINDER_4
 10
0
 20
0
 30
0
 70
128
 71
1
 72
19
 73
23
 74
23
 0
VERTEX
 8
CYLINDER_4
 10
0
 20
0
 30
0
 70
128
 71
20
 72
21
 73
25
 74
24
 0
VERTEX
 8
CYLINDER_4
 10
0
 20
0
 30
0
 70
128
 71
138
 72
137
 73
47
 74
47
 0
VERTEX
 8
CYLINDER_4
 10
0
 20
0
 30
0
 70
128
 71
1
 72
23
 73
27
 74
27
 0
VERTEX
 8
CYLINDER_4
 10
0
 20
0
 30
0
 70
128
 71
24
 72
25
 73
29
 74
28
 0
VERTEX
 8
CYLINDER_4
 10
0
 20
0
 30
0
 70
128
 71
137
 72
1
 73
47
 74
47
 0
VERTEX
 8
CYLINDER_4
 10
0
 20
0
 30
0
 70
128
 71
31
 72
101
 73
27
 74
27
 0
VERTEX
 8
CYLINDER_4
 10
0
 20
0
 30
0
 70
128
 71
28
 72
29
 73
33
 74
32
 0
VERTEX
 8
CYLINDER_4
 10
0
 20
0
 30
0
 70
128
 71
130
 72
51
 73
55
 74
55
 0
VERTEX
 8
CYLINDER_4
 10
0
 20
0
 30
0
 70
128
 71
110
 72
101
 73
112
 74
112
 0
VERTEX
 8
CYLINDER_4
 10
0
 20
0
 30
0
 70
128
 71
109
 72
101
 73
31
 74
31
 0
VERTEX
 8
CYLINDER_4
 10
0
 20
0
 30
0
 70
128
 71
119
 72
124
 73
111
 74
111
 0
VERTEX
 8
CYLINDER_4
 10
0
 20
0
 30
0
 70
128
 71
123
 72
126
 73
119
 74
119
 0
VERTEX
 8
CYLINDER_4
 10
0
 20
0
 30
0
 70
128
 71
119
 72
111
 73
2
 74
2
 0
VERTEX
 8
CYLINDER_4
 10
0
 20
0
 30
0
 70
128
 71
106
 72
105
 73
99
 74
99
 0
VERTEX
 8
CYLINDER_4
 10
0
 20
0
 30
0
 70
128
 71
103
 72
113
 73
114
 74
98
 0
VERTEX
 8
CYLINDER_4
 10
0
 20
0
 30
0
 70
128
 71
113
 72
102
 73
114
 74
114
 0
VERTEX
 8
CYLINDER_4
 10
0
 20
0
 30
0
 70
128
 71
108
 72
99
 73
116
 74
116
 0
VERTEX
 8
CYLINDER_4
 10
0
 20
0
 30
0
 70
128
 71
99
 72
108
 73
35
 74
35
 0
VERTEX
 8
CYLINDER_4
 10
0
 20
0
 30
0
 70
128
 71
120
 72
115
 73
117
 74
117
 0
VERTEX
 8
CYLINDER_4
 10
0
 20
0
 30
0
 70
128
 71
118
 72
120
 73
31
 74
31
 0
VERTEX
 8
CYLINDER_4
 10
0
 20
0
 30
0
 70
128
 71
122
 72
123
 73
115
 74
115
 0
VERTEX
 8
CYLINDER_4
 10
0
 20
0
 30
0
 70
128
 71
102
 72
104
 73
100
 74
114
 0
VERTEX
 8
CYLINDER_4
 10
0
 20
0
 30
0
 70
128
 71
102
 72
107
 73
104
 74
104
 0
VERTEX
 8
CYLINDER_4
 10
0
 20
0
 30
0
 70
128
 71
100
 72
104
 73
1
 74
1
 0
VERTEX
 8
CYLINDER_4
 10
0
 20
0
 30
0
 70
128
 71
32
 72
33
 73
37
 74
36
 0
VERTEX
 8
CYLINDER_4
 10
0
 20
0
 30
0
 70
128
 71
148
 72
140
 73
139
 74
139
 0
VERTEX
 8
CYLINDER_4
 10
0
 20
0
 30
0
 70
128
 71
35
 72
39
 73
99
 74
99
 0
VERTEX
 8
CYLINDER_4
 10
0
 20
0
 30
0
 70
128
 71
36
 72
37
 73
41
 74
40
 0
VERTEX
 8
CYLINDER_4
 10
0
 20
0
 30
0
 70
128
 71
145
 72
138
 73
132
 74
132
 0
VERTEX
 8
CYLINDER_4
 10
0
 20
0
 30
0
 70
128
 71
1
 72
39
 73
43
 74
43
 0
VERTEX
 8
CYLINDER_4
 10
0
 20
0
 30
0
 70
128
 71
40
 72
41
 73
45
 74
44
 0
VERTEX
 8
CYLINDER_4
 10
0
 20
0
 30
0
 70
128
 71
142
 72
128
 73
131
 74
131
 0
VERTEX
 8
CYLINDER_4
 10
0
 20
0
 30
0
 70
128
 71
1
 72
43
 73
47
 74
47
 0
VERTEX
 8
CYLINDER_4
 10
0
 20
0
 30
0
 70
128
 71
44
 72
45
 73
49
 74
48
 0
VERTEX
 8
CYLINDER_4
 10
0
 20
0
 30
0
 70
128
 71
154
 72
129
 73
55
 74
55
 0
VERTEX
 8
CYLINDER_4
 10
0
 20
0
 30
0
 70
128
 71
51
 72
128
 73
47
 74
47
 0
VERTEX
 8
CYLINDER_4
 10
0
 20
0
 30
0
 70
128
 71
48
 72
49
 73
53
 74
52
 0
VERTEX
 8
CYLINDER_4
 10
0
 20
0
 30
0
 70
128
 71
156
 72
152
 73
153
 74
153
 0
VERTEX
 8
CYLINDER_4
 10
0
 20
0
 30
0
 70
128
 71
130
 72
131
 73
128
 74
51
 0
VERTEX
 8
CYLINDER_4
 10
0
 20
0
 30
0
 70
128
 71
129
 72
133
 73
130
 74
55
 0
VERTEX
 8
CYLINDER_4
 10
0
 20
0
 30
0
 70
128
 71
132
 72
140
 73
148
 74
148
 0
VERTEX
 8
CYLINDER_4
 10
0
 20
0
 30
0
 70
128
 71
146
 72
149
 73
138
 74
145
 0
VERTEX
 8
CYLINDER_4
 10
0
 20
0
 30
0
 70
128
 71
138
 72
149
 73
137
 74
137
 0
VERTEX
 8
CYLINDER_4
 10
0
 20
0
 30
0
 70
128
 71
146
 72
145
 73
150
 74
150
 0
VERTEX
 8
CYLINDER_4
 10
0
 20
0
 30
0
 70
128
 71
150
 72
145
 73
147
 74
147
 0
VERTEX
 8
CYLINDER_4
 10
0
 20
0
 30
0
 70
128
 71
148
 72
147
 73
145
 74
132
 0
VERTEX
 8
CYLINDER_4
 10
0
 20
0
 30
0
 70
128
 71
148
 72
139
 73
147
 74
147
 0
VERTEX
 8
CYLINDER_4
 10
0
 20
0
 30
0
 70
128
 71
136
 72
1
 73
137
 74
137
 0
VERTEX
 8
CYLINDER_4
 10
0
 20
0
 30
0
 70
128
 71
135
 72
128
 73
142
 74
142
 0
VERTEX
 8
CYLINDER_4
 10
0
 20
0
 30
0
 70
128
 71
140
 72
132
 73
141
 74
141
 0
VERTEX
 8
CYLINDER_4
 10
0
 20
0
 30
0
 70
128
 71
141
 72
132
 73
135
 74
135
 0
VERTEX
 8
CYLINDER_4
 10
0
 20
0
 30
0
 70
128
 71
52
 72
53
 73
57
 74
56
 0
VERTEX
 8
CYLINDER_4
 10
0
 20
0
 30
0
 70
128
 71
155
 72
136
 73
158
 74
158
 0
VERTEX
 8
CYLINDER_4
 10
0
 20
0
 30
0
 70
128
 71
151
 72
152
 73
55
 74
59
 0
VERTEX
 8
CYLINDER_4
 10
0
 20
0
 30
0
 70
128
 71
155
 72
156
 73
153
 74
153
 0
VERTEX
 8
CYLINDER_4
 10
0
 20
0
 30
0
 70
128
 71
157
 72
155
 73
158
 74
158
 0
VERTEX
 8
CYLINDER_4
 10
0
 20
0
 30
0
 70
128
 71
153
 72
136
 73
155
 74
155
 0
VERTEX
 8
CYLINDER_4
 10
0
 20
0
 30
0
 70
128
 71
136
 72
153
 73
1
 74
1
 0
VERTEX
 8
CYLINDER_4
 10
0
 20
0
 30
0
 70
128
 71
152
 72
151
 73
153
 74
153
 0
VERTEX
 8
CYLINDER_4
 10
0
 20
0
 30
0
 70
128
 71
56
 72
57
 73
61
 74
60
 0
VERTEX
 8
CYLINDER_4
 10
0
 20
0
 30
0
 70
128
 71
151
 72
3
 73
153
 74
153
 0
VERTEX
 8
CYLINDER_4
 10
0
 20
0
 30
0
 70
128
 71
59
 72
3
 73
151
 74
151
 0
VERTEX
 8
CYLINDER_4
 10
0
 20
0
 30
0
 70
128
 71
60
 72
61
 73
5
 74
4
 0
VERTEX
 8
CYLINDER_4
 10
0
 20
0
 30
0
 70
128
 71
153
 72
3
 73
1
 74
1
 0
VERTEX
 8
CYLINDER_4
 10
0
 20
0
 30
0
 70
128
 71
68
 72
65
 73
3
 74
3
 0
VERTEX
 8
CYLINDER_4
 10
0
 20
0
 30
0
 70
128
 71
65
 72
63
 73
3
 74
3
 0
VERTEX
 8
CYLINDER_4
 10
0
 20
0
 30
0
 70
128
 71
63
 72
1
 73
3
 74
3
 0
VERTEX
 8
CYLINDER_4
 10
0
 20
0
 30
0
 70
128
 71
72
 72
68
 73
66
 74
66
 0
VERTEX
 8
CYLINDER_4
 10
0
 20
0
 30
0
 70
128
 71
76
 72
69
 73
67
 74
67
 0
VERTEX
 8
CYLINDER_4
 10
0
 20
0
 30
0
 70
128
 71
79
 72
83
 73
159
 74
159
 0
VERTEX
 8
CYLINDER_4
 10
0
 20
0
 30
0
 70
128
 71
83
 72
78
 73
159
 74
159
 0
VERTEX
 8
CYLINDER_4
 10
0
 20
0
 30
0
 70
128
 71
11
 72
159
 73
64
 74
64
 0
VERTEX
 8
CYLINDER_4
 10
0
 20
0
 30
0
 70
128
 71
64
 72
159
 73
78
 74
78
 0
VERTEX
 8
CYLINDER_4
 10
0
 20
0
 30
0
 70
128
 71
79
 72
11
 73
15
 74
15
 0
VERTEX
 8
CYLINDER_4
 10
0
 20
0
 30
0
 70
128
 71
95
 72
88
 73
89
 74
89
 0
VERTEX
 8
CYLINDER_4
 10
0
 20
0
 30
0
 70
128
 71
90
 72
92
 73
80
 74
80
 0
VERTEX
 8
CYLINDER_4
 10
0
 20
0
 30
0
 70
128
 71
85
 72
97
 73
77
 74
77
 0
VERTEX
 8
CYLINDER_4
 10
0
 20
0
 30
0
 70
128
 71
97
 72
81
 73
77
 74
77
 0
VERTEX
 8
CYLINDER_4
 10
0
 20
0
 30
0
 70
128
 71
74
 72
160
 73
1
 74
1
 0
VERTEX
 8
CYLINDER_4
 10
0
 20
0
 30
0
 70
128
 71
80
 72
160
 73
88
 74
88
 0
VERTEX
 8
CYLINDER_4
 10
0
 20
0
 30
0
 70
128
 71
88
 72
160
 73
75
 74
75
 0
VERTEX
 8
CYLINDER_4
 10
0
 20
0
 30
0
 70
128
 71
80
 72
1
 73
160
 74
160
 0
VERTEX
 8
CYLINDER_4
 10
0
 20
0
 30
0
 70
128
 71
77
 72
19
 73
82
 74
82
 0
VERTEX
 8
CYLINDER_4
 10
0
 20
0
 30
0
 70
128
 71
82
 72
19
 73
80
 74
80
 0
VERTEX
 8
CYLINDER_4
 10
0
 20
0
 30
0
 70
128
 71
80
 72
19
 73
1
 74
1
 0
VERTEX
 8
CYLINDER_4
 10
0
 20
0
 30
0
 70
128
 71
103
 72
98
 73
27
 74
27
 0
VERTEX
 8
CYLINDER_4
 10
0
 20
0
 30
0
 70
128
 71
98
 72
100
 73
27
 74
27
 0
VERTEX
 8
CYLINDER_4
 10
0
 20
0
 30
0
 70
128
 71
100
 72
1
 73
27
 74
27
 0
VERTEX
 8
CYLINDER_4
 10
0
 20
0
 30
0
 70
128
 71
112
 72
101
 73
125
 74
125
 0
VERTEX
 8
CYLINDER_4
 10
0
 20
0
 30
0
 70
128
 71
125
 72
101
 73
109
 74
109
 0
VERTEX
 8
CYLINDER_4
 10
0
 20
0
 30
0
 70
128
 71
111
 72
109
 73
2
 74
2
 0
VERTEX
 8
CYLINDER_4
 10
0
 20
0
 30
0
 70
128
 71
109
 72
31
 73
2
 74
2
 0
VERTEX
 8
CYLINDER_4
 10
0
 20
0
 30
0
 70
128
 71
123
 72
2
 73
115
 74
115
 0
VERTEX
 8
CYLINDER_4
 10
0
 20
0
 30
0
 70
128
 71
115
 72
2
 73
117
 74
117
 0
VERTEX
 8
CYLINDER_4
 10
0
 20
0
 30
0
 70
128
 71
117
 72
2
 73
31
 74
31
 0
VERTEX
 8
CYLINDER_4
 10
0
 20
0
 30
0
 70
128
 71
123
 72
119
 73
2
 74
2
 0
VERTEX
 8
CYLINDER_4
 10
0
 20
0
 30
0
 70
128
 71
116
 72
99
 73
105
 74
105
 0
VERTEX
 8
CYLINDER_4
 10
0
 20
0
 30
0
 70
128
 71
120
 72
117
 73
31
 74
31
 0
VERTEX
 8
CYLINDER_4
 10
0
 20
0
 30
0
 70
128
 71
118
 72
31
 73
108
 74
108
 0
VERTEX
 8
CYLINDER_4
 10
0
 20
0
 30
0
 70
128
 71
114
 72
100
 73
98
 74
98
 0
VERTEX
 8
CYLINDER_4
 10
0
 20
0
 30
0
 70
128
 71
104
 72
107
 73
1
 74
1
 0
VERTEX
 8
CYLINDER_4
 10
0
 20
0
 30
0
 70
128
 71
107
 72
99
 73
1
 74
1
 0
SEQEND
 0
POLYLINE
 8
CYLINDER_3
 66
1
 10
0.0
 20
0.0
 30
0.0
 70
64
 71
34
 72
24
 0
VERTEX
 8
CYLINDER_3
 10
-0.7529
 20
-6.3726
 30
28.8611
 70
192
 0
VERTEX
 8
CYLINDER_3
 10
-0.7529
 20
-6.241
 30
28.909
 70
192
 0
VERTEX
 8
CYLINDER_3
 10
-1.1529
 20
-6.3726
 30
28.8611
 70
192
 0
VERTEX
 8
CYLINDER_3
 10
-1.1529
 20
-6.3726
 30
28.8611
 70
192
 0
VERTEX
 8
CYLINDER_3
 10
-1.1529
 20
-6.241
 30
28.909
 70
192
 0
VERTEX
 8
CYLINDER_3
 10
-1.1529
 20
-6.241
 30
28.909
 70
192
 0
VERTEX
 8
CYLINDER_3
 10
-1.0357
 20
-6.4693
 30
29.1269
 70
192
 0
VERTEX
 8
CYLINDER_3
 10
-1.0357
 20
-6.4693
 30
29.1269
 70
192
 0
VERTEX
 8
CYLINDER_3
 10
-1.0357
 20
-6.3378
 30
29.1748
 70
192
 0
VERTEX
 8
CYLINDER_3
 10
-1.0357
 20
-6.3378
 30
29.1748
 70
192
 0
VERTEX
 8
CYLINDER_3
 10
-0.7529
 20
-6.5094
 30
29.237
 70
192
 0
VERTEX
 8
CYLINDER_3
 10
-0.7529
 20
-6.5094
 30
29.237
 70
192
 0
VERTEX
 8
CYLINDER_3
 10
-0.7529
 20
-6.3778
 30
29.2848
 70
192
 0
VERTEX
 8
CYLINDER_3
 10
-0.7529
 20
-6.3778
 30
29.2848
 70
192
 0
VERTEX
 8
CYLINDER_3
 10
-0.47
 20
-6.4693
 30
29.1269
 70
192
 0
VERTEX
 8
CYLINDER_3
 10
-0.47
 20
-6.4693
 30
29.1269
 70
192
 0
VERTEX
 8
CYLINDER_3
 10
-0.47
 20
-6.3378
 30
29.1748
 70
192
 0
VERTEX
 8
CYLINDER_3
 10
-0.47
 20
-6.3378
 30
29.1748
 70
192
 0
VERTEX
 8
CYLINDER_3
 10
-0.3529
 20
-6.3726
 30
28.8611
 70
192
 0
VERTEX
 8
CYLINDER_3
 10
-0.3529
 20
-6.3726
 30
28.8611
 70
192
 0
VERTEX
 8
CYLINDER_3
 10
-0.3529
 20
-6.241
 30
28.909
 70
192
 0
VERTEX
 8
CYLINDER_3
 10
-0.3529
 20
-6.241
 30
28.909
 70
192
 0
VERTEX
 8
CYLINDER_3
 10
-0.47
 20
-6.2759
 30
28.5953
 70
192
 0
VERTEX
 8
CYLINDER_3
 10
-0.47
 20
-6.2759
 30
28.5953
 70
192
 0
VERTEX
 8
CYLINDER_3
 10
-0.47
 20
-6.1443
 30
28.6432
 70
192
 0
VERTEX
 8
CYLINDER_3
 10
-0.47
 20
-6.1443
 30
28.6432
 70
192
 0
VERTEX
 8
CYLINDER_3
 10
-0.7529
 20
-6.2358
 30
28.4852
 70
192
 0
VERTEX
 8
CYLINDER_3
 10
-0.7529
 20
-6.2358
 30
28.4852
 70
192
 0
VERTEX
 8
CYLINDER_3
 10
-0.7529
 20
-6.1042
 30
28.5331
 70
192
 0
VERTEX
 8
CYLINDER_3
 10
-0.7529
 20
-6.1042
 30
28.5331
 70
192
 0
VERTEX
 8
CYLINDER_3
 10
-1.0357
 20
-6.2759
 30
28.5953
 70
192
 0
VERTEX
 8
CYLINDER_3
 10
-1.0357
 20
-6.2759
 30
28.5953
 70
192
 0
VERTEX
 8
CYLINDER_3
 10
-1.0357
 20
-6.1443
 30
28.6432
 70
192
 0
VERTEX
 8
CYLINDER_3
 10
-1.0357
 20
-6.1443
 30
28.6432
 70
192
 0
VERTEX
 8
CYLINDER_3
 10
0
 20
0
 30
0
 70
128
 71
1
 72
3
 73
7
 74
7
 0
VERTEX
 8
CYLINDER_3
 10
0
 20
0
 30
0
 70
128
 71
4
 72
5
 73
9
 74
8
 0
VERTEX
 8
CYLINDER_3
 10
0
 20
0
 30
0
 70
128
 71
6
 72
2
 73
10
 74
10
 0
VERTEX
 8
CYLINDER_3
 10
0
 20
0
 30
0
 70
128
 71
1
 72
7
 73
11
 74
11
 0
VERTEX
 8
CYLINDER_3
 10
0
 20
0
 30
0
 70
128
 71
8
 72
9
 73
13
 74
12
 0
VERTEX
 8
CYLINDER_3
 10
0
 20
0
 30
0
 70
128
 71
10
 72
2
 73
14
 74
14
 0
VERTEX
 8
CYLINDER_3
 10
0
 20
0
 30
0
 70
128
 71
1
 72
11
 73
15
 74
15
 0
VERTEX
 8
CYLINDER_3
 10
0
 20
0
 30
0
 70
128
 71
12
 72
13
 73
17
 74
16
 0
VERTEX
 8
CYLINDER_3
 10
0
 20
0
 30
0
 70
128
 71
14
 72
2
 73
18
 74
18
 0
VERTEX
 8
CYLINDER_3
 10
0
 20
0
 30
0
 70
128
 71
1
 72
15
 73
19
 74
19
 0
VERTEX
 8
CYLINDER_3
 10
0
 20
0
 30
0
 70
128
 71
16
 72
17
 73
21
 74
20
 0
VERTEX
 8
CYLINDER_3
 10
0
 20
0
 30
0
 70
128
 71
18
 72
2
 73
22
 74
22
 0
VERTEX
 8
CYLINDER_3
 10
0
 20
0
 30
0
 70
128
 71
1
 72
19
 73
23
 74
23
 0
VERTEX
 8
CYLINDER_3
 10
0
 20
0
 30
0
 70
128
 71
20
 72
21
 73
25
 74
24
 0
VERTEX
 8
CYLINDER_3
 10
0
 20
0
 30
0
 70
128
 71
22
 72
2
 73
26
 74
26
 0
VERTEX
 8
CYLINDER_3
 10
0
 20
0
 30
0
 70
128
 71
1
 72
23
 73
27
 74
27
 0
VERTEX
 8
CYLINDER_3
 10
0
 20
0
 30
0
 70
128
 71
24
 72
25
 73
29
 74
28
 0
VERTEX
 8
CYLINDER_3
 10
0
 20
0
 30
0
 70
128
 71
26
 72
2
 73
30
 74
30
 0
VERTEX
 8
CYLINDER_3
 10
0
 20
0
 30
0
 70
128
 71
1
 72
27
 73
31
 74
31
 0
VERTEX
 8
CYLINDER_3
 10
0
 20
0
 30
0
 70
128
 71
28
 72
29
 73
33
 74
32
 0
VERTEX
 8
CYLINDER_3
 10
0
 20
0
 30
0
 70
128
 71
30
 72
2
 73
34
 74
34
 0
VERTEX
 8
CYLINDER_3
 10
0
 20
0
 30
0
 70
128
 71
1
 72
31
 73
3
 74
3
 0
VERTEX
 8
CYLINDER_3
 10
0
 20
0
 30
0
 70
128
 71
32
 72
33
 73
5
 74
4
 0
VERTEX
 8
CYLINDER_3
 10
0
 20
0
 30
0
 70
128
 71
34
 72
2
 73
6
 74
6
 0
SEQEND
 0
POLYLINE
 8
CYLINDER_2
 66
1
 10
0.0
 20
0.0
 30
0.0
 70
64
 71
34
 72
24
 0
VERTEX
 8
CYLINDER_2
 10
1.1708
 20
-6.711
 30
29.7907
 70
192
 0
VERTEX
 8
CYLINDER_2
 10
1.1708
 20
-6.5794
 30
29.8386
 70
192
 0
VERTEX
 8
CYLINDER_2
 10
0.7708
 20
-6.711
 30
29.7907
 70
192
 0
VERTEX
 8
CYLINDER_2
 10
0.7708
 20
-6.711
 30
29.7907
 70
192
 0
VERTEX
 8
CYLINDER_2
 10
0.7708
 20
-6.5794
 30
29.8386
 70
192
 0
VERTEX
 8
CYLINDER_2
 10
0.7708
 20
-6.5794
 30
29.8386
 70
192
 0
VERTEX
 8
CYLINDER_2
 10
0.8879
 20
-6.8077
 30
30.0565
 70
192
 0
VERTEX
 8
CYLINDER_2
 10
0.8879
 20
-6.8077
 30
30.0565
 70
192
 0
VERTEX
 8
CYLINDER_2
 10
0.8879
 20
-6.6761
 30
30.1044
 70
192
 0
VERTEX
 8
CYLINDER_2
 10
0.8879
 20
-6.6761
 30
30.1044
 70
192
 0
VERTEX
 8
CYLINDER_2
 10
1.1708
 20
-6.8478
 30
30.1666
 70
192
 0
VERTEX
 8
CYLINDER_2
 10
1.1708
 20
-6.8478
 30
30.1666
 70
192
 0
VERTEX
 8
CYLINDER_2
 10
1.1708
 20
-6.7162
 30
30.2145
 70
192
 0
VERTEX
 8
CYLINDER_2
 10
1.1708
 20
-6.7162
 30
30.2145
 70
192
 0
VERTEX
 8
CYLINDER_2
 10
1.4536
 20
-6.8077
 30
30.0565
 70
192
 0
VERTEX
 8
CYLINDER_2
 10
1.4536
 20
-6.8077
 30
30.0565
 70
192
 0
VERTEX
 8
CYLINDER_2
 10
1.4536
 20
-6.6761
 30
30.1044
 70
192
 0
VERTEX
 8
CYLINDER_2
 10
1.4536
 20
-6.6761
 30
30.1044
 70
192
 0
VERTEX
 8
CYLINDER_2
 10
1.5708
 20
-6.711
 30
29.7907
 70
192
 0
VERTEX
 8
CYLINDER_2
 10
1.5708
 20
-6.711
 30
29.7907
 70
192
 0
VERTEX
 8
CYLINDER_2
 10
1.5708
 20
-6.5794
 30
29.8386
 70
192
 0
VERTEX
 8
CYLINDER_2
 10
1.5708
 20
-6.5794
 30
29.8386
 70
192
 0
VERTEX
 8
CYLINDER_2
 10
1.4536
 20
-6.6142
 30
29.5249
 70
192
 0
VERTEX
 8
CYLINDER_2
 10
1.4536
 20
-6.6142
 30
29.5249
 70
192
 0
VERTEX
 8
CYLINDER_2
 10
1.4536
 20
-6.4827
 30
29.5728
 70
192
 0
VERTEX
 8
CYLINDER_2
 10
1.4536
 20
-6.4827
 30
29.5728
 70
192
 0
VERTEX
 8
CYLINDER_2
 10
1.1708
 20
-6.5741
 30
29.4149
 70
192
 0
VERTEX
 8
CYLINDER_2
 10
1.1708
 20
-6.5741
 30
29.4149
 70
192
 0
VERTEX
 8
CYLINDER_2
 10
1.1708
 20
-6.4426
 30
29.4627
 70
192
 0
VERTEX
 8
CYLINDER_2
 10
1.1708
 20
-6.4426
 30
29.4627
 70
192
 0
VERTEX
 8
CYLINDER_2
 10
0.8879
 20
-6.6142
 30
29.5249
 70
192
 0
VERTEX
 8
CYLINDER_2
 10
0.8879
 20
-6.6142
 30
29.5249
 70
192
 0
VERTEX
 8
CYLINDER_2
 10
0.8879
 20
-6.4827
 30
29.5728
 70
192
 0
VERTEX
 8
CYLINDER_2
 10
0.8879
 20
-6.4827
 30
29.5728
 70
192
 0
VERTEX
 8
CYLINDER_2
 10
0
 20
0
 30
0
 70
128
 71
1
 72
3
 73
7
 74
7
 0
VERTEX
 8
CYLINDER_2
 10
0
 20
0
 30
0
 70
128
 71
4
 72
5
 73
9
 74
8
 0
VERTEX
 8
CYLINDER_2
 10
0
 20
0
 30
0
 70
128
 71
6
 72
2
 73
10
 74
10
 0
VERTEX
 8
CYLINDER_2
 10
0
 20
0
 30
0
 70
128
 71
1
 72
7
 73
11
 74
11
 0
VERTEX
 8
CYLINDER_2
 10
0
 20
0
 30
0
 70
128
 71
8
 72
9
 73
13
 74
12
 0
VERTEX
 8
CYLINDER_2
 10
0
 20
0
 30
0
 70
128
 71
10
 72
2
 73
14
 74
14
 0
VERTEX
 8
CYLINDER_2
 10
0
 20
0
 30
0
 70
128
 71
1
 72
11
 73
15
 74
15
 0
VERTEX
 8
CYLINDER_2
 10
0
 20
0
 30
0
 70
128
 71
12
 72
13
 73
17
 74
16
 0
VERTEX
 8
CYLINDER_2
 10
0
 20
0
 30
0
 70
128
 71
14
 72
2
 73
18
 74
18
 0
VERTEX
 8
CYLINDER_2
 10
0
 20
0
 30
0
 70
128
 71
1
 72
15
 73
19
 74
19
 0
VERTEX
 8
CYLINDER_2
 10
0
 20
0
 30
0
 70
128
 71
16
 72
17
 73
21
 74
20
 0
VERTEX
 8
CYLINDER_2
 10
0
 20
0
 30
0
 70
128
 71
18
 72
2
 73
22
 74
22
 0
VERTEX
 8
CYLINDER_2
 10
0
 20
0
 30
0
 70
128
 71
1
 72
19
 73
23
 74
23
 0
VERTEX
 8
CYLINDER_2
 10
0
 20
0
 30
0
 70
128
 71
20
 72
21
 73
25
 74
24
 0
VERTEX
 8
CYLINDER_2
 10
0
 20
0
 30
0
 70
128
 71
22
 72
2
 73
26
 74
26
 0
VERTEX
 8
CYLINDER_2
 10
0
 20
0
 30
0
 70
128
 71
1
 72
23
 73
27
 74
27
 0
VERTEX
 8
CYLINDER_2
 10
0
 20
0
 30
0
 70
128
 71
24
 72
25
 73
29
 74
28
 0
VERTEX
 8
CYLINDER_2
 10
0
 20
0
 30
0
 70
128
 71
26
 72
2
 73
30
 74
30
 0
VERTEX
 8
CYLINDER_2
 10
0
 20
0
 30
0
 70
128
 71
1
 72
27
 73
31
 74
31
 0
VERTEX
 8
CYLINDER_2
 10
0
 20
0
 30
0
 70
128
 71
28
 72
29
 73
33
 74
32
 0
VERTEX
 8
CYLINDER_2
 10
0
 20
0
 30
0
 70
128
 71
30
 72
2
 73
34
 74
34
 0
VERTEX
 8
CYLINDER_2
 10
0
 20
0
 30
0
 70
128
 71
1
 72
31
 73
3
 74
3
 0
VERTEX
 8
CYLINDER_2
 10
0
 20
0
 30
0
 70
128
 71
32
 72
33
 73
5
 74
4
 0
VERTEX
 8
CYLINDER_2
 10
0
 20
0
 30
0
 70
128
 71
34
 72
2
 73
6
 74
6
 0
SEQEND
 0
POLYLINE
 8
CYLINDER_1
 66
1
 10
0.0
 20
0.0
 30
0.0
 70
64
 71
34
 72
24
 0
VERTEX
 8
CYLINDER_1
 10
1.1707
 20
-6.0503
 30
27.9757
 70
192
 0
VERTEX
 8
CYLINDER_1
 10
1.1707
 20
-5.9188
 30
28.0236
 70
192
 0
VERTEX
 8
CYLINDER_1
 10
0.7707
 20
-6.0503
 30
27.9757
 70
192
 0
VERTEX
 8
CYLINDER_1
 10
0.7707
 20
-6.0503
 30
27.9757
 70
192
 0
VERTEX
 8
CYLINDER_1
 10
0.7707
 20
-5.9188
 30
28.0236
 70
192
 0
VERTEX
 8
CYLINDER_1
 10
0.7707
 20
-5.9188
 30
28.0236
 70
192
 0
VERTEX
 8
CYLINDER_1
 10
0.8879
 20
-6.1471
 30
28.2415
 70
192
 0
VERTEX
 8
CYLINDER_1
 10
0.8879
 20
-6.1471
 30
28.2415
 70
192
 0
VERTEX
 8
CYLINDER_1
 10
0.8879
 20
-6.0155
 30
28.2894
 70
192
 0
VERTEX
 8
CYLINDER_1
 10
0.8879
 20
-6.0155
 30
28.2894
 70
192
 0
VERTEX
 8
CYLINDER_1
 10
1.1707
 20
-6.1872
 30
28.3516
 70
192
 0
VERTEX
 8
CYLINDER_1
 10
1.1707
 20
-6.1872
 30
28.3516
 70
192
 0
VERTEX
 8
CYLINDER_1
 10
1.1707
 20
-6.0556
 30
28.3995
 70
192
 0
VERTEX
 8
CYLINDER_1
 10
1.1707
 20
-6.0556
 30
28.3995
 70
192
 0
VERTEX
 8
CYLINDER_1
 10
1.4536
 20
-6.1471
 30
28.2415
 70
192
 0
VERTEX
 8
CYLINDER_1
 10
1.4536
 20
-6.1471
 30
28.2415
 70
192
 0
VERTEX
 8
CYLINDER_1
 10
1.4536
 20
-6.0155
 30
28.2894
 70
192
 0
VERTEX
 8
CYLINDER_1
 10
1.4536
 20
-6.0155
 30
28.2894
 70
192
 0
VERTEX
 8
CYLINDER_1
 10
1.5707
 20
-6.0503
 30
27.9757
 70
192
 0
VERTEX
 8
CYLINDER_1
 10
1.5707
 20
-6.0503
 30
27.9757
 70
192
 0
VERTEX
 8
CYLINDER_1
 10
1.5707
 20
-5.9188
 30
28.0236
 70
192
 0
VERTEX
 8
CYLINDER_1
 10
1.5707
 20
-5.9188
 30
28.0236
 70
192
 0
VERTEX
 8
CYLINDER_1
 10
1.4536
 20
-5.9536
 30
27.7099
 70
192
 0
VERTEX
 8
CYLINDER_1
 10
1.4536
 20
-5.9536
 30
27.7099
 70
192
 0
VERTEX
 8
CYLINDER_1
 10
1.4536
 20
-5.8221
 30
27.7578
 70
192
 0
VERTEX
 8
CYLINDER_1
 10
1.4536
 20
-5.8221
 30
27.7578
 70
192
 0
VERTEX
 8
CYLINDER_1
 10
1.1707
 20
-5.9135
 30
27.5998
 70
192
 0
VERTEX
 8
CYLINDER_1
 10
1.1707
 20
-5.9135
 30
27.5998
 70
192
 0
VERTEX
 8
CYLINDER_1
 10
1.1707
 20
-5.782
 30
27.6477
 70
192
 0
VERTEX
 8
CYLINDER_1
 10
1.1707
 20
-5.782
 30
27.6477
 70
192
 0
VERTEX
 8
CYLINDER_1
 10
0.8879
 20
-5.9536
 30
27.7099
 70
192
 0
VERTEX
 8
CYLINDER_1
 10
0.8879
 20
-5.9536
 30
27.7099
 70
192
 0
VERTEX
 8
CYLINDER_1
 10
0.8879
 20
-5.8221
 30
27.7578
 70
192
 0
VERTEX
 8
CYLINDER_1
 10
0.8879
 20
-5.8221
 30
27.7578
 70
192
 0
VERTEX
 8
CYLINDER_1
 10
0
 20
0
 30
0
 70
128
 71
1
 72
3
 73
7
 74
7
 0
VERTEX
 8
CYLINDER_1
 10
0
 20
0
 30
0
 70
128
 71
4
 72
5
 73
9
 74
8
 0
VERTEX
 8
CYLINDER_1
 10
0
 20
0
 30
0
 70
128
 71
6
 72
2
 73
10
 74
10
 0
VERTEX
 8
CYLINDER_1
 10
0
 20
0
 30
0
 70
128
 71
1
 72
7
 73
11
 74
11
 0
VERTEX
 8
CYLINDER_1
 10
0
 20
0
 30
0
 70
128
 71
8
 72
9
 73
13
 74
12
 0
VERTEX
 8
CYLINDER_1
 10
0
 20
0
 30
0
 70
128
 71
10
 72
2
 73
14
 74
14
 0
VERTEX
 8
CYLINDER_1
 10
0
 20
0
 30
0
 70
128
 71
1
 72
11
 73
15
 74
15
 0
VERTEX
 8
CYLINDER_1
 10
0
 20
0
 30
0
 70
128
 71
12
 72
13
 73
17
 74
16
 0
VERTEX
 8
CYLINDER_1
 10
0
 20
0
 30
0
 70
128
 71
14
 72
2
 73
18
 74
18
 0
VERTEX
 8
CYLINDER_1
 10
0
 20
0
 30
0
 70
128
 71
1
 72
15
 73
19
 74
19
 0
VERTEX
 8
CYLINDER_1
 10
0
 20
0
 30
0
 70
128
 71
16
 72
17
 73
21
 74
20
 0
VERTEX
 8
CYLINDER_1
 10
0
 20
0
 30
0
 70
128
 71
18
 72
2
 73
22
 74
22
 0
VERTEX
 8
CYLINDER_1
 10
0
 20
0
 30
0
 70
128
 71
1
 72
19
 73
23
 74
23
 0
VERTEX
 8
CYLINDER_1
 10
0
 20
0
 30
0
 70
128
 71
20
 72
21
 73
25
 74
24
 0
VERTEX
 8
CYLINDER_1
 10
0
 20
0
 30
0
 70
128
 71
22
 72
2
 73
26
 74
26
 0
VERTEX
 8
CYLINDER_1
 10
0
 20
0
 30
0
 70
128
 71
1
 72
23
 73
27
 74
27
 0
VERTEX
 8
CYLINDER_1
 10
0
 20
0
 30
0
 70
128
 71
24
 72
25
 73
29
 74
28
 0
VERTEX
 8
CYLINDER_1
 10
0
 20
0
 30
0
 70
128
 71
26
 72
2
 73
30
 74
30
 0
VERTEX
 8
CYLINDER_1
 10
0
 20
0
 30
0
 70
128
 71
1
 72
27
 73
31
 74
31
 0
VERTEX
 8
CYLINDER_1
 10
0
 20
0
 30
0
 70
128
 71
28
 72
29
 73
33
 74
32
 0
VERTEX
 8
CYLINDER_1
 10
0
 20
0
 30
0
 70
128
 71
30
 72
2
 73
34
 74
34
 0
VERTEX
 8
CYLINDER_1
 10
0
 20
0
 30
0
 70
128
 71
1
 72
31
 73
3
 74
3
 0
VERTEX
 8
CYLINDER_1
 10
0
 20
0
 30
0
 70
128
 71
32
 72
33
 73
5
 74
4
 0
VERTEX
 8
CYLINDER_1
 10
0
 20
0
 30
0
 70
128
 71
34
 72
2
 73
6
 74
6
 0
SEQEND
 0
POLYLINE
 8
NULL-_CUBE_
 66
1
 10
0.0
 20
0.0
 30
0.0
 70
64
 71
528
 72
480
 0
VERTEX
 8
NULL-_CUBE_
 10
-0.1685
 20
-5.5793
 30
26.7381
 70
192
 0
VERTEX
 8
NULL-_CUBE_
 10
-0.0912
 20
-5.5722
 30
26.7187
 70
192
 0
VERTEX
 8
NULL-_CUBE_
 10
-0.1249
 20
-5.6022
 30
26.8012
 70
192
 0
VERTEX
 8
NULL-_CUBE_
 10
-0.2188
 20
-5.6005
 30
26.7966
 70
192
 0
VERTEX
 8
NULL-_CUBE_
 10
-0.2432
 20
-5.5695
 30
26.7112
 70
192
 0
VERTEX
 8
NULL-_CUBE_
 10
-0.1643
 20
-5.552
 30
26.6631
 70
192
 0
VERTEX
 8
NULL-_CUBE_
 10
-0.0444
 20
-5.4377
 30
26.7543
 70
192
 0
VERTEX
 8
NULL-_CUBE_
 10
-0.0985
 20
-5.4859
 30
26.8868
 70
192
 0
VERTEX
 8
NULL-_CUBE_
 10
-0.2493
 20
-5.4832
 30
26.8794
 70
192
 0
VERTEX
 8
NULL-_CUBE_
 10
-0.2884
 20
-5.4333
 30
26.7423
 70
192
 0
VERTEX
 8
NULL-_CUBE_
 10
-0.1618
 20
-5.4052
 30
26.665
 70
192
 0
VERTEX
 8
NULL-_CUBE_
 10
-0.334
 20
-5.368
 30
26.1577
 70
192
 0
VERTEX
 8
NULL-_CUBE_
 10
-0.2567
 20
-5.3609
 30
26.1382
 70
192
 0
VERTEX
 8
NULL-_CUBE_
 10
-0.2904
 20
-5.391
 30
26.2207
 70
192
 0
VERTEX
 8
NULL-_CUBE_
 10
-0.3843
 20
-5.3893
 30
26.2161
 70
192
 0
VERTEX
 8
NULL-_CUBE_
 10
-0.4087
 20
-5.3582
 30
26.1307
 70
192
 0
VERTEX
 8
NULL-_CUBE_
 10
-0.3298
 20
-5.3407
 30
26.0826
 70
192
 0
VERTEX
 8
NULL-_CUBE_
 10
-0.2099
 20
-5.2264
 30
26.1738
 70
192
 0
VERTEX
 8
NULL-_CUBE_
 10
-0.264
 20
-5.2747
 30
26.3063
 70
192
 0
VERTEX
 8
NULL-_CUBE_
 10
-0.4149
 20
-5.272
 30
26.2989
 70
192
 0
VERTEX
 8
NULL-_CUBE_
 10
-0.454
 20
-5.2221
 30
26.1618
 70
192
 0
VERTEX
 8
NULL-_CUBE_
 10
-0.3273
 20
-5.1939
 30
26.0845
 70
192
 0
VERTEX
 8
NULL-_CUBE_
 10
-1.6534
 20
-5.9373
 30
27.7219
 70
192
 0
VERTEX
 8
NULL-_CUBE_
 10
-1.6134
 20
-5.9136
 30
27.6568
 70
192
 0
VERTEX
 8
NULL-_CUBE_
 10
-1.5751
 20
-5.943
 30
27.7375
 70
192
 0
VERTEX
 8
NULL-_CUBE_
 10
-1.645
 20
-5.9646
 30
27.7967
 70
192
 0
VERTEX
 8
NULL-_CUBE_
 10
-1.7265
 20
-5.9485
 30
27.7525
 70
192
 0
VERTEX
 8
NULL-_CUBE_
 10
-1.7069
 20
-5.917
 30
27.666
 70
192
 0
VERTEX
 8
NULL-_CUBE_
 10
-1.5891
 20
-5.7691
 30
27.6647
 70
192
 0
VERTEX
 8
NULL-_CUBE_
 10
-1.5277
 20
-5.8163
 30
27.7944
 70
192
 0
VERTEX
 8
NULL-_CUBE_
 10
-1.64
 20
-5.8509
 30
27.8894
 70
192
 0
VERTEX
 8
NULL-_CUBE_
 10
-1.7708
 20
-5.825
 30
27.8184
 70
192
 0
VERTEX
 8
NULL-_CUBE_
 10
-1.7394
 20
-5.7745
 30
27.6796
 70
192
 0
VERTEX
 8
NULL-_CUBE_
 10
-2.2072
 20
-5.828
 30
27.4214
 70
192
 0
VERTEX
 8
NULL-_CUBE_
 10
-2.1672
 20
-5.8043
 30
27.3563
 70
192
 0
VERTEX
 8
NULL-_CUBE_
 10
-2.129
 20
-5.8337
 30
27.4371
 70
192
 0
VERTEX
 8
NULL-_CUBE_
 10
-2.1989
 20
-5.8552
 30
27.4962
 70
192
 0
VERTEX
 8
NULL-_CUBE_
 10
-2.2803
 20
-5.8391
 30
27.452
 70
192
 0
VERTEX
 8
NULL-_CUBE_
 10
-2.2608
 20
-5.8076
 30
27.3656
 70
192
 0
VERTEX
 8
NULL-_CUBE_
 10
-2.143
 20
-5.6597
 30
27.3643
 70
192
 0
VERTEX
 8
NULL-_CUBE_
 10
-2.0815
 20
-5.7069
 30
27.4939
 70
192
 0
VERTEX
 8
NULL-_CUBE_
 10
-2.1938
 20
-5.7415
 30
27.5889
 70
192
 0
VERTEX
 8
NULL-_CUBE_
 10
-2.3246
 20
-5.7157
 30
27.5179
 70
192
 0
VERTEX
 8
NULL-_CUBE_
 10
-2.2932
 20
-5.6651
 30
27.3791
 70
192
 0
VERTEX
 8
NULL-_CUBE_
 10
-1.9157
 20
-6.5715
 30
29.4642
 70
192
 0
VERTEX
 8
NULL-_CUBE_
 10
-1.9364
 20
-6.545
 30
29.3915
 70
192
 0
VERTEX
 8
NULL-_CUBE_
 10
-1.8486
 20
-6.5566
 30
29.4232
 70
192
 0
VERTEX
 8
NULL-_CUBE_
 10
-1.8535
 20
-6.5887
 30
29.5115
 70
192
 0
VERTEX
 8
NULL-_CUBE_
 10
-1.9444
 20
-6.597
 30
29.5343
 70
192
 0
VERTEX
 8
NULL-_CUBE_
 10
-1.9956
 20
-6.57
 30
29.4602
 70
192
 0
VERTEX
 8
NULL-_CUBE_
 10
-1.9489
 20
-6.3988
 30
29.3949
 70
192
 0
VERTEX
 8
NULL-_CUBE_
 10
-1.8079
 20
-6.4173
 30
29.4458
 70
192
 0
VERTEX
 8
NULL-_CUBE_
 10
-1.8158
 20
-6.4689
 30
29.5875
 70
192
 0
VERTEX
 8
NULL-_CUBE_
 10
-1.9617
 20
-6.4823
 30
29.6243
 70
192
 0
VERTEX
 8
NULL-_CUBE_
 10
-2.044
 20
-6.439
 30
29.5052
 70
192
 0
VERTEX
 8
NULL-_CUBE_
 10
-2.5334
 20
-6.6281
 30
29.6197
 70
192
 0
VERTEX
 8
NULL-_CUBE_
 10
-2.5541
 20
-6.6016
 30
29.5471
 70
192
 0
VERTEX
 8
NULL-_CUBE_
 10
-2.4663
 20
-6.6132
 30
29.5787
 70
192
 0
VERTEX
 8
NULL-_CUBE_
 10
-2.4712
 20
-6.6453
 30
29.667
 70
192
 0
VERTEX
 8
NULL-_CUBE_
 10
-2.5621
 20
-6.6536
 30
29.6899
 70
192
 0
VERTEX
 8
NULL-_CUBE_
 10
-2.6133
 20
-6.6266
 30
29.6158
 70
192
 0
VERTEX
 8
NULL-_CUBE_
 10
-2.5667
 20
-6.4554
 30
29.5504
 70
192
 0
VERTEX
 8
NULL-_CUBE_
 10
-2.4257
 20
-6.4739
 30
29.6013
 70
192
 0
VERTEX
 8
NULL-_CUBE_
 10
-2.4336
 20
-6.5255
 30
29.7431
 70
192
 0
VERTEX
 8
NULL-_CUBE_
 10
-2.5795
 20
-6.5389
 30
29.7798
 70
192
 0
VERTEX
 8
NULL-_CUBE_
 10
-2.6617
 20
-6.4956
 30
29.6608
 70
192
 0
VERTEX
 8
NULL-_CUBE_
 10
-0.7729
 20
-7.0768
 30
30.8526
 70
192
 0
VERTEX
 8
NULL-_CUBE_
 10
-0.8422
 20
-7.0631
 30
30.815
 70
192
 0
VERTEX
 8
NULL-_CUBE_
 10
-0.7563
 20
-7.0501
 30
30.7791
 70
192
 0
VERTEX
 8
NULL-_CUBE_
 10
-0.6934
 20
-7.074
 30
30.8447
 70
192
 0
VERTEX
 8
NULL-_CUBE_
 10
-0.7404
 20
-7.1018
 30
30.9213
 70
192
 0
VERTEX
 8
NULL-_CUBE_
 10
-0.8324
 20
-7.0951
 30
30.9029
 70
192
 0
VERTEX
 8
NULL-_CUBE_
 10
-0.8842
 20
-6.9246
 30
30.8396
 70
192
 0
VERTEX
 8
NULL-_CUBE_
 10
-0.7462
 20
-6.9036
 30
30.7819
 70
192
 0
VERTEX
 8
NULL-_CUBE_
 10
-0.6451
 20
-6.942
 30
30.8874
 70
192
 0
VERTEX
 8
NULL-_CUBE_
 10
-0.7207
 20
-6.9868
 30
31.0103
 70
192
 0
VERTEX
 8
NULL-_CUBE_
 10
-0.8684
 20
-6.976
 30
30.9808
 70
192
 0
VERTEX
 8
NULL-_CUBE_
 10
-1.0927
 20
-7.2662
 30
31.373
 70
192
 0
VERTEX
 8
NULL-_CUBE_
 10
-1.162
 20
-7.2526
 30
31.3354
 70
192
 0
VERTEX
 8
NULL-_CUBE_
 10
-1.076
 20
-7.2395
 30
31.2995
 70
192
 0
VERTEX
 8
NULL-_CUBE_
 10
-1.0131
 20
-7.2634
 30
31.3652
 70
192
 0
VERTEX
 8
NULL-_CUBE_
 10
-1.0601
 20
-7.2912
 30
31.4417
 70
192
 0
VERTEX
 8
NULL-_CUBE_
 10
-1.1521
 20
-7.2846
 30
31.4233
 70
192
 0
VERTEX
 8
NULL-_CUBE_
 10
-1.204
 20
-7.1141
 30
31.3601
 70
192
 0
VERTEX
 8
NULL-_CUBE_
 10
-1.066
 20
-7.0931
 30
31.3023
 70
192
 0
VERTEX
 8
NULL-_CUBE_
 10
-0.9649
 20
-7.1315
 30
31.4078
 70
192
 0
VERTEX
 8
NULL-_CUBE_
 10
-1.0404
 20
-7.1762
 30
31.5307
 70
192
 0
VERTEX
 8
NULL-_CUBE_
 10
-1.1882
 20
-7.1655
 30
31.5012
 70
192
 0
VERTEX
 8
NULL-_CUBE_
 10
1.1031
 20
-7.1478
 30
31.0476
 70
192
 0
VERTEX
 8
NULL-_CUBE_
 10
1.0259
 20
-7.1549
 30
31.067
 70
192
 0
VERTEX
 8
NULL-_CUBE_
 10
1.0596
 20
-7.1248
 30
30.9845
 70
192
 0
VERTEX
 8
NULL-_CUBE_
 10
1.1535
 20
-7.1265
 30
30.9892
 70
192
 0
VERTEX
 8
NULL-_CUBE_
 10
1.1778
 20
-7.1576
 30
31.0745
 70
192
 0
VERTEX
 8
NULL-_CUBE_
 10
1.0989
 20
-7.1751
 30
31.1227
 70
192
 0
VERTEX
 8
NULL-_CUBE_
 10
0.979
 20
-7.029
 30
31.1262
 70
192
 0
VERTEX
 8
NULL-_CUBE_
 10
1.0331
 20
-6.9807
 30
30.9937
 70
192
 0
VERTEX
 8
NULL-_CUBE_
 10
1.184
 20
-6.9834
 30
31.0011
 70
192
 0
VERTEX
 8
NULL-_CUBE_
 10
1.2231
 20
-7.0333
 30
31.1382
 70
192
 0
VERTEX
 8
NULL-_CUBE_
 10
1.0964
 20
-7.0615
 30
31.2155
 70
192
 0
VERTEX
 8
NULL-_CUBE_
 10
1.2686
 20
-7.3591
 30
31.6281
 70
192
 0
VERTEX
 8
NULL-_CUBE_
 10
1.1914
 20
-7.3661
 30
31.6475
 70
192
 0
VERTEX
 8
NULL-_CUBE_
 10
1.2251
 20
-7.3361
 30
31.565
 70
192
 0
VERTEX
 8
NULL-_CUBE_
 10
1.319
 20
-7.3378
 30
31.5696
 70
192
 0
VERTEX
 8
NULL-_CUBE_
 10
1.3433
 20
-7.3689
 30
31.655
 70
192
 0
VERTEX
 8
NULL-_CUBE_
 10
1.2645
 20
-7.3864
 30
31.7031
 70
192
 0
VERTEX
 8
NULL-_CUBE_
 10
1.1445
 20
-7.2402
 30
31.7067
 70
192
 0
VERTEX
 8
NULL-_CUBE_
 10
1.1987
 20
-7.192
 30
31.5742
 70
192
 0
VERTEX
 8
NULL-_CUBE_
 10
1.3495
 20
-7.1947
 30
31.5816
 70
192
 0
VERTEX
 8
NULL-_CUBE_
 10
1.3886
 20
-7.2446
 30
31.7187
 70
192
 0
VERTEX
 8
NULL-_CUBE_
 10
1.2619
 20
-7.2728
 30
31.796
 70
192
 0
VERTEX
 8
NULL-_CUBE_
 10
2.5556
 20
-6.7718
 30
30.0145
 70
192
 0
VERTEX
 8
NULL-_CUBE_
 10
2.5156
 20
-6.7955
 30
30.0796
 70
192
 0
VERTEX
 8
NULL-_CUBE_
 10
2.4774
 20
-6.7661
 30
29.9989
 70
192
 0
VERTEX
 8
NULL-_CUBE_
 10
2.5473
 20
-6.7446
 30
29.9397
 70
192
 0
VERTEX
 8
NULL-_CUBE_
 10
2.6287
 20
-6.7607
 30
29.9839
 70
192
 0
VERTEX
 8
NULL-_CUBE_
 10
2.6092
 20
-6.7921
 30
30.0704
 70
192
 0
VERTEX
 8
NULL-_CUBE_
 10
2.4914
 20
-6.6796
 30
30.1665
 70
192
 0
VERTEX
 8
NULL-_CUBE_
 10
2.4299
 20
-6.6324
 30
30.0368
 70
192
 0
VERTEX
 8
NULL-_CUBE_
 10
2.5422
 20
-6.5979
 30
29.9418
 70
192
 0
VERTEX
 8
NULL-_CUBE_
 10
2.673
 20
-6.6237
 30
30.0128
 70
192
 0
VERTEX
 8
NULL-_CUBE_
 10
2.6416
 20
-6.6742
 30
30.1516
 70
192
 0
VERTEX
 8
NULL-_CUBE_
 10
3.1095
 20
-6.8811
 30
30.315
 70
192
 0
VERTEX
 8
NULL-_CUBE_
 10
3.0695
 20
-6.9048
 30
30.3801
 70
192
 0
VERTEX
 8
NULL-_CUBE_
 10
3.0312
 20
-6.8755
 30
30.2994
 70
192
 0
VERTEX
 8
NULL-_CUBE_
 10
3.1011
 20
-6.8539
 30
30.2402
 70
192
 0
VERTEX
 8
NULL-_CUBE_
 10
3.1825
 20
-6.87
 30
30.2844
 70
192
 0
VERTEX
 8
NULL-_CUBE_
 10
3.163
 20
-6.9015
 30
30.3709
 70
192
 0
VERTEX
 8
NULL-_CUBE_
 10
3.0452
 20
-6.789
 30
30.4669
 70
192
 0
VERTEX
 8
NULL-_CUBE_
 10
2.9838
 20
-6.7418
 30
30.3373
 70
192
 0
VERTEX
 8
NULL-_CUBE_
 10
3.096
 20
-6.7072
 30
30.2423
 70
192
 0
VERTEX
 8
NULL-_CUBE_
 10
3.2268
 20
-6.7331
 30
30.3133
 70
192
 0
VERTEX
 8
NULL-_CUBE_
 10
3.1954
 20
-6.7836
 30
30.4521
 70
192
 0
VERTEX
 8
NULL-_CUBE_
 10
2.7687
 20
-6.1755
 30
28.3763
 70
192
 0
VERTEX
 8
NULL-_CUBE_
 10
2.7894
 20
-6.2019
 30
28.4489
 70
192
 0
VERTEX
 8
NULL-_CUBE_
 10
2.7016
 20
-6.1904
 30
28.4172
 70
192
 0
VERTEX
 8
NULL-_CUBE_
 10
2.7065
 20
-6.1583
 30
28.329
 70
192
 0
VERTEX
 8
NULL-_CUBE_
 10
2.7974
 20
-6.15
 30
28.3061
 70
192
 0
VERTEX
 8
NULL-_CUBE_
 10
2.8486
 20
-6.1769
 30
28.3802
 70
192
 0
VERTEX
 8
NULL-_CUBE_
 10
2.802
 20
-6.0878
 30
28.5403
 70
192
 0
VERTEX
 8
NULL-_CUBE_
 10
2.6609
 20
-6.0692
 30
28.4894
 70
192
 0
VERTEX
 8
NULL-_CUBE_
 10
2.6688
 20
-6.0177
 30
28.3477
 70
192
 0
VERTEX
 8
NULL-_CUBE_
 10
2.8147
 20
-6.0043
 30
28.3109
 70
192
 0
VERTEX
 8
NULL-_CUBE_
 10
2.897
 20
-6.0476
 30
28.43
 70
192
 0
VERTEX
 8
NULL-_CUBE_
 10
3.3864
 20
-6.1189
 30
28.2207
 70
192
 0
VERTEX
 8
NULL-_CUBE_
 10
3.4071
 20
-6.1453
 30
28.2933
 70
192
 0
VERTEX
 8
NULL-_CUBE_
 10
3.3193
 20
-6.1338
 30
28.2617
 70
192
 0
VERTEX
 8
NULL-_CUBE_
 10
3.3243
 20
-6.1017
 30
28.1734
 70
192
 0
VERTEX
 8
NULL-_CUBE_
 10
3.4151
 20
-6.0934
 30
28.1505
 70
192
 0
VERTEX
 8
NULL-_CUBE_
 10
3.4663
 20
-6.1203
 30
28.2247
 70
192
 0
VERTEX
 8
NULL-_CUBE_
 10
3.4197
 20
-6.0312
 30
28.3847
 70
192
 0
VERTEX
 8
NULL-_CUBE_
 10
3.2787
 20
-6.0126
 30
28.3339
 70
192
 0
VERTEX
 8
NULL-_CUBE_
 10
3.2866
 20
-5.961
 30
28.1921
 70
192
 0
VERTEX
 8
NULL-_CUBE_
 10
3.4325
 20
-5.9477
 30
28.1554
 70
192
 0
VERTEX
 8
NULL-_CUBE_
 10
3.5147
 20
-5.991
 30
28.2744
 70
192
 0
VERTEX
 8
NULL-_CUBE_
 10
1.6531
 20
-5.6449
 30
26.9184
 70
192
 0
VERTEX
 8
NULL-_CUBE_
 10
1.7223
 20
-5.6586
 30
26.956
 70
192
 0
VERTEX
 8
NULL-_CUBE_
 10
1.6364
 20
-5.6717
 30
26.9919
 70
192
 0
VERTEX
 8
NULL-_CUBE_
 10
1.5735
 20
-5.6477
 30
26.9262
 70
192
 0
VERTEX
 8
NULL-_CUBE_
 10
1.6205
 20
-5.6199
 30
26.8497
 70
192
 0
VERTEX
 8
NULL-_CUBE_
 10
1.7125
 20
-5.6266
 30
26.8681
 70
192
 0
VERTEX
 8
NULL-_CUBE_
 10
1.7643
 20
-5.5367
 30
27.0261
 70
192
 0
VERTEX
 8
NULL-_CUBE_
 10
1.6263
 20
-5.5577
 30
27.0839
 70
192
 0
VERTEX
 8
NULL-_CUBE_
 10
1.5253
 20
-5.5193
 30
26.9784
 70
192
 0
VERTEX
 8
NULL-_CUBE_
 10
1.6008
 20
-5.4745
 30
26.8555
 70
192
 0
VERTEX
 8
NULL-_CUBE_
 10
1.7485
 20
-5.4853
 30
26.885
 70
192
 0
VERTEX
 8
NULL-_CUBE_
 10
1.9728
 20
-5.4555
 30
26.3979
 70
192
 0
VERTEX
 8
NULL-_CUBE_
 10
2.0421
 20
-5.4691
 30
26.4355
 70
192
 0
VERTEX
 8
NULL-_CUBE_
 10
1.9562
 20
-5.4822
 30
26.4715
 70
192
 0
VERTEX
 8
NULL-_CUBE_
 10
1.8933
 20
-5.4583
 30
26.4058
 70
192
 0
VERTEX
 8
NULL-_CUBE_
 10
1.9403
 20
-5.4305
 30
26.3293
 70
192
 0
VERTEX
 8
NULL-_CUBE_
 10
2.0323
 20
-5.4372
 30
26.3476
 70
192
 0
VERTEX
 8
NULL-_CUBE_
 10
2.0841
 20
-5.3472
 30
26.5057
 70
192
 0
VERTEX
 8
NULL-_CUBE_
 10
1.9461
 20
-5.3683
 30
26.5634
 70
192
 0
VERTEX
 8
NULL-_CUBE_
 10
1.845
 20
-5.3299
 30
26.458
 70
192
 0
VERTEX
 8
NULL-_CUBE_
 10
1.9206
 20
-5.2851
 30
26.335
 70
192
 0
VERTEX
 8
NULL-_CUBE_
 10
2.0683
 20
-5.2959
 30
26.3645
 70
192
 0
VERTEX
 8
NULL-_CUBE_
 10
-0.7407
 20
-5.6604
 30
26.961
 70
192
 0
VERTEX
 8
NULL-_CUBE_
 10
-0.6714
 20
-5.6467
 30
26.9234
 70
192
 0
VERTEX
 8
NULL-_CUBE_
 10
-0.6812
 20
-5.6787
 30
27.0113
 70
192
 0
VERTEX
 8
NULL-_CUBE_
 10
-0.7732
 20
-5.6854
 30
27.0297
 70
192
 0
VERTEX
 8
NULL-_CUBE_
 10
-0.8202
 20
-5.6576
 30
26.9532
 70
192
 0
VERTEX
 8
NULL-_CUBE_
 10
-0.7573
 20
-5.6337
 30
26.8875
 70
192
 0
VERTEX
 8
NULL-_CUBE_
 10
-0.6294
 20
-5.5082
 30
26.948
 70
192
 0
VERTEX
 8
NULL-_CUBE_
 10
-0.6452
 20
-5.5596
 30
27.0892
 70
192
 0
VERTEX
 8
NULL-_CUBE_
 10
-0.7929
 20
-5.5704
 30
27.1187
 70
192
 0
VERTEX
 8
NULL-_CUBE_
 10
-0.8685
 20
-5.5256
 30
26.9958
 70
192
 0
VERTEX
 8
NULL-_CUBE_
 10
-0.7674
 20
-5.4872
 30
26.8903
 70
192
 0
VERTEX
 8
NULL-_CUBE_
 10
-1.0604
 20
-5.471
 30
26.4406
 70
192
 0
VERTEX
 8
NULL-_CUBE_
 10
-0.9912
 20
-5.4573
 30
26.403
 70
192
 0
VERTEX
 8
NULL-_CUBE_
 10
-1.001
 20
-5.4893
 30
26.4909
 70
192
 0
VERTEX
 8
NULL-_CUBE_
 10
-1.093
 20
-5.496
 30
26.5093
 70
192
 0
VERTEX
 8
NULL-_CUBE_
 10
-1.14
 20
-5.4681
 30
26.4327
 70
192
 0
VERTEX
 8
NULL-_CUBE_
 10
-1.0771
 20
-5.4442
 30
26.3671
 70
192
 0
VERTEX
 8
NULL-_CUBE_
 10
-0.9492
 20
-5.3188
 30
26.4276
 70
192
 0
VERTEX
 8
NULL-_CUBE_
 10
-0.965
 20
-5.3702
 30
26.5688
 70
192
 0
VERTEX
 8
NULL-_CUBE_
 10
-1.1127
 20
-5.3809
 30
26.5983
 70
192
 0
VERTEX
 8
NULL-_CUBE_
 10
-1.1882
 20
-5.3362
 30
26.4754
 70
192
 0
VERTEX
 8
NULL-_CUBE_
 10
-1.0872
 20
-5.2978
 30
26.3699
 70
192
 0
VERTEX
 8
NULL-_CUBE_
 10
-1.904
 20
-6.1377
 30
28.2724
 70
192
 0
VERTEX
 8
NULL-_CUBE_
 10
-1.8833
 20
-6.1113
 30
28.1998
 70
192
 0
VERTEX
 8
NULL-_CUBE_
 10
-1.8241
 20
-6.1363
 30
28.2685
 70
192
 0
VERTEX
 8
NULL-_CUBE_
 10
-1.8754
 20
-6.1633
 30
28.3426
 70
192
 0
VERTEX
 8
NULL-_CUBE_
 10
-1.9662
 20
-6.1549
 30
28.3197
 70
192
 0
VERTEX
 8
NULL-_CUBE_
 10
-1.9711
 20
-6.1228
 30
28.2315
 70
192
 0
VERTEX
 8
NULL-_CUBE_
 10
-1.8708
 20
-5.9651
 30
28.2032
 70
192
 0
VERTEX
 8
NULL-_CUBE_
 10
-1.7757
 20
-6.0052
 30
28.3135
 70
192
 0
VERTEX
 8
NULL-_CUBE_
 10
-1.858
 20
-6.0485
 30
28.4325
 70
192
 0
VERTEX
 8
NULL-_CUBE_
 10
-2.0039
 20
-6.0352
 30
28.3958
 70
192
 0
VERTEX
 8
NULL-_CUBE_
 10
-2.0118
 20
-5.9836
 30
28.254
 70
192
 0
VERTEX
 8
NULL-_CUBE_
 10
-2.5217
 20
-6.0811
 30
28.1169
 70
192
 0
VERTEX
 8
NULL-_CUBE_
 10
-2.501
 20
-6.0547
 30
28.0443
 70
192
 0
VERTEX
 8
NULL-_CUBE_
 10
-2.4419
 20
-6.0797
 30
28.113
 70
192
 0
VERTEX
 8
NULL-_CUBE_
 10
-2.4931
 20
-6.1067
 30
28.1871
 70
192
 0
VERTEX
 8
NULL-_CUBE_
 10
-2.5839
 20
-6.0983
 30
28.1642
 70
192
 0
VERTEX
 8
NULL-_CUBE_
 10
-2.5888
 20
-6.0662
 30
28.0759
 70
192
 0
VERTEX
 8
NULL-_CUBE_
 10
-2.4885
 20
-5.9085
 30
28.0476
 70
192
 0
VERTEX
 8
NULL-_CUBE_
 10
-2.3934
 20
-5.9486
 30
28.158
 70
192
 0
VERTEX
 8
NULL-_CUBE_
 10
-2.4757
 20
-5.9919
 30
28.277
 70
192
 0
VERTEX
 8
NULL-_CUBE_
 10
-2.6216
 20
-5.9786
 30
28.2403
 70
192
 0
VERTEX
 8
NULL-_CUBE_
 10
-2.6295
 20
-5.927
 30
28.0985
 70
192
 0
VERTEX
 8
NULL-_CUBE_
 10
-1.6775
 20
-6.7735
 30
30.0191
 70
192
 0
VERTEX
 8
NULL-_CUBE_
 10
-1.7175
 20
-6.7498
 30
29.954
 70
192
 0
VERTEX
 8
NULL-_CUBE_
 10
-1.624
 20
-6.7531
 30
29.9632
 70
192
 0
VERTEX
 8
NULL-_CUBE_
 10
-1.6044
 20
-6.7846
 30
30.0497
 70
192
 0
VERTEX
 8
NULL-_CUBE_
 10
-1.6859
 20
-6.8007
 30
30.0939
 70
192
 0
VERTEX
 8
NULL-_CUBE_
 10
-1.7558
 20
-6.7791
 30
30.0347
 70
192
 0
VERTEX
 8
NULL-_CUBE_
 10
-1.7418
 20
-6.6052
 30
29.9619
 70
192
 0
VERTEX
 8
NULL-_CUBE_
 10
-1.5915
 20
-6.6106
 30
29.9767
 70
192
 0
VERTEX
 8
NULL-_CUBE_
 10
-1.5601
 20
-6.6611
 30
30.1156
 70
192
 0
VERTEX
 8
NULL-_CUBE_
 10
-1.691
 20
-6.687
 30
30.1866
 70
192
 0
VERTEX
 8
NULL-_CUBE_
 10
-1.8032
 20
-6.6524
 30
30.0916
 70
192
 0
VERTEX
 8
NULL-_CUBE_
 10
-2.2314
 20
-6.8828
 30
30.3196
 70
192
 0
VERTEX
 8
NULL-_CUBE_
 10
-2.2714
 20
-6.8591
 30
30.2545
 70
192
 0
VERTEX
 8
NULL-_CUBE_
 10
-2.1778
 20
-6.8625
 30
30.2637
 70
192
 0
VERTEX
 8
NULL-_CUBE_
 10
-2.1583
 20
-6.8939
 30
30.3501
 70
192
 0
VERTEX
 8
NULL-_CUBE_
 10
-2.2397
 20
-6.91
 30
30.3943
 70
192
 0
VERTEX
 8
NULL-_CUBE_
 10
-2.3096
 20
-6.8885
 30
30.3352
 70
192
 0
VERTEX
 8
NULL-_CUBE_
 10
-2.2956
 20
-6.7146
 30
30.2624
 70
192
 0
VERTEX
 8
NULL-_CUBE_
 10
-2.1454
 20
-6.72
 30
30.2772
 70
192
 0
VERTEX
 8
NULL-_CUBE_
 10
-2.114
 20
-6.7705
 30
30.4161
 70
192
 0
VERTEX
 8
NULL-_CUBE_
 10
-2.2448
 20
-6.7963
 30
30.487
 70
192
 0
VERTEX
 8
NULL-_CUBE_
 10
-2.3571
 20
-6.7618
 30
30.3921
 70
192
 0
VERTEX
 8
NULL-_CUBE_
 10
-0.1913
 20
-7.1604
 30
31.0823
 70
192
 0
VERTEX
 8
NULL-_CUBE_
 10
-0.2686
 20
-7.1534
 30
31.0628
 70
192
 0
VERTEX
 8
NULL-_CUBE_
 10
-0.1955
 20
-7.1331
 30
31.0072
 70
192
 0
VERTEX
 8
NULL-_CUBE_
 10
-0.1166
 20
-7.1506
 30
31.0554
 70
192
 0
VERTEX
 8
NULL-_CUBE_
 10
-0.1409
 20
-7.1817
 30
31.1407
 70
192
 0
VERTEX
 8
NULL-_CUBE_
 10
-0.2349
 20
-7.1834
 30
31.1453
 70
192
 0
VERTEX
 8
NULL-_CUBE_
 10
-0.3154
 20
-7.0189
 30
31.0984
 70
192
 0
VERTEX
 8
NULL-_CUBE_
 10
-0.198
 20
-6.9863
 30
31.0091
 70
192
 0
VERTEX
 8
NULL-_CUBE_
 10
-0.0713
 20
-7.0145
 30
31.0864
 70
192
 0
VERTEX
 8
NULL-_CUBE_
 10
-0.1104
 20
-7.0644
 30
31.2235
 70
192
 0
VERTEX
 8
NULL-_CUBE_
 10
-0.2613
 20
-7.0671
 30
31.2309
 70
192
 0
VERTEX
 8
NULL-_CUBE_
 10
-0.3568
 20
-7.3717
 30
31.6628
 70
192
 0
VERTEX
 8
NULL-_CUBE_
 10
-0.4341
 20
-7.3646
 30
31.6433
 70
192
 0
VERTEX
 8
NULL-_CUBE_
 10
-0.361
 20
-7.3444
 30
31.5877
 70
192
 0
VERTEX
 8
NULL-_CUBE_
 10
-0.2821
 20
-7.3619
 30
31.6358
 70
192
 0
VERTEX
 8
NULL-_CUBE_
 10
-0.3065
 20
-7.393
 30
31.7212
 70
192
 0
VERTEX
 8
NULL-_CUBE_
 10
-0.4004
 20
-7.3946
 30
31.7258
 70
192
 0
VERTEX
 8
NULL-_CUBE_
 10
-0.4809
 20
-7.2301
 30
31.6789
 70
192
 0
VERTEX
 8
NULL-_CUBE_
 10
-0.3635
 20
-7.1976
 30
31.5896
 70
192
 0
VERTEX
 8
NULL-_CUBE_
 10
-0.2368
 20
-7.2258
 30
31.6669
 70
192
 0
VERTEX
 8
NULL-_CUBE_
 10
-0.2759
 20
-7.2757
 30
31.804
 70
192
 0
VERTEX
 8
NULL-_CUBE_
 10
-0.4268
 20
-7.2784
 30
31.8114
 70
192
 0
VERTEX
 8
NULL-_CUBE_
 10
1.6745
 20
-7.0629
 30
30.8144
 70
192
 0
VERTEX
 8
NULL-_CUBE_
 10
1.6053
 20
-7.0766
 30
30.8519
 70
192
 0
VERTEX
 8
NULL-_CUBE_
 10
1.6151
 20
-7.0446
 30
30.7641
 70
192
 0
VERTEX
 8
NULL-_CUBE_
 10
1.7071
 20
-7.0379
 30
30.7457
 70
192
 0
VERTEX
 8
NULL-_CUBE_
 10
1.7541
 20
-7.0658
 30
30.8222
 70
192
 0
VERTEX
 8
NULL-_CUBE_
 10
1.6912
 20
-7.0897
 30
30.8879
 70
192
 0
VERTEX
 8
NULL-_CUBE_
 10
1.5633
 20
-6.9547
 30
30.9221
 70
192
 0
VERTEX
 8
NULL-_CUBE_
 10
1.5791
 20
-6.9033
 30
30.7809
 70
192
 0
VERTEX
 8
NULL-_CUBE_
 10
1.7268
 20
-6.8926
 30
30.7514
 70
192
 0
VERTEX
 8
NULL-_CUBE_
 10
1.8023
 20
-6.9373
 30
30.8744
 70
192
 0
VERTEX
 8
NULL-_CUBE_
 10
1.7013
 20
-6.9757
 30
30.9799
 70
192
 0
VERTEX
 8
NULL-_CUBE_
 10
1.9943
 20
-7.2523
 30
31.3348
 70
192
 0
VERTEX
 8
NULL-_CUBE_
 10
1.925
 20
-7.266
 30
31.3724
 70
192
 0
VERTEX
 8
NULL-_CUBE_
 10
1.9349
 20
-7.234
 30
31.2845
 70
192
 0
VERTEX
 8
NULL-_CUBE_
 10
2.0268
 20
-7.2273
 30
31.2661
 70
192
 0
VERTEX
 8
NULL-_CUBE_
 10
2.0739
 20
-7.2552
 30
31.3427
 70
192
 0
VERTEX
 8
NULL-_CUBE_
 10
2.0109
 20
-7.2791
 30
31.4083
 70
192
 0
VERTEX
 8
NULL-_CUBE_
 10
1.883
 20
-7.1441
 30
31.4426
 70
192
 0
VERTEX
 8
NULL-_CUBE_
 10
1.8988
 20
-7.0927
 30
31.3014
 70
192
 0
VERTEX
 8
NULL-_CUBE_
 10
2.0466
 20
-7.082
 30
31.2719
 70
192
 0
VERTEX
 8
NULL-_CUBE_
 10
2.1221
 20
-7.1267
 30
31.3948
 70
192
 0
VERTEX
 8
NULL-_CUBE_
 10
2.021
 20
-7.1651
 30
31.5003
 70
192
 0
VERTEX
 8
NULL-_CUBE_
 10
2.793
 20
-6.5711
 30
29.4632
 70
192
 0
VERTEX
 8
NULL-_CUBE_
 10
2.7723
 20
-6.5976
 30
29.5358
 70
192
 0
VERTEX
 8
NULL-_CUBE_
 10
2.7131
 20
-6.5726
 30
29.4672
 70
192
 0
VERTEX
 8
NULL-_CUBE_
 10
2.7643
 20
-6.5456
 30
29.393
 70
192
 0
VERTEX
 8
NULL-_CUBE_
 10
2.8552
 20
-6.5539
 30
29.4159
 70
192
 0
VERTEX
 8
NULL-_CUBE_
 10
2.8601
 20
-6.586
 30
29.5042
 70
192
 0
VERTEX
 8
NULL-_CUBE_
 10
2.7597
 20
-6.4834
 30
29.6272
 70
192
 0
VERTEX
 8
NULL-_CUBE_
 10
2.6647
 20
-6.4432
 30
29.5169
 70
192
 0
VERTEX
 8
NULL-_CUBE_
 10
2.747
 20
-6.3999
 30
29.3979
 70
192
 0
VERTEX
 8
NULL-_CUBE_
 10
2.8929
 20
-6.4133
 30
29.4346
 70
192
 0
VERTEX
 8
NULL-_CUBE_
 10
2.9008
 20
-6.4649
 30
29.5764
 70
192
 0
VERTEX
 8
NULL-_CUBE_
 10
3.4107
 20
-6.6277
 30
29.6188
 70
192
 0
VERTEX
 8
NULL-_CUBE_
 10
3.39
 20
-6.6542
 30
29.6914
 70
192
 0
VERTEX
 8
NULL-_CUBE_
 10
3.3308
 20
-6.6292
 30
29.6227
 70
192
 0
VERTEX
 8
NULL-_CUBE_
 10
3.3821
 20
-6.6022
 30
29.5486
 70
192
 0
VERTEX
 8
NULL-_CUBE_
 10
3.4729
 20
-6.6105
 30
29.5715
 70
192
 0
VERTEX
 8
NULL-_CUBE_
 10
3.4778
 20
-6.6426
 30
29.6597
 70
192
 0
VERTEX
 8
NULL-_CUBE_
 10
3.3775
 20
-6.54
 30
29.7828
 70
192
 0
VERTEX
 8
NULL-_CUBE_
 10
3.2824
 20
-6.4998
 30
29.6725
 70
192
 0
VERTEX
 8
NULL-_CUBE_
 10
3.3647
 20
-6.4565
 30
29.5534
 70
192
 0
VERTEX
 8
NULL-_CUBE_
 10
3.5106
 20
-6.4699
 30
29.5902
 70
192
 0
VERTEX
 8
NULL-_CUBE_
 10
3.5185
 20
-6.5215
 30
29.7319
 70
192
 0
VERTEX
 8
NULL-_CUBE_
 10
2.5476
 20
-5.9763
 30
27.829
 70
192
 0
VERTEX
 8
NULL-_CUBE_
 10
2.5876
 20
-6
 30
27.8941
 70
192
 0
VERTEX
 8
NULL-_CUBE_
 10
2.4941
 20
-5.9967
 30
27.8848
 70
192
 0
VERTEX
 8
NULL-_CUBE_
 10
2.4745
 20
-5.9652
 30
27.7984
 70
192
 0
VERTEX
 8
NULL-_CUBE_
 10
2.556
 20
-5.9491
 30
27.7542
 70
192
 0
VERTEX
 8
NULL-_CUBE_
 10
2.6259
 20
-5.9706
 30
27.8133
 70
192
 0
VERTEX
 8
NULL-_CUBE_
 10
2.6118
 20
-5.8842
 30
27.9809
 70
192
 0
VERTEX
 8
NULL-_CUBE_
 10
2.4616
 20
-5.8788
 30
27.9661
 70
192
 0
VERTEX
 8
NULL-_CUBE_
 10
2.4302
 20
-5.8282
 30
27.8273
 70
192
 0
VERTEX
 8
NULL-_CUBE_
 10
2.561
 20
-5.8024
 30
27.7563
 70
192
 0
VERTEX
 8
NULL-_CUBE_
 10
2.6733
 20
-5.837
 30
27.8513
 70
192
 0
VERTEX
 8
NULL-_CUBE_
 10
3.1014
 20
-5.867
 30
27.5285
 70
192
 0
VERTEX
 8
NULL-_CUBE_
 10
3.1414
 20
-5.8906
 30
27.5936
 70
192
 0
VERTEX
 8
NULL-_CUBE_
 10
3.0479
 20
-5.8873
 30
27.5844
 70
192
 0
VERTEX
 8
NULL-_CUBE_
 10
3.0284
 20
-5.8558
 30
27.4979
 70
192
 0
VERTEX
 8
NULL-_CUBE_
 10
3.1098
 20
-5.8397
 30
27.4537
 70
192
 0
VERTEX
 8
NULL-_CUBE_
 10
3.1797
 20
-5.8613
 30
27.5129
 70
192
 0
VERTEX
 8
NULL-_CUBE_
 10
3.1657
 20
-5.7748
 30
27.6805
 70
192
 0
VERTEX
 8
NULL-_CUBE_
 10
3.0155
 20
-5.7694
 30
27.6656
 70
192
 0
VERTEX
 8
NULL-_CUBE_
 10
2.9841
 20
-5.7189
 30
27.5268
 70
192
 0
VERTEX
 8
NULL-_CUBE_
 10
3.1149
 20
-5.693
 30
27.4558
 70
192
 0
VERTEX
 8
NULL-_CUBE_
 10
3.2271
 20
-5.7276
 30
27.5508
 70
192
 0
VERTEX
 8
NULL-_CUBE_
 10
1.0684
 20
-5.5625
 30
26.6921
 70
192
 0
VERTEX
 8
NULL-_CUBE_
 10
1.1457
 20
-5.5696
 30
26.7115
 70
192
 0
VERTEX
 8
NULL-_CUBE_
 10
1.0726
 20
-5.5899
 30
26.7672
 70
192
 0
VERTEX
 8
NULL-_CUBE_
 10
0.9937
 20
-5.5723
 30
26.719
 70
192
 0
VERTEX
 8
NULL-_CUBE_
 10
1.0181
 20
-5.5413
 30
26.6337
 70
192
 0
VERTEX
 8
NULL-_CUBE_
 10
1.112
 20
-5.5396
 30
26.629
 70
192
 0
VERTEX
 8
NULL-_CUBE_
 10
1.1926
 20
-5.4437
 30
26.7707
 70
192
 0
VERTEX
 8
NULL-_CUBE_
 10
1.0752
 20
-5.4762
 30
26.8601
 70
192
 0
VERTEX
 8
NULL-_CUBE_
 10
0.9485
 20
-5.4481
 30
26.7828
 70
192
 0
VERTEX
 8
NULL-_CUBE_
 10
0.9876
 20
-5.3982
 30
26.6456
 70
192
 0
VERTEX
 8
NULL-_CUBE_
 10
1.1384
 20
-5.3955
 30
26.6382
 70
192
 0
VERTEX
 8
NULL-_CUBE_
 10
1.234
 20
-5.3513
 30
26.1116
 70
192
 0
VERTEX
 8
NULL-_CUBE_
 10
1.3112
 20
-5.3583
 30
26.1311
 70
192
 0
VERTEX
 8
NULL-_CUBE_
 10
1.2381
 20
-5.3786
 30
26.1867
 70
192
 0
VERTEX
 8
NULL-_CUBE_
 10
1.1593
 20
-5.3611
 30
26.1386
 70
192
 0
VERTEX
 8
NULL-_CUBE_
 10
1.1836
 20
-5.33
 30
26.0532
 70
192
 0
VERTEX
 8
NULL-_CUBE_
 10
1.2775
 20
-5.3283
 30
26.0486
 70
192
 0
VERTEX
 8
NULL-_CUBE_
 10
1.3581
 20
-5.2324
 30
26.1903
 70
192
 0
VERTEX
 8
NULL-_CUBE_
 10
1.2407
 20
-5.2649
 30
26.2796
 70
192
 0
VERTEX
 8
NULL-_CUBE_
 10
1.114
 20
-5.2368
 30
26.2023
 70
192
 0
VERTEX
 8
NULL-_CUBE_
 10
1.1531
 20
-5.1869
 30
26.0652
 70
192
 0
VERTEX
 8
NULL-_CUBE_
 10
1.3039
 20
-5.1842
 30
26.0577
 70
192
 0
VERTEX
 8
NULL-_CUBE_
 10
-1.232
 20
-5.7894
 30
27.3155
 70
192
 0
VERTEX
 8
NULL-_CUBE_
 10
-1.1754
 20
-5.7701
 30
27.2623
 70
192
 0
VERTEX
 8
NULL-_CUBE_
 10
-1.1607
 20
-5.8019
 30
27.3496
 70
192
 0
VERTEX
 8
NULL-_CUBE_
 10
-1.2445
 20
-5.8165
 30
27.3898
 70
192
 0
VERTEX
 8
NULL-_CUBE_
 10
-1.311
 20
-5.7937
 30
27.3273
 70
192
 0
VERTEX
 8
NULL-_CUBE_
 10
-1.2683
 20
-5.7651
 30
27.2485
 70
192
 0
VERTEX
 8
NULL-_CUBE_
 10
-1.1411
 20
-5.6282
 30
27.2775
 70
192
 0
VERTEX
 8
NULL-_CUBE_
 10
-1.1175
 20
-5.6792
 30
27.4177
 70
192
 0
VERTEX
 8
NULL-_CUBE_
 10
-1.2521
 20
-5.7026
 30
27.4822
 70
192
 0
VERTEX
 8
NULL-_CUBE_
 10
-1.3589
 20
-5.6661
 30
27.3818
 70
192
 0
VERTEX
 8
NULL-_CUBE_
 10
-1.2903
 20
-5.6201
 30
27.2553
 70
192
 0
VERTEX
 8
NULL-_CUBE_
 10
-1.6842
 20
-5.6348
 30
26.8906
 70
192
 0
VERTEX
 8
NULL-_CUBE_
 10
-1.6276
 20
-5.6154
 30
26.8374
 70
192
 0
VERTEX
 8
NULL-_CUBE_
 10
-1.6129
 20
-5.6472
 30
26.9247
 70
192
 0
VERTEX
 8
NULL-_CUBE_
 10
-1.6967
 20
-5.6618
 30
26.9648
 70
192
 0
VERTEX
 8
NULL-_CUBE_
 10
-1.7632
 20
-5.639
 30
26.9023
 70
192
 0
VERTEX
 8
NULL-_CUBE_
 10
-1.7205
 20
-5.6104
 30
26.8236
 70
192
 0
VERTEX
 8
NULL-_CUBE_
 10
-1.5933
 20
-5.4735
 30
26.8526
 70
192
 0
VERTEX
 8
NULL-_CUBE_
 10
-1.5697
 20
-5.5245
 30
26.9928
 70
192
 0
VERTEX
 8
NULL-_CUBE_
 10
-1.7043
 20
-5.548
 30
27.0572
 70
192
 0
VERTEX
 8
NULL-_CUBE_
 10
-1.8111
 20
-5.5114
 30
26.9568
 70
192
 0
VERTEX
 8
NULL-_CUBE_
 10
-1.7425
 20
-5.4654
 30
26.8304
 70
192
 0
VERTEX
 8
NULL-_CUBE_
 10
-1.9945
 20
-6.3535
 30
28.8651
 70
192
 0
VERTEX
 8
NULL-_CUBE_
 10
-1.9945
 20
-6.3261
 30
28.79
 70
192
 0
VERTEX
 8
NULL-_CUBE_
 10
-1.9184
 20
-6.345
 30
28.8419
 70
192
 0
VERTEX
 8
NULL-_CUBE_
 10
-1.9475
 20
-6.3756
 30
28.926
 70
192
 0
VERTEX
 8
NULL-_CUBE_
 10
-2.0415
 20
-6.3756
 30
28.926
 70
192
 0
VERTEX
 8
NULL-_CUBE_
 10
-2.0706
 20
-6.345
 30
28.8419
 70
192
 0
VERTEX
 8
NULL-_CUBE_
 10
-1.9945
 20
-6.1793
 30
28.7918
 70
192
 0
VERTEX
 8
NULL-_CUBE_
 10
-1.8723
 20
-6.2097
 30
28.8752
 70
192
 0
VERTEX
 8
NULL-_CUBE_
 10
-1.919
 20
-6.2588
 30
29.0102
 70
192
 0
VERTEX
 8
NULL-_CUBE_
 10
-2.07
 20
-6.2588
 30
29.0102
 70
192
 0
VERTEX
 8
NULL-_CUBE_
 10
-2.1167
 20
-6.2097
 30
28.8752
 70
192
 0
VERTEX
 8
NULL-_CUBE_
 10
-2.634
 20
-6.3534
 30
28.8651
 70
192
 0
VERTEX
 8
NULL-_CUBE_
 10
-2.634
 20
-6.3261
 30
28.79
 70
192
 0
VERTEX
 8
NULL-_CUBE_
 10
-2.5579
 20
-6.345
 30
28.8419
 70
192
 0
VERTEX
 8
NULL-_CUBE_
 10
-2.587
 20
-6.3756
 30
28.926
 70
192
 0
VERTEX
 8
NULL-_CUBE_
 10
-2.681
 20
-6.3756
 30
28.926
 70
192
 0
VERTEX
 8
NULL-_CUBE_
 10
-2.7101
 20
-6.345
 30
28.8419
 70
192
 0
VERTEX
 8
NULL-_CUBE_
 10
-2.634
 20
-6.1793
 30
28.7918
 70
192
 0
VERTEX
 8
NULL-_CUBE_
 10
-2.5118
 20
-6.2097
 30
28.8752
 70
192
 0
VERTEX
 8
NULL-_CUBE_
 10
-2.5585
 20
-6.2588
 30
29.0102
 70
192
 0
VERTEX
 8
NULL-_CUBE_
 10
-2.7095
 20
-6.2588
 30
29.0102
 70
192
 0
VERTEX
 8
NULL-_CUBE_
 10
-2.7562
 20
-6.2097
 30
28.8752
 70
192
 0
VERTEX
 8
NULL-_CUBE_
 10
-1.2946
 20
-6.9475
 30
30.4972
 70
192
 0
VERTEX
 8
NULL-_CUBE_
 10
-1.3512
 20
-6.9281
 30
30.4441
 70
192
 0
VERTEX
 8
NULL-_CUBE_
 10
-1.2583
 20
-6.9231
 30
30.4302
 70
192
 0
VERTEX
 8
NULL-_CUBE_
 10
-1.2156
 20
-6.9518
 30
30.509
 70
192
 0
VERTEX
 8
NULL-_CUBE_
 10
-1.2821
 20
-6.9745
 30
30.5715
 70
192
 0
VERTEX
 8
NULL-_CUBE_
 10
-1.3659
 20
-6.9599
 30
30.5313
 70
192
 0
VERTEX
 8
NULL-_CUBE_
 10
-1.3855
 20
-6.7862
 30
30.4592
 70
192
 0
VERTEX
 8
NULL-_CUBE_
 10
-1.2363
 20
-6.7781
 30
30.437
 70
192
 0
VERTEX
 8
NULL-_CUBE_
 10
-1.1677
 20
-6.8241
 30
30.5635
 70
192
 0
VERTEX
 8
NULL-_CUBE_
 10
-1.2745
 20
-6.8607
 30
30.6639
 70
192
 0
VERTEX
 8
NULL-_CUBE_
 10
-1.4091
 20
-6.8372
 30
30.5994
 70
192
 0
VERTEX
 8
NULL-_CUBE_
 10
-1.7469
 20
-7.1021
 30
30.9221
 70
192
 0
VERTEX
 8
NULL-_CUBE_
 10
-1.8034
 20
-7.0828
 30
30.869
 70
192
 0
VERTEX
 8
NULL-_CUBE_
 10
-1.7105
 20
-7.0778
 30
30.8552
 70
192
 0
VERTEX
 8
NULL-_CUBE_
 10
-1.6678
 20
-7.1064
 30
30.9339
 70
192
 0
VERTEX
 8
NULL-_CUBE_
 10
-1.7343
 20
-7.1292
 30
30.9964
 70
192
 0
VERTEX
 8
NULL-_CUBE_
 10
-1.8181
 20
-7.1146
 30
30.9563
 70
192
 0
VERTEX
 8
NULL-_CUBE_
 10
-1.8377
 20
-6.9409
 30
30.8842
 70
192
 0
VERTEX
 8
NULL-_CUBE_
 10
-1.6885
 20
-6.9328
 30
30.8619
 70
192
 0
VERTEX
 8
NULL-_CUBE_
 10
-1.6199
 20
-6.9788
 30
30.9884
 70
192
 0
VERTEX
 8
NULL-_CUBE_
 10
-1.7268
 20
-7.0153
 30
31.0888
 70
192
 0
VERTEX
 8
NULL-_CUBE_
 10
-1.8613
 20
-6.9919
 30
31.0244
 70
192
 0
VERTEX
 8
NULL-_CUBE_
 10
0.4338
 20
-7.1897
 30
31.1627
 70
192
 0
VERTEX
 8
NULL-_CUBE_
 10
0.3538
 20
-7.1897
 30
31.1627
 70
192
 0
VERTEX
 8
NULL-_CUBE_
 10
0.4091
 20
-7.1637
 30
31.0912
 70
192
 0
VERTEX
 8
NULL-_CUBE_
 10
0.4985
 20
-7.1736
 30
31.1185
 70
192
 0
VERTEX
 8
NULL-_CUBE_
 10
0.4985
 20
-7.2058
 30
31.2069
 70
192
 0
VERTEX
 8
NULL-_CUBE_
 10
0.4091
 20
-7.2157
 30
31.2342
 70
192
 0
VERTEX
 8
NULL-_CUBE_
 10
0.3053
 20
-7.0595
 30
31.2101
 70
192
 0
VERTEX
 8
NULL-_CUBE_
 10
0.3941
 20
-7.0177
 30
31.0953
 70
192
 0
VERTEX
 8
NULL-_CUBE_
 10
0.5378
 20
-7.0337
 30
31.1391
 70
192
 0
VERTEX
 8
NULL-_CUBE_
 10
0.5378
 20
-7.0853
 30
31.2811
 70
192
 0
VERTEX
 8
NULL-_CUBE_
 10
0.3941
 20
-7.1013
 30
31.3249
 70
192
 0
VERTEX
 8
NULL-_CUBE_
 10
0.4338
 20
-7.4084
 30
31.7637
 70
192
 0
VERTEX
 8
NULL-_CUBE_
 10
0.3538
 20
-7.4084
 30
31.7637
 70
192
 0
VERTEX
 8
NULL-_CUBE_
 10
0.4091
 20
-7.3824
 30
31.6922
 70
192
 0
VERTEX
 8
NULL-_CUBE_
 10
0.4985
 20
-7.3923
 30
31.7195
 70
192
 0
VERTEX
 8
NULL-_CUBE_
 10
0.4985
 20
-7.4245
 30
31.8078
 70
192
 0
VERTEX
 8
NULL-_CUBE_
 10
0.4091
 20
-7.4344
 30
31.8352
 70
192
 0
VERTEX
 8
NULL-_CUBE_
 10
0.3053
 20
-7.2782
 30
31.811
 70
192
 0
VERTEX
 8
NULL-_CUBE_
 10
0.3941
 20
-7.2364
 30
31.6962
 70
192
 0
VERTEX
 8
NULL-_CUBE_
 10
0.5378
 20
-7.2524
 30
31.7401
 70
192
 0
VERTEX
 8
NULL-_CUBE_
 10
0.5378
 20
-7.3041
 30
31.882
 70
192
 0
VERTEX
 8
NULL-_CUBE_
 10
0.3941
 20
-7.32
 30
31.9259
 70
192
 0
VERTEX
 8
NULL-_CUBE_
 10
2.1623
 20
-6.9303
 30
30.4501
 70
192
 0
VERTEX
 8
NULL-_CUBE_
 10
2.1057
 20
-6.9497
 30
30.5033
 70
192
 0
VERTEX
 8
NULL-_CUBE_
 10
2.091
 20
-6.9179
 30
30.416
 70
192
 0
VERTEX
 8
NULL-_CUBE_
 10
2.1748
 20
-6.9033
 30
30.3759
 70
192
 0
VERTEX
 8
NULL-_CUBE_
 10
2.2413
 20
-6.9261
 30
30.4384
 70
192
 0
VERTEX
 8
NULL-_CUBE_
 10
2.1986
 20
-6.9547
 30
30.5171
 70
192
 0
VERTEX
 8
NULL-_CUBE_
 10
2.0714
 20
-6.8312
 30
30.5829
 70
192
 0
VERTEX
 8
NULL-_CUBE_
 10
2.0478
 20
-6.7802
 30
30.4427
 70
192
 0
VERTEX
 8
NULL-_CUBE_
 10
2.1824
 20
-6.7567
 30
30.3782
 70
192
 0
VERTEX
 8
NULL-_CUBE_
 10
2.2892
 20
-6.7933
 30
30.4786
 70
192
 0
VERTEX
 8
NULL-_CUBE_
 10
2.2206
 20
-6.8393
 30
30.6051
 70
192
 0
VERTEX
 8
NULL-_CUBE_
 10
2.6145
 20
-7.085
 30
30.8751
 70
192
 0
VERTEX
 8
NULL-_CUBE_
 10
2.5579
 20
-7.1043
 30
30.9282
 70
192
 0
VERTEX
 8
NULL-_CUBE_
 10
2.5432
 20
-7.0726
 30
30.8409
 70
192
 0
VERTEX
 8
NULL-_CUBE_
 10
2.627
 20
-7.058
 30
30.8008
 70
192
 0
VERTEX
 8
NULL-_CUBE_
 10
2.6935
 20
-7.0807
 30
30.8633
 70
192
 0
VERTEX
 8
NULL-_CUBE_
 10
2.6508
 20
-7.1094
 30
30.942
 70
192
 0
VERTEX
 8
NULL-_CUBE_
 10
2.5236
 20
-6.9859
 30
31.0078
 70
192
 0
VERTEX
 8
NULL-_CUBE_
 10
2.5
 20
-6.9348
 30
30.8676
 70
192
 0
VERTEX
 8
NULL-_CUBE_
 10
2.6346
 20
-6.9114
 30
30.8032
 70
192
 0
VERTEX
 8
NULL-_CUBE_
 10
2.7414
 20
-6.9479
 30
30.9036
 70
192
 0
VERTEX
 8
NULL-_CUBE_
 10
2.6728
 20
-6.994
 30
31.03
 70
192
 0
VERTEX
 8
NULL-_CUBE_
 10
2.8705
 20
-6.3563
 30
28.873
 70
192
 0
VERTEX
 8
NULL-_CUBE_
 10
2.8705
 20
-6.3837
 30
28.9482
 70
192
 0
VERTEX
 8
NULL-_CUBE_
 10
2.7944
 20
-6.3648
 30
28.8962
 70
192
 0
VERTEX
 8
NULL-_CUBE_
 10
2.8234
 20
-6.3342
 30
28.8122
 70
192
 0
VERTEX
 8
NULL-_CUBE_
 10
2.9175
 20
-6.3342
 30
28.8122
 70
192
 0
VERTEX
 8
NULL-_CUBE_
 10
2.9465
 20
-6.3648
 30
28.8962
 70
192
 0
VERTEX
 8
NULL-_CUBE_
 10
2.8705
 20
-6.2701
 30
29.0411
 70
192
 0
VERTEX
 8
NULL-_CUBE_
 10
2.7483
 20
-6.2397
 30
28.9577
 70
192
 0
VERTEX
 8
NULL-_CUBE_
 10
2.7949
 20
-6.1906
 30
28.8227
 70
192
 0
VERTEX
 8
NULL-_CUBE_
 10
2.946
 20
-6.1906
 30
28.8227
 70
192
 0
VERTEX
 8
NULL-_CUBE_
 10
2.9927
 20
-6.2397
 30
28.9577
 70
192
 0
VERTEX
 8
NULL-_CUBE_
 10
3.51
 20
-6.3563
 30
28.873
 70
192
 0
VERTEX
 8
NULL-_CUBE_
 10
3.51
 20
-6.3837
 30
28.9482
 70
192
 0
VERTEX
 8
NULL-_CUBE_
 10
3.4339
 20
-6.3648
 30
28.8962
 70
192
 0
VERTEX
 8
NULL-_CUBE_
 10
3.463
 20
-6.3342
 30
28.8122
 70
192
 0
VERTEX
 8
NULL-_CUBE_
 10
3.557
 20
-6.3342
 30
28.8122
 70
192
 0
VERTEX
 8
NULL-_CUBE_
 10
3.5861
 20
-6.3648
 30
28.8962
 70
192
 0
VERTEX
 8
NULL-_CUBE_
 10
3.51
 20
-6.2701
 30
29.0411
 70
192
 0
VERTEX
 8
NULL-_CUBE_
 10
3.3878
 20
-6.2397
 30
28.9577
 70
192
 0
VERTEX
 8
NULL-_CUBE_
 10
3.4344
 20
-6.1906
 30
28.8227
 70
192
 0
VERTEX
 8
NULL-_CUBE_
 10
3.5855
 20
-6.1906
 30
28.8227
 70
192
 0
VERTEX
 8
NULL-_CUBE_
 10
3.6322
 20
-6.2397
 30
28.9577
 70
192
 0
VERTEX
 8
NULL-_CUBE_
 10
2.1833
 20
-5.8035
 30
27.3541
 70
192
 0
VERTEX
 8
NULL-_CUBE_
 10
2.2399
 20
-5.8228
 30
27.4073
 70
192
 0
VERTEX
 8
NULL-_CUBE_
 10
2.147
 20
-5.8279
 30
27.4211
 70
192
 0
VERTEX
 8
NULL-_CUBE_
 10
2.1043
 20
-5.7992
 30
27.3424
 70
192
 0
VERTEX
 8
NULL-_CUBE_
 10
2.1708
 20
-5.7765
 30
27.2799
 70
192
 0
VERTEX
 8
NULL-_CUBE_
 10
2.2546
 20
-5.7911
 30
27.32
 70
192
 0
VERTEX
 8
NULL-_CUBE_
 10
2.2742
 20
-5.7044
 30
27.4869
 70
192
 0
VERTEX
 8
NULL-_CUBE_
 10
2.125
 20
-5.7124
 30
27.5091
 70
192
 0
VERTEX
 8
NULL-_CUBE_
 10
2.0564
 20
-5.6664
 30
27.3826
 70
192
 0
VERTEX
 8
NULL-_CUBE_
 10
2.1632
 20
-5.6299
 30
27.2823
 70
192
 0
VERTEX
 8
NULL-_CUBE_
 10
2.2978
 20
-5.6533
 30
27.3467
 70
192
 0
VERTEX
 8
NULL-_CUBE_
 10
2.6355
 20
-5.6488
 30
26.9292
 70
192
 0
VERTEX
 8
NULL-_CUBE_
 10
2.6921
 20
-5.6682
 30
26.9824
 70
192
 0
VERTEX
 8
NULL-_CUBE_
 10
2.5992
 20
-5.6732
 30
26.9962
 70
192
 0
VERTEX
 8
NULL-_CUBE_
 10
2.5565
 20
-5.6445
 30
26.9174
 70
192
 0
VERTEX
 8
NULL-_CUBE_
 10
2.623
 20
-5.6218
 30
26.8549
 70
192
 0
VERTEX
 8
NULL-_CUBE_
 10
2.7068
 20
-5.6364
 30
26.8951
 70
192
 0
VERTEX
 8
NULL-_CUBE_
 10
2.7264
 20
-5.5497
 30
27.062
 70
192
 0
VERTEX
 8
NULL-_CUBE_
 10
2.5772
 20
-5.5578
 30
27.0842
 70
192
 0
VERTEX
 8
NULL-_CUBE_
 10
2.5086
 20
-5.5117
 30
26.9577
 70
192
 0
VERTEX
 8
NULL-_CUBE_
 10
2.6154
 20
-5.4752
 30
26.8573
 70
192
 0
VERTEX
 8
NULL-_CUBE_
 10
2.75
 20
-5.4987
 30
26.9218
 70
192
 0
VERTEX
 8
NULL-_CUBE_
 10
0.4414
 20
-5.5347
 30
26.6157
 70
192
 0
VERTEX
 8
NULL-_CUBE_
 10
0.5214
 20
-5.5347
 30
26.6157
 70
192
 0
VERTEX
 8
NULL-_CUBE_
 10
0.4661
 20
-5.5608
 30
26.6872
 70
192
 0
VERTEX
 8
NULL-_CUBE_
 10
0.3767
 20
-5.5508
 30
26.6599
 70
192
 0
VERTEX
 8
NULL-_CUBE_
 10
0.3767
 20
-5.5187
 30
26.5716
 70
192
 0
VERTEX
 8
NULL-_CUBE_
 10
0.4661
 20
-5.5087
 30
26.5442
 70
192
 0
VERTEX
 8
NULL-_CUBE_
 10
0.5699
 20
-5.4045
 30
26.6631
 70
192
 0
VERTEX
 8
NULL-_CUBE_
 10
0.4811
 20
-5.4463
 30
26.778
 70
192
 0
VERTEX
 8
NULL-_CUBE_
 10
0.3374
 20
-5.4304
 30
26.7341
 70
192
 0
VERTEX
 8
NULL-_CUBE_
 10
0.3374
 20
-5.3787
 30
26.5922
 70
192
 0
VERTEX
 8
NULL-_CUBE_
 10
0.4811
 20
-5.3627
 30
26.5483
 70
192
 0
VERTEX
 8
NULL-_CUBE_
 10
0.4414
 20
-5.316
 30
26.0148
 70
192
 0
VERTEX
 8
NULL-_CUBE_
 10
0.5214
 20
-5.316
 30
26.0148
 70
192
 0
VERTEX
 8
NULL-_CUBE_
 10
0.4661
 20
-5.342
 30
26.0863
 70
192
 0
VERTEX
 8
NULL-_CUBE_
 10
0.3767
 20
-5.3321
 30
26.059
 70
192
 0
VERTEX
 8
NULL-_CUBE_
 10
0.3767
 20
-5.2999
 30
25.9706
 70
192
 0
VERTEX
 8
NULL-_CUBE_
 10
0.4661
 20
-5.29
 30
25.9433
 70
192
 0
VERTEX
 8
NULL-_CUBE_
 10
0.5699
 20
-5.1858
 30
26.0622
 70
192
 0
VERTEX
 8
NULL-_CUBE_
 10
0.4811
 20
-5.2276
 30
26.177
 70
192
 0
VERTEX
 8
NULL-_CUBE_
 10
0.3374
 20
-5.2116
 30
26.1332
 70
192
 0
VERTEX
 8
NULL-_CUBE_
 10
0.3374
 20
-5.16
 30
25.9912
 70
192
 0
VERTEX
 8
NULL-_CUBE_
 10
0.4811
 20
-5.144
 30
25.9473
 70
192
 0
VERTEX
 8
NULL-_CUBE_
 10
0
 20
0
 30
0
 70
128
 71
3
 72
8
 73
7
 74
2
 0
VERTEX
 8
NULL-_CUBE_
 10
0
 20
0
 30
0
 70
128
 71
2
 72
1
 73
3
 74
3
 0
VERTEX
 8
NULL-_CUBE_
 10
0
 20
0
 30
0
 70
128
 71
4
 72
9
 73
8
 74
3
 0
VERTEX
 8
NULL-_CUBE_
 10
0
 20
0
 30
0
 70
128
 71
3
 72
1
 73
4
 74
4
 0
VERTEX
 8
NULL-_CUBE_
 10
0
 20
0
 30
0
 70
128
 71
5
 72
10
 73
9
 74
4
 0
VERTEX
 8
NULL-_CUBE_
 10
0
 20
0
 30
0
 70
128
 71
4
 72
1
 73
5
 74
5
 0
VERTEX
 8
NULL-_CUBE_
 10
0
 20
0
 30
0
 70
128
 71
11
 72
10
 73
5
 74
6
 0
VERTEX
 8
NULL-_CUBE_
 10
0
 20
0
 30
0
 70
128
 71
5
 72
1
 73
6
 74
6
 0
VERTEX
 8
NULL-_CUBE_
 10
0
 20
0
 30
0
 70
128
 71
7
 72
11
 73
6
 74
2
 0
VERTEX
 8
NULL-_CUBE_
 10
0
 20
0
 30
0
 70
128
 71
6
 72
1
 73
2
 74
2
 0
VERTEX
 8
NULL-_CUBE_
 10
0
 20
0
 30
0
 70
128
 71
14
 72
19
 73
18
 74
13
 0
VERTEX
 8
NULL-_CUBE_
 10
0
 20
0
 30
0
 70
128
 71
13
 72
12
 73
14
 74
14
 0
VERTEX
 8
NULL-_CUBE_
 10
0
 20
0
 30
0
 70
128
 71
15
 72
20
 73
19
 74
14
 0
VERTEX
 8
NULL-_CUBE_
 10
0
 20
0
 30
0
 70
128
 71
14
 72
12
 73
15
 74
15
 0
VERTEX
 8
NULL-_CUBE_
 10
0
 20
0
 30
0
 70
128
 71
16
 72
21
 73
20
 74
15
 0
VERTEX
 8
NULL-_CUBE_
 10
0
 20
0
 30
0
 70
128
 71
15
 72
12
 73
16
 74
16
 0
VERTEX
 8
NULL-_CUBE_
 10
0
 20
0
 30
0
 70
128
 71
22
 72
21
 73
16
 74
17
 0
VERTEX
 8
NULL-_CUBE_
 10
0
 20
0
 30
0
 70
128
 71
16
 72
12
 73
17
 74
17
 0
VERTEX
 8
NULL-_CUBE_
 10
0
 20
0
 30
0
 70
128
 71
18
 72
22
 73
17
 74
13
 0
VERTEX
 8
NULL-_CUBE_
 10
0
 20
0
 30
0
 70
128
 71
17
 72
12
 73
13
 74
13
 0
VERTEX
 8
NULL-_CUBE_
 10
0
 20
0
 30
0
 70
128
 71
30
 72
29
 73
24
 74
25
 0
VERTEX
 8
NULL-_CUBE_
 10
0
 20
0
 30
0
 70
128
 71
24
 72
23
 73
25
 74
25
 0
VERTEX
 8
NULL-_CUBE_
 10
0
 20
0
 30
0
 70
128
 71
26
 72
31
 73
30
 74
25
 0
VERTEX
 8
NULL-_CUBE_
 10
0
 20
0
 30
0
 70
128
 71
25
 72
23
 73
26
 74
26
 0
VERTEX
 8
NULL-_CUBE_
 10
0
 20
0
 30
0
 70
128
 71
27
 72
32
 73
31
 74
26
 0
VERTEX
 8
NULL-_CUBE_
 10
0
 20
0
 30
0
 70
128
 71
26
 72
23
 73
27
 74
27
 0
VERTEX
 8
NULL-_CUBE_
 10
0
 20
0
 30
0
 70
128
 71
33
 72
32
 73
27
 74
28
 0
VERTEX
 8
NULL-_CUBE_
 10
0
 20
0
 30
0
 70
128
 71
27
 72
23
 73
28
 74
28
 0
VERTEX
 8
NULL-_CUBE_
 10
0
 20
0
 30
0
 70
128
 71
29
 72
33
 73
28
 74
24
 0
VERTEX
 8
NULL-_CUBE_
 10
0
 20
0
 30
0
 70
128
 71
28
 72
23
 73
24
 74
24
 0
VERTEX
 8
NULL-_CUBE_
 10
0
 20
0
 30
0
 70
128
 71
41
 72
40
 73
35
 74
36
 0
VERTEX
 8
NULL-_CUBE_
 10
0
 20
0
 30
0
 70
128
 71
35
 72
34
 73
36
 74
36
 0
VERTEX
 8
NULL-_CUBE_
 10
0
 20
0
 30
0
 70
128
 71
37
 72
42
 73
41
 74
36
 0
VERTEX
 8
NULL-_CUBE_
 10
0
 20
0
 30
0
 70
128
 71
36
 72
34
 73
37
 74
37
 0
VERTEX
 8
NULL-_CUBE_
 10
0
 20
0
 30
0
 70
128
 71
38
 72
43
 73
42
 74
37
 0
VERTEX
 8
NULL-_CUBE_
 10
0
 20
0
 30
0
 70
128
 71
37
 72
34
 73
38
 74
38
 0
VERTEX
 8
NULL-_CUBE_
 10
0
 20
0
 30
0
 70
128
 71
44
 72
43
 73
38
 74
39
 0
VERTEX
 8
NULL-_CUBE_
 10
0
 20
0
 30
0
 70
128
 71
38
 72
34
 73
39
 74
39
 0
VERTEX
 8
NULL-_CUBE_
 10
0
 20
0
 30
0
 70
128
 71
40
 72
44
 73
39
 74
35
 0
VERTEX
 8
NULL-_CUBE_
 10
0
 20
0
 30
0
 70
128
 71
39
 72
34
 73
35
 74
35
 0
VERTEX
 8
NULL-_CUBE_
 10
0
 20
0
 30
0
 70
128
 71
52
 72
51
 73
46
 74
47
 0
VERTEX
 8
NULL-_CUBE_
 10
0
 20
0
 30
0
 70
128
 71
46
 72
45
 73
47
 74
47
 0
VERTEX
 8
NULL-_CUBE_
 10
0
 20
0
 30
0
 70
128
 71
53
 72
52
 73
47
 74
48
 0
VERTEX
 8
NULL-_CUBE_
 10
0
 20
0
 30
0
 70
128
 71
47
 72
45
 73
48
 74
48
 0
VERTEX
 8
NULL-_CUBE_
 10
0
 20
0
 30
0
 70
128
 71
49
 72
54
 73
53
 74
48
 0
VERTEX
 8
NULL-_CUBE_
 10
0
 20
0
 30
0
 70
128
 71
48
 72
45
 73
49
 74
49
 0
VERTEX
 8
NULL-_CUBE_
 10
0
 20
0
 30
0
 70
128
 71
50
 72
55
 73
54
 74
49
 0
VERTEX
 8
NULL-_CUBE_
 10
0
 20
0
 30
0
 70
128
 71
49
 72
45
 73
50
 74
50
 0
VERTEX
 8
NULL-_CUBE_
 10
0
 20
0
 30
0
 70
128
 71
51
 72
55
 73
50
 74
46
 0
VERTEX
 8
NULL-_CUBE_
 10
0
 20
0
 30
0
 70
128
 71
50
 72
45
 73
46
 74
46
 0
VERTEX
 8
NULL-_CUBE_
 10
0
 20
0
 30
0
 70
128
 71
63
 72
62
 73
57
 74
58
 0
VERTEX
 8
NULL-_CUBE_
 10
0
 20
0
 30
0
 70
128
 71
57
 72
56
 73
58
 74
58
 0
VERTEX
 8
NULL-_CUBE_
 10
0
 20
0
 30
0
 70
128
 71
64
 72
63
 73
58
 74
59
 0
VERTEX
 8
NULL-_CUBE_
 10
0
 20
0
 30
0
 70
128
 71
58
 72
56
 73
59
 74
59
 0
VERTEX
 8
NULL-_CUBE_
 10
0
 20
0
 30
0
 70
128
 71
60
 72
65
 73
64
 74
59
 0
VERTEX
 8
NULL-_CUBE_
 10
0
 20
0
 30
0
 70
128
 71
59
 72
56
 73
60
 74
60
 0
VERTEX
 8
NULL-_CUBE_
 10
0
 20
0
 30
0
 70
128
 71
61
 72
66
 73
65
 74
60
 0
VERTEX
 8
NULL-_CUBE_
 10
0
 20
0
 30
0
 70
128
 71
60
 72
56
 73
61
 74
61
 0
VERTEX
 8
NULL-_CUBE_
 10
0
 20
0
 30
0
 70
128
 71
62
 72
66
 73
61
 74
57
 0
VERTEX
 8
NULL-_CUBE_
 10
0
 20
0
 30
0
 70
128
 71
61
 72
56
 73
57
 74
57
 0
VERTEX
 8
NULL-_CUBE_
 10
0
 20
0
 30
0
 70
128
 71
74
 72
73
 73
68
 74
69
 0
VERTEX
 8
NULL-_CUBE_
 10
0
 20
0
 30
0
 70
128
 71
68
 72
67
 73
69
 74
69
 0
VERTEX
 8
NULL-_CUBE_
 10
0
 20
0
 30
0
 70
128
 71
75
 72
74
 73
69
 74
70
 0
VERTEX
 8
NULL-_CUBE_
 10
0
 20
0
 30
0
 70
128
 71
69
 72
67
 73
70
 74
70
 0
VERTEX
 8
NULL-_CUBE_
 10
0
 20
0
 30
0
 70
128
 71
71
 72
76
 73
75
 74
70
 0
VERTEX
 8
NULL-_CUBE_
 10
0
 20
0
 30
0
 70
128
 71
70
 72
67
 73
71
 74
71
 0
VERTEX
 8
NULL-_CUBE_
 10
0
 20
0
 30
0
 70
128
 71
72
 72
77
 73
76
 74
71
 0
VERTEX
 8
NULL-_CUBE_
 10
0
 20
0
 30
0
 70
128
 71
71
 72
67
 73
72
 74
72
 0
VERTEX
 8
NULL-_CUBE_
 10
0
 20
0
 30
0
 70
128
 71
68
 72
73
 73
77
 74
72
 0
VERTEX
 8
NULL-_CUBE_
 10
0
 20
0
 30
0
 70
128
 71
72
 72
67
 73
68
 74
68
 0
VERTEX
 8
NULL-_CUBE_
 10
0
 20
0
 30
0
 70
128
 71
85
 72
84
 73
79
 74
80
 0
VERTEX
 8
NULL-_CUBE_
 10
0
 20
0
 30
0
 70
128
 71
79
 72
78
 73
80
 74
80
 0
VERTEX
 8
NULL-_CUBE_
 10
0
 20
0
 30
0
 70
128
 71
86
 72
85
 73
80
 74
81
 0
VERTEX
 8
NULL-_CUBE_
 10
0
 20
0
 30
0
 70
128
 71
80
 72
78
 73
81
 74
81
 0
VERTEX
 8
NULL-_CUBE_
 10
0
 20
0
 30
0
 70
128
 71
82
 72
87
 73
86
 74
81
 0
VERTEX
 8
NULL-_CUBE_
 10
0
 20
0
 30
0
 70
128
 71
81
 72
78
 73
82
 74
82
 0
VERTEX
 8
NULL-_CUBE_
 10
0
 20
0
 30
0
 70
128
 71
83
 72
88
 73
87
 74
82
 0
VERTEX
 8
NULL-_CUBE_
 10
0
 20
0
 30
0
 70
128
 71
82
 72
78
 73
83
 74
83
 0
VERTEX
 8
NULL-_CUBE_
 10
0
 20
0
 30
0
 70
128
 71
79
 72
84
 73
88
 74
83
 0
VERTEX
 8
NULL-_CUBE_
 10
0
 20
0
 30
0
 70
128
 71
83
 72
78
 73
79
 74
79
 0
VERTEX
 8
NULL-_CUBE_
 10
0
 20
0
 30
0
 70
128
 71
96
 72
95
 73
90
 74
91
 0
VERTEX
 8
NULL-_CUBE_
 10
0
 20
0
 30
0
 70
128
 71
90
 72
89
 73
91
 74
91
 0
VERTEX
 8
NULL-_CUBE_
 10
0
 20
0
 30
0
 70
128
 71
97
 72
96
 73
91
 74
92
 0
VERTEX
 8
NULL-_CUBE_
 10
0
 20
0
 30
0
 70
128
 71
91
 72
89
 73
92
 74
92
 0
VERTEX
 8
NULL-_CUBE_
 10
0
 20
0
 30
0
 70
128
 71
98
 72
97
 73
92
 74
93
 0
VERTEX
 8
NULL-_CUBE_
 10
0
 20
0
 30
0
 70
128
 71
92
 72
89
 73
93
 74
93
 0
VERTEX
 8
NULL-_CUBE_
 10
0
 20
0
 30
0
 70
128
 71
94
 72
99
 73
98
 74
93
 0
VERTEX
 8
NULL-_CUBE_
 10
0
 20
0
 30
0
 70
128
 71
93
 72
89
 73
94
 74
94
 0
VERTEX
 8
NULL-_CUBE_
 10
0
 20
0
 30
0
 70
128
 71
90
 72
95
 73
99
 74
94
 0
VERTEX
 8
NULL-_CUBE_
 10
0
 20
0
 30
0
 70
128
 71
94
 72
89
 73
90
 74
90
 0
VERTEX
 8
NULL-_CUBE_
 10
0
 20
0
 30
0
 70
128
 71
107
 72
106
 73
101
 74
102
 0
VERTEX
 8
NULL-_CUBE_
 10
0
 20
0
 30
0
 70
128
 71
101
 72
100
 73
102
 74
102
 0
VERTEX
 8
NULL-_CUBE_
 10
0
 20
0
 30
0
 70
128
 71
108
 72
107
 73
102
 74
103
 0
VERTEX
 8
NULL-_CUBE_
 10
0
 20
0
 30
0
 70
128
 71
102
 72
100
 73
103
 74
103
 0
VERTEX
 8
NULL-_CUBE_
 10
0
 20
0
 30
0
 70
128
 71
109
 72
108
 73
103
 74
104
 0
VERTEX
 8
NULL-_CUBE_
 10
0
 20
0
 30
0
 70
128
 71
103
 72
100
 73
104
 74
104
 0
VERTEX
 8
NULL-_CUBE_
 10
0
 20
0
 30
0
 70
128
 71
105
 72
110
 73
109
 74
104
 0
VERTEX
 8
NULL-_CUBE_
 10
0
 20
0
 30
0
 70
128
 71
104
 72
100
 73
105
 74
105
 0
VERTEX
 8
NULL-_CUBE_
 10
0
 20
0
 30
0
 70
128
 71
101
 72
106
 73
110
 74
105
 0
VERTEX
 8
NULL-_CUBE_
 10
0
 20
0
 30
0
 70
128
 71
105
 72
100
 73
101
 74
101
 0
VERTEX
 8
NULL-_CUBE_
 10
0
 20
0
 30
0
 70
128
 71
113
 72
118
 73
117
 74
112
 0
VERTEX
 8
NULL-_CUBE_
 10
0
 20
0
 30
0
 70
128
 71
112
 72
111
 73
113
 74
113
 0
VERTEX
 8
NULL-_CUBE_
 10
0
 20
0
 30
0
 70
128
 71
119
 72
118
 73
113
 74
114
 0
VERTEX
 8
NULL-_CUBE_
 10
0
 20
0
 30
0
 70
128
 71
113
 72
111
 73
114
 74
114
 0
VERTEX
 8
NULL-_CUBE_
 10
0
 20
0
 30
0
 70
128
 71
120
 72
119
 73
114
 74
115
 0
VERTEX
 8
NULL-_CUBE_
 10
0
 20
0
 30
0
 70
128
 71
114
 72
111
 73
115
 74
115
 0
VERTEX
 8
NULL-_CUBE_
 10
0
 20
0
 30
0
 70
128
 71
116
 72
121
 73
120
 74
115
 0
VERTEX
 8
NULL-_CUBE_
 10
0
 20
0
 30
0
 70
128
 71
115
 72
111
 73
116
 74
116
 0
VERTEX
 8
NULL-_CUBE_
 10
0
 20
0
 30
0
 70
128
 71
112
 72
117
 73
121
 74
116
 0
VERTEX
 8
NULL-_CUBE_
 10
0
 20
0
 30
0
 70
128
 71
116
 72
111
 73
112
 74
112
 0
VERTEX
 8
NULL-_CUBE_
 10
0
 20
0
 30
0
 70
128
 71
124
 72
129
 73
128
 74
123
 0
VERTEX
 8
NULL-_CUBE_
 10
0
 20
0
 30
0
 70
128
 71
123
 72
122
 73
124
 74
124
 0
VERTEX
 8
NULL-_CUBE_
 10
0
 20
0
 30
0
 70
128
 71
130
 72
129
 73
124
 74
125
 0
VERTEX
 8
NULL-_CUBE_
 10
0
 20
0
 30
0
 70
128
 71
124
 72
122
 73
125
 74
125
 0
VERTEX
 8
NULL-_CUBE_
 10
0
 20
0
 30
0
 70
128
 71
131
 72
130
 73
125
 74
126
 0
VERTEX
 8
NULL-_CUBE_
 10
0
 20
0
 30
0
 70
128
 71
125
 72
122
 73
126
 74
126
 0
VERTEX
 8
NULL-_CUBE_
 10
0
 20
0
 30
0
 70
128
 71
127
 72
132
 73
131
 74
126
 0
VERTEX
 8
NULL-_CUBE_
 10
0
 20
0
 30
0
 70
128
 71
126
 72
122
 73
127
 74
127
 0
VERTEX
 8
NULL-_CUBE_
 10
0
 20
0
 30
0
 70
128
 71
123
 72
128
 73
132
 74
127
 0
VERTEX
 8
NULL-_CUBE_
 10
0
 20
0
 30
0
 70
128
 71
127
 72
122
 73
123
 74
123
 0
VERTEX
 8
NULL-_CUBE_
 10
0
 20
0
 30
0
 70
128
 71
135
 72
140
 73
139
 74
134
 0
VERTEX
 8
NULL-_CUBE_
 10
0
 20
0
 30
0
 70
128
 71
134
 72
133
 73
135
 74
135
 0
VERTEX
 8
NULL-_CUBE_
 10
0
 20
0
 30
0
 70
128
 71
141
 72
140
 73
135
 74
136
 0
VERTEX
 8
NULL-_CUBE_
 10
0
 20
0
 30
0
 70
128
 71
135
 72
133
 73
136
 74
136
 0
VERTEX
 8
NULL-_CUBE_
 10
0
 20
0
 30
0
 70
128
 71
142
 72
141
 73
136
 74
137
 0
VERTEX
 8
NULL-_CUBE_
 10
0
 20
0
 30
0
 70
128
 71
136
 72
133
 73
137
 74
137
 0
VERTEX
 8
NULL-_CUBE_
 10
0
 20
0
 30
0
 70
128
 71
143
 72
142
 73
137
 74
138
 0
VERTEX
 8
NULL-_CUBE_
 10
0
 20
0
 30
0
 70
128
 71
137
 72
133
 73
138
 74
138
 0
VERTEX
 8
NULL-_CUBE_
 10
0
 20
0
 30
0
 70
128
 71
134
 72
139
 73
143
 74
138
 0
VERTEX
 8
NULL-_CUBE_
 10
0
 20
0
 30
0
 70
128
 71
138
 72
133
 73
134
 74
134
 0
VERTEX
 8
NULL-_CUBE_
 10
0
 20
0
 30
0
 70
128
 71
146
 72
151
 73
150
 74
145
 0
VERTEX
 8
NULL-_CUBE_
 10
0
 20
0
 30
0
 70
128
 71
145
 72
144
 73
146
 74
146
 0
VERTEX
 8
NULL-_CUBE_
 10
0
 20
0
 30
0
 70
128
 71
152
 72
151
 73
146
 74
147
 0
VERTEX
 8
NULL-_CUBE_
 10
0
 20
0
 30
0
 70
128
 71
146
 72
144
 73
147
 74
147
 0
VERTEX
 8
NULL-_CUBE_
 10
0
 20
0
 30
0
 70
128
 71
153
 72
152
 73
147
 74
148
 0
VERTEX
 8
NULL-_CUBE_
 10
0
 20
0
 30
0
 70
128
 71
147
 72
144
 73
148
 74
148
 0
VERTEX
 8
NULL-_CUBE_
 10
0
 20
0
 30
0
 70
128
 71
154
 72
153
 73
148
 74
149
 0
VERTEX
 8
NULL-_CUBE_
 10
0
 20
0
 30
0
 70
128
 71
148
 72
144
 73
149
 74
149
 0
VERTEX
 8
NULL-_CUBE_
 10
0
 20
0
 30
0
 70
128
 71
145
 72
150
 73
154
 74
149
 0
VERTEX
 8
NULL-_CUBE_
 10
0
 20
0
 30
0
 70
128
 71
149
 72
144
 73
145
 74
145
 0
VERTEX
 8
NULL-_CUBE_
 10
0
 20
0
 30
0
 70
128
 71
157
 72
162
 73
161
 74
156
 0
VERTEX
 8
NULL-_CUBE_
 10
0
 20
0
 30
0
 70
128
 71
156
 72
155
 73
157
 74
157
 0
VERTEX
 8
NULL-_CUBE_
 10
0
 20
0
 30
0
 70
128
 71
158
 72
163
 73
162
 74
157
 0
VERTEX
 8
NULL-_CUBE_
 10
0
 20
0
 30
0
 70
128
 71
157
 72
155
 73
158
 74
158
 0
VERTEX
 8
NULL-_CUBE_
 10
0
 20
0
 30
0
 70
128
 71
164
 72
163
 73
158
 74
159
 0
VERTEX
 8
NULL-_CUBE_
 10
0
 20
0
 30
0
 70
128
 71
158
 72
155
 73
159
 74
159
 0
VERTEX
 8
NULL-_CUBE_
 10
0
 20
0
 30
0
 70
128
 71
165
 72
164
 73
159
 74
160
 0
VERTEX
 8
NULL-_CUBE_
 10
0
 20
0
 30
0
 70
128
 71
159
 72
155
 73
160
 74
160
 0
VERTEX
 8
NULL-_CUBE_
 10
0
 20
0
 30
0
 70
128
 71
156
 72
161
 73
165
 74
160
 0
VERTEX
 8
NULL-_CUBE_
 10
0
 20
0
 30
0
 70
128
 71
160
 72
155
 73
156
 74
156
 0
VERTEX
 8
NULL-_CUBE_
 10
0
 20
0
 30
0
 70
128
 71
168
 72
173
 73
172
 74
167
 0
VERTEX
 8
NULL-_CUBE_
 10
0
 20
0
 30
0
 70
128
 71
167
 72
166
 73
168
 74
168
 0
VERTEX
 8
NULL-_CUBE_
 10
0
 20
0
 30
0
 70
128
 71
169
 72
174
 73
173
 74
168
 0
VERTEX
 8
NULL-_CUBE_
 10
0
 20
0
 30
0
 70
128
 71
168
 72
166
 73
169
 74
169
 0
VERTEX
 8
NULL-_CUBE_
 10
0
 20
0
 30
0
 70
128
 71
175
 72
174
 73
169
 74
170
 0
VERTEX
 8
NULL-_CUBE_
 10
0
 20
0
 30
0
 70
128
 71
169
 72
166
 73
170
 74
170
 0
VERTEX
 8
NULL-_CUBE_
 10
0
 20
0
 30
0
 70
128
 71
176
 72
175
 73
170
 74
171
 0
VERTEX
 8
NULL-_CUBE_
 10
0
 20
0
 30
0
 70
128
 71
170
 72
166
 73
171
 74
171
 0
VERTEX
 8
NULL-_CUBE_
 10
0
 20
0
 30
0
 70
128
 71
167
 72
172
 73
176
 74
171
 0
VERTEX
 8
NULL-_CUBE_
 10
0
 20
0
 30
0
 70
128
 71
171
 72
166
 73
167
 74
167
 0
VERTEX
 8
NULL-_CUBE_
 10
0
 20
0
 30
0
 70
128
 71
184
 72
183
 73
178
 74
179
 0
VERTEX
 8
NULL-_CUBE_
 10
0
 20
0
 30
0
 70
128
 71
178
 72
177
 73
179
 74
179
 0
VERTEX
 8
NULL-_CUBE_
 10
0
 20
0
 30
0
 70
128
 71
180
 72
185
 73
184
 74
179
 0
VERTEX
 8
NULL-_CUBE_
 10
0
 20
0
 30
0
 70
128
 71
179
 72
177
 73
180
 74
180
 0
VERTEX
 8
NULL-_CUBE_
 10
0
 20
0
 30
0
 70
128
 71
181
 72
186
 73
185
 74
180
 0
VERTEX
 8
NULL-_CUBE_
 10
0
 20
0
 30
0
 70
128
 71
180
 72
177
 73
181
 74
181
 0
VERTEX
 8
NULL-_CUBE_
 10
0
 20
0
 30
0
 70
128
 71
187
 72
186
 73
181
 74
182
 0
VERTEX
 8
NULL-_CUBE_
 10
0
 20
0
 30
0
 70
128
 71
181
 72
177
 73
182
 74
182
 0
VERTEX
 8
NULL-_CUBE_
 10
0
 20
0
 30
0
 70
128
 71
183
 72
187
 73
182
 74
178
 0
VERTEX
 8
NULL-_CUBE_
 10
0
 20
0
 30
0
 70
128
 71
182
 72
177
 73
178
 74
178
 0
VERTEX
 8
NULL-_CUBE_
 10
0
 20
0
 30
0
 70
128
 71
195
 72
194
 73
189
 74
190
 0
VERTEX
 8
NULL-_CUBE_
 10
0
 20
0
 30
0
 70
128
 71
189
 72
188
 73
190
 74
190
 0
VERTEX
 8
NULL-_CUBE_
 10
0
 20
0
 30
0
 70
128
 71
191
 72
196
 73
195
 74
190
 0
VERTEX
 8
NULL-_CUBE_
 10
0
 20
0
 30
0
 70
128
 71
190
 72
188
 73
191
 74
191
 0
VERTEX
 8
NULL-_CUBE_
 10
0
 20
0
 30
0
 70
128
 71
192
 72
197
 73
196
 74
191
 0
VERTEX
 8
NULL-_CUBE_
 10
0
 20
0
 30
0
 70
128
 71
191
 72
188
 73
192
 74
192
 0
VERTEX
 8
NULL-_CUBE_
 10
0
 20
0
 30
0
 70
128
 71
198
 72
197
 73
192
 74
193
 0
VERTEX
 8
NULL-_CUBE_
 10
0
 20
0
 30
0
 70
128
 71
192
 72
188
 73
193
 74
193
 0
VERTEX
 8
NULL-_CUBE_
 10
0
 20
0
 30
0
 70
128
 71
194
 72
198
 73
193
 74
189
 0
VERTEX
 8
NULL-_CUBE_
 10
0
 20
0
 30
0
 70
128
 71
193
 72
188
 73
189
 74
189
 0
VERTEX
 8
NULL-_CUBE_
 10
0
 20
0
 30
0
 70
128
 71
206
 72
205
 73
200
 74
201
 0
VERTEX
 8
NULL-_CUBE_
 10
0
 20
0
 30
0
 70
128
 71
200
 72
199
 73
201
 74
201
 0
VERTEX
 8
NULL-_CUBE_
 10
0
 20
0
 30
0
 70
128
 71
202
 72
207
 73
206
 74
201
 0
VERTEX
 8
NULL-_CUBE_
 10
0
 20
0
 30
0
 70
128
 71
201
 72
199
 73
202
 74
202
 0
VERTEX
 8
NULL-_CUBE_
 10
0
 20
0
 30
0
 70
128
 71
203
 72
208
 73
207
 74
202
 0
VERTEX
 8
NULL-_CUBE_
 10
0
 20
0
 30
0
 70
128
 71
202
 72
199
 73
203
 74
203
 0
VERTEX
 8
NULL-_CUBE_
 10
0
 20
0
 30
0
 70
128
 71
204
 72
209
 73
208
 74
203
 0
VERTEX
 8
NULL-_CUBE_
 10
0
 20
0
 30
0
 70
128
 71
203
 72
199
 73
204
 74
204
 0
VERTEX
 8
NULL-_CUBE_
 10
0
 20
0
 30
0
 70
128
 71
205
 72
209
 73
204
 74
200
 0
VERTEX
 8
NULL-_CUBE_
 10
0
 20
0
 30
0
 70
128
 71
204
 72
199
 73
200
 74
200
 0
VERTEX
 8
NULL-_CUBE_
 10
0
 20
0
 30
0
 70
128
 71
217
 72
216
 73
211
 74
212
 0
VERTEX
 8
NULL-_CUBE_
 10
0
 20
0
 30
0
 70
128
 71
211
 72
210
 73
212
 74
212
 0
VERTEX
 8
NULL-_CUBE_
 10
0
 20
0
 30
0
 70
128
 71
213
 72
218
 73
217
 74
212
 0
VERTEX
 8
NULL-_CUBE_
 10
0
 20
0
 30
0
 70
128
 71
212
 72
210
 73
213
 74
213
 0
VERTEX
 8
NULL-_CUBE_
 10
0
 20
0
 30
0
 70
128
 71
214
 72
219
 73
218
 74
213
 0
VERTEX
 8
NULL-_CUBE_
 10
0
 20
0
 30
0
 70
128
 71
213
 72
210
 73
214
 74
214
 0
VERTEX
 8
NULL-_CUBE_
 10
0
 20
0
 30
0
 70
128
 71
215
 72
220
 73
219
 74
214
 0
VERTEX
 8
NULL-_CUBE_
 10
0
 20
0
 30
0
 70
128
 71
214
 72
210
 73
215
 74
215
 0
VERTEX
 8
NULL-_CUBE_
 10
0
 20
0
 30
0
 70
128
 71
216
 72
220
 73
215
 74
211
 0
VERTEX
 8
NULL-_CUBE_
 10
0
 20
0
 30
0
 70
128
 71
215
 72
210
 73
211
 74
211
 0
VERTEX
 8
NULL-_CUBE_
 10
0
 20
0
 30
0
 70
128
 71
228
 72
227
 73
222
 74
223
 0
VERTEX
 8
NULL-_CUBE_
 10
0
 20
0
 30
0
 70
128
 71
222
 72
221
 73
223
 74
223
 0
VERTEX
 8
NULL-_CUBE_
 10
0
 20
0
 30
0
 70
128
 71
229
 72
228
 73
223
 74
224
 0
VERTEX
 8
NULL-_CUBE_
 10
0
 20
0
 30
0
 70
128
 71
223
 72
221
 73
224
 74
224
 0
VERTEX
 8
NULL-_CUBE_
 10
0
 20
0
 30
0
 70
128
 71
225
 72
230
 73
229
 74
224
 0
VERTEX
 8
NULL-_CUBE_
 10
0
 20
0
 30
0
 70
128
 71
224
 72
221
 73
225
 74
225
 0
VERTEX
 8
NULL-_CUBE_
 10
0
 20
0
 30
0
 70
128
 71
226
 72
231
 73
230
 74
225
 0
VERTEX
 8
NULL-_CUBE_
 10
0
 20
0
 30
0
 70
128
 71
225
 72
221
 73
226
 74
226
 0
VERTEX
 8
NULL-_CUBE_
 10
0
 20
0
 30
0
 70
128
 71
227
 72
231
 73
226
 74
222
 0
VERTEX
 8
NULL-_CUBE_
 10
0
 20
0
 30
0
 70
128
 71
226
 72
221
 73
222
 74
222
 0
VERTEX
 8
NULL-_CUBE_
 10
0
 20
0
 30
0
 70
128
 71
239
 72
238
 73
233
 74
234
 0
VERTEX
 8
NULL-_CUBE_
 10
0
 20
0
 30
0
 70
128
 71
233
 72
232
 73
234
 74
234
 0
VERTEX
 8
NULL-_CUBE_
 10
0
 20
0
 30
0
 70
128
 71
240
 72
239
 73
234
 74
235
 0
VERTEX
 8
NULL-_CUBE_
 10
0
 20
0
 30
0
 70
128
 71
234
 72
232
 73
235
 74
235
 0
VERTEX
 8
NULL-_CUBE_
 10
0
 20
0
 30
0
 70
128
 71
236
 72
241
 73
240
 74
235
 0
VERTEX
 8
NULL-_CUBE_
 10
0
 20
0
 30
0
 70
128
 71
235
 72
232
 73
236
 74
236
 0
VERTEX
 8
NULL-_CUBE_
 10
0
 20
0
 30
0
 70
128
 71
237
 72
242
 73
241
 74
236
 0
VERTEX
 8
NULL-_CUBE_
 10
0
 20
0
 30
0
 70
128
 71
236
 72
232
 73
237
 74
237
 0
VERTEX
 8
NULL-_CUBE_
 10
0
 20
0
 30
0
 70
128
 71
238
 72
242
 73
237
 74
233
 0
VERTEX
 8
NULL-_CUBE_
 10
0
 20
0
 30
0
 70
128
 71
237
 72
232
 73
233
 74
233
 0
VERTEX
 8
NULL-_CUBE_
 10
0
 20
0
 30
0
 70
128
 71
250
 72
249
 73
244
 74
245
 0
VERTEX
 8
NULL-_CUBE_
 10
0
 20
0
 30
0
 70
128
 71
244
 72
243
 73
245
 74
245
 0
VERTEX
 8
NULL-_CUBE_
 10
0
 20
0
 30
0
 70
128
 71
251
 72
250
 73
245
 74
246
 0
VERTEX
 8
NULL-_CUBE_
 10
0
 20
0
 30
0
 70
128
 71
245
 72
243
 73
246
 74
246
 0
VERTEX
 8
NULL-_CUBE_
 10
0
 20
0
 30
0
 70
128
 71
247
 72
252
 73
251
 74
246
 0
VERTEX
 8
NULL-_CUBE_
 10
0
 20
0
 30
0
 70
128
 71
246
 72
243
 73
247
 74
247
 0
VERTEX
 8
NULL-_CUBE_
 10
0
 20
0
 30
0
 70
128
 71
248
 72
253
 73
252
 74
247
 0
VERTEX
 8
NULL-_CUBE_
 10
0
 20
0
 30
0
 70
128
 71
247
 72
243
 73
248
 74
248
 0
VERTEX
 8
NULL-_CUBE_
 10
0
 20
0
 30
0
 70
128
 71
244
 72
249
 73
253
 74
248
 0
VERTEX
 8
NULL-_CUBE_
 10
0
 20
0
 30
0
 70
128
 71
248
 72
243
 73
244
 74
244
 0
VERTEX
 8
NULL-_CUBE_
 10
0
 20
0
 30
0
 70
128
 71
261
 72
260
 73
255
 74
256
 0
VERTEX
 8
NULL-_CUBE_
 10
0
 20
0
 30
0
 70
128
 71
255
 72
254
 73
256
 74
256
 0
VERTEX
 8
NULL-_CUBE_
 10
0
 20
0
 30
0
 70
128
 71
262
 72
261
 73
256
 74
257
 0
VERTEX
 8
NULL-_CUBE_
 10
0
 20
0
 30
0
 70
128
 71
256
 72
254
 73
257
 74
257
 0
VERTEX
 8
NULL-_CUBE_
 10
0
 20
0
 30
0
 70
128
 71
258
 72
263
 73
262
 74
257
 0
VERTEX
 8
NULL-_CUBE_
 10
0
 20
0
 30
0
 70
128
 71
257
 72
254
 73
258
 74
258
 0
VERTEX
 8
NULL-_CUBE_
 10
0
 20
0
 30
0
 70
128
 71
259
 72
264
 73
263
 74
258
 0
VERTEX
 8
NULL-_CUBE_
 10
0
 20
0
 30
0
 70
128
 71
258
 72
254
 73
259
 74
259
 0
VERTEX
 8
NULL-_CUBE_
 10
0
 20
0
 30
0
 70
128
 71
255
 72
260
 73
264
 74
259
 0
VERTEX
 8
NULL-_CUBE_
 10
0
 20
0
 30
0
 70
128
 71
259
 72
254
 73
255
 74
255
 0
VERTEX
 8
NULL-_CUBE_
 10
0
 20
0
 30
0
 70
128
 71
272
 72
271
 73
266
 74
267
 0
VERTEX
 8
NULL-_CUBE_
 10
0
 20
0
 30
0
 70
128
 71
266
 72
265
 73
267
 74
267
 0
VERTEX
 8
NULL-_CUBE_
 10
0
 20
0
 30
0
 70
128
 71
273
 72
272
 73
267
 74
268
 0
VERTEX
 8
NULL-_CUBE_
 10
0
 20
0
 30
0
 70
128
 71
267
 72
265
 73
268
 74
268
 0
VERTEX
 8
NULL-_CUBE_
 10
0
 20
0
 30
0
 70
128
 71
274
 72
273
 73
268
 74
269
 0
VERTEX
 8
NULL-_CUBE_
 10
0
 20
0
 30
0
 70
128
 71
268
 72
265
 73
269
 74
269
 0
VERTEX
 8
NULL-_CUBE_
 10
0
 20
0
 30
0
 70
128
 71
270
 72
275
 73
274
 74
269
 0
VERTEX
 8
NULL-_CUBE_
 10
0
 20
0
 30
0
 70
128
 71
269
 72
265
 73
270
 74
270
 0
VERTEX
 8
NULL-_CUBE_
 10
0
 20
0
 30
0
 70
128
 71
266
 72
271
 73
275
 74
270
 0
VERTEX
 8
NULL-_CUBE_
 10
0
 20
0
 30
0
 70
128
 71
270
 72
265
 73
266
 74
266
 0
VERTEX
 8
NULL-_CUBE_
 10
0
 20
0
 30
0
 70
128
 71
283
 72
282
 73
277
 74
278
 0
VERTEX
 8
NULL-_CUBE_
 10
0
 20
0
 30
0
 70
128
 71
277
 72
276
 73
278
 74
278
 0
VERTEX
 8
NULL-_CUBE_
 10
0
 20
0
 30
0
 70
128
 71
284
 72
283
 73
278
 74
279
 0
VERTEX
 8
NULL-_CUBE_
 10
0
 20
0
 30
0
 70
128
 71
278
 72
276
 73
279
 74
279
 0
VERTEX
 8
NULL-_CUBE_
 10
0
 20
0
 30
0
 70
128
 71
285
 72
284
 73
279
 74
280
 0
VERTEX
 8
NULL-_CUBE_
 10
0
 20
0
 30
0
 70
128
 71
279
 72
276
 73
280
 74
280
 0
VERTEX
 8
NULL-_CUBE_
 10
0
 20
0
 30
0
 70
128
 71
281
 72
286
 73
285
 74
280
 0
VERTEX
 8
NULL-_CUBE_
 10
0
 20
0
 30
0
 70
128
 71
280
 72
276
 73
281
 74
281
 0
VERTEX
 8
NULL-_CUBE_
 10
0
 20
0
 30
0
 70
128
 71
277
 72
282
 73
286
 74
281
 0
VERTEX
 8
NULL-_CUBE_
 10
0
 20
0
 30
0
 70
128
 71
281
 72
276
 73
277
 74
277
 0
VERTEX
 8
NULL-_CUBE_
 10
0
 20
0
 30
0
 70
128
 71
289
 72
294
 73
293
 74
288
 0
VERTEX
 8
NULL-_CUBE_
 10
0
 20
0
 30
0
 70
128
 71
288
 72
287
 73
289
 74
289
 0
VERTEX
 8
NULL-_CUBE_
 10
0
 20
0
 30
0
 70
128
 71
295
 72
294
 73
289
 74
290
 0
VERTEX
 8
NULL-_CUBE_
 10
0
 20
0
 30
0
 70
128
 71
289
 72
287
 73
290
 74
290
 0
VERTEX
 8
NULL-_CUBE_
 10
0
 20
0
 30
0
 70
128
 71
296
 72
295
 73
290
 74
291
 0
VERTEX
 8
NULL-_CUBE_
 10
0
 20
0
 30
0
 70
128
 71
290
 72
287
 73
291
 74
291
 0
VERTEX
 8
NULL-_CUBE_
 10
0
 20
0
 30
0
 70
128
 71
292
 72
297
 73
296
 74
291
 0
VERTEX
 8
NULL-_CUBE_
 10
0
 20
0
 30
0
 70
128
 71
291
 72
287
 73
292
 74
292
 0
VERTEX
 8
NULL-_CUBE_
 10
0
 20
0
 30
0
 70
128
 71
288
 72
293
 73
297
 74
292
 0
VERTEX
 8
NULL-_CUBE_
 10
0
 20
0
 30
0
 70
128
 71
292
 72
287
 73
288
 74
288
 0
VERTEX
 8
NULL-_CUBE_
 10
0
 20
0
 30
0
 70
128
 71
300
 72
305
 73
304
 74
299
 0
VERTEX
 8
NULL-_CUBE_
 10
0
 20
0
 30
0
 70
128
 71
299
 72
298
 73
300
 74
300
 0
VERTEX
 8
NULL-_CUBE_
 10
0
 20
0
 30
0
 70
128
 71
306
 72
305
 73
300
 74
301
 0
VERTEX
 8
NULL-_CUBE_
 10
0
 20
0
 30
0
 70
128
 71
300
 72
298
 73
301
 74
301
 0
VERTEX
 8
NULL-_CUBE_
 10
0
 20
0
 30
0
 70
128
 71
307
 72
306
 73
301
 74
302
 0
VERTEX
 8
NULL-_CUBE_
 10
0
 20
0
 30
0
 70
128
 71
301
 72
298
 73
302
 74
302
 0
VERTEX
 8
NULL-_CUBE_
 10
0
 20
0
 30
0
 70
128
 71
303
 72
308
 73
307
 74
302
 0
VERTEX
 8
NULL-_CUBE_
 10
0
 20
0
 30
0
 70
128
 71
302
 72
298
 73
303
 74
303
 0
VERTEX
 8
NULL-_CUBE_
 10
0
 20
0
 30
0
 70
128
 71
299
 72
304
 73
308
 74
303
 0
VERTEX
 8
NULL-_CUBE_
 10
0
 20
0
 30
0
 70
128
 71
303
 72
298
 73
299
 74
299
 0
VERTEX
 8
NULL-_CUBE_
 10
0
 20
0
 30
0
 70
128
 71
311
 72
316
 73
315
 74
310
 0
VERTEX
 8
NULL-_CUBE_
 10
0
 20
0
 30
0
 70
128
 71
310
 72
309
 73
311
 74
311
 0
VERTEX
 8
NULL-_CUBE_
 10
0
 20
0
 30
0
 70
128
 71
317
 72
316
 73
311
 74
312
 0
VERTEX
 8
NULL-_CUBE_
 10
0
 20
0
 30
0
 70
128
 71
311
 72
309
 73
312
 74
312
 0
VERTEX
 8
NULL-_CUBE_
 10
0
 20
0
 30
0
 70
128
 71
318
 72
317
 73
312
 74
313
 0
VERTEX
 8
NULL-_CUBE_
 10
0
 20
0
 30
0
 70
128
 71
312
 72
309
 73
313
 74
313
 0
VERTEX
 8
NULL-_CUBE_
 10
0
 20
0
 30
0
 70
128
 71
319
 72
318
 73
313
 74
314
 0
VERTEX
 8
NULL-_CUBE_
 10
0
 20
0
 30
0
 70
128
 71
313
 72
309
 73
314
 74
314
 0
VERTEX
 8
NULL-_CUBE_
 10
0
 20
0
 30
0
 70
128
 71
310
 72
315
 73
319
 74
314
 0
VERTEX
 8
NULL-_CUBE_
 10
0
 20
0
 30
0
 70
128
 71
314
 72
309
 73
310
 74
310
 0
VERTEX
 8
NULL-_CUBE_
 10
0
 20
0
 30
0
 70
128
 71
322
 72
327
 73
326
 74
321
 0
VERTEX
 8
NULL-_CUBE_
 10
0
 20
0
 30
0
 70
128
 71
321
 72
320
 73
322
 74
322
 0
VERTEX
 8
NULL-_CUBE_
 10
0
 20
0
 30
0
 70
128
 71
328
 72
327
 73
322
 74
323
 0
VERTEX
 8
NULL-_CUBE_
 10
0
 20
0
 30
0
 70
128
 71
322
 72
320
 73
323
 74
323
 0
VERTEX
 8
NULL-_CUBE_
 10
0
 20
0
 30
0
 70
128
 71
329
 72
328
 73
323
 74
324
 0
VERTEX
 8
NULL-_CUBE_
 10
0
 20
0
 30
0
 70
128
 71
323
 72
320
 73
324
 74
324
 0
VERTEX
 8
NULL-_CUBE_
 10
0
 20
0
 30
0
 70
128
 71
330
 72
329
 73
324
 74
325
 0
VERTEX
 8
NULL-_CUBE_
 10
0
 20
0
 30
0
 70
128
 71
324
 72
320
 73
325
 74
325
 0
VERTEX
 8
NULL-_CUBE_
 10
0
 20
0
 30
0
 70
128
 71
321
 72
326
 73
330
 74
325
 0
VERTEX
 8
NULL-_CUBE_
 10
0
 20
0
 30
0
 70
128
 71
325
 72
320
 73
321
 74
321
 0
VERTEX
 8
NULL-_CUBE_
 10
0
 20
0
 30
0
 70
128
 71
333
 72
338
 73
337
 74
332
 0
VERTEX
 8
NULL-_CUBE_
 10
0
 20
0
 30
0
 70
128
 71
332
 72
331
 73
333
 74
333
 0
VERTEX
 8
NULL-_CUBE_
 10
0
 20
0
 30
0
 70
128
 71
334
 72
339
 73
338
 74
333
 0
VERTEX
 8
NULL-_CUBE_
 10
0
 20
0
 30
0
 70
128
 71
333
 72
331
 73
334
 74
334
 0
VERTEX
 8
NULL-_CUBE_
 10
0
 20
0
 30
0
 70
128
 71
340
 72
339
 73
334
 74
335
 0
VERTEX
 8
NULL-_CUBE_
 10
0
 20
0
 30
0
 70
128
 71
334
 72
331
 73
335
 74
335
 0
VERTEX
 8
NULL-_CUBE_
 10
0
 20
0
 30
0
 70
128
 71
341
 72
340
 73
335
 74
336
 0
VERTEX
 8
NULL-_CUBE_
 10
0
 20
0
 30
0
 70
128
 71
335
 72
331
 73
336
 74
336
 0
VERTEX
 8
NULL-_CUBE_
 10
0
 20
0
 30
0
 70
128
 71
337
 72
341
 73
336
 74
332
 0
VERTEX
 8
NULL-_CUBE_
 10
0
 20
0
 30
0
 70
128
 71
336
 72
331
 73
332
 74
332
 0
VERTEX
 8
NULL-_CUBE_
 10
0
 20
0
 30
0
 70
128
 71
344
 72
349
 73
348
 74
343
 0
VERTEX
 8
NULL-_CUBE_
 10
0
 20
0
 30
0
 70
128
 71
343
 72
342
 73
344
 74
344
 0
VERTEX
 8
NULL-_CUBE_
 10
0
 20
0
 30
0
 70
128
 71
345
 72
350
 73
349
 74
344
 0
VERTEX
 8
NULL-_CUBE_
 10
0
 20
0
 30
0
 70
128
 71
344
 72
342
 73
345
 74
345
 0
VERTEX
 8
NULL-_CUBE_
 10
0
 20
0
 30
0
 70
128
 71
351
 72
350
 73
345
 74
346
 0
VERTEX
 8
NULL-_CUBE_
 10
0
 20
0
 30
0
 70
128
 71
345
 72
342
 73
346
 74
346
 0
VERTEX
 8
NULL-_CUBE_
 10
0
 20
0
 30
0
 70
128
 71
352
 72
351
 73
346
 74
347
 0
VERTEX
 8
NULL-_CUBE_
 10
0
 20
0
 30
0
 70
128
 71
346
 72
342
 73
347
 74
347
 0
VERTEX
 8
NULL-_CUBE_
 10
0
 20
0
 30
0
 70
128
 71
348
 72
352
 73
347
 74
343
 0
VERTEX
 8
NULL-_CUBE_
 10
0
 20
0
 30
0
 70
128
 71
347
 72
342
 73
343
 74
343
 0
VERTEX
 8
NULL-_CUBE_
 10
0
 20
0
 30
0
 70
128
 71
360
 72
359
 73
354
 74
355
 0
VERTEX
 8
NULL-_CUBE_
 10
0
 20
0
 30
0
 70
128
 71
354
 72
353
 73
355
 74
355
 0
VERTEX
 8
NULL-_CUBE_
 10
0
 20
0
 30
0
 70
128
 71
356
 72
361
 73
360
 74
355
 0
VERTEX
 8
NULL-_CUBE_
 10
0
 20
0
 30
0
 70
128
 71
355
 72
353
 73
356
 74
356
 0
VERTEX
 8
NULL-_CUBE_
 10
0
 20
0
 30
0
 70
128
 71
357
 72
362
 73
361
 74
356
 0
VERTEX
 8
NULL-_CUBE_
 10
0
 20
0
 30
0
 70
128
 71
356
 72
353
 73
357
 74
357
 0
VERTEX
 8
NULL-_CUBE_
 10
0
 20
0
 30
0
 70
128
 71
363
 72
362
 73
357
 74
358
 0
VERTEX
 8
NULL-_CUBE_
 10
0
 20
0
 30
0
 70
128
 71
357
 72
353
 73
358
 74
358
 0
VERTEX
 8
NULL-_CUBE_
 10
0
 20
0
 30
0
 70
128
 71
359
 72
363
 73
358
 74
354
 0
VERTEX
 8
NULL-_CUBE_
 10
0
 20
0
 30
0
 70
128
 71
358
 72
353
 73
354
 74
354
 0
VERTEX
 8
NULL-_CUBE_
 10
0
 20
0
 30
0
 70
128
 71
371
 72
370
 73
365
 74
366
 0
VERTEX
 8
NULL-_CUBE_
 10
0
 20
0
 30
0
 70
128
 71
365
 72
364
 73
366
 74
366
 0
VERTEX
 8
NULL-_CUBE_
 10
0
 20
0
 30
0
 70
128
 71
367
 72
372
 73
371
 74
366
 0
VERTEX
 8
NULL-_CUBE_
 10
0
 20
0
 30
0
 70
128
 71
366
 72
364
 73
367
 74
367
 0
VERTEX
 8
NULL-_CUBE_
 10
0
 20
0
 30
0
 70
128
 71
368
 72
373
 73
372
 74
367
 0
VERTEX
 8
NULL-_CUBE_
 10
0
 20
0
 30
0
 70
128
 71
367
 72
364
 73
368
 74
368
 0
VERTEX
 8
NULL-_CUBE_
 10
0
 20
0
 30
0
 70
128
 71
374
 72
373
 73
368
 74
369
 0
VERTEX
 8
NULL-_CUBE_
 10
0
 20
0
 30
0
 70
128
 71
368
 72
364
 73
369
 74
369
 0
VERTEX
 8
NULL-_CUBE_
 10
0
 20
0
 30
0
 70
128
 71
370
 72
374
 73
369
 74
365
 0
VERTEX
 8
NULL-_CUBE_
 10
0
 20
0
 30
0
 70
128
 71
369
 72
364
 73
365
 74
365
 0
VERTEX
 8
NULL-_CUBE_
 10
0
 20
0
 30
0
 70
128
 71
382
 72
381
 73
376
 74
377
 0
VERTEX
 8
NULL-_CUBE_
 10
0
 20
0
 30
0
 70
128
 71
376
 72
375
 73
377
 74
377
 0
VERTEX
 8
NULL-_CUBE_
 10
0
 20
0
 30
0
 70
128
 71
378
 72
383
 73
382
 74
377
 0
VERTEX
 8
NULL-_CUBE_
 10
0
 20
0
 30
0
 70
128
 71
377
 72
375
 73
378
 74
378
 0
VERTEX
 8
NULL-_CUBE_
 10
0
 20
0
 30
0
 70
128
 71
379
 72
384
 73
383
 74
378
 0
VERTEX
 8
NULL-_CUBE_
 10
0
 20
0
 30
0
 70
128
 71
378
 72
375
 73
379
 74
379
 0
VERTEX
 8
NULL-_CUBE_
 10
0
 20
0
 30
0
 70
128
 71
380
 72
385
 73
384
 74
379
 0
VERTEX
 8
NULL-_CUBE_
 10
0
 20
0
 30
0
 70
128
 71
379
 72
375
 73
380
 74
380
 0
VERTEX
 8
NULL-_CUBE_
 10
0
 20
0
 30
0
 70
128
 71
381
 72
385
 73
380
 74
376
 0
VERTEX
 8
NULL-_CUBE_
 10
0
 20
0
 30
0
 70
128
 71
380
 72
375
 73
376
 74
376
 0
VERTEX
 8
NULL-_CUBE_
 10
0
 20
0
 30
0
 70
128
 71
393
 72
392
 73
387
 74
388
 0
VERTEX
 8
NULL-_CUBE_
 10
0
 20
0
 30
0
 70
128
 71
387
 72
386
 73
388
 74
388
 0
VERTEX
 8
NULL-_CUBE_
 10
0
 20
0
 30
0
 70
128
 71
389
 72
394
 73
393
 74
388
 0
VERTEX
 8
NULL-_CUBE_
 10
0
 20
0
 30
0
 70
128
 71
388
 72
386
 73
389
 74
389
 0
VERTEX
 8
NULL-_CUBE_
 10
0
 20
0
 30
0
 70
128
 71
390
 72
395
 73
394
 74
389
 0
VERTEX
 8
NULL-_CUBE_
 10
0
 20
0
 30
0
 70
128
 71
389
 72
386
 73
390
 74
390
 0
VERTEX
 8
NULL-_CUBE_
 10
0
 20
0
 30
0
 70
128
 71
391
 72
396
 73
395
 74
390
 0
VERTEX
 8
NULL-_CUBE_
 10
0
 20
0
 30
0
 70
128
 71
390
 72
386
 73
391
 74
391
 0
VERTEX
 8
NULL-_CUBE_
 10
0
 20
0
 30
0
 70
128
 71
392
 72
396
 73
391
 74
387
 0
VERTEX
 8
NULL-_CUBE_
 10
0
 20
0
 30
0
 70
128
 71
391
 72
386
 73
387
 74
387
 0
VERTEX
 8
NULL-_CUBE_
 10
0
 20
0
 30
0
 70
128
 71
404
 72
403
 73
398
 74
399
 0
VERTEX
 8
NULL-_CUBE_
 10
0
 20
0
 30
0
 70
128
 71
398
 72
397
 73
399
 74
399
 0
VERTEX
 8
NULL-_CUBE_
 10
0
 20
0
 30
0
 70
128
 71
405
 72
404
 73
399
 74
400
 0
VERTEX
 8
NULL-_CUBE_
 10
0
 20
0
 30
0
 70
128
 71
399
 72
397
 73
400
 74
400
 0
VERTEX
 8
NULL-_CUBE_
 10
0
 20
0
 30
0
 70
128
 71
401
 72
406
 73
405
 74
400
 0
VERTEX
 8
NULL-_CUBE_
 10
0
 20
0
 30
0
 70
128
 71
400
 72
397
 73
401
 74
401
 0
VERTEX
 8
NULL-_CUBE_
 10
0
 20
0
 30
0
 70
128
 71
402
 72
407
 73
406
 74
401
 0
VERTEX
 8
NULL-_CUBE_
 10
0
 20
0
 30
0
 70
128
 71
401
 72
397
 73
402
 74
402
 0
VERTEX
 8
NULL-_CUBE_
 10
0
 20
0
 30
0
 70
128
 71
398
 72
403
 73
407
 74
402
 0
VERTEX
 8
NULL-_CUBE_
 10
0
 20
0
 30
0
 70
128
 71
402
 72
397
 73
398
 74
398
 0
VERTEX
 8
NULL-_CUBE_
 10
0
 20
0
 30
0
 70
128
 71
415
 72
414
 73
409
 74
410
 0
VERTEX
 8
NULL-_CUBE_
 10
0
 20
0
 30
0
 70
128
 71
409
 72
408
 73
410
 74
410
 0
VERTEX
 8
NULL-_CUBE_
 10
0
 20
0
 30
0
 70
128
 71
416
 72
415
 73
410
 74
411
 0
VERTEX
 8
NULL-_CUBE_
 10
0
 20
0
 30
0
 70
128
 71
410
 72
408
 73
411
 74
411
 0
VERTEX
 8
NULL-_CUBE_
 10
0
 20
0
 30
0
 70
128
 71
412
 72
417
 73
416
 74
411
 0
VERTEX
 8
NULL-_CUBE_
 10
0
 20
0
 30
0
 70
128
 71
411
 72
408
 73
412
 74
412
 0
VERTEX
 8
NULL-_CUBE_
 10
0
 20
0
 30
0
 70
128
 71
413
 72
418
 73
417
 74
412
 0
VERTEX
 8
NULL-_CUBE_
 10
0
 20
0
 30
0
 70
128
 71
412
 72
408
 73
413
 74
413
 0
VERTEX
 8
NULL-_CUBE_
 10
0
 20
0
 30
0
 70
128
 71
409
 72
414
 73
418
 74
413
 0
VERTEX
 8
NULL-_CUBE_
 10
0
 20
0
 30
0
 70
128
 71
413
 72
408
 73
409
 74
409
 0
VERTEX
 8
NULL-_CUBE_
 10
0
 20
0
 30
0
 70
128
 71
426
 72
425
 73
420
 74
421
 0
VERTEX
 8
NULL-_CUBE_
 10
0
 20
0
 30
0
 70
128
 71
420
 72
419
 73
421
 74
421
 0
VERTEX
 8
NULL-_CUBE_
 10
0
 20
0
 30
0
 70
128
 71
427
 72
426
 73
421
 74
422
 0
VERTEX
 8
NULL-_CUBE_
 10
0
 20
0
 30
0
 70
128
 71
421
 72
419
 73
422
 74
422
 0
VERTEX
 8
NULL-_CUBE_
 10
0
 20
0
 30
0
 70
128
 71
423
 72
428
 73
427
 74
422
 0
VERTEX
 8
NULL-_CUBE_
 10
0
 20
0
 30
0
 70
128
 71
422
 72
419
 73
423
 74
423
 0
VERTEX
 8
NULL-_CUBE_
 10
0
 20
0
 30
0
 70
128
 71
424
 72
429
 73
428
 74
423
 0
VERTEX
 8
NULL-_CUBE_
 10
0
 20
0
 30
0
 70
128
 71
423
 72
419
 73
424
 74
424
 0
VERTEX
 8
NULL-_CUBE_
 10
0
 20
0
 30
0
 70
128
 71
420
 72
425
 73
429
 74
424
 0
VERTEX
 8
NULL-_CUBE_
 10
0
 20
0
 30
0
 70
128
 71
424
 72
419
 73
420
 74
420
 0
VERTEX
 8
NULL-_CUBE_
 10
0
 20
0
 30
0
 70
128
 71
437
 72
436
 73
431
 74
432
 0
VERTEX
 8
NULL-_CUBE_
 10
0
 20
0
 30
0
 70
128
 71
431
 72
430
 73
432
 74
432
 0
VERTEX
 8
NULL-_CUBE_
 10
0
 20
0
 30
0
 70
128
 71
438
 72
437
 73
432
 74
433
 0
VERTEX
 8
NULL-_CUBE_
 10
0
 20
0
 30
0
 70
128
 71
432
 72
430
 73
433
 74
433
 0
VERTEX
 8
NULL-_CUBE_
 10
0
 20
0
 30
0
 70
128
 71
434
 72
439
 73
438
 74
433
 0
VERTEX
 8
NULL-_CUBE_
 10
0
 20
0
 30
0
 70
128
 71
433
 72
430
 73
434
 74
434
 0
VERTEX
 8
NULL-_CUBE_
 10
0
 20
0
 30
0
 70
128
 71
435
 72
440
 73
439
 74
434
 0
VERTEX
 8
NULL-_CUBE_
 10
0
 20
0
 30
0
 70
128
 71
434
 72
430
 73
435
 74
435
 0
VERTEX
 8
NULL-_CUBE_
 10
0
 20
0
 30
0
 70
128
 71
431
 72
436
 73
440
 74
435
 0
VERTEX
 8
NULL-_CUBE_
 10
0
 20
0
 30
0
 70
128
 71
435
 72
430
 73
431
 74
431
 0
VERTEX
 8
NULL-_CUBE_
 10
0
 20
0
 30
0
 70
128
 71
448
 72
447
 73
442
 74
443
 0
VERTEX
 8
NULL-_CUBE_
 10
0
 20
0
 30
0
 70
128
 71
442
 72
441
 73
443
 74
443
 0
VERTEX
 8
NULL-_CUBE_
 10
0
 20
0
 30
0
 70
128
 71
449
 72
448
 73
443
 74
444
 0
VERTEX
 8
NULL-_CUBE_
 10
0
 20
0
 30
0
 70
128
 71
443
 72
441
 73
444
 74
444
 0
VERTEX
 8
NULL-_CUBE_
 10
0
 20
0
 30
0
 70
128
 71
450
 72
449
 73
444
 74
445
 0
VERTEX
 8
NULL-_CUBE_
 10
0
 20
0
 30
0
 70
128
 71
444
 72
441
 73
445
 74
445
 0
VERTEX
 8
NULL-_CUBE_
 10
0
 20
0
 30
0
 70
128
 71
446
 72
451
 73
450
 74
445
 0
VERTEX
 8
NULL-_CUBE_
 10
0
 20
0
 30
0
 70
128
 71
445
 72
441
 73
446
 74
446
 0
VERTEX
 8
NULL-_CUBE_
 10
0
 20
0
 30
0
 70
128
 71
442
 72
447
 73
451
 74
446
 0
VERTEX
 8
NULL-_CUBE_
 10
0
 20
0
 30
0
 70
128
 71
446
 72
441
 73
442
 74
442
 0
VERTEX
 8
NULL-_CUBE_
 10
0
 20
0
 30
0
 70
128
 71
459
 72
458
 73
453
 74
454
 0
VERTEX
 8
NULL-_CUBE_
 10
0
 20
0
 30
0
 70
128
 71
453
 72
452
 73
454
 74
454
 0
VERTEX
 8
NULL-_CUBE_
 10
0
 20
0
 30
0
 70
128
 71
460
 72
459
 73
454
 74
455
 0
VERTEX
 8
NULL-_CUBE_
 10
0
 20
0
 30
0
 70
128
 71
454
 72
452
 73
455
 74
455
 0
VERTEX
 8
NULL-_CUBE_
 10
0
 20
0
 30
0
 70
128
 71
461
 72
460
 73
455
 74
456
 0
VERTEX
 8
NULL-_CUBE_
 10
0
 20
0
 30
0
 70
128
 71
455
 72
452
 73
456
 74
456
 0
VERTEX
 8
NULL-_CUBE_
 10
0
 20
0
 30
0
 70
128
 71
457
 72
462
 73
461
 74
456
 0
VERTEX
 8
NULL-_CUBE_
 10
0
 20
0
 30
0
 70
128
 71
456
 72
452
 73
457
 74
457
 0
VERTEX
 8
NULL-_CUBE_
 10
0
 20
0
 30
0
 70
128
 71
453
 72
458
 73
462
 74
457
 0
VERTEX
 8
NULL-_CUBE_
 10
0
 20
0
 30
0
 70
128
 71
457
 72
452
 73
453
 74
453
 0
VERTEX
 8
NULL-_CUBE_
 10
0
 20
0
 30
0
 70
128
 71
465
 72
470
 73
469
 74
464
 0
VERTEX
 8
NULL-_CUBE_
 10
0
 20
0
 30
0
 70
128
 71
464
 72
463
 73
465
 74
465
 0
VERTEX
 8
NULL-_CUBE_
 10
0
 20
0
 30
0
 70
128
 71
471
 72
470
 73
465
 74
466
 0
VERTEX
 8
NULL-_CUBE_
 10
0
 20
0
 30
0
 70
128
 71
465
 72
463
 73
466
 74
466
 0
VERTEX
 8
NULL-_CUBE_
 10
0
 20
0
 30
0
 70
128
 71
472
 72
471
 73
466
 74
467
 0
VERTEX
 8
NULL-_CUBE_
 10
0
 20
0
 30
0
 70
128
 71
466
 72
463
 73
467
 74
467
 0
VERTEX
 8
NULL-_CUBE_
 10
0
 20
0
 30
0
 70
128
 71
473
 72
472
 73
467
 74
468
 0
VERTEX
 8
NULL-_CUBE_
 10
0
 20
0
 30
0
 70
128
 71
467
 72
463
 73
468
 74
468
 0
VERTEX
 8
NULL-_CUBE_
 10
0
 20
0
 30
0
 70
128
 71
464
 72
469
 73
473
 74
468
 0
VERTEX
 8
NULL-_CUBE_
 10
0
 20
0
 30
0
 70
128
 71
468
 72
463
 73
464
 74
464
 0
VERTEX
 8
NULL-_CUBE_
 10
0
 20
0
 30
0
 70
128
 71
476
 72
481
 73
480
 74
475
 0
VERTEX
 8
NULL-_CUBE_
 10
0
 20
0
 30
0
 70
128
 71
475
 72
474
 73
476
 74
476
 0
VERTEX
 8
NULL-_CUBE_
 10
0
 20
0
 30
0
 70
128
 71
482
 72
481
 73
476
 74
477
 0
VERTEX
 8
NULL-_CUBE_
 10
0
 20
0
 30
0
 70
128
 71
476
 72
474
 73
477
 74
477
 0
VERTEX
 8
NULL-_CUBE_
 10
0
 20
0
 30
0
 70
128
 71
483
 72
482
 73
477
 74
478
 0
VERTEX
 8
NULL-_CUBE_
 10
0
 20
0
 30
0
 70
128
 71
477
 72
474
 73
478
 74
478
 0
VERTEX
 8
NULL-_CUBE_
 10
0
 20
0
 30
0
 70
128
 71
484
 72
483
 73
478
 74
479
 0
VERTEX
 8
NULL-_CUBE_
 10
0
 20
0
 30
0
 70
128
 71
478
 72
474
 73
479
 74
479
 0
VERTEX
 8
NULL-_CUBE_
 10
0
 20
0
 30
0
 70
128
 71
475
 72
480
 73
484
 74
479
 0
VERTEX
 8
NULL-_CUBE_
 10
0
 20
0
 30
0
 70
128
 71
479
 72
474
 73
475
 74
475
 0
VERTEX
 8
NULL-_CUBE_
 10
0
 20
0
 30
0
 70
128
 71
487
 72
492
 73
491
 74
486
 0
VERTEX
 8
NULL-_CUBE_
 10
0
 20
0
 30
0
 70
128
 71
486
 72
485
 73
487
 74
487
 0
VERTEX
 8
NULL-_CUBE_
 10
0
 20
0
 30
0
 70
128
 71
488
 72
493
 73
492
 74
487
 0
VERTEX
 8
NULL-_CUBE_
 10
0
 20
0
 30
0
 70
128
 71
487
 72
485
 73
488
 74
488
 0
VERTEX
 8
NULL-_CUBE_
 10
0
 20
0
 30
0
 70
128
 71
494
 72
493
 73
488
 74
489
 0
VERTEX
 8
NULL-_CUBE_
 10
0
 20
0
 30
0
 70
128
 71
488
 72
485
 73
489
 74
489
 0
VERTEX
 8
NULL-_CUBE_
 10
0
 20
0
 30
0
 70
128
 71
495
 72
494
 73
489
 74
490
 0
VERTEX
 8
NULL-_CUBE_
 10
0
 20
0
 30
0
 70
128
 71
489
 72
485
 73
490
 74
490
 0
VERTEX
 8
NULL-_CUBE_
 10
0
 20
0
 30
0
 70
128
 71
486
 72
491
 73
495
 74
490
 0
VERTEX
 8
NULL-_CUBE_
 10
0
 20
0
 30
0
 70
128
 71
490
 72
485
 73
486
 74
486
 0
VERTEX
 8
NULL-_CUBE_
 10
0
 20
0
 30
0
 70
128
 71
498
 72
503
 73
502
 74
497
 0
VERTEX
 8
NULL-_CUBE_
 10
0
 20
0
 30
0
 70
128
 71
497
 72
496
 73
498
 74
498
 0
VERTEX
 8
NULL-_CUBE_
 10
0
 20
0
 30
0
 70
128
 71
499
 72
504
 73
503
 74
498
 0
VERTEX
 8
NULL-_CUBE_
 10
0
 20
0
 30
0
 70
128
 71
498
 72
496
 73
499
 74
499
 0
VERTEX
 8
NULL-_CUBE_
 10
0
 20
0
 30
0
 70
128
 71
505
 72
504
 73
499
 74
500
 0
VERTEX
 8
NULL-_CUBE_
 10
0
 20
0
 30
0
 70
128
 71
499
 72
496
 73
500
 74
500
 0
VERTEX
 8
NULL-_CUBE_
 10
0
 20
0
 30
0
 70
128
 71
506
 72
505
 73
500
 74
501
 0
VERTEX
 8
NULL-_CUBE_
 10
0
 20
0
 30
0
 70
128
 71
500
 72
496
 73
501
 74
501
 0
VERTEX
 8
NULL-_CUBE_
 10
0
 20
0
 30
0
 70
128
 71
497
 72
502
 73
506
 74
501
 0
VERTEX
 8
NULL-_CUBE_
 10
0
 20
0
 30
0
 70
128
 71
501
 72
496
 73
497
 74
497
 0
VERTEX
 8
NULL-_CUBE_
 10
0
 20
0
 30
0
 70
128
 71
509
 72
514
 73
513
 74
508
 0
VERTEX
 8
NULL-_CUBE_
 10
0
 20
0
 30
0
 70
128
 71
508
 72
507
 73
509
 74
509
 0
VERTEX
 8
NULL-_CUBE_
 10
0
 20
0
 30
0
 70
128
 71
510
 72
515
 73
514
 74
509
 0
VERTEX
 8
NULL-_CUBE_
 10
0
 20
0
 30
0
 70
128
 71
509
 72
507
 73
510
 74
510
 0
VERTEX
 8
NULL-_CUBE_
 10
0
 20
0
 30
0
 70
128
 71
516
 72
515
 73
510
 74
511
 0
VERTEX
 8
NULL-_CUBE_
 10
0
 20
0
 30
0
 70
128
 71
510
 72
507
 73
511
 74
511
 0
VERTEX
 8
NULL-_CUBE_
 10
0
 20
0
 30
0
 70
128
 71
517
 72
516
 73
511
 74
512
 0
VERTEX
 8
NULL-_CUBE_
 10
0
 20
0
 30
0
 70
128
 71
511
 72
507
 73
512
 74
512
 0
VERTEX
 8
NULL-_CUBE_
 10
0
 20
0
 30
0
 70
128
 71
513
 72
517
 73
512
 74
508
 0
VERTEX
 8
NULL-_CUBE_
 10
0
 20
0
 30
0
 70
128
 71
512
 72
507
 73
508
 74
508
 0
VERTEX
 8
NULL-_CUBE_
 10
0
 20
0
 30
0
 70
128
 71
520
 72
525
 73
524
 74
519
 0
VERTEX
 8
NULL-_CUBE_
 10
0
 20
0
 30
0
 70
128
 71
519
 72
518
 73
520
 74
520
 0
VERTEX
 8
NULL-_CUBE_
 10
0
 20
0
 30
0
 70
128
 71
521
 72
526
 73
525
 74
520
 0
VERTEX
 8
NULL-_CUBE_
 10
0
 20
0
 30
0
 70
128
 71
520
 72
518
 73
521
 74
521
 0
VERTEX
 8
NULL-_CUBE_
 10
0
 20
0
 30
0
 70
128
 71
527
 72
526
 73
521
 74
522
 0
VERTEX
 8
NULL-_CUBE_
 10
0
 20
0
 30
0
 70
128
 71
521
 72
518
 73
522
 74
522
 0
VERTEX
 8
NULL-_CUBE_
 10
0
 20
0
 30
0
 70
128
 71
528
 72
527
 73
522
 74
523
 0
VERTEX
 8
NULL-_CUBE_
 10
0
 20
0
 30
0
 70
128
 71
522
 72
518
 73
523
 74
523
 0
VERTEX
 8
NULL-_CUBE_
 10
0
 20
0
 30
0
 70
128
 71
524
 72
528
 73
523
 74
519
 0
VERTEX
 8
NULL-_CUBE_
 10
0
 20
0
 30
0
 70
128
 71
523
 72
518
 73
519
 74
519
 0
SEQEND
 0
POLYLINE
 8
CUBE
 66
1
 10
0.0
 20
0.0
 30
0.0
 70
64
 71
8
 72
6
 0
VERTEX
 8
CUBE
 10
0.2744
 20
-4.3777
 30
23.9785
 70
192
 0
VERTEX
 8
CUBE
 10
0.2744
 20
-4.9256
 30
24.0265
 70
192
 0
VERTEX
 8
CUBE
 10
0.5744
 20
-4.3777
 30
23.9785
 70
192
 0
VERTEX
 8
CUBE
 10
0.5744
 20
-4.9256
 30
24.0265
 70
192
 0
VERTEX
 8
CUBE
 10
0.5744
 20
-4.2469
 30
25.4728
 70
192
 0
VERTEX
 8
CUBE
 10
0.5744
 20
-4.7948
 30
25.5208
 70
192
 0
VERTEX
 8
CUBE
 10
0.2744
 20
-4.2469
 30
25.4728
 70
192
 0
VERTEX
 8
CUBE
 10
0.2744
 20
-4.7948
 30
25.5208
 70
192
 0
VERTEX
 8
CUBE
 10
0
 20
0
 30
0
 70
128
 71
1
 72
2
 73
4
 74
3
 0
VERTEX
 8
CUBE
 10
0
 20
0
 30
0
 70
128
 71
3
 72
4
 73
6
 74
5
 0
VERTEX
 8
CUBE
 10
0
 20
0
 30
0
 70
128
 71
5
 72
6
 73
8
 74
7
 0
VERTEX
 8
CUBE
 10
0
 20
0
 30
0
 70
128
 71
7
 72
8
 73
2
 74
1
 0
VERTEX
 8
CUBE
 10
0
 20
0
 30
0
 70
128
 71
2
 72
8
 73
6
 74
4
 0
VERTEX
 8
CUBE
 10
0
 20
0
 30
0
 70
128
 71
7
 72
1
 73
3
 74
5
 0
SEQEND
 0
POLYLINE
 8
ROSETTE
 66
1
 10
0.0
 20
0.0
 30
0.0
 70
64
 71
8
 72
6
 0
VERTEX
 8
ROSETTE
 10
-2.8349
 20
5.2735
 30
4.9984
 70
192
 0
VERTEX
 8
ROSETTE
 10
-2.8349
 20
6.0735
 30
4.9984
 70
192
 0
VERTEX
 8
ROSETTE
 10
-2.8349
 20
5.2735
 30
10.9984
 70
192
 0
VERTEX
 8
ROSETTE
 10
-2.8349
 20
6.0735
 30
10.9984
 70
192
 0
VERTEX
 8
ROSETTE
 10
3.1651
 20
5.2735
 30
10.9984
 70
192
 0
VERTEX
 8
ROSETTE
 10
3.1651
 20
6.0735
 30
10.9984
 70
192
 0
VERTEX
 8
ROSETTE
 10
3.1651
 20
5.2735
 30
4.9984
 70
192
 0
VERTEX
 8
ROSETTE
 10
3.1651
 20
6.0735
 30
4.9984
 70
192
 0
VERTEX
 8
ROSETTE
 10
0
 20
0
 30
0
 70
128
 71
1
 72
2
 73
4
 74
3
 0
VERTEX
 8
ROSETTE
 10
0
 20
0
 30
0
 70
128
 71
3
 72
4
 73
6
 74
5
 0
VERTEX
 8
ROSETTE
 10
0
 20
0
 30
0
 70
128
 71
5
 72
6
 73
8
 74
7
 0
VERTEX
 8
ROSETTE
 10
0
 20
0
 30
0
 70
128
 71
7
 72
8
 73
2
 74
1
 0
VERTEX
 8
ROSETTE
 10
0
 20
0
 30
0
 70
128
 71
2
 72
8
 73
6
 74
4
 0
VERTEX
 8
ROSETTE
 10
0
 20
0
 30
0
 70
128
 71
7
 72
1
 73
3
 74
5
 0
SEQEND
 0
POLYLINE
 8
K_RPER
 66
1
 10
0.0
 20
0.0
 30
0.0
 70
64
 71
8
 72
6
 0
VERTEX
 8
K_RPER
 10
-1.3349
 20
0.3309
 30
6.4984
 70
192
 0
VERTEX
 8
K_RPER
 10
-1.3349
 20
5.3309
 30
6.4984
 70
192
 0
VERTEX
 8
K_RPER
 10
-1.3349
 20
0.3309
 30
9.4984
 70
192
 0
VERTEX
 8
K_RPER
 10
-1.3349
 20
5.3309
 30
9.4984
 70
192
 0
VERTEX
 8
K_RPER
 10
1.6651
 20
0.3309
 30
9.4984
 70
192
 0
VERTEX
 8
K_RPER
 10
1.6651
 20
5.3309
 30
9.4984
 70
192
 0
VERTEX
 8
K_RPER
 10
1.6651
 20
0.3309
 30
6.4984
 70
192
 0
VERTEX
 8
K_RPER
 10
1.6651
 20
5.3309
 30
6.4984
 70
192
 0
VERTEX
 8
K_RPER
 10
0
 20
0
 30
0
 70
128
 71
1
 72
2
 73
4
 74
3
 0
VERTEX
 8
K_RPER
 10
0
 20
0
 30
0
 70
128
 71
3
 72
4
 73
6
 74
5
 0
VERTEX
 8
K_RPER
 10
0
 20
0
 30
0
 70
128
 71
5
 72
6
 73
8
 74
7
 0
VERTEX
 8
K_RPER
 10
0
 20
0
 30
0
 70
128
 71
7
 72
8
 73
2
 74
1
 0
VERTEX
 8
K_RPER
 10
0
 20
0
 30
0
 70
128
 71
2
 72
8
 73
6
 74
4
 0
VERTEX
 8
K_RPER
 10
0
 20
0
 30
0
 70
128
 71
7
 72
1
 73
3
 74
5
 0
SEQEND
 0
POLYLINE
 8
SPHERE
 66
1
 10
0.0
 20
0.0
 30
0.0
 70
64
 71
37
 72
36
 0
VERTEX
 8
SPHERE
 10
0.1668
 20
-0.6753
 30
7.9952
 70
192
 0
VERTEX
 8
SPHERE
 10
0.1668
 20
0.3747
 30
6.9452
 70
192
 0
VERTEX
 8
SPHERE
 10
0.6918
 20
0.3747
 30
7.0858
 70
192
 0
VERTEX
 8
SPHERE
 10
1.0761
 20
0.3747
 30
7.4702
 70
192
 0
VERTEX
 8
SPHERE
 10
1.2168
 20
0.3747
 30
7.9952
 70
192
 0
VERTEX
 8
SPHERE
 10
1.0761
 20
0.3747
 30
8.5202
 70
192
 0
VERTEX
 8
SPHERE
 10
0.6918
 20
0.3747
 30
8.9045
 70
192
 0
VERTEX
 8
SPHERE
 10
0.1668
 20
0.3747
 30
9.0452
 70
192
 0
VERTEX
 8
SPHERE
 10
-0.3582
 20
0.3747
 30
8.9045
 70
192
 0
VERTEX
 8
SPHERE
 10
-0.7426
 20
0.3747
 30
8.5202
 70
192
 0
VERTEX
 8
SPHERE
 10
-0.8832
 20
0.3747
 30
7.9952
 70
192
 0
VERTEX
 8
SPHERE
 10
-0.7426
 20
0.3747
 30
7.4702
 70
192
 0
VERTEX
 8
SPHERE
 10
-0.3582
 20
0.3747
 30
7.0858
 70
192
 0
VERTEX
 8
SPHERE
 10
0.1668
 20
-0.1503
 30
7.0858
 70
192
 0
VERTEX
 8
SPHERE
 10
0.6214
 20
-0.1503
 30
7.2077
 70
192
 0
VERTEX
 8
SPHERE
 10
0.9543
 20
-0.1503
 30
7.5405
 70
192
 0
VERTEX
 8
SPHERE
 10
1.0761
 20
-0.1503
 30
7.9952
 70
192
 0
VERTEX
 8
SPHERE
 10
0.9543
 20
-0.1503
 30
8.4498
 70
192
 0
VERTEX
 8
SPHERE
 10
0.6214
 20
-0.1503
 30
8.7827
 70
192
 0
VERTEX
 8
SPHERE
 10
0.1668
 20
-0.1503
 30
8.9045
 70
192
 0
VERTEX
 8
SPHERE
 10
-0.2879
 20
-0.1503
 30
8.7827
 70
192
 0
VERTEX
 8
SPHERE
 10
-0.6207
 20
-0.1503
 30
8.4498
 70
192
 0
VERTEX
 8
SPHERE
 10
-0.7426
 20
-0.1503
 30
7.9952
 70
192
 0
VERTEX
 8
SPHERE
 10
-0.6207
 20
-0.1503
 30
7.5405
 70
192
 0
VERTEX
 8
SPHERE
 10
-0.2879
 20
-0.1503
 30
7.2077
 70
192
 0
VERTEX
 8
SPHERE
 10
0.1668
 20
-0.5347
 30
7.4702
 70
192
 0
VERTEX
 8
SPHERE
 10
0.4293
 20
-0.5347
 30
7.5405
 70
192
 0
VERTEX
 8
SPHERE
 10
0.6214
 20
-0.5347
 30
7.7327
 70
192
 0
VERTEX
 8
SPHERE
 10
0.6918
 20
-0.5347
 30
7.9952
 70
192
 0
VERTEX
 8
SPHERE
 10
0.6214
 20
-0.5347
 30
8.2577
 70
192
 0
VERTEX
 8
SPHERE
 10
0.4293
 20
-0.5347
 30
8.4498
 70
192
 0
VERTEX
 8
SPHERE
 10
0.1668
 20
-0.5347
 30
8.5202
 70
192
 0
VERTEX
 8
SPHERE
 10
-0.0957
 20
-0.5347
 30
8.4498
 70
192
 0
VERTEX
 8
SPHERE
 10
-0.2879
 20
-0.5347
 30
8.2577
 70
192
 0
VERTEX
 8
SPHERE
 10
-0.3582
 20
-0.5347
 30
7.9952
 70
192
 0
VERTEX
 8
SPHERE
 10
-0.2879
 20
-0.5347
 30
7.7327
 70
192
 0
VERTEX
 8
SPHERE
 10
-0.0957
 20
-0.5347
 30
7.5405
 70
192
 0
VERTEX
 8
SPHERE
 10
0
 20
0
 30
0
 70
128
 71
2
 72
14
 73
15
 74
3
 0
VERTEX
 8
SPHERE
 10
0
 20
0
 30
0
 70
128
 71
3
 72
15
 73
16
 74
4
 0
VERTEX
 8
SPHERE
 10
0
 20
0
 30
0
 70
128
 71
4
 72
16
 73
17
 74
5
 0
VERTEX
 8
SPHERE
 10
0
 20
0
 30
0
 70
128
 71
5
 72
17
 73
18
 74
6
 0
VERTEX
 8
SPHERE
 10
0
 20
0
 30
0
 70
128
 71
6
 72
18
 73
19
 74
7
 0
VERTEX
 8
SPHERE
 10
0
 20
0
 30
0
 70
128
 71
7
 72
19
 73
20
 74
8
 0
VERTEX
 8
SPHERE
 10
0
 20
0
 30
0
 70
128
 71
8
 72
20
 73
21
 74
9
 0
VERTEX
 8
SPHERE
 10
0
 20
0
 30
0
 70
128
 71
9
 72
21
 73
22
 74
10
 0
VERTEX
 8
SPHERE
 10
0
 20
0
 30
0
 70
128
 71
10
 72
22
 73
23
 74
11
 0
VERTEX
 8
SPHERE
 10
0
 20
0
 30
0
 70
128
 71
11
 72
23
 73
24
 74
12
 0
VERTEX
 8
SPHERE
 10
0
 20
0
 30
0
 70
128
 71
12
 72
24
 73
25
 74
13
 0
VERTEX
 8
SPHERE
 10
0
 20
0
 30
0
 70
128
 71
13
 72
25
 73
14
 74
2
 0
VERTEX
 8
SPHERE
 10
0
 20
0
 30
0
 70
128
 71
14
 72
26
 73
27
 74
15
 0
VERTEX
 8
SPHERE
 10
0
 20
0
 30
0
 70
128
 71
15
 72
27
 73
28
 74
16
 0
VERTEX
 8
SPHERE
 10
0
 20
0
 30
0
 70
128
 71
16
 72
28
 73
29
 74
17
 0
VERTEX
 8
SPHERE
 10
0
 20
0
 30
0
 70
128
 71
17
 72
29
 73
30
 74
18
 0
VERTEX
 8
SPHERE
 10
0
 20
0
 30
0
 70
128
 71
18
 72
30
 73
31
 74
19
 0
VERTEX
 8
SPHERE
 10
0
 20
0
 30
0
 70
128
 71
19
 72
31
 73
32
 74
20
 0
VERTEX
 8
SPHERE
 10
0
 20
0
 30
0
 70
128
 71
20
 72
32
 73
33
 74
21
 0
VERTEX
 8
SPHERE
 10
0
 20
0
 30
0
 70
128
 71
21
 72
33
 73
34
 74
22
 0
VERTEX
 8
SPHERE
 10
0
 20
0
 30
0
 70
128
 71
22
 72
34
 73
35
 74
23
 0
VERTEX
 8
SPHERE
 10
0
 20
0
 30
0
 70
128
 71
23
 72
35
 73
36
 74
24
 0
VERTEX
 8
SPHERE
 10
0
 20
0
 30
0
 70
128
 71
24
 72
36
 73
37
 74
25
 0
VERTEX
 8
SPHERE
 10
0
 20
0
 30
0
 70
128
 71
25
 72
37
 73
26
 74
14
 0
VERTEX
 8
SPHERE
 10
0
 20
0
 30
0
 70
128
 71
27
 72
26
 73
1
 74
1
 0
VERTEX
 8
SPHERE
 10
0
 20
0
 30
0
 70
128
 71
28
 72
27
 73
1
 74
1
 0
VERTEX
 8
SPHERE
 10
0
 20
0
 30
0
 70
128
 71
29
 72
28
 73
1
 74
1
 0
VERTEX
 8
SPHERE
 10
0
 20
0
 30
0
 70
128
 71
30
 72
29
 73
1
 74
1
 0
VERTEX
 8
SPHERE
 10
0
 20
0
 30
0
 70
128
 71
31
 72
30
 73
1
 74
1
 0
VERTEX
 8
SPHERE
 10
0
 20
0
 30
0
 70
128
 71
32
 72
31
 73
1
 74
1
 0
VERTEX
 8
SPHERE
 10
0
 20
0
 30
0
 70
128
 71
33
 72
32
 73
1
 74
1
 0
VERTEX
 8
SPHERE
 10
0
 20
0
 30
0
 70
128
 71
34
 72
33
 73
1
 74
1
 0
VERTEX
 8
SPHERE
 10
0
 20
0
 30
0
 70
128
 71
35
 72
34
 73
1
 74
1
 0
VERTEX
 8
SPHERE
 10
0
 20
0
 30
0
 70
128
 71
36
 72
35
 73
1
 74
1
 0
VERTEX
 8
SPHERE
 10
0
 20
0
 30
0
 70
128
 71
37
 72
36
 73
1
 74
1
 0
VERTEX
 8
SPHERE
 10
0
 20
0
 30
0
 70
128
 71
26
 72
37
 73
1
 74
1
 0
SEQEND
 0
POLYLINE
 8
HALTER_1
 66
1
 10
0.0
 20
0.0
 30
0.0
 70
64
 71
36
 72
34
 0
VERTEX
 8
HALTER_1
 10
1.014
 20
-3.6865
 30
8.216
 70
192
 0
VERTEX
 8
HALTER_1
 10
1.014
 20
-3.6865
 30
10.216
 70
192
 0
VERTEX
 8
HALTER_1
 10
1.4228
 20
-3.0247
 30
8.216
 70
192
 0
VERTEX
 8
HALTER_1
 10
1.4228
 20
-3.0247
 30
10.216
 70
192
 0
VERTEX
 8
HALTER_1
 10
1.378
 20
-2.2481
 30
8.216
 70
192
 0
VERTEX
 8
HALTER_1
 10
1.378
 20
-2.2481
 30
10.216
 70
192
 0
VERTEX
 8
HALTER_1
 10
0.8959
 20
-1.6375
 30
8.216
 70
192
 0
VERTEX
 8
HALTER_1
 10
0.8959
 20
-1.6375
 30
10.216
 70
192
 0
VERTEX
 8
HALTER_1
 10
0.1508
 20
-1.4139
 30
8.216
 70
192
 0
VERTEX
 8
HALTER_1
 10
0.1508
 20
-1.4139
 30
10.216
 70
192
 0
VERTEX
 8
HALTER_1
 10
-0.5878
 20
-1.6581
 30
8.216
 70
192
 0
VERTEX
 8
HALTER_1
 10
-0.5878
 20
-1.6581
 30
10.216
 70
192
 0
VERTEX
 8
HALTER_1
 10
-1.0527
 20
-2.2818
 30
8.216
 70
192
 0
VERTEX
 8
HALTER_1
 10
-1.0527
 20
-2.2818
 30
10.216
 70
192
 0
VERTEX
 8
HALTER_1
 10
-1.0758
 20
-3.0594
 30
8.216
 70
192
 0
VERTEX
 8
HALTER_1
 10
-1.0758
 20
-3.0594
 30
10.216
 70
192
 0
VERTEX
 8
HALTER_1
 10
-0.6488
 20
-3.7097
 30
8.216
 70
192
 0
VERTEX
 8
HALTER_1
 10
-0.6488
 20
-3.7097
 30
10.216
 70
192
 0
VERTEX
 8
HALTER_1
 10
-0.5224
 20
-3.5547
 30
8.216
 70
192
 0
VERTEX
 8
HALTER_1
 10
-0.5224
 20
-3.5547
 30
10.216
 70
192
 0
VERTEX
 8
HALTER_1
 10
-0.8834
 20
-3.005
 30
8.216
 70
192
 0
VERTEX
 8
HALTER_1
 10
-0.8834
 20
-3.005
 30
10.216
 70
192
 0
VERTEX
 8
HALTER_1
 10
-0.8638
 20
-2.3476
 30
8.216
 70
192
 0
VERTEX
 8
HALTER_1
 10
-0.8638
 20
-2.3476
 30
10.216
 70
192
 0
VERTEX
 8
HALTER_1
 10
-0.4708
 20
-1.8204
 30
8.216
 70
192
 0
VERTEX
 8
HALTER_1
 10
-0.4708
 20
-1.8204
 30
10.216
 70
192
 0
VERTEX
 8
HALTER_1
 10
0.1536
 20
-1.6139
 30
8.216
 70
192
 0
VERTEX
 8
HALTER_1
 10
0.1536
 20
-1.6139
 30
10.216
 70
192
 0
VERTEX
 8
HALTER_1
 10
0.7835
 20
-1.8029
 30
8.216
 70
192
 0
VERTEX
 8
HALTER_1
 10
0.7835
 20
-1.8029
 30
10.216
 70
192
 0
VERTEX
 8
HALTER_1
 10
1.1911
 20
-2.3191
 30
8.216
 70
192
 0
VERTEX
 8
HALTER_1
 10
1.1911
 20
-2.3191
 30
10.216
 70
192
 0
VERTEX
 8
HALTER_1
 10
1.2289
 20
-2.9756
 30
8.216
 70
192
 0
VERTEX
 8
HALTER_1
 10
1.2289
 20
-2.9756
 30
10.216
 70
192
 0
VERTEX
 8
HALTER_1
 10
0.8833
 20
-3.5351
 30
8.216
 70
192
 0
VERTEX
 8
HALTER_1
 10
0.8833
 20
-3.5351
 30
10.216
 70
192
 0
VERTEX
 8
HALTER_1
 10
0
 20
0
 30
0
 70
128
 71
1
 72
2
 73
4
 74
3
 0
VERTEX
 8
HALTER_1
 10
0
 20
0
 30
0
 70
128
 71
3
 72
4
 73
6
 74
5
 0
VERTEX
 8
HALTER_1
 10
0
 20
0
 30
0
 70
128
 71
5
 72
6
 73
8
 74
7
 0
VERTEX
 8
HALTER_1
 10
0
 20
0
 30
0
 70
128
 71
7
 72
8
 73
10
 74
9
 0
VERTEX
 8
HALTER_1
 10
0
 20
0
 30
0
 70
128
 71
9
 72
10
 73
12
 74
11
 0
VERTEX
 8
HALTER_1
 10
0
 20
0
 30
0
 70
128
 71
11
 72
12
 73
14
 74
13
 0
VERTEX
 8
HALTER_1
 10
0
 20
0
 30
0
 70
128
 71
13
 72
14
 73
16
 74
15
 0
VERTEX
 8
HALTER_1
 10
0
 20
0
 30
0
 70
128
 71
15
 72
16
 73
18
 74
17
 0
VERTEX
 8
HALTER_1
 10
0
 20
0
 30
0
 70
128
 71
17
 72
18
 73
20
 74
19
 0
VERTEX
 8
HALTER_1
 10
0
 20
0
 30
0
 70
128
 71
19
 72
20
 73
22
 74
21
 0
VERTEX
 8
HALTER_1
 10
0
 20
0
 30
0
 70
128
 71
21
 72
22
 73
24
 74
23
 0
VERTEX
 8
HALTER_1
 10
0
 20
0
 30
0
 70
128
 71
23
 72
24
 73
26
 74
25
 0
VERTEX
 8
HALTER_1
 10
0
 20
0
 30
0
 70
128
 71
25
 72
26
 73
28
 74
27
 0
VERTEX
 8
HALTER_1
 10
0
 20
0
 30
0
 70
128
 71
27
 72
28
 73
30
 74
29
 0
VERTEX
 8
HALTER_1
 10
0
 20
0
 30
0
 70
128
 71
29
 72
30
 73
32
 74
31
 0
VERTEX
 8
HALTER_1
 10
0
 20
0
 30
0
 70
128
 71
31
 72
32
 73
34
 74
33
 0
VERTEX
 8
HALTER_1
 10
0
 20
0
 30
0
 70
128
 71
33
 72
34
 73
36
 74
35
 0
VERTEX
 8
HALTER_1
 10
0
 20
0
 30
0
 70
128
 71
35
 72
36
 73
2
 74
1
 0
VERTEX
 8
HALTER_1
 10
0
 20
0
 30
0
 70
128
 71
2
 72
36
 73
34
 74
4
 0
VERTEX
 8
HALTER_1
 10
0
 20
0
 30
0
 70
128
 71
4
 72
34
 73
32
 74
6
 0
VERTEX
 8
HALTER_1
 10
0
 20
0
 30
0
 70
128
 71
6
 72
32
 73
30
 74
8
 0
VERTEX
 8
HALTER_1
 10
0
 20
0
 30
0
 70
128
 71
8
 72
30
 73
28
 74
10
 0
VERTEX
 8
HALTER_1
 10
0
 20
0
 30
0
 70
128
 71
10
 72
28
 73
26
 74
12
 0
VERTEX
 8
HALTER_1
 10
0
 20
0
 30
0
 70
128
 71
12
 72
26
 73
24
 74
14
 0
VERTEX
 8
HALTER_1
 10
0
 20
0
 30
0
 70
128
 71
14
 72
24
 73
22
 74
16
 0
VERTEX
 8
HALTER_1
 10
0
 20
0
 30
0
 70
128
 71
16
 72
22
 73
20
 74
18
 0
VERTEX
 8
HALTER_1
 10
0
 20
0
 30
0
 70
128
 71
35
 72
1
 73
3
 74
33
 0
VERTEX
 8
HALTER_1
 10
0
 20
0
 30
0
 70
128
 71
33
 72
3
 73
5
 74
31
 0
VERTEX
 8
HALTER_1
 10
0
 20
0
 30
0
 70
128
 71
31
 72
5
 73
7
 74
29
 0
VERTEX
 8
HALTER_1
 10
0
 20
0
 30
0
 70
128
 71
29
 72
7
 73
9
 74
27
 0
VERTEX
 8
HALTER_1
 10
0
 20
0
 30
0
 70
128
 71
27
 72
9
 73
11
 74
25
 0
VERTEX
 8
HALTER_1
 10
0
 20
0
 30
0
 70
128
 71
25
 72
11
 73
13
 74
23
 0
VERTEX
 8
HALTER_1
 10
0
 20
0
 30
0
 70
128
 71
23
 72
13
 73
15
 74
21
 0
VERTEX
 8
HALTER_1
 10
0
 20
0
 30
0
 70
128
 71
21
 72
15
 73
17
 74
19
 0
SEQEND
 0
POLYLINE
 8
CYLINDER
 66
1
 10
0.0
 20
0.0
 30
0.0
 70
64
 71
12
 72
6
 0
VERTEX
 8
CYLINDER
 10
-0.2263
 20
-1.7736
 30
9.188
 70
192
 0
VERTEX
 8
CYLINDER
 10
-0.2263
 20
0.8245
 30
7.688
 70
192
 0
VERTEX
 8
CYLINDER
 10
-0.0263
 20
-1.6004
 30
9.488
 70
192
 0
VERTEX
 8
CYLINDER
 10
-0.0263
 20
0.9977
 30
7.988
 70
192
 0
VERTEX
 8
CYLINDER
 10
0.3737
 20
-1.6004
 30
9.488
 70
192
 0
VERTEX
 8
CYLINDER
 10
0.3737
 20
0.9977
 30
7.988
 70
192
 0
VERTEX
 8
CYLINDER
 10
0.5737
 20
-1.7736
 30
9.188
 70
192
 0
VERTEX
 8
CYLINDER
 10
0.5737
 20
0.8245
 30
7.688
 70
192
 0
VERTEX
 8
CYLINDER
 10
0.3737
 20
-1.9468
 30
8.888
 70
192
 0
VERTEX
 8
CYLINDER
 10
0.3737
 20
0.6513
 30
7.388
 70
192
 0
VERTEX
 8
CYLINDER
 10
-0.0263
 20
-1.9468
 30
8.888
 70
192
 0
VERTEX
 8
CYLINDER
 10
-0.0263
 20
0.6513
 30
7.388
 70
192
 0
VERTEX
 8
CYLINDER
 10
0
 20
0
 30
0
 70
128
 71
1
 72
2
 73
4
 74
3
 0
VERTEX
 8
CYLINDER
 10
0
 20
0
 30
0
 70
128
 71
3
 72
4
 73
6
 74
5
 0
VERTEX
 8
CYLINDER
 10
0
 20
0
 30
0
 70
128
 71
5
 72
6
 73
8
 74
7
 0
VERTEX
 8
CYLINDER
 10
0
 20
0
 30
0
 70
128
 71
7
 72
8
 73
10
 74
9
 0
VERTEX
 8
CYLINDER
 10
0
 20
0
 30
0
 70
128
 71
9
 72
10
 73
12
 74
11
 0
VERTEX
 8
CYLINDER
 10
0
 20
0
 30
0
 70
128
 71
11
 72
12
 73
2
 74
1
 0
SEQEND
 0
POLYLINE
 8
SCHLAUCH_1
 66
1
 10
0.0
 20
0.0
 30
0.0
 70
64
 71
16
 72
8
 0
VERTEX
 8
SCHLAUCH_1
 10
0.1087
 20
-2.283
 30
-26.3987
 70
192
 0
VERTEX
 8
SCHLAUCH_1
 10
0.3614
 20
-1.7209
 30
-26.3837
 70
192
 0
VERTEX
 8
SCHLAUCH_1
 10
0.8583
 20
-1.5331
 30
-26.3715
 70
192
 0
VERTEX
 8
SCHLAUCH_1
 10
1.4205
 20
-1.786
 30
-26.3662
 70
192
 0
VERTEX
 8
SCHLAUCH_1
 10
1.6085
 20
-2.283
 30
-26.3722
 70
192
 0
VERTEX
 8
SCHLAUCH_1
 10
1.3558
 20
-2.8451
 30
-26.3871
 70
192
 0
VERTEX
 8
SCHLAUCH_1
 10
0.8588
 20
-3.0329
 30
-26.3994
 70
192
 0
VERTEX
 8
SCHLAUCH_1
 10
0.2967
 20
-2.78
 30
-26.4046
 70
192
 0
VERTEX
 8
SCHLAUCH_1
 10
-0.532
 20
-2.9569
 30
9.8339
 70
192
 0
VERTEX
 8
SCHLAUCH_1
 10
-0.2793
 20
-2.3948
 30
9.8488
 70
192
 0
VERTEX
 8
SCHLAUCH_1
 10
0.2176
 20
-2.207
 30
9.8611
 70
192
 0
VERTEX
 8
SCHLAUCH_1
 10
0.7798
 20
-2.4599
 30
9.8663
 70
192
 0
VERTEX
 8
SCHLAUCH_1
 10
0.9678
 20
-2.9569
 30
9.8604
 70
192
 0
VERTEX
 8
SCHLAUCH_1
 10
0.7151
 20
-3.5189
 30
9.8455
 70
192
 0
VERTEX
 8
SCHLAUCH_1
 10
0.2181
 20
-3.7067
 30
9.8332
 70
192
 0
VERTEX
 8
SCHLAUCH_1
 10
-0.344
 20
-3.4539
 30
9.828
 70
192
 0
VERTEX
 8
SCHLAUCH_1
 10
0
 20
0
 30
0
 70
128
 71
1
 72
2
 73
10
 74
9
 0
VERTEX
 8
SCHLAUCH_1
 10
0
 20
0
 30
0
 70
128
 71
2
 72
3
 73
11
 74
10
 0
VERTEX
 8
SCHLAUCH_1
 10
0
 20
0
 30
0
 70
128
 71
3
 72
4
 73
12
 74
11
 0
VERTEX
 8
SCHLAUCH_1
 10
0
 20
0
 30
0
 70
128
 71
4
 72
5
 73
13
 74
12
 0
VERTEX
 8
SCHLAUCH_1
 10
0
 20
0
 30
0
 70
128
 71
5
 72
6
 73
14
 74
13
 0
VERTEX
 8
SCHLAUCH_1
 10
0
 20
0
 30
0
 70
128
 71
6
 72
7
 73
15
 74
14
 0
VERTEX
 8
SCHLAUCH_1
 10
0
 20
0
 30
0
 70
128
 71
7
 72
8
 73
16
 74
15
 0
VERTEX
 8
SCHLAUCH_1
 10
0
 20
0
 30
0
 70
128
 71
8
 72
1
 73
9
 74
16
 0
SEQEND
 0
ENDSEC
 0
EOF
