 0
SECTION
 2
HEADER
 9
$ACADVER
 1
AC1009
 0
ENDSEC
 0
SECTION
 2
TABLES
 0
TABLE
 2
LTYPE
 70
1
 0
LTYPE
 2
CONTINUOUS
 70
64
 3
solid line
 72
65
 73
0
 40
0.0
 0
ENDTAB
 0
TABLE
 2
LAYER
 70
6
 0
LAYER
 2
0
 70
0
 62
7
 6
CONTINUOUS
 0
LAYER
 2
120_1688_M
 70
64
 62
7
 6
CONTINUOUS
 0
LAYER
 2
CYLINDER
 70
64
 62
250
 6
CONTINUOUS
 0
LAYER
 2
CYLINDE2
 70
64
 62
250
 6
CONTINUOUS
 0
LAYER
 2
CYLIN3
 70
64
 62
250
 6
CONTINUOUS
 0
LAYER
 2
K_RPER
 70
64
 62
250
 6
CONTINUOUS
 0
LAYER
 2
TUBE_INSTANCE_14_8
 70
64
 62
7
 6
CONTINUOUS
 0
LAYER
 2
TUBE_INSTANCE_13_8
 70
64
 62
7
 6
CONTINUOUS
 0
LAYER
 2
TUBE_INSTANCE_12_8
 70
64
 62
7
 6
CONTINUOUS
 0
LAYER
 2
TUBE_INSTANCE_11_8
 70
64
 62
7
 6
CONTINUOUS
 0
LAYER
 2
TUBE_INSTANCE_10_8
 70
64
 62
7
 6
CONTINUOUS
 0
LAYER
 2
TUBE_INSTANCE_9_8
 70
64
 62
7
 6
CONTINUOUS
 0
LAYER
 2
TUBE_INSTANCE_8_8
 70
64
 62
7
 6
CONTINUOUS
 0
LAYER
 2
TUBE_INSTANCE_7_8
 70
64
 62
7
 6
CONTINUOUS
 0
LAYER
 2
TUBE_INSTANCE_6_8
 70
64
 62
7
 6
CONTINUOUS
 0
LAYER
 2
TUBE_INSTANCE_5_8
 70
64
 62
7
 6
CONTINUOUS
 0
LAYER
 2
TUBE_INSTANCE_4_8
 70
64
 62
7
 6
CONTINUOUS
 0
LAYER
 2
TUBE_INSTANCE_3_8
 70
64
 62
7
 6
CONTINUOUS
 0
LAYER
 2
TUBE_INSTANCE_2_8
 70
64
 62
7
 6
CONTINUOUS
 0
LAYER
 2
TUBE_INSTANCE_1_8
 70
64
 62
7
 6
CONTINUOUS
 0
LAYER
 2
TUBE_INSTANCE_8
 70
64
 62
7
 6
CONTINUOUS
 0
LAYER
 2
TUBE_8
 70
64
 62
7
 6
CONTINUOUS
 0
LAYER
 2
TUBE_INSTANCE_14_7
 70
64
 62
7
 6
CONTINUOUS
 0
LAYER
 2
TUBE_INSTANCE_13_7
 70
64
 62
7
 6
CONTINUOUS
 0
LAYER
 2
TUBE_INSTANCE_12_7
 70
64
 62
7
 6
CONTINUOUS
 0
LAYER
 2
TUBE_INSTANCE_11_7
 70
64
 62
7
 6
CONTINUOUS
 0
LAYER
 2
TUBE_INSTANCE_10_7
 70
64
 62
7
 6
CONTINUOUS
 0
LAYER
 2
TUBE_INSTANCE_9_7
 70
64
 62
7
 6
CONTINUOUS
 0
LAYER
 2
TUBE_INSTANCE_8_7
 70
64
 62
7
 6
CONTINUOUS
 0
LAYER
 2
TUBE_INSTANCE_7_7
 70
64
 62
7
 6
CONTINUOUS
 0
LAYER
 2
TUBE_INSTANCE_6_7
 70
64
 62
7
 6
CONTINUOUS
 0
LAYER
 2
TUBE_INSTANCE_5_7
 70
64
 62
7
 6
CONTINUOUS
 0
LAYER
 2
TUBE_INSTANCE_4_7
 70
64
 62
7
 6
CONTINUOUS
 0
LAYER
 2
TUBE_INSTANCE_3_7
 70
64
 62
7
 6
CONTINUOUS
 0
LAYER
 2
TUBE_INSTANCE_2_7
 70
64
 62
7
 6
CONTINUOUS
 0
LAYER
 2
TUBE_INSTANCE_1_7
 70
64
 62
7
 6
CONTINUOUS
 0
LAYER
 2
TUBE_INSTANCE_7
 70
64
 62
7
 6
CONTINUOUS
 0
LAYER
 2
TUBE_7
 70
64
 62
7
 6
CONTINUOUS
 0
LAYER
 2
TUBE_INSTANCE_14_6
 70
64
 62
7
 6
CONTINUOUS
 0
LAYER
 2
TUBE_INSTANCE_13_6
 70
64
 62
7
 6
CONTINUOUS
 0
LAYER
 2
TUBE_INSTANCE_12_6
 70
64
 62
7
 6
CONTINUOUS
 0
LAYER
 2
TUBE_INSTANCE_11_6
 70
64
 62
7
 6
CONTINUOUS
 0
LAYER
 2
TUBE_INSTANCE_10_6
 70
64
 62
7
 6
CONTINUOUS
 0
LAYER
 2
TUBE_INSTANCE_9_6
 70
64
 62
7
 6
CONTINUOUS
 0
LAYER
 2
TUBE_INSTANCE_8_6
 70
64
 62
7
 6
CONTINUOUS
 0
LAYER
 2
TUBE_INSTANCE_7_6
 70
64
 62
7
 6
CONTINUOUS
 0
LAYER
 2
TUBE_INSTANCE_6_6
 70
64
 62
7
 6
CONTINUOUS
 0
LAYER
 2
TUBE_INSTANCE_5_6
 70
64
 62
7
 6
CONTINUOUS
 0
LAYER
 2
TUBE_INSTANCE_4_6
 70
64
 62
7
 6
CONTINUOUS
 0
LAYER
 2
TUBE_INSTANCE_3_6
 70
64
 62
7
 6
CONTINUOUS
 0
LAYER
 2
TUBE_INSTANCE_2_6
 70
64
 62
7
 6
CONTINUOUS
 0
LAYER
 2
TUBE_INSTANCE_1_6
 70
64
 62
7
 6
CONTINUOUS
 0
LAYER
 2
TUBE_INSTANCE_6
 70
64
 62
7
 6
CONTINUOUS
 0
LAYER
 2
TUBE_6
 70
64
 62
7
 6
CONTINUOUS
 0
LAYER
 2
TUBE_INSTANCE_14_5
 70
64
 62
7
 6
CONTINUOUS
 0
LAYER
 2
TUBE_INSTANCE_13_5
 70
64
 62
7
 6
CONTINUOUS
 0
LAYER
 2
TUBE_INSTANCE_12_5
 70
64
 62
7
 6
CONTINUOUS
 0
LAYER
 2
TUBE_INSTANCE_11_5
 70
64
 62
7
 6
CONTINUOUS
 0
LAYER
 2
TUBE_INSTANCE_10_5
 70
64
 62
7
 6
CONTINUOUS
 0
LAYER
 2
TUBE_INSTANCE_9_5
 70
64
 62
7
 6
CONTINUOUS
 0
LAYER
 2
TUBE_INSTANCE_8_5
 70
64
 62
7
 6
CONTINUOUS
 0
LAYER
 2
TUBE_INSTANCE_7_5
 70
64
 62
7
 6
CONTINUOUS
 0
LAYER
 2
TUBE_INSTANCE_6_5
 70
64
 62
7
 6
CONTINUOUS
 0
LAYER
 2
TUBE_INSTANCE_5_5
 70
64
 62
7
 6
CONTINUOUS
 0
LAYER
 2
TUBE_INSTANCE_4_5
 70
64
 62
7
 6
CONTINUOUS
 0
LAYER
 2
TUBE_INSTANCE_3_5
 70
64
 62
7
 6
CONTINUOUS
 0
LAYER
 2
TUBE_INSTANCE_2_5
 70
64
 62
7
 6
CONTINUOUS
 0
LAYER
 2
TUBE_INSTANCE_1_5
 70
64
 62
7
 6
CONTINUOUS
 0
LAYER
 2
TUBE_INSTANCE_5
 70
64
 62
7
 6
CONTINUOUS
 0
LAYER
 2
TUBE_5
 70
64
 62
7
 6
CONTINUOUS
 0
LAYER
 2
TUBE_INSTANCE_14_4
 70
64
 62
7
 6
CONTINUOUS
 0
LAYER
 2
TUBE_INSTANCE_13_4
 70
64
 62
7
 6
CONTINUOUS
 0
LAYER
 2
TUBE_INSTANCE_12_4
 70
64
 62
7
 6
CONTINUOUS
 0
LAYER
 2
TUBE_INSTANCE_11_4
 70
64
 62
7
 6
CONTINUOUS
 0
LAYER
 2
TUBE_INSTANCE_10_4
 70
64
 62
7
 6
CONTINUOUS
 0
LAYER
 2
TUBE_INSTANCE_9_4
 70
64
 62
7
 6
CONTINUOUS
 0
LAYER
 2
TUBE_INSTANCE_8_4
 70
64
 62
7
 6
CONTINUOUS
 0
LAYER
 2
TUBE_INSTANCE_7_4
 70
64
 62
7
 6
CONTINUOUS
 0
LAYER
 2
TUBE_INSTANCE_6_4
 70
64
 62
7
 6
CONTINUOUS
 0
LAYER
 2
TUBE_INSTANCE_5_4
 70
64
 62
7
 6
CONTINUOUS
 0
LAYER
 2
TUBE_INSTANCE_4_4
 70
64
 62
7
 6
CONTINUOUS
 0
LAYER
 2
TUBE_INSTANCE_3_4
 70
64
 62
7
 6
CONTINUOUS
 0
LAYER
 2
TUBE_INSTANCE_2_4
 70
64
 62
7
 6
CONTINUOUS
 0
LAYER
 2
TUBE_INSTANCE_1_4
 70
64
 62
7
 6
CONTINUOUS
 0
LAYER
 2
TUBE_INSTANCE_4
 70
64
 62
7
 6
CONTINUOUS
 0
LAYER
 2
TUBE_4
 70
64
 62
7
 6
CONTINUOUS
 0
LAYER
 2
TUBE_INSTANCE_14_3
 70
64
 62
7
 6
CONTINUOUS
 0
LAYER
 2
TUBE_INSTANCE_13_3
 70
64
 62
7
 6
CONTINUOUS
 0
LAYER
 2
TUBE_INSTANCE_12_3
 70
64
 62
7
 6
CONTINUOUS
 0
LAYER
 2
TUBE_INSTANCE_11_3
 70
64
 62
7
 6
CONTINUOUS
 0
LAYER
 2
TUBE_INSTANCE_10_3
 70
64
 62
7
 6
CONTINUOUS
 0
LAYER
 2
TUBE_INSTANCE_9_3
 70
64
 62
7
 6
CONTINUOUS
 0
LAYER
 2
TUBE_INSTANCE_8_3
 70
64
 62
7
 6
CONTINUOUS
 0
LAYER
 2
TUBE_INSTANCE_7_3
 70
64
 62
7
 6
CONTINUOUS
 0
LAYER
 2
TUBE_INSTANCE_6_3
 70
64
 62
7
 6
CONTINUOUS
 0
LAYER
 2
TUBE_INSTANCE_5_3
 70
64
 62
7
 6
CONTINUOUS
 0
LAYER
 2
TUBE_INSTANCE_4_3
 70
64
 62
7
 6
CONTINUOUS
 0
LAYER
 2
TUBE_INSTANCE_3_3
 70
64
 62
7
 6
CONTINUOUS
 0
LAYER
 2
TUBE_INSTANCE_2_3
 70
64
 62
7
 6
CONTINUOUS
 0
LAYER
 2
TUBE_INSTANCE_1_3
 70
64
 62
7
 6
CONTINUOUS
 0
LAYER
 2
TUBE_INSTANCE_3
 70
64
 62
7
 6
CONTINUOUS
 0
LAYER
 2
TUBE_3
 70
64
 62
7
 6
CONTINUOUS
 0
LAYER
 2
TUBE_INSTANCE_14_2
 70
64
 62
7
 6
CONTINUOUS
 0
LAYER
 2
TUBE_INSTANCE_13_2
 70
64
 62
7
 6
CONTINUOUS
 0
LAYER
 2
TUBE_INSTANCE_12_2
 70
64
 62
7
 6
CONTINUOUS
 0
LAYER
 2
TUBE_INSTANCE_11_2
 70
64
 62
7
 6
CONTINUOUS
 0
LAYER
 2
TUBE_INSTANCE_10_2
 70
64
 62
7
 6
CONTINUOUS
 0
LAYER
 2
TUBE_INSTANCE_9_2
 70
64
 62
7
 6
CONTINUOUS
 0
LAYER
 2
TUBE_INSTANCE_8_2
 70
64
 62
7
 6
CONTINUOUS
 0
LAYER
 2
TUBE_INSTANCE_7_2
 70
64
 62
7
 6
CONTINUOUS
 0
LAYER
 2
TUBE_INSTANCE_6_2
 70
64
 62
7
 6
CONTINUOUS
 0
LAYER
 2
TUBE_INSTANCE_5_2
 70
64
 62
7
 6
CONTINUOUS
 0
LAYER
 2
TUBE_INSTANCE_4_2
 70
64
 62
7
 6
CONTINUOUS
 0
LAYER
 2
TUBE_INSTANCE_3_2
 70
64
 62
7
 6
CONTINUOUS
 0
LAYER
 2
TUBE_INSTANCE_2_2
 70
64
 62
7
 6
CONTINUOUS
 0
LAYER
 2
TUBE_INSTANCE_1_2
 70
64
 62
7
 6
CONTINUOUS
 0
LAYER
 2
TUBE_INSTANCE_2
 70
64
 62
7
 6
CONTINUOUS
 0
LAYER
 2
TUBE_2
 70
64
 62
7
 6
CONTINUOUS
 0
LAYER
 2
TUBE_INSTANCE_14_1
 70
64
 62
7
 6
CONTINUOUS
 0
LAYER
 2
TUBE_INSTANCE_13_1
 70
64
 62
7
 6
CONTINUOUS
 0
LAYER
 2
TUBE_INSTANCE_12_1
 70
64
 62
7
 6
CONTINUOUS
 0
LAYER
 2
TUBE_INSTANCE_11_1
 70
64
 62
7
 6
CONTINUOUS
 0
LAYER
 2
TUBE_INSTANCE_10_1
 70
64
 62
7
 6
CONTINUOUS
 0
LAYER
 2
TUBE_INSTANCE_9_1
 70
64
 62
7
 6
CONTINUOUS
 0
LAYER
 2
TUBE_I88
 70
64
 62
7
 6
CONTINUOUS
 0
LAYER
 2
TUBE_I4
 70
64
 62
7
 6
CONTINUOUS
 0
LAYER
 2
TUBE_I66
 70
64
 62
7
 6
CONTINUOUS
 0
LAYER
 2
TUBE_IN55
 70
64
 62
7
 6
CONTINUOUS
 0
LAYER
 2
TUBE_44
 70
64
 62
7
 6
CONTINUOUS
 0
LAYER
 2
TUBE_IN3
 70
64
 62
7
 6
CONTINUOUS
 0
LAYER
 2
TUBE_I22
 70
64
 62
7
 6
CONTINUOUS
 0
LAYER
 2
TUBE_I1
 70
64
 62
7
 6
CONTINUOUS
 0
LAYER
 2
TUB123
 70
64
 62
7
 6
CONTINUOUS
 0
LAYER
 2
TUBE_1
 70
64
 62
7
 6
CONTINUOUS
 0
LAYER
 2
TUBE_INSTANCE_14
 70
64
 62
7
 6
CONTINUOUS
 0
LAYER
 2
TUBE_INSTANCE_13
 70
64
 62
7
 6
CONTINUOUS
 0
LAYER
 2
TUBE_INSTANCE_12
 70
64
 62
7
 6
CONTINUOUS
 0
LAYER
 2
TUBE_INSTANCE_11
 70
64
 62
7
 6
CONTINUOUS
 0
LAYER
 2
TUBE_INSTANCE_10
 70
64
 62
7
 6
CONTINUOUS
 0
LAYER
 2
TUBE_INSTANCE_9
 70
64
 62
7
 6
CONTINUOUS
 0
LAYER
 2
TUBE_INSTANCE_8_1
 70
64
 62
7
 6
CONTINUOUS
 0
LAYER
 2
TUBE_INSTANCE_7_1
 70
64
 62
7
 6
CONTINUOUS
 0
LAYER
 2
TUBE_INSTANCE_6_1
 70
64
 62
7
 6
CONTINUOUS
 0
LAYER
 2
TUBE_INSTANCE_5_1
 70
64
 62
7
 6
CONTINUOUS
 0
LAYER
 2
TUBE_INSTANCE_4_1
 70
64
 62
7
 6
CONTINUOUS
 0
LAYER
 2
TUBE_INSTANCE_3_1
 70
64
 62
7
 6
CONTINUOUS
 0
LAYER
 2
TUBE_INSTANCE_2_1
 70
64
 62
7
 6
CONTINUOUS
 0
LAYER
 2
TUBE_INSTANCE_1_1
 70
64
 62
7
 6
CONTINUOUS
 0
LAYER
 2
TUBE_INSTANCE
 70
64
 62
7
 6
CONTINUOUS
 0
LAYER
 2
TUBE
 70
64
 62
7
 6
CONTINUOUS
 0
ENDTAB
 0
ENDSEC
 0
SECTION
 2
BLOCKS
 0
ENDSEC
 0
SECTION
 2
ENTITIES
 0
POLYLINE
 8
CYLINDER
 66
1
 10
0.0
 20
0.0
 30
0.0
 70
64
 71
42
 72
30
 0
VERTEX
 8
CYLINDER
 10
-0.0897
 20
0.0107
 30
17.5523
 70
192
 0
VERTEX
 8
CYLINDER
 10
-0.0897
 20
0.0107
 30
20.4786
 70
192
 0
VERTEX
 8
CYLINDER
 10
0.9103
 20
0.0107
 30
17.5523
 70
192
 0
VERTEX
 8
CYLINDER
 10
0.9103
 20
0.0107
 30
17.5523
 70
192
 0
VERTEX
 8
CYLINDER
 10
0.9103
 20
0.0107
 30
20.4786
 70
192
 0
VERTEX
 8
CYLINDER
 10
0.9103
 20
0.0107
 30
20.4786
 70
192
 0
VERTEX
 8
CYLINDER
 10
0.7193
 20
0.5985
 30
17.5523
 70
192
 0
VERTEX
 8
CYLINDER
 10
0.7193
 20
0.5985
 30
17.5523
 70
192
 0
VERTEX
 8
CYLINDER
 10
0.7193
 20
0.5985
 30
20.4786
 70
192
 0
VERTEX
 8
CYLINDER
 10
0.7193
 20
0.5985
 30
20.4786
 70
192
 0
VERTEX
 8
CYLINDER
 10
0.2193
 20
0.9618
 30
17.5523
 70
192
 0
VERTEX
 8
CYLINDER
 10
0.2193
 20
0.9618
 30
17.5523
 70
192
 0
VERTEX
 8
CYLINDER
 10
0.2193
 20
0.9618
 30
20.4786
 70
192
 0
VERTEX
 8
CYLINDER
 10
0.2193
 20
0.9618
 30
20.4786
 70
192
 0
VERTEX
 8
CYLINDER
 10
-0.3987
 20
0.9618
 30
17.5523
 70
192
 0
VERTEX
 8
CYLINDER
 10
-0.3987
 20
0.9618
 30
17.5523
 70
192
 0
VERTEX
 8
CYLINDER
 10
-0.3987
 20
0.9618
 30
20.4786
 70
192
 0
VERTEX
 8
CYLINDER
 10
-0.3987
 20
0.9618
 30
20.4786
 70
192
 0
VERTEX
 8
CYLINDER
 10
-0.8987
 20
0.5985
 30
17.5523
 70
192
 0
VERTEX
 8
CYLINDER
 10
-0.8987
 20
0.5985
 30
17.5523
 70
192
 0
VERTEX
 8
CYLINDER
 10
-0.8987
 20
0.5985
 30
20.4786
 70
192
 0
VERTEX
 8
CYLINDER
 10
-0.8987
 20
0.5985
 30
20.4786
 70
192
 0
VERTEX
 8
CYLINDER
 10
-1.0897
 20
0.0107
 30
17.5523
 70
192
 0
VERTEX
 8
CYLINDER
 10
-1.0897
 20
0.0107
 30
17.5523
 70
192
 0
VERTEX
 8
CYLINDER
 10
-1.0897
 20
0.0107
 30
20.4786
 70
192
 0
VERTEX
 8
CYLINDER
 10
-1.0897
 20
0.0107
 30
20.4786
 70
192
 0
VERTEX
 8
CYLINDER
 10
-0.8987
 20
-0.5771
 30
17.5523
 70
192
 0
VERTEX
 8
CYLINDER
 10
-0.8987
 20
-0.5771
 30
17.5523
 70
192
 0
VERTEX
 8
CYLINDER
 10
-0.8987
 20
-0.5771
 30
20.4786
 70
192
 0
VERTEX
 8
CYLINDER
 10
-0.8987
 20
-0.5771
 30
20.4786
 70
192
 0
VERTEX
 8
CYLINDER
 10
-0.3987
 20
-0.9404
 30
17.5523
 70
192
 0
VERTEX
 8
CYLINDER
 10
-0.3987
 20
-0.9404
 30
17.5523
 70
192
 0
VERTEX
 8
CYLINDER
 10
-0.3987
 20
-0.9404
 30
20.4786
 70
192
 0
VERTEX
 8
CYLINDER
 10
-0.3987
 20
-0.9404
 30
20.4786
 70
192
 0
VERTEX
 8
CYLINDER
 10
0.2193
 20
-0.9404
 30
17.5523
 70
192
 0
VERTEX
 8
CYLINDER
 10
0.2193
 20
-0.9404
 30
17.5523
 70
192
 0
VERTEX
 8
CYLINDER
 10
0.2193
 20
-0.9404
 30
20.4786
 70
192
 0
VERTEX
 8
CYLINDER
 10
0.2193
 20
-0.9404
 30
20.4786
 70
192
 0
VERTEX
 8
CYLINDER
 10
0.7193
 20
-0.5771
 30
17.5523
 70
192
 0
VERTEX
 8
CYLINDER
 10
0.7193
 20
-0.5771
 30
17.5523
 70
192
 0
VERTEX
 8
CYLINDER
 10
0.7193
 20
-0.5771
 30
20.4786
 70
192
 0
VERTEX
 8
CYLINDER
 10
0.7193
 20
-0.5771
 30
20.4786
 70
192
 0
VERTEX
 8
CYLINDER
 10
0
 20
0
 30
0
 70
128
 71
1
 72
3
 73
7
 74
7
 0
VERTEX
 8
CYLINDER
 10
0
 20
0
 30
0
 70
128
 71
4
 72
5
 73
9
 74
8
 0
VERTEX
 8
CYLINDER
 10
0
 20
0
 30
0
 70
128
 71
6
 72
2
 73
10
 74
10
 0
VERTEX
 8
CYLINDER
 10
0
 20
0
 30
0
 70
128
 71
1
 72
7
 73
11
 74
11
 0
VERTEX
 8
CYLINDER
 10
0
 20
0
 30
0
 70
128
 71
8
 72
9
 73
13
 74
12
 0
VERTEX
 8
CYLINDER
 10
0
 20
0
 30
0
 70
128
 71
10
 72
2
 73
14
 74
14
 0
VERTEX
 8
CYLINDER
 10
0
 20
0
 30
0
 70
128
 71
1
 72
11
 73
15
 74
15
 0
VERTEX
 8
CYLINDER
 10
0
 20
0
 30
0
 70
128
 71
12
 72
13
 73
17
 74
16
 0
VERTEX
 8
CYLINDER
 10
0
 20
0
 30
0
 70
128
 71
14
 72
2
 73
18
 74
18
 0
VERTEX
 8
CYLINDER
 10
0
 20
0
 30
0
 70
128
 71
1
 72
15
 73
19
 74
19
 0
VERTEX
 8
CYLINDER
 10
0
 20
0
 30
0
 70
128
 71
16
 72
17
 73
21
 74
20
 0
VERTEX
 8
CYLINDER
 10
0
 20
0
 30
0
 70
128
 71
18
 72
2
 73
22
 74
22
 0
VERTEX
 8
CYLINDER
 10
0
 20
0
 30
0
 70
128
 71
1
 72
19
 73
23
 74
23
 0
VERTEX
 8
CYLINDER
 10
0
 20
0
 30
0
 70
128
 71
20
 72
21
 73
25
 74
24
 0
VERTEX
 8
CYLINDER
 10
0
 20
0
 30
0
 70
128
 71
22
 72
2
 73
26
 74
26
 0
VERTEX
 8
CYLINDER
 10
0
 20
0
 30
0
 70
128
 71
1
 72
23
 73
27
 74
27
 0
VERTEX
 8
CYLINDER
 10
0
 20
0
 30
0
 70
128
 71
24
 72
25
 73
29
 74
28
 0
VERTEX
 8
CYLINDER
 10
0
 20
0
 30
0
 70
128
 71
26
 72
2
 73
30
 74
30
 0
VERTEX
 8
CYLINDER
 10
0
 20
0
 30
0
 70
128
 71
1
 72
27
 73
31
 74
31
 0
VERTEX
 8
CYLINDER
 10
0
 20
0
 30
0
 70
128
 71
28
 72
29
 73
33
 74
32
 0
VERTEX
 8
CYLINDER
 10
0
 20
0
 30
0
 70
128
 71
30
 72
2
 73
34
 74
34
 0
VERTEX
 8
CYLINDER
 10
0
 20
0
 30
0
 70
128
 71
1
 72
31
 73
35
 74
35
 0
VERTEX
 8
CYLINDER
 10
0
 20
0
 30
0
 70
128
 71
32
 72
33
 73
37
 74
36
 0
VERTEX
 8
CYLINDER
 10
0
 20
0
 30
0
 70
128
 71
34
 72
2
 73
38
 74
38
 0
VERTEX
 8
CYLINDER
 10
0
 20
0
 30
0
 70
128
 71
1
 72
35
 73
39
 74
39
 0
VERTEX
 8
CYLINDER
 10
0
 20
0
 30
0
 70
128
 71
36
 72
37
 73
41
 74
40
 0
VERTEX
 8
CYLINDER
 10
0
 20
0
 30
0
 70
128
 71
38
 72
2
 73
42
 74
42
 0
VERTEX
 8
CYLINDER
 10
0
 20
0
 30
0
 70
128
 71
1
 72
39
 73
3
 74
3
 0
VERTEX
 8
CYLINDER
 10
0
 20
0
 30
0
 70
128
 71
40
 72
41
 73
5
 74
4
 0
VERTEX
 8
CYLINDER
 10
0
 20
0
 30
0
 70
128
 71
42
 72
2
 73
6
 74
6
 0
SEQEND
 0
POLYLINE
 8
CYLINDE2
 66
1
 10
0.0
 20
0.0
 30
0.0
 70
64
 71
49
 72
24
 0
VERTEX
 8
CYLINDE2
 10
1.6424
 20
-0.9893
 30
17.0168
 70
192
 0
VERTEX
 8
CYLINDE2
 10
-0.0897
 20
0.0107
 30
17.0168
 70
192
 0
VERTEX
 8
CYLINDE2
 10
1.9103
 20
0.0107
 30
15.7781
 70
192
 0
VERTEX
 8
CYLINDE2
 10
1.9103
 20
0.0107
 30
15.7781
 70
192
 0
VERTEX
 8
CYLINDE2
 10
1.9103
 20
0.0107
 30
17.0168
 70
192
 0
VERTEX
 8
CYLINDE2
 10
1.9103
 20
0.0107
 30
17.0168
 70
192
 0
VERTEX
 8
CYLINDE2
 10
1.6424
 20
1.0107
 30
15.7781
 70
192
 0
VERTEX
 8
CYLINDE2
 10
1.6424
 20
1.0107
 30
15.7781
 70
192
 0
VERTEX
 8
CYLINDE2
 10
1.6424
 20
1.0107
 30
17.0168
 70
192
 0
VERTEX
 8
CYLINDE2
 10
1.6424
 20
1.0107
 30
17.0168
 70
192
 0
VERTEX
 8
CYLINDE2
 10
0.9103
 20
1.7428
 30
15.7781
 70
192
 0
VERTEX
 8
CYLINDE2
 10
0.9103
 20
1.7428
 30
15.7781
 70
192
 0
VERTEX
 8
CYLINDE2
 10
0.9103
 20
1.7428
 30
17.0168
 70
192
 0
VERTEX
 8
CYLINDE2
 10
0.9103
 20
1.7428
 30
17.0168
 70
192
 0
VERTEX
 8
CYLINDE2
 10
-0.0897
 20
2.0107
 30
15.7781
 70
192
 0
VERTEX
 8
CYLINDE2
 10
-0.0897
 20
2.0107
 30
15.7781
 70
192
 0
VERTEX
 8
CYLINDE2
 10
-0.0897
 20
2.0107
 30
17.0168
 70
192
 0
VERTEX
 8
CYLINDE2
 10
-0.0897
 20
2.0107
 30
17.0168
 70
192
 0
VERTEX
 8
CYLINDE2
 10
-1.0897
 20
1.7428
 30
15.7781
 70
192
 0
VERTEX
 8
CYLINDE2
 10
-1.0897
 20
1.7428
 30
15.7781
 70
192
 0
VERTEX
 8
CYLINDE2
 10
-1.0897
 20
1.7428
 30
17.0168
 70
192
 0
VERTEX
 8
CYLINDE2
 10
-1.0897
 20
1.7428
 30
17.0168
 70
192
 0
VERTEX
 8
CYLINDE2
 10
-1.8217
 20
1.0107
 30
15.7781
 70
192
 0
VERTEX
 8
CYLINDE2
 10
-1.8217
 20
1.0107
 30
15.7781
 70
192
 0
VERTEX
 8
CYLINDE2
 10
-1.8217
 20
1.0107
 30
17.0168
 70
192
 0
VERTEX
 8
CYLINDE2
 10
-1.8217
 20
1.0107
 30
17.0168
 70
192
 0
VERTEX
 8
CYLINDE2
 10
-2.0897
 20
0.0107
 30
15.7781
 70
192
 0
VERTEX
 8
CYLINDE2
 10
-2.0897
 20
0.0107
 30
15.7781
 70
192
 0
VERTEX
 8
CYLINDE2
 10
-2.0897
 20
0.0107
 30
17.0168
 70
192
 0
VERTEX
 8
CYLINDE2
 10
-2.0897
 20
0.0107
 30
17.0168
 70
192
 0
VERTEX
 8
CYLINDE2
 10
-1.8217
 20
-0.9893
 30
15.7781
 70
192
 0
VERTEX
 8
CYLINDE2
 10
-1.8217
 20
-0.9893
 30
15.7781
 70
192
 0
VERTEX
 8
CYLINDE2
 10
-1.8217
 20
-0.9893
 30
17.0168
 70
192
 0
VERTEX
 8
CYLINDE2
 10
-1.8217
 20
-0.9893
 30
17.0168
 70
192
 0
VERTEX
 8
CYLINDE2
 10
-1.0897
 20
-1.7214
 30
15.7781
 70
192
 0
VERTEX
 8
CYLINDE2
 10
-1.0897
 20
-1.7214
 30
15.7781
 70
192
 0
VERTEX
 8
CYLINDE2
 10
-1.0897
 20
-1.7214
 30
17.0168
 70
192
 0
VERTEX
 8
CYLINDE2
 10
-1.0897
 20
-1.7214
 30
17.0168
 70
192
 0
VERTEX
 8
CYLINDE2
 10
-0.0897
 20
-1.9893
 30
15.7781
 70
192
 0
VERTEX
 8
CYLINDE2
 10
-0.0897
 20
-1.9893
 30
15.7781
 70
192
 0
VERTEX
 8
CYLINDE2
 10
-0.0897
 20
-1.9893
 30
17.0168
 70
192
 0
VERTEX
 8
CYLINDE2
 10
-0.0897
 20
-1.9893
 30
17.0168
 70
192
 0
VERTEX
 8
CYLINDE2
 10
0.9103
 20
-1.7214
 30
15.7781
 70
192
 0
VERTEX
 8
CYLINDE2
 10
0.9103
 20
-1.7214
 30
15.7781
 70
192
 0
VERTEX
 8
CYLINDE2
 10
0.9103
 20
-1.7214
 30
17.0168
 70
192
 0
VERTEX
 8
CYLINDE2
 10
0.9103
 20
-1.7214
 30
17.0168
 70
192
 0
VERTEX
 8
CYLINDE2
 10
1.6424
 20
-0.9893
 30
15.7781
 70
192
 0
VERTEX
 8
CYLINDE2
 10
1.6424
 20
-0.9893
 30
15.7781
 70
192
 0
VERTEX
 8
CYLINDE2
 10
1.6424
 20
-0.9893
 30
17.0168
 70
192
 0
VERTEX
 8
CYLINDE2
 10
0
 20
0
 30
0
 70
128
 71
36
 72
37
 73
41
 74
40
 0
VERTEX
 8
CYLINDE2
 10
0
 20
0
 30
0
 70
128
 71
4
 72
5
 73
9
 74
8
 0
VERTEX
 8
CYLINDE2
 10
0
 20
0
 30
0
 70
128
 71
6
 72
2
 73
10
 74
10
 0
VERTEX
 8
CYLINDE2
 10
0
 20
0
 30
0
 70
128
 71
38
 72
2
 73
42
 74
42
 0
VERTEX
 8
CYLINDE2
 10
0
 20
0
 30
0
 70
128
 71
8
 72
9
 73
13
 74
12
 0
VERTEX
 8
CYLINDE2
 10
0
 20
0
 30
0
 70
128
 71
10
 72
2
 73
14
 74
14
 0
VERTEX
 8
CYLINDE2
 10
0
 20
0
 30
0
 70
128
 71
40
 72
41
 73
45
 74
44
 0
VERTEX
 8
CYLINDE2
 10
0
 20
0
 30
0
 70
128
 71
12
 72
13
 73
17
 74
16
 0
VERTEX
 8
CYLINDE2
 10
0
 20
0
 30
0
 70
128
 71
14
 72
2
 73
18
 74
18
 0
VERTEX
 8
CYLINDE2
 10
0
 20
0
 30
0
 70
128
 71
42
 72
2
 73
46
 74
46
 0
VERTEX
 8
CYLINDE2
 10
0
 20
0
 30
0
 70
128
 71
16
 72
17
 73
21
 74
20
 0
VERTEX
 8
CYLINDE2
 10
0
 20
0
 30
0
 70
128
 71
18
 72
2
 73
22
 74
22
 0
VERTEX
 8
CYLINDE2
 10
0
 20
0
 30
0
 70
128
 71
44
 72
45
 73
49
 74
48
 0
VERTEX
 8
CYLINDE2
 10
0
 20
0
 30
0
 70
128
 71
20
 72
21
 73
25
 74
24
 0
VERTEX
 8
CYLINDE2
 10
0
 20
0
 30
0
 70
128
 71
22
 72
2
 73
26
 74
26
 0
VERTEX
 8
CYLINDE2
 10
0
 20
0
 30
0
 70
128
 71
46
 72
2
 73
1
 74
1
 0
VERTEX
 8
CYLINDE2
 10
0
 20
0
 30
0
 70
128
 71
24
 72
25
 73
29
 74
28
 0
VERTEX
 8
CYLINDE2
 10
0
 20
0
 30
0
 70
128
 71
26
 72
2
 73
30
 74
30
 0
VERTEX
 8
CYLINDE2
 10
0
 20
0
 30
0
 70
128
 71
48
 72
49
 73
5
 74
4
 0
VERTEX
 8
CYLINDE2
 10
0
 20
0
 30
0
 70
128
 71
28
 72
29
 73
33
 74
32
 0
VERTEX
 8
CYLINDE2
 10
0
 20
0
 30
0
 70
128
 71
30
 72
2
 73
34
 74
34
 0
VERTEX
 8
CYLINDE2
 10
0
 20
0
 30
0
 70
128
 71
1
 72
2
 73
6
 74
6
 0
VERTEX
 8
CYLINDE2
 10
0
 20
0
 30
0
 70
128
 71
32
 72
33
 73
37
 74
36
 0
VERTEX
 8
CYLINDE2
 10
0
 20
0
 30
0
 70
128
 71
34
 72
2
 73
38
 74
38
 0
SEQEND
 0
POLYLINE
 8
CYLIN3
 66
1
 10
0.0
 20
0.0
 30
0.0
 70
64
 71
16
 72
8
 0
VERTEX
 8
CYLIN3
 10
0.4103
 20
0.0107
 30
16.5442
 70
192
 0
VERTEX
 8
CYLIN3
 10
0.4103
 20
0.0107
 30
18.5442
 70
192
 0
VERTEX
 8
CYLIN3
 10
0.2639
 20
0.3643
 30
16.5442
 70
192
 0
VERTEX
 8
CYLIN3
 10
0.2639
 20
0.3643
 30
18.5442
 70
192
 0
VERTEX
 8
CYLIN3
 10
-0.0897
 20
0.5107
 30
16.5442
 70
192
 0
VERTEX
 8
CYLIN3
 10
-0.0897
 20
0.5107
 30
18.5442
 70
192
 0
VERTEX
 8
CYLIN3
 10
-0.4432
 20
0.3643
 30
16.5442
 70
192
 0
VERTEX
 8
CYLIN3
 10
-0.4432
 20
0.3643
 30
18.5442
 70
192
 0
VERTEX
 8
CYLIN3
 10
-0.5897
 20
0.0107
 30
16.5442
 70
192
 0
VERTEX
 8
CYLIN3
 10
-0.5897
 20
0.0107
 30
18.5442
 70
192
 0
VERTEX
 8
CYLIN3
 10
-0.4432
 20
-0.3429
 30
16.5442
 70
192
 0
VERTEX
 8
CYLIN3
 10
-0.4432
 20
-0.3429
 30
18.5442
 70
192
 0
VERTEX
 8
CYLIN3
 10
-0.0897
 20
-0.4893
 30
16.5442
 70
192
 0
VERTEX
 8
CYLIN3
 10
-0.0897
 20
-0.4893
 30
18.5442
 70
192
 0
VERTEX
 8
CYLIN3
 10
0.2639
 20
-0.3429
 30
16.5442
 70
192
 0
VERTEX
 8
CYLIN3
 10
0.2639
 20
-0.3429
 30
18.5442
 70
192
 0
VERTEX
 8
CYLIN3
 10
0
 20
0
 30
0
 70
128
 71
1
 72
2
 73
4
 74
3
 0
VERTEX
 8
CYLIN3
 10
0
 20
0
 30
0
 70
128
 71
3
 72
4
 73
6
 74
5
 0
VERTEX
 8
CYLIN3
 10
0
 20
0
 30
0
 70
128
 71
5
 72
6
 73
8
 74
7
 0
VERTEX
 8
CYLIN3
 10
0
 20
0
 30
0
 70
128
 71
7
 72
8
 73
10
 74
9
 0
VERTEX
 8
CYLIN3
 10
0
 20
0
 30
0
 70
128
 71
9
 72
10
 73
12
 74
11
 0
VERTEX
 8
CYLIN3
 10
0
 20
0
 30
0
 70
128
 71
11
 72
12
 73
14
 74
13
 0
VERTEX
 8
CYLIN3
 10
0
 20
0
 30
0
 70
128
 71
13
 72
14
 73
16
 74
15
 0
VERTEX
 8
CYLIN3
 10
0
 20
0
 30
0
 70
128
 71
15
 72
16
 73
2
 74
1
 0
SEQEND
 0
POLYLINE
 8
K_RPER
 66
1
 10
0.0
 20
0.0
 30
0.0
 70
64
 71
8
 72
6
 0
VERTEX
 8
K_RPER
 10
-9.0956
 20
-14.9988
 30
15.0412
 70
192
 0
VERTEX
 8
K_RPER
 10
-9.0956
 20
-14.9988
 30
16.0412
 70
192
 0
VERTEX
 8
K_RPER
 10
8.9044
 20
-14.9988
 30
15.0412
 70
192
 0
VERTEX
 8
K_RPER
 10
8.9044
 20
-14.9988
 30
16.0412
 70
192
 0
VERTEX
 8
K_RPER
 10
8.9044
 20
15.0012
 30
15.0412
 70
192
 0
VERTEX
 8
K_RPER
 10
8.9044
 20
15.0012
 30
16.0412
 70
192
 0
VERTEX
 8
K_RPER
 10
-9.0956
 20
15.0012
 30
15.0412
 70
192
 0
VERTEX
 8
K_RPER
 10
-9.0956
 20
15.0012
 30
16.0412
 70
192
 0
VERTEX
 8
K_RPER
 10
0
 20
0
 30
0
 70
128
 71
1
 72
2
 73
4
 74
3
 0
VERTEX
 8
K_RPER
 10
0
 20
0
 30
0
 70
128
 71
3
 72
4
 73
6
 74
5
 0
VERTEX
 8
K_RPER
 10
0
 20
0
 30
0
 70
128
 71
5
 72
6
 73
8
 74
7
 0
VERTEX
 8
K_RPER
 10
0
 20
0
 30
0
 70
128
 71
7
 72
8
 73
2
 74
1
 0
VERTEX
 8
K_RPER
 10
0
 20
0
 30
0
 70
128
 71
2
 72
8
 73
6
 74
4
 0
VERTEX
 8
K_RPER
 10
0
 20
0
 30
0
 70
128
 71
7
 72
1
 73
3
 74
5
 0
SEQEND
 0
POLYLINE
 8
TUBE_INSTANCE_14_8
 66
1
 10
0.0
 20
0.0
 30
0.0
 70
64
 71
20
 72
7
 0
VERTEX
 8
TUBE_INSTANCE_14_8
 10
-7.5095
 20
13.575
 30
15.6473
 70
192
 0
VERTEX
 8
TUBE_INSTANCE_14_8
 10
-7.2381
 20
13.4868
 30
14.9207
 70
192
 0
VERTEX
 8
TUBE_INSTANCE_14_8
 10
-7.2381
 20
13.4868
 30
14.9207
 70
192
 0
VERTEX
 8
TUBE_INSTANCE_14_8
 10
-7.2381
 20
13.4868
 30
15.6473
 70
192
 0
VERTEX
 8
TUBE_INSTANCE_14_8
 10
-7.2381
 20
13.4868
 30
15.6473
 70
192
 0
VERTEX
 8
TUBE_INSTANCE_14_8
 10
-7.5095
 20
13.3986
 30
14.9207
 70
192
 0
VERTEX
 8
TUBE_INSTANCE_14_8
 10
-7.5095
 20
13.3986
 30
14.9207
 70
192
 0
VERTEX
 8
TUBE_INSTANCE_14_8
 10
-7.5095
 20
13.3986
 30
15.6473
 70
192
 0
VERTEX
 8
TUBE_INSTANCE_14_8
 10
-7.5095
 20
13.3986
 30
15.6473
 70
192
 0
VERTEX
 8
TUBE_INSTANCE_14_8
 10
-7.3418
 20
13.6295
 30
14.9207
 70
192
 0
VERTEX
 8
TUBE_INSTANCE_14_8
 10
-7.3418
 20
13.6295
 30
14.9207
 70
192
 0
VERTEX
 8
TUBE_INSTANCE_14_8
 10
-7.3418
 20
13.6295
 30
15.6473
 70
192
 0
VERTEX
 8
TUBE_INSTANCE_14_8
 10
-7.3418
 20
13.6295
 30
15.6473
 70
192
 0
VERTEX
 8
TUBE_INSTANCE_14_8
 10
-7.3418
 20
13.3442
 30
15.6473
 70
192
 0
VERTEX
 8
TUBE_INSTANCE_14_8
 10
-7.3418
 20
13.3442
 30
14.9207
 70
192
 0
VERTEX
 8
TUBE_INSTANCE_14_8
 10
-7.3418
 20
13.3442
 30
14.9207
 70
192
 0
VERTEX
 8
TUBE_INSTANCE_14_8
 10
-7.3418
 20
13.3442
 30
15.6473
 70
192
 0
VERTEX
 8
TUBE_INSTANCE_14_8
 10
-7.5095
 20
13.575
 30
14.9207
 70
192
 0
VERTEX
 8
TUBE_INSTANCE_14_8
 10
-7.5095
 20
13.575
 30
14.9207
 70
192
 0
VERTEX
 8
TUBE_INSTANCE_14_8
 10
-7.5095
 20
13.575
 30
15.6473
 70
192
 0
VERTEX
 8
TUBE_INSTANCE_14_8
 10
0
 20
0
 30
0
 70
128
 71
11
 72
12
 73
20
 74
19
 0
VERTEX
 8
TUBE_INSTANCE_14_8
 10
0
 20
0
 30
0
 70
128
 71
3
 72
4
 73
12
 74
11
 0
VERTEX
 8
TUBE_INSTANCE_14_8
 10
0
 20
0
 30
0
 70
128
 71
19
 72
20
 73
8
 74
7
 0
VERTEX
 8
TUBE_INSTANCE_14_8
 10
0
 20
0
 30
0
 70
128
 71
7
 72
8
 73
17
 74
16
 0
VERTEX
 8
TUBE_INSTANCE_14_8
 10
0
 20
0
 30
0
 70
128
 71
16
 72
17
 73
4
 74
3
 0
VERTEX
 8
TUBE_INSTANCE_14_8
 10
0
 20
0
 30
0
 70
128
 71
3
 72
11
 73
7
 74
16
 0
VERTEX
 8
TUBE_INSTANCE_14_8
 10
0
 20
0
 30
0
 70
128
 71
11
 72
19
 73
7
 74
7
 0
SEQEND
 0
POLYLINE
 8
TUBE_INSTANCE_13_8
 66
1
 10
0.0
 20
0.0
 30
0.0
 70
64
 71
20
 72
7
 0
VERTEX
 8
TUBE_INSTANCE_13_8
 10
-7.5095
 20
11.7503
 30
15.6473
 70
192
 0
VERTEX
 8
TUBE_INSTANCE_13_8
 10
-7.2381
 20
11.6621
 30
14.9207
 70
192
 0
VERTEX
 8
TUBE_INSTANCE_13_8
 10
-7.2381
 20
11.6621
 30
14.9207
 70
192
 0
VERTEX
 8
TUBE_INSTANCE_13_8
 10
-7.2381
 20
11.6621
 30
15.6473
 70
192
 0
VERTEX
 8
TUBE_INSTANCE_13_8
 10
-7.2381
 20
11.6621
 30
15.6473
 70
192
 0
VERTEX
 8
TUBE_INSTANCE_13_8
 10
-7.5095
 20
11.574
 30
14.9207
 70
192
 0
VERTEX
 8
TUBE_INSTANCE_13_8
 10
-7.5095
 20
11.574
 30
14.9207
 70
192
 0
VERTEX
 8
TUBE_INSTANCE_13_8
 10
-7.5095
 20
11.574
 30
15.6473
 70
192
 0
VERTEX
 8
TUBE_INSTANCE_13_8
 10
-7.5095
 20
11.574
 30
15.6473
 70
192
 0
VERTEX
 8
TUBE_INSTANCE_13_8
 10
-7.3418
 20
11.8048
 30
14.9207
 70
192
 0
VERTEX
 8
TUBE_INSTANCE_13_8
 10
-7.3418
 20
11.8048
 30
14.9207
 70
192
 0
VERTEX
 8
TUBE_INSTANCE_13_8
 10
-7.3418
 20
11.8048
 30
15.6473
 70
192
 0
VERTEX
 8
TUBE_INSTANCE_13_8
 10
-7.3418
 20
11.8048
 30
15.6473
 70
192
 0
VERTEX
 8
TUBE_INSTANCE_13_8
 10
-7.3418
 20
11.5195
 30
15.6473
 70
192
 0
VERTEX
 8
TUBE_INSTANCE_13_8
 10
-7.3418
 20
11.5195
 30
14.9207
 70
192
 0
VERTEX
 8
TUBE_INSTANCE_13_8
 10
-7.3418
 20
11.5195
 30
14.9207
 70
192
 0
VERTEX
 8
TUBE_INSTANCE_13_8
 10
-7.3418
 20
11.5195
 30
15.6473
 70
192
 0
VERTEX
 8
TUBE_INSTANCE_13_8
 10
-7.5095
 20
11.7503
 30
14.9207
 70
192
 0
VERTEX
 8
TUBE_INSTANCE_13_8
 10
-7.5095
 20
11.7503
 30
14.9207
 70
192
 0
VERTEX
 8
TUBE_INSTANCE_13_8
 10
-7.5095
 20
11.7503
 30
15.6473
 70
192
 0
VERTEX
 8
TUBE_INSTANCE_13_8
 10
0
 20
0
 30
0
 70
128
 71
11
 72
12
 73
20
 74
19
 0
VERTEX
 8
TUBE_INSTANCE_13_8
 10
0
 20
0
 30
0
 70
128
 71
3
 72
4
 73
12
 74
11
 0
VERTEX
 8
TUBE_INSTANCE_13_8
 10
0
 20
0
 30
0
 70
128
 71
19
 72
20
 73
8
 74
7
 0
VERTEX
 8
TUBE_INSTANCE_13_8
 10
0
 20
0
 30
0
 70
128
 71
7
 72
8
 73
17
 74
16
 0
VERTEX
 8
TUBE_INSTANCE_13_8
 10
0
 20
0
 30
0
 70
128
 71
16
 72
17
 73
4
 74
3
 0
VERTEX
 8
TUBE_INSTANCE_13_8
 10
0
 20
0
 30
0
 70
128
 71
3
 72
11
 73
7
 74
16
 0
VERTEX
 8
TUBE_INSTANCE_13_8
 10
0
 20
0
 30
0
 70
128
 71
11
 72
19
 73
7
 74
7
 0
SEQEND
 0
POLYLINE
 8
TUBE_INSTANCE_12_8
 66
1
 10
0.0
 20
0.0
 30
0.0
 70
64
 71
20
 72
7
 0
VERTEX
 8
TUBE_INSTANCE_12_8
 10
-7.5095
 20
9.923
 30
15.6473
 70
192
 0
VERTEX
 8
TUBE_INSTANCE_12_8
 10
-7.2381
 20
9.8349
 30
14.9207
 70
192
 0
VERTEX
 8
TUBE_INSTANCE_12_8
 10
-7.2381
 20
9.8349
 30
14.9207
 70
192
 0
VERTEX
 8
TUBE_INSTANCE_12_8
 10
-7.2381
 20
9.8349
 30
15.6473
 70
192
 0
VERTEX
 8
TUBE_INSTANCE_12_8
 10
-7.2381
 20
9.8349
 30
15.6473
 70
192
 0
VERTEX
 8
TUBE_INSTANCE_12_8
 10
-7.5095
 20
9.7467
 30
14.9207
 70
192
 0
VERTEX
 8
TUBE_INSTANCE_12_8
 10
-7.5095
 20
9.7467
 30
14.9207
 70
192
 0
VERTEX
 8
TUBE_INSTANCE_12_8
 10
-7.5095
 20
9.7467
 30
15.6473
 70
192
 0
VERTEX
 8
TUBE_INSTANCE_12_8
 10
-7.5095
 20
9.7467
 30
15.6473
 70
192
 0
VERTEX
 8
TUBE_INSTANCE_12_8
 10
-7.3418
 20
9.9775
 30
14.9207
 70
192
 0
VERTEX
 8
TUBE_INSTANCE_12_8
 10
-7.3418
 20
9.9775
 30
14.9207
 70
192
 0
VERTEX
 8
TUBE_INSTANCE_12_8
 10
-7.3418
 20
9.9775
 30
15.6473
 70
192
 0
VERTEX
 8
TUBE_INSTANCE_12_8
 10
-7.3418
 20
9.9775
 30
15.6473
 70
192
 0
VERTEX
 8
TUBE_INSTANCE_12_8
 10
-7.3418
 20
9.6922
 30
15.6473
 70
192
 0
VERTEX
 8
TUBE_INSTANCE_12_8
 10
-7.3418
 20
9.6922
 30
14.9207
 70
192
 0
VERTEX
 8
TUBE_INSTANCE_12_8
 10
-7.3418
 20
9.6922
 30
14.9207
 70
192
 0
VERTEX
 8
TUBE_INSTANCE_12_8
 10
-7.3418
 20
9.6922
 30
15.6473
 70
192
 0
VERTEX
 8
TUBE_INSTANCE_12_8
 10
-7.5095
 20
9.923
 30
14.9207
 70
192
 0
VERTEX
 8
TUBE_INSTANCE_12_8
 10
-7.5095
 20
9.923
 30
14.9207
 70
192
 0
VERTEX
 8
TUBE_INSTANCE_12_8
 10
-7.5095
 20
9.923
 30
15.6473
 70
192
 0
VERTEX
 8
TUBE_INSTANCE_12_8
 10
0
 20
0
 30
0
 70
128
 71
11
 72
12
 73
20
 74
19
 0
VERTEX
 8
TUBE_INSTANCE_12_8
 10
0
 20
0
 30
0
 70
128
 71
3
 72
4
 73
12
 74
11
 0
VERTEX
 8
TUBE_INSTANCE_12_8
 10
0
 20
0
 30
0
 70
128
 71
19
 72
20
 73
8
 74
7
 0
VERTEX
 8
TUBE_INSTANCE_12_8
 10
0
 20
0
 30
0
 70
128
 71
7
 72
8
 73
17
 74
16
 0
VERTEX
 8
TUBE_INSTANCE_12_8
 10
0
 20
0
 30
0
 70
128
 71
16
 72
17
 73
4
 74
3
 0
VERTEX
 8
TUBE_INSTANCE_12_8
 10
0
 20
0
 30
0
 70
128
 71
3
 72
11
 73
7
 74
16
 0
VERTEX
 8
TUBE_INSTANCE_12_8
 10
0
 20
0
 30
0
 70
128
 71
11
 72
19
 73
7
 74
7
 0
SEQEND
 0
POLYLINE
 8
TUBE_INSTANCE_11_8
 66
1
 10
0.0
 20
0.0
 30
0.0
 70
64
 71
20
 72
7
 0
VERTEX
 8
TUBE_INSTANCE_11_8
 10
-7.5095
 20
8.1242
 30
15.6473
 70
192
 0
VERTEX
 8
TUBE_INSTANCE_11_8
 10
-7.2381
 20
8.036
 30
14.9207
 70
192
 0
VERTEX
 8
TUBE_INSTANCE_11_8
 10
-7.2381
 20
8.036
 30
14.9207
 70
192
 0
VERTEX
 8
TUBE_INSTANCE_11_8
 10
-7.2381
 20
8.036
 30
15.6473
 70
192
 0
VERTEX
 8
TUBE_INSTANCE_11_8
 10
-7.2381
 20
8.036
 30
15.6473
 70
192
 0
VERTEX
 8
TUBE_INSTANCE_11_8
 10
-7.5095
 20
7.9479
 30
14.9207
 70
192
 0
VERTEX
 8
TUBE_INSTANCE_11_8
 10
-7.5095
 20
7.9479
 30
14.9207
 70
192
 0
VERTEX
 8
TUBE_INSTANCE_11_8
 10
-7.5095
 20
7.9479
 30
15.6473
 70
192
 0
VERTEX
 8
TUBE_INSTANCE_11_8
 10
-7.5095
 20
7.9479
 30
15.6473
 70
192
 0
VERTEX
 8
TUBE_INSTANCE_11_8
 10
-7.3418
 20
8.1787
 30
14.9207
 70
192
 0
VERTEX
 8
TUBE_INSTANCE_11_8
 10
-7.3418
 20
8.1787
 30
14.9207
 70
192
 0
VERTEX
 8
TUBE_INSTANCE_11_8
 10
-7.3418
 20
8.1787
 30
15.6473
 70
192
 0
VERTEX
 8
TUBE_INSTANCE_11_8
 10
-7.3418
 20
8.1787
 30
15.6473
 70
192
 0
VERTEX
 8
TUBE_INSTANCE_11_8
 10
-7.3418
 20
7.8934
 30
15.6473
 70
192
 0
VERTEX
 8
TUBE_INSTANCE_11_8
 10
-7.3418
 20
7.8934
 30
14.9207
 70
192
 0
VERTEX
 8
TUBE_INSTANCE_11_8
 10
-7.3418
 20
7.8934
 30
14.9207
 70
192
 0
VERTEX
 8
TUBE_INSTANCE_11_8
 10
-7.3418
 20
7.8934
 30
15.6473
 70
192
 0
VERTEX
 8
TUBE_INSTANCE_11_8
 10
-7.5095
 20
8.1242
 30
14.9207
 70
192
 0
VERTEX
 8
TUBE_INSTANCE_11_8
 10
-7.5095
 20
8.1242
 30
14.9207
 70
192
 0
VERTEX
 8
TUBE_INSTANCE_11_8
 10
-7.5095
 20
8.1242
 30
15.6473
 70
192
 0
VERTEX
 8
TUBE_INSTANCE_11_8
 10
0
 20
0
 30
0
 70
128
 71
11
 72
12
 73
20
 74
19
 0
VERTEX
 8
TUBE_INSTANCE_11_8
 10
0
 20
0
 30
0
 70
128
 71
3
 72
4
 73
12
 74
11
 0
VERTEX
 8
TUBE_INSTANCE_11_8
 10
0
 20
0
 30
0
 70
128
 71
19
 72
20
 73
8
 74
7
 0
VERTEX
 8
TUBE_INSTANCE_11_8
 10
0
 20
0
 30
0
 70
128
 71
7
 72
8
 73
17
 74
16
 0
VERTEX
 8
TUBE_INSTANCE_11_8
 10
0
 20
0
 30
0
 70
128
 71
16
 72
17
 73
4
 74
3
 0
VERTEX
 8
TUBE_INSTANCE_11_8
 10
0
 20
0
 30
0
 70
128
 71
3
 72
11
 73
7
 74
16
 0
VERTEX
 8
TUBE_INSTANCE_11_8
 10
0
 20
0
 30
0
 70
128
 71
11
 72
19
 73
7
 74
7
 0
SEQEND
 0
POLYLINE
 8
TUBE_INSTANCE_10_8
 66
1
 10
0.0
 20
0.0
 30
0.0
 70
64
 71
20
 72
7
 0
VERTEX
 8
TUBE_INSTANCE_10_8
 10
-7.5095
 20
6.2861
 30
15.6473
 70
192
 0
VERTEX
 8
TUBE_INSTANCE_10_8
 10
-7.2381
 20
6.198
 30
14.9207
 70
192
 0
VERTEX
 8
TUBE_INSTANCE_10_8
 10
-7.2381
 20
6.198
 30
14.9207
 70
192
 0
VERTEX
 8
TUBE_INSTANCE_10_8
 10
-7.2381
 20
6.198
 30
15.6473
 70
192
 0
VERTEX
 8
TUBE_INSTANCE_10_8
 10
-7.2381
 20
6.198
 30
15.6473
 70
192
 0
VERTEX
 8
TUBE_INSTANCE_10_8
 10
-7.5095
 20
6.1098
 30
14.9207
 70
192
 0
VERTEX
 8
TUBE_INSTANCE_10_8
 10
-7.5095
 20
6.1098
 30
14.9207
 70
192
 0
VERTEX
 8
TUBE_INSTANCE_10_8
 10
-7.5095
 20
6.1098
 30
15.6473
 70
192
 0
VERTEX
 8
TUBE_INSTANCE_10_8
 10
-7.5095
 20
6.1098
 30
15.6473
 70
192
 0
VERTEX
 8
TUBE_INSTANCE_10_8
 10
-7.3418
 20
6.3406
 30
14.9207
 70
192
 0
VERTEX
 8
TUBE_INSTANCE_10_8
 10
-7.3418
 20
6.3406
 30
14.9207
 70
192
 0
VERTEX
 8
TUBE_INSTANCE_10_8
 10
-7.3418
 20
6.3406
 30
15.6473
 70
192
 0
VERTEX
 8
TUBE_INSTANCE_10_8
 10
-7.3418
 20
6.3406
 30
15.6473
 70
192
 0
VERTEX
 8
TUBE_INSTANCE_10_8
 10
-7.3418
 20
6.0553
 30
15.6473
 70
192
 0
VERTEX
 8
TUBE_INSTANCE_10_8
 10
-7.3418
 20
6.0553
 30
14.9207
 70
192
 0
VERTEX
 8
TUBE_INSTANCE_10_8
 10
-7.3418
 20
6.0553
 30
14.9207
 70
192
 0
VERTEX
 8
TUBE_INSTANCE_10_8
 10
-7.3418
 20
6.0553
 30
15.6473
 70
192
 0
VERTEX
 8
TUBE_INSTANCE_10_8
 10
-7.5095
 20
6.2861
 30
14.9207
 70
192
 0
VERTEX
 8
TUBE_INSTANCE_10_8
 10
-7.5095
 20
6.2861
 30
14.9207
 70
192
 0
VERTEX
 8
TUBE_INSTANCE_10_8
 10
-7.5095
 20
6.2861
 30
15.6473
 70
192
 0
VERTEX
 8
TUBE_INSTANCE_10_8
 10
0
 20
0
 30
0
 70
128
 71
11
 72
12
 73
20
 74
19
 0
VERTEX
 8
TUBE_INSTANCE_10_8
 10
0
 20
0
 30
0
 70
128
 71
3
 72
4
 73
12
 74
11
 0
VERTEX
 8
TUBE_INSTANCE_10_8
 10
0
 20
0
 30
0
 70
128
 71
19
 72
20
 73
8
 74
7
 0
VERTEX
 8
TUBE_INSTANCE_10_8
 10
0
 20
0
 30
0
 70
128
 71
7
 72
8
 73
17
 74
16
 0
VERTEX
 8
TUBE_INSTANCE_10_8
 10
0
 20
0
 30
0
 70
128
 71
16
 72
17
 73
4
 74
3
 0
VERTEX
 8
TUBE_INSTANCE_10_8
 10
0
 20
0
 30
0
 70
128
 71
3
 72
11
 73
7
 74
16
 0
VERTEX
 8
TUBE_INSTANCE_10_8
 10
0
 20
0
 30
0
 70
128
 71
11
 72
19
 73
7
 74
7
 0
SEQEND
 0
POLYLINE
 8
TUBE_INSTANCE_9_8
 66
1
 10
0.0
 20
0.0
 30
0.0
 70
64
 71
20
 72
7
 0
VERTEX
 8
TUBE_INSTANCE_9_8
 10
-7.5095
 20
4.4401
 30
15.6473
 70
192
 0
VERTEX
 8
TUBE_INSTANCE_9_8
 10
-7.2381
 20
4.3519
 30
14.9207
 70
192
 0
VERTEX
 8
TUBE_INSTANCE_9_8
 10
-7.2381
 20
4.3519
 30
14.9207
 70
192
 0
VERTEX
 8
TUBE_INSTANCE_9_8
 10
-7.2381
 20
4.3519
 30
15.6473
 70
192
 0
VERTEX
 8
TUBE_INSTANCE_9_8
 10
-7.2381
 20
4.3519
 30
15.6473
 70
192
 0
VERTEX
 8
TUBE_INSTANCE_9_8
 10
-7.5095
 20
4.2637
 30
14.9207
 70
192
 0
VERTEX
 8
TUBE_INSTANCE_9_8
 10
-7.5095
 20
4.2637
 30
14.9207
 70
192
 0
VERTEX
 8
TUBE_INSTANCE_9_8
 10
-7.5095
 20
4.2637
 30
15.6473
 70
192
 0
VERTEX
 8
TUBE_INSTANCE_9_8
 10
-7.5095
 20
4.2637
 30
15.6473
 70
192
 0
VERTEX
 8
TUBE_INSTANCE_9_8
 10
-7.3418
 20
4.4945
 30
14.9207
 70
192
 0
VERTEX
 8
TUBE_INSTANCE_9_8
 10
-7.3418
 20
4.4945
 30
14.9207
 70
192
 0
VERTEX
 8
TUBE_INSTANCE_9_8
 10
-7.3418
 20
4.4945
 30
15.6473
 70
192
 0
VERTEX
 8
TUBE_INSTANCE_9_8
 10
-7.3418
 20
4.4945
 30
15.6473
 70
192
 0
VERTEX
 8
TUBE_INSTANCE_9_8
 10
-7.3418
 20
4.2092
 30
15.6473
 70
192
 0
VERTEX
 8
TUBE_INSTANCE_9_8
 10
-7.3418
 20
4.2092
 30
14.9207
 70
192
 0
VERTEX
 8
TUBE_INSTANCE_9_8
 10
-7.3418
 20
4.2092
 30
14.9207
 70
192
 0
VERTEX
 8
TUBE_INSTANCE_9_8
 10
-7.3418
 20
4.2092
 30
15.6473
 70
192
 0
VERTEX
 8
TUBE_INSTANCE_9_8
 10
-7.5095
 20
4.4401
 30
14.9207
 70
192
 0
VERTEX
 8
TUBE_INSTANCE_9_8
 10
-7.5095
 20
4.4401
 30
14.9207
 70
192
 0
VERTEX
 8
TUBE_INSTANCE_9_8
 10
-7.5095
 20
4.4401
 30
15.6473
 70
192
 0
VERTEX
 8
TUBE_INSTANCE_9_8
 10
0
 20
0
 30
0
 70
128
 71
11
 72
12
 73
20
 74
19
 0
VERTEX
 8
TUBE_INSTANCE_9_8
 10
0
 20
0
 30
0
 70
128
 71
3
 72
4
 73
12
 74
11
 0
VERTEX
 8
TUBE_INSTANCE_9_8
 10
0
 20
0
 30
0
 70
128
 71
19
 72
20
 73
8
 74
7
 0
VERTEX
 8
TUBE_INSTANCE_9_8
 10
0
 20
0
 30
0
 70
128
 71
7
 72
8
 73
17
 74
16
 0
VERTEX
 8
TUBE_INSTANCE_9_8
 10
0
 20
0
 30
0
 70
128
 71
16
 72
17
 73
4
 74
3
 0
VERTEX
 8
TUBE_INSTANCE_9_8
 10
0
 20
0
 30
0
 70
128
 71
3
 72
11
 73
7
 74
16
 0
VERTEX
 8
TUBE_INSTANCE_9_8
 10
0
 20
0
 30
0
 70
128
 71
11
 72
19
 73
7
 74
7
 0
SEQEND
 0
POLYLINE
 8
TUBE_INSTANCE_8_8
 66
1
 10
0.0
 20
0.0
 30
0.0
 70
64
 71
20
 72
7
 0
VERTEX
 8
TUBE_INSTANCE_8_8
 10
-7.5095
 20
2.6774
 30
15.6473
 70
192
 0
VERTEX
 8
TUBE_INSTANCE_8_8
 10
-7.2381
 20
2.5892
 30
14.9207
 70
192
 0
VERTEX
 8
TUBE_INSTANCE_8_8
 10
-7.2381
 20
2.5892
 30
14.9207
 70
192
 0
VERTEX
 8
TUBE_INSTANCE_8_8
 10
-7.2381
 20
2.5892
 30
15.6473
 70
192
 0
VERTEX
 8
TUBE_INSTANCE_8_8
 10
-7.2381
 20
2.5892
 30
15.6473
 70
192
 0
VERTEX
 8
TUBE_INSTANCE_8_8
 10
-7.5095
 20
2.501
 30
14.9207
 70
192
 0
VERTEX
 8
TUBE_INSTANCE_8_8
 10
-7.5095
 20
2.501
 30
14.9207
 70
192
 0
VERTEX
 8
TUBE_INSTANCE_8_8
 10
-7.5095
 20
2.501
 30
15.6473
 70
192
 0
VERTEX
 8
TUBE_INSTANCE_8_8
 10
-7.5095
 20
2.501
 30
15.6473
 70
192
 0
VERTEX
 8
TUBE_INSTANCE_8_8
 10
-7.3418
 20
2.7318
 30
14.9207
 70
192
 0
VERTEX
 8
TUBE_INSTANCE_8_8
 10
-7.3418
 20
2.7318
 30
14.9207
 70
192
 0
VERTEX
 8
TUBE_INSTANCE_8_8
 10
-7.3418
 20
2.7318
 30
15.6473
 70
192
 0
VERTEX
 8
TUBE_INSTANCE_8_8
 10
-7.3418
 20
2.7318
 30
15.6473
 70
192
 0
VERTEX
 8
TUBE_INSTANCE_8_8
 10
-7.3418
 20
2.4465
 30
15.6473
 70
192
 0
VERTEX
 8
TUBE_INSTANCE_8_8
 10
-7.3418
 20
2.4465
 30
14.9207
 70
192
 0
VERTEX
 8
TUBE_INSTANCE_8_8
 10
-7.3418
 20
2.4465
 30
14.9207
 70
192
 0
VERTEX
 8
TUBE_INSTANCE_8_8
 10
-7.3418
 20
2.4465
 30
15.6473
 70
192
 0
VERTEX
 8
TUBE_INSTANCE_8_8
 10
-7.5095
 20
2.6774
 30
14.9207
 70
192
 0
VERTEX
 8
TUBE_INSTANCE_8_8
 10
-7.5095
 20
2.6774
 30
14.9207
 70
192
 0
VERTEX
 8
TUBE_INSTANCE_8_8
 10
-7.5095
 20
2.6774
 30
15.6473
 70
192
 0
VERTEX
 8
TUBE_INSTANCE_8_8
 10
0
 20
0
 30
0
 70
128
 71
11
 72
12
 73
20
 74
19
 0
VERTEX
 8
TUBE_INSTANCE_8_8
 10
0
 20
0
 30
0
 70
128
 71
3
 72
4
 73
12
 74
11
 0
VERTEX
 8
TUBE_INSTANCE_8_8
 10
0
 20
0
 30
0
 70
128
 71
19
 72
20
 73
8
 74
7
 0
VERTEX
 8
TUBE_INSTANCE_8_8
 10
0
 20
0
 30
0
 70
128
 71
7
 72
8
 73
17
 74
16
 0
VERTEX
 8
TUBE_INSTANCE_8_8
 10
0
 20
0
 30
0
 70
128
 71
16
 72
17
 73
4
 74
3
 0
VERTEX
 8
TUBE_INSTANCE_8_8
 10
0
 20
0
 30
0
 70
128
 71
3
 72
11
 73
7
 74
16
 0
VERTEX
 8
TUBE_INSTANCE_8_8
 10
0
 20
0
 30
0
 70
128
 71
11
 72
19
 73
7
 74
7
 0
SEQEND
 0
POLYLINE
 8
TUBE_INSTANCE_7_8
 66
1
 10
0.0
 20
0.0
 30
0.0
 70
64
 71
20
 72
7
 0
VERTEX
 8
TUBE_INSTANCE_7_8
 10
-7.5095
 20
0.9035
 30
15.6473
 70
192
 0
VERTEX
 8
TUBE_INSTANCE_7_8
 10
-7.2381
 20
0.8153
 30
14.9207
 70
192
 0
VERTEX
 8
TUBE_INSTANCE_7_8
 10
-7.2381
 20
0.8153
 30
14.9207
 70
192
 0
VERTEX
 8
TUBE_INSTANCE_7_8
 10
-7.2381
 20
0.8153
 30
15.6473
 70
192
 0
VERTEX
 8
TUBE_INSTANCE_7_8
 10
-7.2381
 20
0.8153
 30
15.6473
 70
192
 0
VERTEX
 8
TUBE_INSTANCE_7_8
 10
-7.5095
 20
0.7271
 30
14.9207
 70
192
 0
VERTEX
 8
TUBE_INSTANCE_7_8
 10
-7.5095
 20
0.7271
 30
14.9207
 70
192
 0
VERTEX
 8
TUBE_INSTANCE_7_8
 10
-7.5095
 20
0.7271
 30
15.6473
 70
192
 0
VERTEX
 8
TUBE_INSTANCE_7_8
 10
-7.5095
 20
0.7271
 30
15.6473
 70
192
 0
VERTEX
 8
TUBE_INSTANCE_7_8
 10
-7.3418
 20
0.958
 30
14.9207
 70
192
 0
VERTEX
 8
TUBE_INSTANCE_7_8
 10
-7.3418
 20
0.958
 30
14.9207
 70
192
 0
VERTEX
 8
TUBE_INSTANCE_7_8
 10
-7.3418
 20
0.958
 30
15.6473
 70
192
 0
VERTEX
 8
TUBE_INSTANCE_7_8
 10
-7.3418
 20
0.958
 30
15.6473
 70
192
 0
VERTEX
 8
TUBE_INSTANCE_7_8
 10
-7.3418
 20
0.6727
 30
15.6473
 70
192
 0
VERTEX
 8
TUBE_INSTANCE_7_8
 10
-7.3418
 20
0.6727
 30
14.9207
 70
192
 0
VERTEX
 8
TUBE_INSTANCE_7_8
 10
-7.3418
 20
0.6727
 30
14.9207
 70
192
 0
VERTEX
 8
TUBE_INSTANCE_7_8
 10
-7.3418
 20
0.6727
 30
15.6473
 70
192
 0
VERTEX
 8
TUBE_INSTANCE_7_8
 10
-7.5095
 20
0.9035
 30
14.9207
 70
192
 0
VERTEX
 8
TUBE_INSTANCE_7_8
 10
-7.5095
 20
0.9035
 30
14.9207
 70
192
 0
VERTEX
 8
TUBE_INSTANCE_7_8
 10
-7.5095
 20
0.9035
 30
15.6473
 70
192
 0
VERTEX
 8
TUBE_INSTANCE_7_8
 10
0
 20
0
 30
0
 70
128
 71
11
 72
12
 73
20
 74
19
 0
VERTEX
 8
TUBE_INSTANCE_7_8
 10
0
 20
0
 30
0
 70
128
 71
3
 72
4
 73
12
 74
11
 0
VERTEX
 8
TUBE_INSTANCE_7_8
 10
0
 20
0
 30
0
 70
128
 71
19
 72
20
 73
8
 74
7
 0
VERTEX
 8
TUBE_INSTANCE_7_8
 10
0
 20
0
 30
0
 70
128
 71
7
 72
8
 73
17
 74
16
 0
VERTEX
 8
TUBE_INSTANCE_7_8
 10
0
 20
0
 30
0
 70
128
 71
16
 72
17
 73
4
 74
3
 0
VERTEX
 8
TUBE_INSTANCE_7_8
 10
0
 20
0
 30
0
 70
128
 71
3
 72
11
 73
7
 74
16
 0
VERTEX
 8
TUBE_INSTANCE_7_8
 10
0
 20
0
 30
0
 70
128
 71
11
 72
19
 73
7
 74
7
 0
SEQEND
 0
POLYLINE
 8
TUBE_INSTANCE_6_8
 66
1
 10
0.0
 20
0.0
 30
0.0
 70
64
 71
20
 72
7
 0
VERTEX
 8
TUBE_INSTANCE_6_8
 10
-7.5095
 20
-0.9033
 30
15.6473
 70
192
 0
VERTEX
 8
TUBE_INSTANCE_6_8
 10
-7.2381
 20
-0.9915
 30
14.9207
 70
192
 0
VERTEX
 8
TUBE_INSTANCE_6_8
 10
-7.2381
 20
-0.9915
 30
14.9207
 70
192
 0
VERTEX
 8
TUBE_INSTANCE_6_8
 10
-7.2381
 20
-0.9915
 30
15.6473
 70
192
 0
VERTEX
 8
TUBE_INSTANCE_6_8
 10
-7.2381
 20
-0.9915
 30
15.6473
 70
192
 0
VERTEX
 8
TUBE_INSTANCE_6_8
 10
-7.5095
 20
-1.0796
 30
14.9207
 70
192
 0
VERTEX
 8
TUBE_INSTANCE_6_8
 10
-7.5095
 20
-1.0796
 30
14.9207
 70
192
 0
VERTEX
 8
TUBE_INSTANCE_6_8
 10
-7.5095
 20
-1.0796
 30
15.6473
 70
192
 0
VERTEX
 8
TUBE_INSTANCE_6_8
 10
-7.5095
 20
-1.0796
 30
15.6473
 70
192
 0
VERTEX
 8
TUBE_INSTANCE_6_8
 10
-7.3418
 20
-0.8488
 30
14.9207
 70
192
 0
VERTEX
 8
TUBE_INSTANCE_6_8
 10
-7.3418
 20
-0.8488
 30
14.9207
 70
192
 0
VERTEX
 8
TUBE_INSTANCE_6_8
 10
-7.3418
 20
-0.8488
 30
15.6473
 70
192
 0
VERTEX
 8
TUBE_INSTANCE_6_8
 10
-7.3418
 20
-0.8488
 30
15.6473
 70
192
 0
VERTEX
 8
TUBE_INSTANCE_6_8
 10
-7.3418
 20
-1.1341
 30
15.6473
 70
192
 0
VERTEX
 8
TUBE_INSTANCE_6_8
 10
-7.3418
 20
-1.1341
 30
14.9207
 70
192
 0
VERTEX
 8
TUBE_INSTANCE_6_8
 10
-7.3418
 20
-1.1341
 30
14.9207
 70
192
 0
VERTEX
 8
TUBE_INSTANCE_6_8
 10
-7.3418
 20
-1.1341
 30
15.6473
 70
192
 0
VERTEX
 8
TUBE_INSTANCE_6_8
 10
-7.5095
 20
-0.9033
 30
14.9207
 70
192
 0
VERTEX
 8
TUBE_INSTANCE_6_8
 10
-7.5095
 20
-0.9033
 30
14.9207
 70
192
 0
VERTEX
 8
TUBE_INSTANCE_6_8
 10
-7.5095
 20
-0.9033
 30
15.6473
 70
192
 0
VERTEX
 8
TUBE_INSTANCE_6_8
 10
0
 20
0
 30
0
 70
128
 71
11
 72
12
 73
20
 74
19
 0
VERTEX
 8
TUBE_INSTANCE_6_8
 10
0
 20
0
 30
0
 70
128
 71
3
 72
4
 73
12
 74
11
 0
VERTEX
 8
TUBE_INSTANCE_6_8
 10
0
 20
0
 30
0
 70
128
 71
19
 72
20
 73
8
 74
7
 0
VERTEX
 8
TUBE_INSTANCE_6_8
 10
0
 20
0
 30
0
 70
128
 71
7
 72
8
 73
17
 74
16
 0
VERTEX
 8
TUBE_INSTANCE_6_8
 10
0
 20
0
 30
0
 70
128
 71
16
 72
17
 73
4
 74
3
 0
VERTEX
 8
TUBE_INSTANCE_6_8
 10
0
 20
0
 30
0
 70
128
 71
3
 72
11
 73
7
 74
16
 0
VERTEX
 8
TUBE_INSTANCE_6_8
 10
0
 20
0
 30
0
 70
128
 71
11
 72
19
 73
7
 74
7
 0
SEQEND
 0
POLYLINE
 8
TUBE_INSTANCE_5_8
 66
1
 10
0.0
 20
0.0
 30
0.0
 70
64
 71
20
 72
7
 0
VERTEX
 8
TUBE_INSTANCE_5_8
 10
-7.5095
 20
-2.6809
 30
15.6473
 70
192
 0
VERTEX
 8
TUBE_INSTANCE_5_8
 10
-7.2381
 20
-2.7691
 30
14.9207
 70
192
 0
VERTEX
 8
TUBE_INSTANCE_5_8
 10
-7.2381
 20
-2.7691
 30
14.9207
 70
192
 0
VERTEX
 8
TUBE_INSTANCE_5_8
 10
-7.2381
 20
-2.7691
 30
15.6473
 70
192
 0
VERTEX
 8
TUBE_INSTANCE_5_8
 10
-7.2381
 20
-2.7691
 30
15.6473
 70
192
 0
VERTEX
 8
TUBE_INSTANCE_5_8
 10
-7.5095
 20
-2.8573
 30
14.9207
 70
192
 0
VERTEX
 8
TUBE_INSTANCE_5_8
 10
-7.5095
 20
-2.8573
 30
14.9207
 70
192
 0
VERTEX
 8
TUBE_INSTANCE_5_8
 10
-7.5095
 20
-2.8573
 30
15.6473
 70
192
 0
VERTEX
 8
TUBE_INSTANCE_5_8
 10
-7.5095
 20
-2.8573
 30
15.6473
 70
192
 0
VERTEX
 8
TUBE_INSTANCE_5_8
 10
-7.3418
 20
-2.6265
 30
14.9207
 70
192
 0
VERTEX
 8
TUBE_INSTANCE_5_8
 10
-7.3418
 20
-2.6265
 30
14.9207
 70
192
 0
VERTEX
 8
TUBE_INSTANCE_5_8
 10
-7.3418
 20
-2.6265
 30
15.6473
 70
192
 0
VERTEX
 8
TUBE_INSTANCE_5_8
 10
-7.3418
 20
-2.6265
 30
15.6473
 70
192
 0
VERTEX
 8
TUBE_INSTANCE_5_8
 10
-7.3418
 20
-2.9118
 30
15.6473
 70
192
 0
VERTEX
 8
TUBE_INSTANCE_5_8
 10
-7.3418
 20
-2.9118
 30
14.9207
 70
192
 0
VERTEX
 8
TUBE_INSTANCE_5_8
 10
-7.3418
 20
-2.9118
 30
14.9207
 70
192
 0
VERTEX
 8
TUBE_INSTANCE_5_8
 10
-7.3418
 20
-2.9118
 30
15.6473
 70
192
 0
VERTEX
 8
TUBE_INSTANCE_5_8
 10
-7.5095
 20
-2.6809
 30
14.9207
 70
192
 0
VERTEX
 8
TUBE_INSTANCE_5_8
 10
-7.5095
 20
-2.6809
 30
14.9207
 70
192
 0
VERTEX
 8
TUBE_INSTANCE_5_8
 10
-7.5095
 20
-2.6809
 30
15.6473
 70
192
 0
VERTEX
 8
TUBE_INSTANCE_5_8
 10
0
 20
0
 30
0
 70
128
 71
11
 72
12
 73
20
 74
19
 0
VERTEX
 8
TUBE_INSTANCE_5_8
 10
0
 20
0
 30
0
 70
128
 71
3
 72
4
 73
12
 74
11
 0
VERTEX
 8
TUBE_INSTANCE_5_8
 10
0
 20
0
 30
0
 70
128
 71
19
 72
20
 73
8
 74
7
 0
VERTEX
 8
TUBE_INSTANCE_5_8
 10
0
 20
0
 30
0
 70
128
 71
7
 72
8
 73
17
 74
16
 0
VERTEX
 8
TUBE_INSTANCE_5_8
 10
0
 20
0
 30
0
 70
128
 71
16
 72
17
 73
4
 74
3
 0
VERTEX
 8
TUBE_INSTANCE_5_8
 10
0
 20
0
 30
0
 70
128
 71
3
 72
11
 73
7
 74
16
 0
VERTEX
 8
TUBE_INSTANCE_5_8
 10
0
 20
0
 30
0
 70
128
 71
11
 72
19
 73
7
 74
7
 0
SEQEND
 0
POLYLINE
 8
TUBE_INSTANCE_4_8
 66
1
 10
0.0
 20
0.0
 30
0.0
 70
64
 71
20
 72
7
 0
VERTEX
 8
TUBE_INSTANCE_4_8
 10
-7.5095
 20
-4.4707
 30
15.6473
 70
192
 0
VERTEX
 8
TUBE_INSTANCE_4_8
 10
-7.2381
 20
-4.5589
 30
14.9207
 70
192
 0
VERTEX
 8
TUBE_INSTANCE_4_8
 10
-7.2381
 20
-4.5589
 30
14.9207
 70
192
 0
VERTEX
 8
TUBE_INSTANCE_4_8
 10
-7.2381
 20
-4.5589
 30
15.6473
 70
192
 0
VERTEX
 8
TUBE_INSTANCE_4_8
 10
-7.2381
 20
-4.5589
 30
15.6473
 70
192
 0
VERTEX
 8
TUBE_INSTANCE_4_8
 10
-7.5095
 20
-4.647
 30
14.9207
 70
192
 0
VERTEX
 8
TUBE_INSTANCE_4_8
 10
-7.5095
 20
-4.647
 30
14.9207
 70
192
 0
VERTEX
 8
TUBE_INSTANCE_4_8
 10
-7.5095
 20
-4.647
 30
15.6473
 70
192
 0
VERTEX
 8
TUBE_INSTANCE_4_8
 10
-7.5095
 20
-4.647
 30
15.6473
 70
192
 0
VERTEX
 8
TUBE_INSTANCE_4_8
 10
-7.3418
 20
-4.4162
 30
14.9207
 70
192
 0
VERTEX
 8
TUBE_INSTANCE_4_8
 10
-7.3418
 20
-4.4162
 30
14.9207
 70
192
 0
VERTEX
 8
TUBE_INSTANCE_4_8
 10
-7.3418
 20
-4.4162
 30
15.6473
 70
192
 0
VERTEX
 8
TUBE_INSTANCE_4_8
 10
-7.3418
 20
-4.4162
 30
15.6473
 70
192
 0
VERTEX
 8
TUBE_INSTANCE_4_8
 10
-7.3418
 20
-4.7015
 30
15.6473
 70
192
 0
VERTEX
 8
TUBE_INSTANCE_4_8
 10
-7.3418
 20
-4.7015
 30
14.9207
 70
192
 0
VERTEX
 8
TUBE_INSTANCE_4_8
 10
-7.3418
 20
-4.7015
 30
14.9207
 70
192
 0
VERTEX
 8
TUBE_INSTANCE_4_8
 10
-7.3418
 20
-4.7015
 30
15.6473
 70
192
 0
VERTEX
 8
TUBE_INSTANCE_4_8
 10
-7.5095
 20
-4.4707
 30
14.9207
 70
192
 0
VERTEX
 8
TUBE_INSTANCE_4_8
 10
-7.5095
 20
-4.4707
 30
14.9207
 70
192
 0
VERTEX
 8
TUBE_INSTANCE_4_8
 10
-7.5095
 20
-4.4707
 30
15.6473
 70
192
 0
VERTEX
 8
TUBE_INSTANCE_4_8
 10
0
 20
0
 30
0
 70
128
 71
11
 72
12
 73
20
 74
19
 0
VERTEX
 8
TUBE_INSTANCE_4_8
 10
0
 20
0
 30
0
 70
128
 71
3
 72
4
 73
12
 74
11
 0
VERTEX
 8
TUBE_INSTANCE_4_8
 10
0
 20
0
 30
0
 70
128
 71
19
 72
20
 73
8
 74
7
 0
VERTEX
 8
TUBE_INSTANCE_4_8
 10
0
 20
0
 30
0
 70
128
 71
7
 72
8
 73
17
 74
16
 0
VERTEX
 8
TUBE_INSTANCE_4_8
 10
0
 20
0
 30
0
 70
128
 71
16
 72
17
 73
4
 74
3
 0
VERTEX
 8
TUBE_INSTANCE_4_8
 10
0
 20
0
 30
0
 70
128
 71
3
 72
11
 73
7
 74
16
 0
VERTEX
 8
TUBE_INSTANCE_4_8
 10
0
 20
0
 30
0
 70
128
 71
11
 72
19
 73
7
 74
7
 0
SEQEND
 0
POLYLINE
 8
TUBE_INSTANCE_3_8
 66
1
 10
0.0
 20
0.0
 30
0.0
 70
64
 71
20
 72
7
 0
VERTEX
 8
TUBE_INSTANCE_3_8
 10
-7.5095
 20
-6.2569
 30
15.6473
 70
192
 0
VERTEX
 8
TUBE_INSTANCE_3_8
 10
-7.2381
 20
-6.3451
 30
14.9207
 70
192
 0
VERTEX
 8
TUBE_INSTANCE_3_8
 10
-7.2381
 20
-6.3451
 30
14.9207
 70
192
 0
VERTEX
 8
TUBE_INSTANCE_3_8
 10
-7.2381
 20
-6.3451
 30
15.6473
 70
192
 0
VERTEX
 8
TUBE_INSTANCE_3_8
 10
-7.2381
 20
-6.3451
 30
15.6473
 70
192
 0
VERTEX
 8
TUBE_INSTANCE_3_8
 10
-7.5095
 20
-6.4333
 30
14.9207
 70
192
 0
VERTEX
 8
TUBE_INSTANCE_3_8
 10
-7.5095
 20
-6.4333
 30
14.9207
 70
192
 0
VERTEX
 8
TUBE_INSTANCE_3_8
 10
-7.5095
 20
-6.4333
 30
15.6473
 70
192
 0
VERTEX
 8
TUBE_INSTANCE_3_8
 10
-7.5095
 20
-6.4333
 30
15.6473
 70
192
 0
VERTEX
 8
TUBE_INSTANCE_3_8
 10
-7.3418
 20
-6.2025
 30
14.9207
 70
192
 0
VERTEX
 8
TUBE_INSTANCE_3_8
 10
-7.3418
 20
-6.2025
 30
14.9207
 70
192
 0
VERTEX
 8
TUBE_INSTANCE_3_8
 10
-7.3418
 20
-6.2025
 30
15.6473
 70
192
 0
VERTEX
 8
TUBE_INSTANCE_3_8
 10
-7.3418
 20
-6.2025
 30
15.6473
 70
192
 0
VERTEX
 8
TUBE_INSTANCE_3_8
 10
-7.3418
 20
-6.4878
 30
15.6473
 70
192
 0
VERTEX
 8
TUBE_INSTANCE_3_8
 10
-7.3418
 20
-6.4878
 30
14.9207
 70
192
 0
VERTEX
 8
TUBE_INSTANCE_3_8
 10
-7.3418
 20
-6.4878
 30
14.9207
 70
192
 0
VERTEX
 8
TUBE_INSTANCE_3_8
 10
-7.3418
 20
-6.4878
 30
15.6473
 70
192
 0
VERTEX
 8
TUBE_INSTANCE_3_8
 10
-7.5095
 20
-6.2569
 30
14.9207
 70
192
 0
VERTEX
 8
TUBE_INSTANCE_3_8
 10
-7.5095
 20
-6.2569
 30
14.9207
 70
192
 0
VERTEX
 8
TUBE_INSTANCE_3_8
 10
-7.5095
 20
-6.2569
 30
15.6473
 70
192
 0
VERTEX
 8
TUBE_INSTANCE_3_8
 10
0
 20
0
 30
0
 70
128
 71
11
 72
12
 73
20
 74
19
 0
VERTEX
 8
TUBE_INSTANCE_3_8
 10
0
 20
0
 30
0
 70
128
 71
3
 72
4
 73
12
 74
11
 0
VERTEX
 8
TUBE_INSTANCE_3_8
 10
0
 20
0
 30
0
 70
128
 71
19
 72
20
 73
8
 74
7
 0
VERTEX
 8
TUBE_INSTANCE_3_8
 10
0
 20
0
 30
0
 70
128
 71
7
 72
8
 73
17
 74
16
 0
VERTEX
 8
TUBE_INSTANCE_3_8
 10
0
 20
0
 30
0
 70
128
 71
16
 72
17
 73
4
 74
3
 0
VERTEX
 8
TUBE_INSTANCE_3_8
 10
0
 20
0
 30
0
 70
128
 71
3
 72
11
 73
7
 74
16
 0
VERTEX
 8
TUBE_INSTANCE_3_8
 10
0
 20
0
 30
0
 70
128
 71
11
 72
19
 73
7
 74
7
 0
SEQEND
 0
POLYLINE
 8
TUBE_INSTANCE_2_8
 66
1
 10
0.0
 20
0.0
 30
0.0
 70
64
 71
20
 72
7
 0
VERTEX
 8
TUBE_INSTANCE_2_8
 10
-7.5095
 20
-8.0664
 30
15.6473
 70
192
 0
VERTEX
 8
TUBE_INSTANCE_2_8
 10
-7.2381
 20
-8.1546
 30
14.9207
 70
192
 0
VERTEX
 8
TUBE_INSTANCE_2_8
 10
-7.2381
 20
-8.1546
 30
14.9207
 70
192
 0
VERTEX
 8
TUBE_INSTANCE_2_8
 10
-7.2381
 20
-8.1546
 30
15.6473
 70
192
 0
VERTEX
 8
TUBE_INSTANCE_2_8
 10
-7.2381
 20
-8.1546
 30
15.6473
 70
192
 0
VERTEX
 8
TUBE_INSTANCE_2_8
 10
-7.5095
 20
-8.2427
 30
14.9207
 70
192
 0
VERTEX
 8
TUBE_INSTANCE_2_8
 10
-7.5095
 20
-8.2427
 30
14.9207
 70
192
 0
VERTEX
 8
TUBE_INSTANCE_2_8
 10
-7.5095
 20
-8.2427
 30
15.6473
 70
192
 0
VERTEX
 8
TUBE_INSTANCE_2_8
 10
-7.5095
 20
-8.2427
 30
15.6473
 70
192
 0
VERTEX
 8
TUBE_INSTANCE_2_8
 10
-7.3418
 20
-8.0119
 30
14.9207
 70
192
 0
VERTEX
 8
TUBE_INSTANCE_2_8
 10
-7.3418
 20
-8.0119
 30
14.9207
 70
192
 0
VERTEX
 8
TUBE_INSTANCE_2_8
 10
-7.3418
 20
-8.0119
 30
15.6473
 70
192
 0
VERTEX
 8
TUBE_INSTANCE_2_8
 10
-7.3418
 20
-8.0119
 30
15.6473
 70
192
 0
VERTEX
 8
TUBE_INSTANCE_2_8
 10
-7.3418
 20
-8.2972
 30
15.6473
 70
192
 0
VERTEX
 8
TUBE_INSTANCE_2_8
 10
-7.3418
 20
-8.2972
 30
14.9207
 70
192
 0
VERTEX
 8
TUBE_INSTANCE_2_8
 10
-7.3418
 20
-8.2972
 30
14.9207
 70
192
 0
VERTEX
 8
TUBE_INSTANCE_2_8
 10
-7.3418
 20
-8.2972
 30
15.6473
 70
192
 0
VERTEX
 8
TUBE_INSTANCE_2_8
 10
-7.5095
 20
-8.0664
 30
14.9207
 70
192
 0
VERTEX
 8
TUBE_INSTANCE_2_8
 10
-7.5095
 20
-8.0664
 30
14.9207
 70
192
 0
VERTEX
 8
TUBE_INSTANCE_2_8
 10
-7.5095
 20
-8.0664
 30
15.6473
 70
192
 0
VERTEX
 8
TUBE_INSTANCE_2_8
 10
0
 20
0
 30
0
 70
128
 71
11
 72
12
 73
20
 74
19
 0
VERTEX
 8
TUBE_INSTANCE_2_8
 10
0
 20
0
 30
0
 70
128
 71
3
 72
4
 73
12
 74
11
 0
VERTEX
 8
TUBE_INSTANCE_2_8
 10
0
 20
0
 30
0
 70
128
 71
19
 72
20
 73
8
 74
7
 0
VERTEX
 8
TUBE_INSTANCE_2_8
 10
0
 20
0
 30
0
 70
128
 71
7
 72
8
 73
17
 74
16
 0
VERTEX
 8
TUBE_INSTANCE_2_8
 10
0
 20
0
 30
0
 70
128
 71
16
 72
17
 73
4
 74
3
 0
VERTEX
 8
TUBE_INSTANCE_2_8
 10
0
 20
0
 30
0
 70
128
 71
3
 72
11
 73
7
 74
16
 0
VERTEX
 8
TUBE_INSTANCE_2_8
 10
0
 20
0
 30
0
 70
128
 71
11
 72
19
 73
7
 74
7
 0
SEQEND
 0
POLYLINE
 8
TUBE_INSTANCE_1_8
 66
1
 10
0.0
 20
0.0
 30
0.0
 70
64
 71
20
 72
7
 0
VERTEX
 8
TUBE_INSTANCE_1_8
 10
-7.5095
 20
-9.8024
 30
15.6473
 70
192
 0
VERTEX
 8
TUBE_INSTANCE_1_8
 10
-7.2381
 20
-9.8906
 30
14.9207
 70
192
 0
VERTEX
 8
TUBE_INSTANCE_1_8
 10
-7.2381
 20
-9.8906
 30
14.9207
 70
192
 0
VERTEX
 8
TUBE_INSTANCE_1_8
 10
-7.2381
 20
-9.8906
 30
15.6473
 70
192
 0
VERTEX
 8
TUBE_INSTANCE_1_8
 10
-7.2381
 20
-9.8906
 30
15.6473
 70
192
 0
VERTEX
 8
TUBE_INSTANCE_1_8
 10
-7.5095
 20
-9.9788
 30
14.9207
 70
192
 0
VERTEX
 8
TUBE_INSTANCE_1_8
 10
-7.5095
 20
-9.9788
 30
14.9207
 70
192
 0
VERTEX
 8
TUBE_INSTANCE_1_8
 10
-7.5095
 20
-9.9788
 30
15.6473
 70
192
 0
VERTEX
 8
TUBE_INSTANCE_1_8
 10
-7.5095
 20
-9.9788
 30
15.6473
 70
192
 0
VERTEX
 8
TUBE_INSTANCE_1_8
 10
-7.3418
 20
-9.7479
 30
14.9207
 70
192
 0
VERTEX
 8
TUBE_INSTANCE_1_8
 10
-7.3418
 20
-9.7479
 30
14.9207
 70
192
 0
VERTEX
 8
TUBE_INSTANCE_1_8
 10
-7.3418
 20
-9.7479
 30
15.6473
 70
192
 0
VERTEX
 8
TUBE_INSTANCE_1_8
 10
-7.3418
 20
-9.7479
 30
15.6473
 70
192
 0
VERTEX
 8
TUBE_INSTANCE_1_8
 10
-7.3418
 20
-10.0333
 30
15.6473
 70
192
 0
VERTEX
 8
TUBE_INSTANCE_1_8
 10
-7.3418
 20
-10.0333
 30
14.9207
 70
192
 0
VERTEX
 8
TUBE_INSTANCE_1_8
 10
-7.3418
 20
-10.0333
 30
14.9207
 70
192
 0
VERTEX
 8
TUBE_INSTANCE_1_8
 10
-7.3418
 20
-10.0333
 30
15.6473
 70
192
 0
VERTEX
 8
TUBE_INSTANCE_1_8
 10
-7.5095
 20
-9.8024
 30
14.9207
 70
192
 0
VERTEX
 8
TUBE_INSTANCE_1_8
 10
-7.5095
 20
-9.8024
 30
14.9207
 70
192
 0
VERTEX
 8
TUBE_INSTANCE_1_8
 10
-7.5095
 20
-9.8024
 30
15.6473
 70
192
 0
VERTEX
 8
TUBE_INSTANCE_1_8
 10
0
 20
0
 30
0
 70
128
 71
11
 72
12
 73
20
 74
19
 0
VERTEX
 8
TUBE_INSTANCE_1_8
 10
0
 20
0
 30
0
 70
128
 71
3
 72
4
 73
12
 74
11
 0
VERTEX
 8
TUBE_INSTANCE_1_8
 10
0
 20
0
 30
0
 70
128
 71
19
 72
20
 73
8
 74
7
 0
VERTEX
 8
TUBE_INSTANCE_1_8
 10
0
 20
0
 30
0
 70
128
 71
7
 72
8
 73
17
 74
16
 0
VERTEX
 8
TUBE_INSTANCE_1_8
 10
0
 20
0
 30
0
 70
128
 71
16
 72
17
 73
4
 74
3
 0
VERTEX
 8
TUBE_INSTANCE_1_8
 10
0
 20
0
 30
0
 70
128
 71
3
 72
11
 73
7
 74
16
 0
VERTEX
 8
TUBE_INSTANCE_1_8
 10
0
 20
0
 30
0
 70
128
 71
11
 72
19
 73
7
 74
7
 0
SEQEND
 0
POLYLINE
 8
TUBE_INSTANCE_8
 66
1
 10
0.0
 20
0.0
 30
0.0
 70
64
 71
20
 72
7
 0
VERTEX
 8
TUBE_INSTANCE_8
 10
-7.5095
 20
-11.5718
 30
15.6473
 70
192
 0
VERTEX
 8
TUBE_INSTANCE_8
 10
-7.2381
 20
-11.6599
 30
14.9207
 70
192
 0
VERTEX
 8
TUBE_INSTANCE_8
 10
-7.2381
 20
-11.6599
 30
14.9207
 70
192
 0
VERTEX
 8
TUBE_INSTANCE_8
 10
-7.2381
 20
-11.6599
 30
15.6473
 70
192
 0
VERTEX
 8
TUBE_INSTANCE_8
 10
-7.2381
 20
-11.6599
 30
15.6473
 70
192
 0
VERTEX
 8
TUBE_INSTANCE_8
 10
-7.5095
 20
-11.7481
 30
14.9207
 70
192
 0
VERTEX
 8
TUBE_INSTANCE_8
 10
-7.5095
 20
-11.7481
 30
14.9207
 70
192
 0
VERTEX
 8
TUBE_INSTANCE_8
 10
-7.5095
 20
-11.7481
 30
15.6473
 70
192
 0
VERTEX
 8
TUBE_INSTANCE_8
 10
-7.5095
 20
-11.7481
 30
15.6473
 70
192
 0
VERTEX
 8
TUBE_INSTANCE_8
 10
-7.3418
 20
-11.5173
 30
14.9207
 70
192
 0
VERTEX
 8
TUBE_INSTANCE_8
 10
-7.3418
 20
-11.5173
 30
14.9207
 70
192
 0
VERTEX
 8
TUBE_INSTANCE_8
 10
-7.3418
 20
-11.5173
 30
15.6473
 70
192
 0
VERTEX
 8
TUBE_INSTANCE_8
 10
-7.3418
 20
-11.5173
 30
15.6473
 70
192
 0
VERTEX
 8
TUBE_INSTANCE_8
 10
-7.3418
 20
-11.8026
 30
15.6473
 70
192
 0
VERTEX
 8
TUBE_INSTANCE_8
 10
-7.3418
 20
-11.8026
 30
14.9207
 70
192
 0
VERTEX
 8
TUBE_INSTANCE_8
 10
-7.3418
 20
-11.8026
 30
14.9207
 70
192
 0
VERTEX
 8
TUBE_INSTANCE_8
 10
-7.3418
 20
-11.8026
 30
15.6473
 70
192
 0
VERTEX
 8
TUBE_INSTANCE_8
 10
-7.5095
 20
-11.5718
 30
14.9207
 70
192
 0
VERTEX
 8
TUBE_INSTANCE_8
 10
-7.5095
 20
-11.5718
 30
14.9207
 70
192
 0
VERTEX
 8
TUBE_INSTANCE_8
 10
-7.5095
 20
-11.5718
 30
15.6473
 70
192
 0
VERTEX
 8
TUBE_INSTANCE_8
 10
0
 20
0
 30
0
 70
128
 71
11
 72
12
 73
20
 74
19
 0
VERTEX
 8
TUBE_INSTANCE_8
 10
0
 20
0
 30
0
 70
128
 71
3
 72
4
 73
12
 74
11
 0
VERTEX
 8
TUBE_INSTANCE_8
 10
0
 20
0
 30
0
 70
128
 71
19
 72
20
 73
8
 74
7
 0
VERTEX
 8
TUBE_INSTANCE_8
 10
0
 20
0
 30
0
 70
128
 71
7
 72
8
 73
17
 74
16
 0
VERTEX
 8
TUBE_INSTANCE_8
 10
0
 20
0
 30
0
 70
128
 71
16
 72
17
 73
4
 74
3
 0
VERTEX
 8
TUBE_INSTANCE_8
 10
0
 20
0
 30
0
 70
128
 71
3
 72
11
 73
7
 74
16
 0
VERTEX
 8
TUBE_INSTANCE_8
 10
0
 20
0
 30
0
 70
128
 71
11
 72
19
 73
7
 74
7
 0
SEQEND
 0
POLYLINE
 8
TUBE_8
 66
1
 10
0.0
 20
0.0
 30
0.0
 70
64
 71
20
 72
7
 0
VERTEX
 8
TUBE_8
 10
-7.5095
 20
-13.3609
 30
15.6473
 70
192
 0
VERTEX
 8
TUBE_8
 10
-7.2381
 20
-13.4491
 30
14.9207
 70
192
 0
VERTEX
 8
TUBE_8
 10
-7.2381
 20
-13.4491
 30
14.9207
 70
192
 0
VERTEX
 8
TUBE_8
 10
-7.2381
 20
-13.4491
 30
15.6473
 70
192
 0
VERTEX
 8
TUBE_8
 10
-7.2381
 20
-13.4491
 30
15.6473
 70
192
 0
VERTEX
 8
TUBE_8
 10
-7.5095
 20
-13.5373
 30
14.9207
 70
192
 0
VERTEX
 8
TUBE_8
 10
-7.5095
 20
-13.5373
 30
14.9207
 70
192
 0
VERTEX
 8
TUBE_8
 10
-7.5095
 20
-13.5373
 30
15.6473
 70
192
 0
VERTEX
 8
TUBE_8
 10
-7.5095
 20
-13.5373
 30
15.6473
 70
192
 0
VERTEX
 8
TUBE_8
 10
-7.3418
 20
-13.3064
 30
14.9207
 70
192
 0
VERTEX
 8
TUBE_8
 10
-7.3418
 20
-13.3064
 30
14.9207
 70
192
 0
VERTEX
 8
TUBE_8
 10
-7.3418
 20
-13.3064
 30
15.6473
 70
192
 0
VERTEX
 8
TUBE_8
 10
-7.3418
 20
-13.3064
 30
15.6473
 70
192
 0
VERTEX
 8
TUBE_8
 10
-7.3418
 20
-13.5918
 30
15.6473
 70
192
 0
VERTEX
 8
TUBE_8
 10
-7.3418
 20
-13.5918
 30
14.9207
 70
192
 0
VERTEX
 8
TUBE_8
 10
-7.3418
 20
-13.5918
 30
14.9207
 70
192
 0
VERTEX
 8
TUBE_8
 10
-7.3418
 20
-13.5918
 30
15.6473
 70
192
 0
VERTEX
 8
TUBE_8
 10
-7.5095
 20
-13.3609
 30
14.9207
 70
192
 0
VERTEX
 8
TUBE_8
 10
-7.5095
 20
-13.3609
 30
14.9207
 70
192
 0
VERTEX
 8
TUBE_8
 10
-7.5095
 20
-13.3609
 30
15.6473
 70
192
 0
VERTEX
 8
TUBE_8
 10
0
 20
0
 30
0
 70
128
 71
11
 72
12
 73
20
 74
19
 0
VERTEX
 8
TUBE_8
 10
0
 20
0
 30
0
 70
128
 71
3
 72
4
 73
12
 74
11
 0
VERTEX
 8
TUBE_8
 10
0
 20
0
 30
0
 70
128
 71
19
 72
20
 73
8
 74
7
 0
VERTEX
 8
TUBE_8
 10
0
 20
0
 30
0
 70
128
 71
7
 72
8
 73
17
 74
16
 0
VERTEX
 8
TUBE_8
 10
0
 20
0
 30
0
 70
128
 71
16
 72
17
 73
4
 74
3
 0
VERTEX
 8
TUBE_8
 10
0
 20
0
 30
0
 70
128
 71
3
 72
11
 73
7
 74
16
 0
VERTEX
 8
TUBE_8
 10
0
 20
0
 30
0
 70
128
 71
11
 72
19
 73
7
 74
7
 0
SEQEND
 0
POLYLINE
 8
TUBE_INSTANCE_14_7
 66
1
 10
0.0
 20
0.0
 30
0.0
 70
64
 71
20
 72
7
 0
VERTEX
 8
TUBE_INSTANCE_14_7
 10
-5.6786
 20
13.575
 30
15.6473
 70
192
 0
VERTEX
 8
TUBE_INSTANCE_14_7
 10
-5.4072
 20
13.4868
 30
14.9207
 70
192
 0
VERTEX
 8
TUBE_INSTANCE_14_7
 10
-5.4072
 20
13.4868
 30
14.9207
 70
192
 0
VERTEX
 8
TUBE_INSTANCE_14_7
 10
-5.4072
 20
13.4868
 30
15.6473
 70
192
 0
VERTEX
 8
TUBE_INSTANCE_14_7
 10
-5.4072
 20
13.4868
 30
15.6473
 70
192
 0
VERTEX
 8
TUBE_INSTANCE_14_7
 10
-5.6786
 20
13.3986
 30
14.9207
 70
192
 0
VERTEX
 8
TUBE_INSTANCE_14_7
 10
-5.6786
 20
13.3986
 30
14.9207
 70
192
 0
VERTEX
 8
TUBE_INSTANCE_14_7
 10
-5.6786
 20
13.3986
 30
15.6473
 70
192
 0
VERTEX
 8
TUBE_INSTANCE_14_7
 10
-5.6786
 20
13.3986
 30
15.6473
 70
192
 0
VERTEX
 8
TUBE_INSTANCE_14_7
 10
-5.5108
 20
13.6295
 30
14.9207
 70
192
 0
VERTEX
 8
TUBE_INSTANCE_14_7
 10
-5.5108
 20
13.6295
 30
14.9207
 70
192
 0
VERTEX
 8
TUBE_INSTANCE_14_7
 10
-5.5108
 20
13.6295
 30
15.6473
 70
192
 0
VERTEX
 8
TUBE_INSTANCE_14_7
 10
-5.5108
 20
13.6295
 30
15.6473
 70
192
 0
VERTEX
 8
TUBE_INSTANCE_14_7
 10
-5.5108
 20
13.3442
 30
15.6473
 70
192
 0
VERTEX
 8
TUBE_INSTANCE_14_7
 10
-5.5108
 20
13.3442
 30
14.9207
 70
192
 0
VERTEX
 8
TUBE_INSTANCE_14_7
 10
-5.5108
 20
13.3442
 30
14.9207
 70
192
 0
VERTEX
 8
TUBE_INSTANCE_14_7
 10
-5.5108
 20
13.3442
 30
15.6473
 70
192
 0
VERTEX
 8
TUBE_INSTANCE_14_7
 10
-5.6786
 20
13.575
 30
14.9207
 70
192
 0
VERTEX
 8
TUBE_INSTANCE_14_7
 10
-5.6786
 20
13.575
 30
14.9207
 70
192
 0
VERTEX
 8
TUBE_INSTANCE_14_7
 10
-5.6786
 20
13.575
 30
15.6473
 70
192
 0
VERTEX
 8
TUBE_INSTANCE_14_7
 10
0
 20
0
 30
0
 70
128
 71
11
 72
12
 73
20
 74
19
 0
VERTEX
 8
TUBE_INSTANCE_14_7
 10
0
 20
0
 30
0
 70
128
 71
3
 72
4
 73
12
 74
11
 0
VERTEX
 8
TUBE_INSTANCE_14_7
 10
0
 20
0
 30
0
 70
128
 71
19
 72
20
 73
8
 74
7
 0
VERTEX
 8
TUBE_INSTANCE_14_7
 10
0
 20
0
 30
0
 70
128
 71
7
 72
8
 73
17
 74
16
 0
VERTEX
 8
TUBE_INSTANCE_14_7
 10
0
 20
0
 30
0
 70
128
 71
16
 72
17
 73
4
 74
3
 0
VERTEX
 8
TUBE_INSTANCE_14_7
 10
0
 20
0
 30
0
 70
128
 71
3
 72
11
 73
7
 74
16
 0
VERTEX
 8
TUBE_INSTANCE_14_7
 10
0
 20
0
 30
0
 70
128
 71
11
 72
19
 73
7
 74
7
 0
SEQEND
 0
POLYLINE
 8
TUBE_INSTANCE_13_7
 66
1
 10
0.0
 20
0.0
 30
0.0
 70
64
 71
20
 72
7
 0
VERTEX
 8
TUBE_INSTANCE_13_7
 10
-5.6786
 20
11.7503
 30
15.6473
 70
192
 0
VERTEX
 8
TUBE_INSTANCE_13_7
 10
-5.4072
 20
11.6621
 30
14.9207
 70
192
 0
VERTEX
 8
TUBE_INSTANCE_13_7
 10
-5.4072
 20
11.6621
 30
14.9207
 70
192
 0
VERTEX
 8
TUBE_INSTANCE_13_7
 10
-5.4072
 20
11.6621
 30
15.6473
 70
192
 0
VERTEX
 8
TUBE_INSTANCE_13_7
 10
-5.4072
 20
11.6621
 30
15.6473
 70
192
 0
VERTEX
 8
TUBE_INSTANCE_13_7
 10
-5.6786
 20
11.574
 30
14.9207
 70
192
 0
VERTEX
 8
TUBE_INSTANCE_13_7
 10
-5.6786
 20
11.574
 30
14.9207
 70
192
 0
VERTEX
 8
TUBE_INSTANCE_13_7
 10
-5.6786
 20
11.574
 30
15.6473
 70
192
 0
VERTEX
 8
TUBE_INSTANCE_13_7
 10
-5.6786
 20
11.574
 30
15.6473
 70
192
 0
VERTEX
 8
TUBE_INSTANCE_13_7
 10
-5.5108
 20
11.8048
 30
14.9207
 70
192
 0
VERTEX
 8
TUBE_INSTANCE_13_7
 10
-5.5108
 20
11.8048
 30
14.9207
 70
192
 0
VERTEX
 8
TUBE_INSTANCE_13_7
 10
-5.5108
 20
11.8048
 30
15.6473
 70
192
 0
VERTEX
 8
TUBE_INSTANCE_13_7
 10
-5.5108
 20
11.8048
 30
15.6473
 70
192
 0
VERTEX
 8
TUBE_INSTANCE_13_7
 10
-5.5108
 20
11.5195
 30
15.6473
 70
192
 0
VERTEX
 8
TUBE_INSTANCE_13_7
 10
-5.5108
 20
11.5195
 30
14.9207
 70
192
 0
VERTEX
 8
TUBE_INSTANCE_13_7
 10
-5.5108
 20
11.5195
 30
14.9207
 70
192
 0
VERTEX
 8
TUBE_INSTANCE_13_7
 10
-5.5108
 20
11.5195
 30
15.6473
 70
192
 0
VERTEX
 8
TUBE_INSTANCE_13_7
 10
-5.6786
 20
11.7503
 30
14.9207
 70
192
 0
VERTEX
 8
TUBE_INSTANCE_13_7
 10
-5.6786
 20
11.7503
 30
14.9207
 70
192
 0
VERTEX
 8
TUBE_INSTANCE_13_7
 10
-5.6786
 20
11.7503
 30
15.6473
 70
192
 0
VERTEX
 8
TUBE_INSTANCE_13_7
 10
0
 20
0
 30
0
 70
128
 71
11
 72
12
 73
20
 74
19
 0
VERTEX
 8
TUBE_INSTANCE_13_7
 10
0
 20
0
 30
0
 70
128
 71
3
 72
4
 73
12
 74
11
 0
VERTEX
 8
TUBE_INSTANCE_13_7
 10
0
 20
0
 30
0
 70
128
 71
19
 72
20
 73
8
 74
7
 0
VERTEX
 8
TUBE_INSTANCE_13_7
 10
0
 20
0
 30
0
 70
128
 71
7
 72
8
 73
17
 74
16
 0
VERTEX
 8
TUBE_INSTANCE_13_7
 10
0
 20
0
 30
0
 70
128
 71
16
 72
17
 73
4
 74
3
 0
VERTEX
 8
TUBE_INSTANCE_13_7
 10
0
 20
0
 30
0
 70
128
 71
3
 72
11
 73
7
 74
16
 0
VERTEX
 8
TUBE_INSTANCE_13_7
 10
0
 20
0
 30
0
 70
128
 71
11
 72
19
 73
7
 74
7
 0
SEQEND
 0
POLYLINE
 8
TUBE_INSTANCE_12_7
 66
1
 10
0.0
 20
0.0
 30
0.0
 70
64
 71
20
 72
7
 0
VERTEX
 8
TUBE_INSTANCE_12_7
 10
-5.6786
 20
9.923
 30
15.6473
 70
192
 0
VERTEX
 8
TUBE_INSTANCE_12_7
 10
-5.4072
 20
9.8349
 30
14.9207
 70
192
 0
VERTEX
 8
TUBE_INSTANCE_12_7
 10
-5.4072
 20
9.8349
 30
14.9207
 70
192
 0
VERTEX
 8
TUBE_INSTANCE_12_7
 10
-5.4072
 20
9.8349
 30
15.6473
 70
192
 0
VERTEX
 8
TUBE_INSTANCE_12_7
 10
-5.4072
 20
9.8349
 30
15.6473
 70
192
 0
VERTEX
 8
TUBE_INSTANCE_12_7
 10
-5.6786
 20
9.7467
 30
14.9207
 70
192
 0
VERTEX
 8
TUBE_INSTANCE_12_7
 10
-5.6786
 20
9.7467
 30
14.9207
 70
192
 0
VERTEX
 8
TUBE_INSTANCE_12_7
 10
-5.6786
 20
9.7467
 30
15.6473
 70
192
 0
VERTEX
 8
TUBE_INSTANCE_12_7
 10
-5.6786
 20
9.7467
 30
15.6473
 70
192
 0
VERTEX
 8
TUBE_INSTANCE_12_7
 10
-5.5108
 20
9.9775
 30
14.9207
 70
192
 0
VERTEX
 8
TUBE_INSTANCE_12_7
 10
-5.5108
 20
9.9775
 30
14.9207
 70
192
 0
VERTEX
 8
TUBE_INSTANCE_12_7
 10
-5.5108
 20
9.9775
 30
15.6473
 70
192
 0
VERTEX
 8
TUBE_INSTANCE_12_7
 10
-5.5108
 20
9.9775
 30
15.6473
 70
192
 0
VERTEX
 8
TUBE_INSTANCE_12_7
 10
-5.5108
 20
9.6922
 30
15.6473
 70
192
 0
VERTEX
 8
TUBE_INSTANCE_12_7
 10
-5.5108
 20
9.6922
 30
14.9207
 70
192
 0
VERTEX
 8
TUBE_INSTANCE_12_7
 10
-5.5108
 20
9.6922
 30
14.9207
 70
192
 0
VERTEX
 8
TUBE_INSTANCE_12_7
 10
-5.5108
 20
9.6922
 30
15.6473
 70
192
 0
VERTEX
 8
TUBE_INSTANCE_12_7
 10
-5.6786
 20
9.923
 30
14.9207
 70
192
 0
VERTEX
 8
TUBE_INSTANCE_12_7
 10
-5.6786
 20
9.923
 30
14.9207
 70
192
 0
VERTEX
 8
TUBE_INSTANCE_12_7
 10
-5.6786
 20
9.923
 30
15.6473
 70
192
 0
VERTEX
 8
TUBE_INSTANCE_12_7
 10
0
 20
0
 30
0
 70
128
 71
11
 72
12
 73
20
 74
19
 0
VERTEX
 8
TUBE_INSTANCE_12_7
 10
0
 20
0
 30
0
 70
128
 71
3
 72
4
 73
12
 74
11
 0
VERTEX
 8
TUBE_INSTANCE_12_7
 10
0
 20
0
 30
0
 70
128
 71
19
 72
20
 73
8
 74
7
 0
VERTEX
 8
TUBE_INSTANCE_12_7
 10
0
 20
0
 30
0
 70
128
 71
7
 72
8
 73
17
 74
16
 0
VERTEX
 8
TUBE_INSTANCE_12_7
 10
0
 20
0
 30
0
 70
128
 71
16
 72
17
 73
4
 74
3
 0
VERTEX
 8
TUBE_INSTANCE_12_7
 10
0
 20
0
 30
0
 70
128
 71
3
 72
11
 73
7
 74
16
 0
VERTEX
 8
TUBE_INSTANCE_12_7
 10
0
 20
0
 30
0
 70
128
 71
11
 72
19
 73
7
 74
7
 0
SEQEND
 0
POLYLINE
 8
TUBE_INSTANCE_11_7
 66
1
 10
0.0
 20
0.0
 30
0.0
 70
64
 71
20
 72
7
 0
VERTEX
 8
TUBE_INSTANCE_11_7
 10
-5.6786
 20
8.1242
 30
15.6473
 70
192
 0
VERTEX
 8
TUBE_INSTANCE_11_7
 10
-5.4072
 20
8.036
 30
14.9207
 70
192
 0
VERTEX
 8
TUBE_INSTANCE_11_7
 10
-5.4072
 20
8.036
 30
14.9207
 70
192
 0
VERTEX
 8
TUBE_INSTANCE_11_7
 10
-5.4072
 20
8.036
 30
15.6473
 70
192
 0
VERTEX
 8
TUBE_INSTANCE_11_7
 10
-5.4072
 20
8.036
 30
15.6473
 70
192
 0
VERTEX
 8
TUBE_INSTANCE_11_7
 10
-5.6786
 20
7.9479
 30
14.9207
 70
192
 0
VERTEX
 8
TUBE_INSTANCE_11_7
 10
-5.6786
 20
7.9479
 30
14.9207
 70
192
 0
VERTEX
 8
TUBE_INSTANCE_11_7
 10
-5.6786
 20
7.9479
 30
15.6473
 70
192
 0
VERTEX
 8
TUBE_INSTANCE_11_7
 10
-5.6786
 20
7.9479
 30
15.6473
 70
192
 0
VERTEX
 8
TUBE_INSTANCE_11_7
 10
-5.5108
 20
8.1787
 30
14.9207
 70
192
 0
VERTEX
 8
TUBE_INSTANCE_11_7
 10
-5.5108
 20
8.1787
 30
14.9207
 70
192
 0
VERTEX
 8
TUBE_INSTANCE_11_7
 10
-5.5108
 20
8.1787
 30
15.6473
 70
192
 0
VERTEX
 8
TUBE_INSTANCE_11_7
 10
-5.5108
 20
8.1787
 30
15.6473
 70
192
 0
VERTEX
 8
TUBE_INSTANCE_11_7
 10
-5.5108
 20
7.8934
 30
15.6473
 70
192
 0
VERTEX
 8
TUBE_INSTANCE_11_7
 10
-5.5108
 20
7.8934
 30
14.9207
 70
192
 0
VERTEX
 8
TUBE_INSTANCE_11_7
 10
-5.5108
 20
7.8934
 30
14.9207
 70
192
 0
VERTEX
 8
TUBE_INSTANCE_11_7
 10
-5.5108
 20
7.8934
 30
15.6473
 70
192
 0
VERTEX
 8
TUBE_INSTANCE_11_7
 10
-5.6786
 20
8.1242
 30
14.9207
 70
192
 0
VERTEX
 8
TUBE_INSTANCE_11_7
 10
-5.6786
 20
8.1242
 30
14.9207
 70
192
 0
VERTEX
 8
TUBE_INSTANCE_11_7
 10
-5.6786
 20
8.1242
 30
15.6473
 70
192
 0
VERTEX
 8
TUBE_INSTANCE_11_7
 10
0
 20
0
 30
0
 70
128
 71
11
 72
12
 73
20
 74
19
 0
VERTEX
 8
TUBE_INSTANCE_11_7
 10
0
 20
0
 30
0
 70
128
 71
3
 72
4
 73
12
 74
11
 0
VERTEX
 8
TUBE_INSTANCE_11_7
 10
0
 20
0
 30
0
 70
128
 71
19
 72
20
 73
8
 74
7
 0
VERTEX
 8
TUBE_INSTANCE_11_7
 10
0
 20
0
 30
0
 70
128
 71
7
 72
8
 73
17
 74
16
 0
VERTEX
 8
TUBE_INSTANCE_11_7
 10
0
 20
0
 30
0
 70
128
 71
16
 72
17
 73
4
 74
3
 0
VERTEX
 8
TUBE_INSTANCE_11_7
 10
0
 20
0
 30
0
 70
128
 71
3
 72
11
 73
7
 74
16
 0
VERTEX
 8
TUBE_INSTANCE_11_7
 10
0
 20
0
 30
0
 70
128
 71
11
 72
19
 73
7
 74
7
 0
SEQEND
 0
POLYLINE
 8
TUBE_INSTANCE_10_7
 66
1
 10
0.0
 20
0.0
 30
0.0
 70
64
 71
20
 72
7
 0
VERTEX
 8
TUBE_INSTANCE_10_7
 10
-5.6786
 20
6.2861
 30
15.6473
 70
192
 0
VERTEX
 8
TUBE_INSTANCE_10_7
 10
-5.4072
 20
6.198
 30
14.9207
 70
192
 0
VERTEX
 8
TUBE_INSTANCE_10_7
 10
-5.4072
 20
6.198
 30
14.9207
 70
192
 0
VERTEX
 8
TUBE_INSTANCE_10_7
 10
-5.4072
 20
6.198
 30
15.6473
 70
192
 0
VERTEX
 8
TUBE_INSTANCE_10_7
 10
-5.4072
 20
6.198
 30
15.6473
 70
192
 0
VERTEX
 8
TUBE_INSTANCE_10_7
 10
-5.6786
 20
6.1098
 30
14.9207
 70
192
 0
VERTEX
 8
TUBE_INSTANCE_10_7
 10
-5.6786
 20
6.1098
 30
14.9207
 70
192
 0
VERTEX
 8
TUBE_INSTANCE_10_7
 10
-5.6786
 20
6.1098
 30
15.6473
 70
192
 0
VERTEX
 8
TUBE_INSTANCE_10_7
 10
-5.6786
 20
6.1098
 30
15.6473
 70
192
 0
VERTEX
 8
TUBE_INSTANCE_10_7
 10
-5.5108
 20
6.3406
 30
14.9207
 70
192
 0
VERTEX
 8
TUBE_INSTANCE_10_7
 10
-5.5108
 20
6.3406
 30
14.9207
 70
192
 0
VERTEX
 8
TUBE_INSTANCE_10_7
 10
-5.5108
 20
6.3406
 30
15.6473
 70
192
 0
VERTEX
 8
TUBE_INSTANCE_10_7
 10
-5.5108
 20
6.3406
 30
15.6473
 70
192
 0
VERTEX
 8
TUBE_INSTANCE_10_7
 10
-5.5108
 20
6.0553
 30
15.6473
 70
192
 0
VERTEX
 8
TUBE_INSTANCE_10_7
 10
-5.5108
 20
6.0553
 30
14.9207
 70
192
 0
VERTEX
 8
TUBE_INSTANCE_10_7
 10
-5.5108
 20
6.0553
 30
14.9207
 70
192
 0
VERTEX
 8
TUBE_INSTANCE_10_7
 10
-5.5108
 20
6.0553
 30
15.6473
 70
192
 0
VERTEX
 8
TUBE_INSTANCE_10_7
 10
-5.6786
 20
6.2861
 30
14.9207
 70
192
 0
VERTEX
 8
TUBE_INSTANCE_10_7
 10
-5.6786
 20
6.2861
 30
14.9207
 70
192
 0
VERTEX
 8
TUBE_INSTANCE_10_7
 10
-5.6786
 20
6.2861
 30
15.6473
 70
192
 0
VERTEX
 8
TUBE_INSTANCE_10_7
 10
0
 20
0
 30
0
 70
128
 71
11
 72
12
 73
20
 74
19
 0
VERTEX
 8
TUBE_INSTANCE_10_7
 10
0
 20
0
 30
0
 70
128
 71
3
 72
4
 73
12
 74
11
 0
VERTEX
 8
TUBE_INSTANCE_10_7
 10
0
 20
0
 30
0
 70
128
 71
19
 72
20
 73
8
 74
7
 0
VERTEX
 8
TUBE_INSTANCE_10_7
 10
0
 20
0
 30
0
 70
128
 71
7
 72
8
 73
17
 74
16
 0
VERTEX
 8
TUBE_INSTANCE_10_7
 10
0
 20
0
 30
0
 70
128
 71
16
 72
17
 73
4
 74
3
 0
VERTEX
 8
TUBE_INSTANCE_10_7
 10
0
 20
0
 30
0
 70
128
 71
3
 72
11
 73
7
 74
16
 0
VERTEX
 8
TUBE_INSTANCE_10_7
 10
0
 20
0
 30
0
 70
128
 71
11
 72
19
 73
7
 74
7
 0
SEQEND
 0
POLYLINE
 8
TUBE_INSTANCE_9_7
 66
1
 10
0.0
 20
0.0
 30
0.0
 70
64
 71
20
 72
7
 0
VERTEX
 8
TUBE_INSTANCE_9_7
 10
-5.6786
 20
4.4401
 30
15.6473
 70
192
 0
VERTEX
 8
TUBE_INSTANCE_9_7
 10
-5.4072
 20
4.3519
 30
14.9207
 70
192
 0
VERTEX
 8
TUBE_INSTANCE_9_7
 10
-5.4072
 20
4.3519
 30
14.9207
 70
192
 0
VERTEX
 8
TUBE_INSTANCE_9_7
 10
-5.4072
 20
4.3519
 30
15.6473
 70
192
 0
VERTEX
 8
TUBE_INSTANCE_9_7
 10
-5.4072
 20
4.3519
 30
15.6473
 70
192
 0
VERTEX
 8
TUBE_INSTANCE_9_7
 10
-5.6786
 20
4.2637
 30
14.9207
 70
192
 0
VERTEX
 8
TUBE_INSTANCE_9_7
 10
-5.6786
 20
4.2637
 30
14.9207
 70
192
 0
VERTEX
 8
TUBE_INSTANCE_9_7
 10
-5.6786
 20
4.2637
 30
15.6473
 70
192
 0
VERTEX
 8
TUBE_INSTANCE_9_7
 10
-5.6786
 20
4.2637
 30
15.6473
 70
192
 0
VERTEX
 8
TUBE_INSTANCE_9_7
 10
-5.5108
 20
4.4946
 30
14.9207
 70
192
 0
VERTEX
 8
TUBE_INSTANCE_9_7
 10
-5.5108
 20
4.4946
 30
14.9207
 70
192
 0
VERTEX
 8
TUBE_INSTANCE_9_7
 10
-5.5108
 20
4.4946
 30
15.6473
 70
192
 0
VERTEX
 8
TUBE_INSTANCE_9_7
 10
-5.5108
 20
4.4946
 30
15.6473
 70
192
 0
VERTEX
 8
TUBE_INSTANCE_9_7
 10
-5.5108
 20
4.2092
 30
15.6473
 70
192
 0
VERTEX
 8
TUBE_INSTANCE_9_7
 10
-5.5108
 20
4.2092
 30
14.9207
 70
192
 0
VERTEX
 8
TUBE_INSTANCE_9_7
 10
-5.5108
 20
4.2092
 30
14.9207
 70
192
 0
VERTEX
 8
TUBE_INSTANCE_9_7
 10
-5.5108
 20
4.2092
 30
15.6473
 70
192
 0
VERTEX
 8
TUBE_INSTANCE_9_7
 10
-5.6786
 20
4.4401
 30
14.9207
 70
192
 0
VERTEX
 8
TUBE_INSTANCE_9_7
 10
-5.6786
 20
4.4401
 30
14.9207
 70
192
 0
VERTEX
 8
TUBE_INSTANCE_9_7
 10
-5.6786
 20
4.4401
 30
15.6473
 70
192
 0
VERTEX
 8
TUBE_INSTANCE_9_7
 10
0
 20
0
 30
0
 70
128
 71
11
 72
12
 73
20
 74
19
 0
VERTEX
 8
TUBE_INSTANCE_9_7
 10
0
 20
0
 30
0
 70
128
 71
3
 72
4
 73
12
 74
11
 0
VERTEX
 8
TUBE_INSTANCE_9_7
 10
0
 20
0
 30
0
 70
128
 71
19
 72
20
 73
8
 74
7
 0
VERTEX
 8
TUBE_INSTANCE_9_7
 10
0
 20
0
 30
0
 70
128
 71
7
 72
8
 73
17
 74
16
 0
VERTEX
 8
TUBE_INSTANCE_9_7
 10
0
 20
0
 30
0
 70
128
 71
16
 72
17
 73
4
 74
3
 0
VERTEX
 8
TUBE_INSTANCE_9_7
 10
0
 20
0
 30
0
 70
128
 71
3
 72
11
 73
7
 74
16
 0
VERTEX
 8
TUBE_INSTANCE_9_7
 10
0
 20
0
 30
0
 70
128
 71
11
 72
19
 73
7
 74
7
 0
SEQEND
 0
POLYLINE
 8
TUBE_INSTANCE_8_7
 66
1
 10
0.0
 20
0.0
 30
0.0
 70
64
 71
20
 72
7
 0
VERTEX
 8
TUBE_INSTANCE_8_7
 10
-5.6786
 20
2.6774
 30
15.6473
 70
192
 0
VERTEX
 8
TUBE_INSTANCE_8_7
 10
-5.4072
 20
2.5892
 30
14.9207
 70
192
 0
VERTEX
 8
TUBE_INSTANCE_8_7
 10
-5.4072
 20
2.5892
 30
14.9207
 70
192
 0
VERTEX
 8
TUBE_INSTANCE_8_7
 10
-5.4072
 20
2.5892
 30
15.6473
 70
192
 0
VERTEX
 8
TUBE_INSTANCE_8_7
 10
-5.4072
 20
2.5892
 30
15.6473
 70
192
 0
VERTEX
 8
TUBE_INSTANCE_8_7
 10
-5.6786
 20
2.501
 30
14.9207
 70
192
 0
VERTEX
 8
TUBE_INSTANCE_8_7
 10
-5.6786
 20
2.501
 30
14.9207
 70
192
 0
VERTEX
 8
TUBE_INSTANCE_8_7
 10
-5.6786
 20
2.501
 30
15.6473
 70
192
 0
VERTEX
 8
TUBE_INSTANCE_8_7
 10
-5.6786
 20
2.501
 30
15.6473
 70
192
 0
VERTEX
 8
TUBE_INSTANCE_8_7
 10
-5.5108
 20
2.7318
 30
14.9207
 70
192
 0
VERTEX
 8
TUBE_INSTANCE_8_7
 10
-5.5108
 20
2.7318
 30
14.9207
 70
192
 0
VERTEX
 8
TUBE_INSTANCE_8_7
 10
-5.5108
 20
2.7318
 30
15.6473
 70
192
 0
VERTEX
 8
TUBE_INSTANCE_8_7
 10
-5.5108
 20
2.7318
 30
15.6473
 70
192
 0
VERTEX
 8
TUBE_INSTANCE_8_7
 10
-5.5108
 20
2.4465
 30
15.6473
 70
192
 0
VERTEX
 8
TUBE_INSTANCE_8_7
 10
-5.5108
 20
2.4465
 30
14.9207
 70
192
 0
VERTEX
 8
TUBE_INSTANCE_8_7
 10
-5.5108
 20
2.4465
 30
14.9207
 70
192
 0
VERTEX
 8
TUBE_INSTANCE_8_7
 10
-5.5108
 20
2.4465
 30
15.6473
 70
192
 0
VERTEX
 8
TUBE_INSTANCE_8_7
 10
-5.6786
 20
2.6774
 30
14.9207
 70
192
 0
VERTEX
 8
TUBE_INSTANCE_8_7
 10
-5.6786
 20
2.6774
 30
14.9207
 70
192
 0
VERTEX
 8
TUBE_INSTANCE_8_7
 10
-5.6786
 20
2.6774
 30
15.6473
 70
192
 0
VERTEX
 8
TUBE_INSTANCE_8_7
 10
0
 20
0
 30
0
 70
128
 71
11
 72
12
 73
20
 74
19
 0
VERTEX
 8
TUBE_INSTANCE_8_7
 10
0
 20
0
 30
0
 70
128
 71
3
 72
4
 73
12
 74
11
 0
VERTEX
 8
TUBE_INSTANCE_8_7
 10
0
 20
0
 30
0
 70
128
 71
19
 72
20
 73
8
 74
7
 0
VERTEX
 8
TUBE_INSTANCE_8_7
 10
0
 20
0
 30
0
 70
128
 71
7
 72
8
 73
17
 74
16
 0
VERTEX
 8
TUBE_INSTANCE_8_7
 10
0
 20
0
 30
0
 70
128
 71
16
 72
17
 73
4
 74
3
 0
VERTEX
 8
TUBE_INSTANCE_8_7
 10
0
 20
0
 30
0
 70
128
 71
3
 72
11
 73
7
 74
16
 0
VERTEX
 8
TUBE_INSTANCE_8_7
 10
0
 20
0
 30
0
 70
128
 71
11
 72
19
 73
7
 74
7
 0
SEQEND
 0
POLYLINE
 8
TUBE_INSTANCE_7_7
 66
1
 10
0.0
 20
0.0
 30
0.0
 70
64
 71
20
 72
7
 0
VERTEX
 8
TUBE_INSTANCE_7_7
 10
-5.6786
 20
0.9035
 30
15.6473
 70
192
 0
VERTEX
 8
TUBE_INSTANCE_7_7
 10
-5.4072
 20
0.8153
 30
14.9207
 70
192
 0
VERTEX
 8
TUBE_INSTANCE_7_7
 10
-5.4072
 20
0.8153
 30
14.9207
 70
192
 0
VERTEX
 8
TUBE_INSTANCE_7_7
 10
-5.4072
 20
0.8153
 30
15.6473
 70
192
 0
VERTEX
 8
TUBE_INSTANCE_7_7
 10
-5.4072
 20
0.8153
 30
15.6473
 70
192
 0
VERTEX
 8
TUBE_INSTANCE_7_7
 10
-5.6786
 20
0.7271
 30
14.9207
 70
192
 0
VERTEX
 8
TUBE_INSTANCE_7_7
 10
-5.6786
 20
0.7271
 30
14.9207
 70
192
 0
VERTEX
 8
TUBE_INSTANCE_7_7
 10
-5.6786
 20
0.7271
 30
15.6473
 70
192
 0
VERTEX
 8
TUBE_INSTANCE_7_7
 10
-5.6786
 20
0.7271
 30
15.6473
 70
192
 0
VERTEX
 8
TUBE_INSTANCE_7_7
 10
-5.5108
 20
0.958
 30
14.9207
 70
192
 0
VERTEX
 8
TUBE_INSTANCE_7_7
 10
-5.5108
 20
0.958
 30
14.9207
 70
192
 0
VERTEX
 8
TUBE_INSTANCE_7_7
 10
-5.5108
 20
0.958
 30
15.6473
 70
192
 0
VERTEX
 8
TUBE_INSTANCE_7_7
 10
-5.5108
 20
0.958
 30
15.6473
 70
192
 0
VERTEX
 8
TUBE_INSTANCE_7_7
 10
-5.5108
 20
0.6727
 30
15.6473
 70
192
 0
VERTEX
 8
TUBE_INSTANCE_7_7
 10
-5.5108
 20
0.6727
 30
14.9207
 70
192
 0
VERTEX
 8
TUBE_INSTANCE_7_7
 10
-5.5108
 20
0.6727
 30
14.9207
 70
192
 0
VERTEX
 8
TUBE_INSTANCE_7_7
 10
-5.5108
 20
0.6727
 30
15.6473
 70
192
 0
VERTEX
 8
TUBE_INSTANCE_7_7
 10
-5.6786
 20
0.9035
 30
14.9207
 70
192
 0
VERTEX
 8
TUBE_INSTANCE_7_7
 10
-5.6786
 20
0.9035
 30
14.9207
 70
192
 0
VERTEX
 8
TUBE_INSTANCE_7_7
 10
-5.6786
 20
0.9035
 30
15.6473
 70
192
 0
VERTEX
 8
TUBE_INSTANCE_7_7
 10
0
 20
0
 30
0
 70
128
 71
11
 72
12
 73
20
 74
19
 0
VERTEX
 8
TUBE_INSTANCE_7_7
 10
0
 20
0
 30
0
 70
128
 71
3
 72
4
 73
12
 74
11
 0
VERTEX
 8
TUBE_INSTANCE_7_7
 10
0
 20
0
 30
0
 70
128
 71
19
 72
20
 73
8
 74
7
 0
VERTEX
 8
TUBE_INSTANCE_7_7
 10
0
 20
0
 30
0
 70
128
 71
7
 72
8
 73
17
 74
16
 0
VERTEX
 8
TUBE_INSTANCE_7_7
 10
0
 20
0
 30
0
 70
128
 71
16
 72
17
 73
4
 74
3
 0
VERTEX
 8
TUBE_INSTANCE_7_7
 10
0
 20
0
 30
0
 70
128
 71
3
 72
11
 73
7
 74
16
 0
VERTEX
 8
TUBE_INSTANCE_7_7
 10
0
 20
0
 30
0
 70
128
 71
11
 72
19
 73
7
 74
7
 0
SEQEND
 0
POLYLINE
 8
TUBE_INSTANCE_6_7
 66
1
 10
0.0
 20
0.0
 30
0.0
 70
64
 71
20
 72
7
 0
VERTEX
 8
TUBE_INSTANCE_6_7
 10
-5.6785
 20
-0.9033
 30
15.6473
 70
192
 0
VERTEX
 8
TUBE_INSTANCE_6_7
 10
-5.4072
 20
-0.9915
 30
14.9207
 70
192
 0
VERTEX
 8
TUBE_INSTANCE_6_7
 10
-5.4072
 20
-0.9915
 30
14.9207
 70
192
 0
VERTEX
 8
TUBE_INSTANCE_6_7
 10
-5.4072
 20
-0.9915
 30
15.6473
 70
192
 0
VERTEX
 8
TUBE_INSTANCE_6_7
 10
-5.4072
 20
-0.9915
 30
15.6473
 70
192
 0
VERTEX
 8
TUBE_INSTANCE_6_7
 10
-5.6785
 20
-1.0796
 30
14.9207
 70
192
 0
VERTEX
 8
TUBE_INSTANCE_6_7
 10
-5.6785
 20
-1.0796
 30
14.9207
 70
192
 0
VERTEX
 8
TUBE_INSTANCE_6_7
 10
-5.6785
 20
-1.0796
 30
15.6473
 70
192
 0
VERTEX
 8
TUBE_INSTANCE_6_7
 10
-5.6785
 20
-1.0796
 30
15.6473
 70
192
 0
VERTEX
 8
TUBE_INSTANCE_6_7
 10
-5.5108
 20
-0.8488
 30
14.9207
 70
192
 0
VERTEX
 8
TUBE_INSTANCE_6_7
 10
-5.5108
 20
-0.8488
 30
14.9207
 70
192
 0
VERTEX
 8
TUBE_INSTANCE_6_7
 10
-5.5108
 20
-0.8488
 30
15.6473
 70
192
 0
VERTEX
 8
TUBE_INSTANCE_6_7
 10
-5.5108
 20
-0.8488
 30
15.6473
 70
192
 0
VERTEX
 8
TUBE_INSTANCE_6_7
 10
-5.5108
 20
-1.1341
 30
15.6473
 70
192
 0
VERTEX
 8
TUBE_INSTANCE_6_7
 10
-5.5108
 20
-1.1341
 30
14.9207
 70
192
 0
VERTEX
 8
TUBE_INSTANCE_6_7
 10
-5.5108
 20
-1.1341
 30
14.9207
 70
192
 0
VERTEX
 8
TUBE_INSTANCE_6_7
 10
-5.5108
 20
-1.1341
 30
15.6473
 70
192
 0
VERTEX
 8
TUBE_INSTANCE_6_7
 10
-5.6785
 20
-0.9033
 30
14.9207
 70
192
 0
VERTEX
 8
TUBE_INSTANCE_6_7
 10
-5.6785
 20
-0.9033
 30
14.9207
 70
192
 0
VERTEX
 8
TUBE_INSTANCE_6_7
 10
-5.6785
 20
-0.9033
 30
15.6473
 70
192
 0
VERTEX
 8
TUBE_INSTANCE_6_7
 10
0
 20
0
 30
0
 70
128
 71
11
 72
12
 73
20
 74
19
 0
VERTEX
 8
TUBE_INSTANCE_6_7
 10
0
 20
0
 30
0
 70
128
 71
3
 72
4
 73
12
 74
11
 0
VERTEX
 8
TUBE_INSTANCE_6_7
 10
0
 20
0
 30
0
 70
128
 71
19
 72
20
 73
8
 74
7
 0
VERTEX
 8
TUBE_INSTANCE_6_7
 10
0
 20
0
 30
0
 70
128
 71
7
 72
8
 73
17
 74
16
 0
VERTEX
 8
TUBE_INSTANCE_6_7
 10
0
 20
0
 30
0
 70
128
 71
16
 72
17
 73
4
 74
3
 0
VERTEX
 8
TUBE_INSTANCE_6_7
 10
0
 20
0
 30
0
 70
128
 71
3
 72
11
 73
7
 74
16
 0
VERTEX
 8
TUBE_INSTANCE_6_7
 10
0
 20
0
 30
0
 70
128
 71
11
 72
19
 73
7
 74
7
 0
SEQEND
 0
POLYLINE
 8
TUBE_INSTANCE_5_7
 66
1
 10
0.0
 20
0.0
 30
0.0
 70
64
 71
20
 72
7
 0
VERTEX
 8
TUBE_INSTANCE_5_7
 10
-5.6785
 20
-2.6809
 30
15.6473
 70
192
 0
VERTEX
 8
TUBE_INSTANCE_5_7
 10
-5.4072
 20
-2.7691
 30
14.9207
 70
192
 0
VERTEX
 8
TUBE_INSTANCE_5_7
 10
-5.4072
 20
-2.7691
 30
14.9207
 70
192
 0
VERTEX
 8
TUBE_INSTANCE_5_7
 10
-5.4072
 20
-2.7691
 30
15.6473
 70
192
 0
VERTEX
 8
TUBE_INSTANCE_5_7
 10
-5.4072
 20
-2.7691
 30
15.6473
 70
192
 0
VERTEX
 8
TUBE_INSTANCE_5_7
 10
-5.6785
 20
-2.8573
 30
14.9207
 70
192
 0
VERTEX
 8
TUBE_INSTANCE_5_7
 10
-5.6785
 20
-2.8573
 30
14.9207
 70
192
 0
VERTEX
 8
TUBE_INSTANCE_5_7
 10
-5.6785
 20
-2.8573
 30
15.6473
 70
192
 0
VERTEX
 8
TUBE_INSTANCE_5_7
 10
-5.6785
 20
-2.8573
 30
15.6473
 70
192
 0
VERTEX
 8
TUBE_INSTANCE_5_7
 10
-5.5108
 20
-2.6265
 30
14.9207
 70
192
 0
VERTEX
 8
TUBE_INSTANCE_5_7
 10
-5.5108
 20
-2.6265
 30
14.9207
 70
192
 0
VERTEX
 8
TUBE_INSTANCE_5_7
 10
-5.5108
 20
-2.6265
 30
15.6473
 70
192
 0
VERTEX
 8
TUBE_INSTANCE_5_7
 10
-5.5108
 20
-2.6265
 30
15.6473
 70
192
 0
VERTEX
 8
TUBE_INSTANCE_5_7
 10
-5.5108
 20
-2.9118
 30
15.6473
 70
192
 0
VERTEX
 8
TUBE_INSTANCE_5_7
 10
-5.5108
 20
-2.9118
 30
14.9207
 70
192
 0
VERTEX
 8
TUBE_INSTANCE_5_7
 10
-5.5108
 20
-2.9118
 30
14.9207
 70
192
 0
VERTEX
 8
TUBE_INSTANCE_5_7
 10
-5.5108
 20
-2.9118
 30
15.6473
 70
192
 0
VERTEX
 8
TUBE_INSTANCE_5_7
 10
-5.6785
 20
-2.6809
 30
14.9207
 70
192
 0
VERTEX
 8
TUBE_INSTANCE_5_7
 10
-5.6785
 20
-2.6809
 30
14.9207
 70
192
 0
VERTEX
 8
TUBE_INSTANCE_5_7
 10
-5.6785
 20
-2.6809
 30
15.6473
 70
192
 0
VERTEX
 8
TUBE_INSTANCE_5_7
 10
0
 20
0
 30
0
 70
128
 71
11
 72
12
 73
20
 74
19
 0
VERTEX
 8
TUBE_INSTANCE_5_7
 10
0
 20
0
 30
0
 70
128
 71
3
 72
4
 73
12
 74
11
 0
VERTEX
 8
TUBE_INSTANCE_5_7
 10
0
 20
0
 30
0
 70
128
 71
19
 72
20
 73
8
 74
7
 0
VERTEX
 8
TUBE_INSTANCE_5_7
 10
0
 20
0
 30
0
 70
128
 71
7
 72
8
 73
17
 74
16
 0
VERTEX
 8
TUBE_INSTANCE_5_7
 10
0
 20
0
 30
0
 70
128
 71
16
 72
17
 73
4
 74
3
 0
VERTEX
 8
TUBE_INSTANCE_5_7
 10
0
 20
0
 30
0
 70
128
 71
3
 72
11
 73
7
 74
16
 0
VERTEX
 8
TUBE_INSTANCE_5_7
 10
0
 20
0
 30
0
 70
128
 71
11
 72
19
 73
7
 74
7
 0
SEQEND
 0
POLYLINE
 8
TUBE_INSTANCE_4_7
 66
1
 10
0.0
 20
0.0
 30
0.0
 70
64
 71
20
 72
7
 0
VERTEX
 8
TUBE_INSTANCE_4_7
 10
-5.6785
 20
-4.4707
 30
15.6473
 70
192
 0
VERTEX
 8
TUBE_INSTANCE_4_7
 10
-5.4072
 20
-4.5589
 30
14.9207
 70
192
 0
VERTEX
 8
TUBE_INSTANCE_4_7
 10
-5.4072
 20
-4.5589
 30
14.9207
 70
192
 0
VERTEX
 8
TUBE_INSTANCE_4_7
 10
-5.4072
 20
-4.5589
 30
15.6473
 70
192
 0
VERTEX
 8
TUBE_INSTANCE_4_7
 10
-5.4072
 20
-4.5589
 30
15.6473
 70
192
 0
VERTEX
 8
TUBE_INSTANCE_4_7
 10
-5.6785
 20
-4.647
 30
14.9207
 70
192
 0
VERTEX
 8
TUBE_INSTANCE_4_7
 10
-5.6785
 20
-4.647
 30
14.9207
 70
192
 0
VERTEX
 8
TUBE_INSTANCE_4_7
 10
-5.6785
 20
-4.647
 30
15.6473
 70
192
 0
VERTEX
 8
TUBE_INSTANCE_4_7
 10
-5.6785
 20
-4.647
 30
15.6473
 70
192
 0
VERTEX
 8
TUBE_INSTANCE_4_7
 10
-5.5108
 20
-4.4162
 30
14.9207
 70
192
 0
VERTEX
 8
TUBE_INSTANCE_4_7
 10
-5.5108
 20
-4.4162
 30
14.9207
 70
192
 0
VERTEX
 8
TUBE_INSTANCE_4_7
 10
-5.5108
 20
-4.4162
 30
15.6473
 70
192
 0
VERTEX
 8
TUBE_INSTANCE_4_7
 10
-5.5108
 20
-4.4162
 30
15.6473
 70
192
 0
VERTEX
 8
TUBE_INSTANCE_4_7
 10
-5.5108
 20
-4.7015
 30
15.6473
 70
192
 0
VERTEX
 8
TUBE_INSTANCE_4_7
 10
-5.5108
 20
-4.7015
 30
14.9207
 70
192
 0
VERTEX
 8
TUBE_INSTANCE_4_7
 10
-5.5108
 20
-4.7015
 30
14.9207
 70
192
 0
VERTEX
 8
TUBE_INSTANCE_4_7
 10
-5.5108
 20
-4.7015
 30
15.6473
 70
192
 0
VERTEX
 8
TUBE_INSTANCE_4_7
 10
-5.6785
 20
-4.4707
 30
14.9207
 70
192
 0
VERTEX
 8
TUBE_INSTANCE_4_7
 10
-5.6785
 20
-4.4707
 30
14.9207
 70
192
 0
VERTEX
 8
TUBE_INSTANCE_4_7
 10
-5.6785
 20
-4.4707
 30
15.6473
 70
192
 0
VERTEX
 8
TUBE_INSTANCE_4_7
 10
0
 20
0
 30
0
 70
128
 71
11
 72
12
 73
20
 74
19
 0
VERTEX
 8
TUBE_INSTANCE_4_7
 10
0
 20
0
 30
0
 70
128
 71
3
 72
4
 73
12
 74
11
 0
VERTEX
 8
TUBE_INSTANCE_4_7
 10
0
 20
0
 30
0
 70
128
 71
19
 72
20
 73
8
 74
7
 0
VERTEX
 8
TUBE_INSTANCE_4_7
 10
0
 20
0
 30
0
 70
128
 71
7
 72
8
 73
17
 74
16
 0
VERTEX
 8
TUBE_INSTANCE_4_7
 10
0
 20
0
 30
0
 70
128
 71
16
 72
17
 73
4
 74
3
 0
VERTEX
 8
TUBE_INSTANCE_4_7
 10
0
 20
0
 30
0
 70
128
 71
3
 72
11
 73
7
 74
16
 0
VERTEX
 8
TUBE_INSTANCE_4_7
 10
0
 20
0
 30
0
 70
128
 71
11
 72
19
 73
7
 74
7
 0
SEQEND
 0
POLYLINE
 8
TUBE_INSTANCE_3_7
 66
1
 10
0.0
 20
0.0
 30
0.0
 70
64
 71
20
 72
7
 0
VERTEX
 8
TUBE_INSTANCE_3_7
 10
-5.6785
 20
-6.2569
 30
15.6473
 70
192
 0
VERTEX
 8
TUBE_INSTANCE_3_7
 10
-5.4072
 20
-6.3451
 30
14.9207
 70
192
 0
VERTEX
 8
TUBE_INSTANCE_3_7
 10
-5.4072
 20
-6.3451
 30
14.9207
 70
192
 0
VERTEX
 8
TUBE_INSTANCE_3_7
 10
-5.4072
 20
-6.3451
 30
15.6473
 70
192
 0
VERTEX
 8
TUBE_INSTANCE_3_7
 10
-5.4072
 20
-6.3451
 30
15.6473
 70
192
 0
VERTEX
 8
TUBE_INSTANCE_3_7
 10
-5.6785
 20
-6.4333
 30
14.9207
 70
192
 0
VERTEX
 8
TUBE_INSTANCE_3_7
 10
-5.6785
 20
-6.4333
 30
14.9207
 70
192
 0
VERTEX
 8
TUBE_INSTANCE_3_7
 10
-5.6785
 20
-6.4333
 30
15.6473
 70
192
 0
VERTEX
 8
TUBE_INSTANCE_3_7
 10
-5.6785
 20
-6.4333
 30
15.6473
 70
192
 0
VERTEX
 8
TUBE_INSTANCE_3_7
 10
-5.5108
 20
-6.2025
 30
14.9207
 70
192
 0
VERTEX
 8
TUBE_INSTANCE_3_7
 10
-5.5108
 20
-6.2025
 30
14.9207
 70
192
 0
VERTEX
 8
TUBE_INSTANCE_3_7
 10
-5.5108
 20
-6.2025
 30
15.6473
 70
192
 0
VERTEX
 8
TUBE_INSTANCE_3_7
 10
-5.5108
 20
-6.2025
 30
15.6473
 70
192
 0
VERTEX
 8
TUBE_INSTANCE_3_7
 10
-5.5108
 20
-6.4878
 30
15.6473
 70
192
 0
VERTEX
 8
TUBE_INSTANCE_3_7
 10
-5.5108
 20
-6.4878
 30
14.9207
 70
192
 0
VERTEX
 8
TUBE_INSTANCE_3_7
 10
-5.5108
 20
-6.4878
 30
14.9207
 70
192
 0
VERTEX
 8
TUBE_INSTANCE_3_7
 10
-5.5108
 20
-6.4878
 30
15.6473
 70
192
 0
VERTEX
 8
TUBE_INSTANCE_3_7
 10
-5.6785
 20
-6.2569
 30
14.9207
 70
192
 0
VERTEX
 8
TUBE_INSTANCE_3_7
 10
-5.6785
 20
-6.2569
 30
14.9207
 70
192
 0
VERTEX
 8
TUBE_INSTANCE_3_7
 10
-5.6785
 20
-6.2569
 30
15.6473
 70
192
 0
VERTEX
 8
TUBE_INSTANCE_3_7
 10
0
 20
0
 30
0
 70
128
 71
11
 72
12
 73
20
 74
19
 0
VERTEX
 8
TUBE_INSTANCE_3_7
 10
0
 20
0
 30
0
 70
128
 71
3
 72
4
 73
12
 74
11
 0
VERTEX
 8
TUBE_INSTANCE_3_7
 10
0
 20
0
 30
0
 70
128
 71
19
 72
20
 73
8
 74
7
 0
VERTEX
 8
TUBE_INSTANCE_3_7
 10
0
 20
0
 30
0
 70
128
 71
7
 72
8
 73
17
 74
16
 0
VERTEX
 8
TUBE_INSTANCE_3_7
 10
0
 20
0
 30
0
 70
128
 71
16
 72
17
 73
4
 74
3
 0
VERTEX
 8
TUBE_INSTANCE_3_7
 10
0
 20
0
 30
0
 70
128
 71
3
 72
11
 73
7
 74
16
 0
VERTEX
 8
TUBE_INSTANCE_3_7
 10
0
 20
0
 30
0
 70
128
 71
11
 72
19
 73
7
 74
7
 0
SEQEND
 0
POLYLINE
 8
TUBE_INSTANCE_2_7
 66
1
 10
0.0
 20
0.0
 30
0.0
 70
64
 71
20
 72
7
 0
VERTEX
 8
TUBE_INSTANCE_2_7
 10
-5.6785
 20
-8.0664
 30
15.6473
 70
192
 0
VERTEX
 8
TUBE_INSTANCE_2_7
 10
-5.4072
 20
-8.1546
 30
14.9207
 70
192
 0
VERTEX
 8
TUBE_INSTANCE_2_7
 10
-5.4072
 20
-8.1546
 30
14.9207
 70
192
 0
VERTEX
 8
TUBE_INSTANCE_2_7
 10
-5.4072
 20
-8.1546
 30
15.6473
 70
192
 0
VERTEX
 8
TUBE_INSTANCE_2_7
 10
-5.4072
 20
-8.1546
 30
15.6473
 70
192
 0
VERTEX
 8
TUBE_INSTANCE_2_7
 10
-5.6785
 20
-8.2427
 30
14.9207
 70
192
 0
VERTEX
 8
TUBE_INSTANCE_2_7
 10
-5.6785
 20
-8.2427
 30
14.9207
 70
192
 0
VERTEX
 8
TUBE_INSTANCE_2_7
 10
-5.6785
 20
-8.2427
 30
15.6473
 70
192
 0
VERTEX
 8
TUBE_INSTANCE_2_7
 10
-5.6785
 20
-8.2427
 30
15.6473
 70
192
 0
VERTEX
 8
TUBE_INSTANCE_2_7
 10
-5.5108
 20
-8.0119
 30
14.9207
 70
192
 0
VERTEX
 8
TUBE_INSTANCE_2_7
 10
-5.5108
 20
-8.0119
 30
14.9207
 70
192
 0
VERTEX
 8
TUBE_INSTANCE_2_7
 10
-5.5108
 20
-8.0119
 30
15.6473
 70
192
 0
VERTEX
 8
TUBE_INSTANCE_2_7
 10
-5.5108
 20
-8.0119
 30
15.6473
 70
192
 0
VERTEX
 8
TUBE_INSTANCE_2_7
 10
-5.5108
 20
-8.2972
 30
15.6473
 70
192
 0
VERTEX
 8
TUBE_INSTANCE_2_7
 10
-5.5108
 20
-8.2972
 30
14.9207
 70
192
 0
VERTEX
 8
TUBE_INSTANCE_2_7
 10
-5.5108
 20
-8.2972
 30
14.9207
 70
192
 0
VERTEX
 8
TUBE_INSTANCE_2_7
 10
-5.5108
 20
-8.2972
 30
15.6473
 70
192
 0
VERTEX
 8
TUBE_INSTANCE_2_7
 10
-5.6785
 20
-8.0664
 30
14.9207
 70
192
 0
VERTEX
 8
TUBE_INSTANCE_2_7
 10
-5.6785
 20
-8.0664
 30
14.9207
 70
192
 0
VERTEX
 8
TUBE_INSTANCE_2_7
 10
-5.6785
 20
-8.0664
 30
15.6473
 70
192
 0
VERTEX
 8
TUBE_INSTANCE_2_7
 10
0
 20
0
 30
0
 70
128
 71
11
 72
12
 73
20
 74
19
 0
VERTEX
 8
TUBE_INSTANCE_2_7
 10
0
 20
0
 30
0
 70
128
 71
3
 72
4
 73
12
 74
11
 0
VERTEX
 8
TUBE_INSTANCE_2_7
 10
0
 20
0
 30
0
 70
128
 71
19
 72
20
 73
8
 74
7
 0
VERTEX
 8
TUBE_INSTANCE_2_7
 10
0
 20
0
 30
0
 70
128
 71
7
 72
8
 73
17
 74
16
 0
VERTEX
 8
TUBE_INSTANCE_2_7
 10
0
 20
0
 30
0
 70
128
 71
16
 72
17
 73
4
 74
3
 0
VERTEX
 8
TUBE_INSTANCE_2_7
 10
0
 20
0
 30
0
 70
128
 71
3
 72
11
 73
7
 74
16
 0
VERTEX
 8
TUBE_INSTANCE_2_7
 10
0
 20
0
 30
0
 70
128
 71
11
 72
19
 73
7
 74
7
 0
SEQEND
 0
POLYLINE
 8
TUBE_INSTANCE_1_7
 66
1
 10
0.0
 20
0.0
 30
0.0
 70
64
 71
20
 72
7
 0
VERTEX
 8
TUBE_INSTANCE_1_7
 10
-5.6785
 20
-9.8024
 30
15.6473
 70
192
 0
VERTEX
 8
TUBE_INSTANCE_1_7
 10
-5.4072
 20
-9.8906
 30
14.9207
 70
192
 0
VERTEX
 8
TUBE_INSTANCE_1_7
 10
-5.4072
 20
-9.8906
 30
14.9207
 70
192
 0
VERTEX
 8
TUBE_INSTANCE_1_7
 10
-5.4072
 20
-9.8906
 30
15.6473
 70
192
 0
VERTEX
 8
TUBE_INSTANCE_1_7
 10
-5.4072
 20
-9.8906
 30
15.6473
 70
192
 0
VERTEX
 8
TUBE_INSTANCE_1_7
 10
-5.6785
 20
-9.9788
 30
14.9207
 70
192
 0
VERTEX
 8
TUBE_INSTANCE_1_7
 10
-5.6785
 20
-9.9788
 30
14.9207
 70
192
 0
VERTEX
 8
TUBE_INSTANCE_1_7
 10
-5.6785
 20
-9.9788
 30
15.6473
 70
192
 0
VERTEX
 8
TUBE_INSTANCE_1_7
 10
-5.6785
 20
-9.9788
 30
15.6473
 70
192
 0
VERTEX
 8
TUBE_INSTANCE_1_7
 10
-5.5108
 20
-9.7479
 30
14.9207
 70
192
 0
VERTEX
 8
TUBE_INSTANCE_1_7
 10
-5.5108
 20
-9.7479
 30
14.9207
 70
192
 0
VERTEX
 8
TUBE_INSTANCE_1_7
 10
-5.5108
 20
-9.7479
 30
15.6473
 70
192
 0
VERTEX
 8
TUBE_INSTANCE_1_7
 10
-5.5108
 20
-9.7479
 30
15.6473
 70
192
 0
VERTEX
 8
TUBE_INSTANCE_1_7
 10
-5.5108
 20
-10.0333
 30
15.6473
 70
192
 0
VERTEX
 8
TUBE_INSTANCE_1_7
 10
-5.5108
 20
-10.0333
 30
14.9207
 70
192
 0
VERTEX
 8
TUBE_INSTANCE_1_7
 10
-5.5108
 20
-10.0333
 30
14.9207
 70
192
 0
VERTEX
 8
TUBE_INSTANCE_1_7
 10
-5.5108
 20
-10.0333
 30
15.6473
 70
192
 0
VERTEX
 8
TUBE_INSTANCE_1_7
 10
-5.6785
 20
-9.8024
 30
14.9207
 70
192
 0
VERTEX
 8
TUBE_INSTANCE_1_7
 10
-5.6785
 20
-9.8024
 30
14.9207
 70
192
 0
VERTEX
 8
TUBE_INSTANCE_1_7
 10
-5.6785
 20
-9.8024
 30
15.6473
 70
192
 0
VERTEX
 8
TUBE_INSTANCE_1_7
 10
0
 20
0
 30
0
 70
128
 71
11
 72
12
 73
20
 74
19
 0
VERTEX
 8
TUBE_INSTANCE_1_7
 10
0
 20
0
 30
0
 70
128
 71
3
 72
4
 73
12
 74
11
 0
VERTEX
 8
TUBE_INSTANCE_1_7
 10
0
 20
0
 30
0
 70
128
 71
19
 72
20
 73
8
 74
7
 0
VERTEX
 8
TUBE_INSTANCE_1_7
 10
0
 20
0
 30
0
 70
128
 71
7
 72
8
 73
17
 74
16
 0
VERTEX
 8
TUBE_INSTANCE_1_7
 10
0
 20
0
 30
0
 70
128
 71
16
 72
17
 73
4
 74
3
 0
VERTEX
 8
TUBE_INSTANCE_1_7
 10
0
 20
0
 30
0
 70
128
 71
3
 72
11
 73
7
 74
16
 0
VERTEX
 8
TUBE_INSTANCE_1_7
 10
0
 20
0
 30
0
 70
128
 71
11
 72
19
 73
7
 74
7
 0
SEQEND
 0
POLYLINE
 8
TUBE_INSTANCE_7
 66
1
 10
0.0
 20
0.0
 30
0.0
 70
64
 71
20
 72
7
 0
VERTEX
 8
TUBE_INSTANCE_7
 10
-5.6785
 20
-11.5718
 30
15.6473
 70
192
 0
VERTEX
 8
TUBE_INSTANCE_7
 10
-5.4072
 20
-11.6599
 30
14.9207
 70
192
 0
VERTEX
 8
TUBE_INSTANCE_7
 10
-5.4072
 20
-11.6599
 30
14.9207
 70
192
 0
VERTEX
 8
TUBE_INSTANCE_7
 10
-5.4072
 20
-11.6599
 30
15.6473
 70
192
 0
VERTEX
 8
TUBE_INSTANCE_7
 10
-5.4072
 20
-11.6599
 30
15.6473
 70
192
 0
VERTEX
 8
TUBE_INSTANCE_7
 10
-5.6785
 20
-11.7481
 30
14.9207
 70
192
 0
VERTEX
 8
TUBE_INSTANCE_7
 10
-5.6785
 20
-11.7481
 30
14.9207
 70
192
 0
VERTEX
 8
TUBE_INSTANCE_7
 10
-5.6785
 20
-11.7481
 30
15.6473
 70
192
 0
VERTEX
 8
TUBE_INSTANCE_7
 10
-5.6785
 20
-11.7481
 30
15.6473
 70
192
 0
VERTEX
 8
TUBE_INSTANCE_7
 10
-5.5108
 20
-11.5173
 30
14.9207
 70
192
 0
VERTEX
 8
TUBE_INSTANCE_7
 10
-5.5108
 20
-11.5173
 30
14.9207
 70
192
 0
VERTEX
 8
TUBE_INSTANCE_7
 10
-5.5108
 20
-11.5173
 30
15.6473
 70
192
 0
VERTEX
 8
TUBE_INSTANCE_7
 10
-5.5108
 20
-11.5173
 30
15.6473
 70
192
 0
VERTEX
 8
TUBE_INSTANCE_7
 10
-5.5108
 20
-11.8026
 30
15.6473
 70
192
 0
VERTEX
 8
TUBE_INSTANCE_7
 10
-5.5108
 20
-11.8026
 30
14.9207
 70
192
 0
VERTEX
 8
TUBE_INSTANCE_7
 10
-5.5108
 20
-11.8026
 30
14.9207
 70
192
 0
VERTEX
 8
TUBE_INSTANCE_7
 10
-5.5108
 20
-11.8026
 30
15.6473
 70
192
 0
VERTEX
 8
TUBE_INSTANCE_7
 10
-5.6785
 20
-11.5718
 30
14.9207
 70
192
 0
VERTEX
 8
TUBE_INSTANCE_7
 10
-5.6785
 20
-11.5718
 30
14.9207
 70
192
 0
VERTEX
 8
TUBE_INSTANCE_7
 10
-5.6785
 20
-11.5718
 30
15.6473
 70
192
 0
VERTEX
 8
TUBE_INSTANCE_7
 10
0
 20
0
 30
0
 70
128
 71
11
 72
12
 73
20
 74
19
 0
VERTEX
 8
TUBE_INSTANCE_7
 10
0
 20
0
 30
0
 70
128
 71
3
 72
4
 73
12
 74
11
 0
VERTEX
 8
TUBE_INSTANCE_7
 10
0
 20
0
 30
0
 70
128
 71
19
 72
20
 73
8
 74
7
 0
VERTEX
 8
TUBE_INSTANCE_7
 10
0
 20
0
 30
0
 70
128
 71
7
 72
8
 73
17
 74
16
 0
VERTEX
 8
TUBE_INSTANCE_7
 10
0
 20
0
 30
0
 70
128
 71
16
 72
17
 73
4
 74
3
 0
VERTEX
 8
TUBE_INSTANCE_7
 10
0
 20
0
 30
0
 70
128
 71
3
 72
11
 73
7
 74
16
 0
VERTEX
 8
TUBE_INSTANCE_7
 10
0
 20
0
 30
0
 70
128
 71
11
 72
19
 73
7
 74
7
 0
SEQEND
 0
POLYLINE
 8
TUBE_7
 66
1
 10
0.0
 20
0.0
 30
0.0
 70
64
 71
20
 72
7
 0
VERTEX
 8
TUBE_7
 10
-5.6785
 20
-13.3609
 30
15.6473
 70
192
 0
VERTEX
 8
TUBE_7
 10
-5.4072
 20
-13.4491
 30
14.9207
 70
192
 0
VERTEX
 8
TUBE_7
 10
-5.4072
 20
-13.4491
 30
14.9207
 70
192
 0
VERTEX
 8
TUBE_7
 10
-5.4072
 20
-13.4491
 30
15.6473
 70
192
 0
VERTEX
 8
TUBE_7
 10
-5.4072
 20
-13.4491
 30
15.6473
 70
192
 0
VERTEX
 8
TUBE_7
 10
-5.6785
 20
-13.5373
 30
14.9207
 70
192
 0
VERTEX
 8
TUBE_7
 10
-5.6785
 20
-13.5373
 30
14.9207
 70
192
 0
VERTEX
 8
TUBE_7
 10
-5.6785
 20
-13.5373
 30
15.6473
 70
192
 0
VERTEX
 8
TUBE_7
 10
-5.6785
 20
-13.5373
 30
15.6473
 70
192
 0
VERTEX
 8
TUBE_7
 10
-5.5108
 20
-13.3064
 30
14.9207
 70
192
 0
VERTEX
 8
TUBE_7
 10
-5.5108
 20
-13.3064
 30
14.9207
 70
192
 0
VERTEX
 8
TUBE_7
 10
-5.5108
 20
-13.3064
 30
15.6473
 70
192
 0
VERTEX
 8
TUBE_7
 10
-5.5108
 20
-13.3064
 30
15.6473
 70
192
 0
VERTEX
 8
TUBE_7
 10
-5.5108
 20
-13.5918
 30
15.6473
 70
192
 0
VERTEX
 8
TUBE_7
 10
-5.5108
 20
-13.5918
 30
14.9207
 70
192
 0
VERTEX
 8
TUBE_7
 10
-5.5108
 20
-13.5918
 30
14.9207
 70
192
 0
VERTEX
 8
TUBE_7
 10
-5.5108
 20
-13.5918
 30
15.6473
 70
192
 0
VERTEX
 8
TUBE_7
 10
-5.6785
 20
-13.3609
 30
14.9207
 70
192
 0
VERTEX
 8
TUBE_7
 10
-5.6785
 20
-13.3609
 30
14.9207
 70
192
 0
VERTEX
 8
TUBE_7
 10
-5.6785
 20
-13.3609
 30
15.6473
 70
192
 0
VERTEX
 8
TUBE_7
 10
0
 20
0
 30
0
 70
128
 71
11
 72
12
 73
20
 74
19
 0
VERTEX
 8
TUBE_7
 10
0
 20
0
 30
0
 70
128
 71
3
 72
4
 73
12
 74
11
 0
VERTEX
 8
TUBE_7
 10
0
 20
0
 30
0
 70
128
 71
19
 72
20
 73
8
 74
7
 0
VERTEX
 8
TUBE_7
 10
0
 20
0
 30
0
 70
128
 71
7
 72
8
 73
17
 74
16
 0
VERTEX
 8
TUBE_7
 10
0
 20
0
 30
0
 70
128
 71
16
 72
17
 73
4
 74
3
 0
VERTEX
 8
TUBE_7
 10
0
 20
0
 30
0
 70
128
 71
3
 72
11
 73
7
 74
16
 0
VERTEX
 8
TUBE_7
 10
0
 20
0
 30
0
 70
128
 71
11
 72
19
 73
7
 74
7
 0
SEQEND
 0
POLYLINE
 8
TUBE_INSTANCE_14_6
 66
1
 10
0.0
 20
0.0
 30
0.0
 70
64
 71
20
 72
7
 0
VERTEX
 8
TUBE_INSTANCE_14_6
 10
-3.9119
 20
13.575
 30
15.6473
 70
192
 0
VERTEX
 8
TUBE_INSTANCE_14_6
 10
-3.6405
 20
13.4868
 30
14.9207
 70
192
 0
VERTEX
 8
TUBE_INSTANCE_14_6
 10
-3.6405
 20
13.4868
 30
14.9207
 70
192
 0
VERTEX
 8
TUBE_INSTANCE_14_6
 10
-3.6405
 20
13.4868
 30
15.6473
 70
192
 0
VERTEX
 8
TUBE_INSTANCE_14_6
 10
-3.6405
 20
13.4868
 30
15.6473
 70
192
 0
VERTEX
 8
TUBE_INSTANCE_14_6
 10
-3.9119
 20
13.3986
 30
14.9207
 70
192
 0
VERTEX
 8
TUBE_INSTANCE_14_6
 10
-3.9119
 20
13.3986
 30
14.9207
 70
192
 0
VERTEX
 8
TUBE_INSTANCE_14_6
 10
-3.9119
 20
13.3986
 30
15.6473
 70
192
 0
VERTEX
 8
TUBE_INSTANCE_14_6
 10
-3.9119
 20
13.3986
 30
15.6473
 70
192
 0
VERTEX
 8
TUBE_INSTANCE_14_6
 10
-3.7442
 20
13.6295
 30
14.9207
 70
192
 0
VERTEX
 8
TUBE_INSTANCE_14_6
 10
-3.7442
 20
13.6295
 30
14.9207
 70
192
 0
VERTEX
 8
TUBE_INSTANCE_14_6
 10
-3.7442
 20
13.6295
 30
15.6473
 70
192
 0
VERTEX
 8
TUBE_INSTANCE_14_6
 10
-3.7442
 20
13.6295
 30
15.6473
 70
192
 0
VERTEX
 8
TUBE_INSTANCE_14_6
 10
-3.7442
 20
13.3442
 30
15.6473
 70
192
 0
VERTEX
 8
TUBE_INSTANCE_14_6
 10
-3.7442
 20
13.3442
 30
14.9207
 70
192
 0
VERTEX
 8
TUBE_INSTANCE_14_6
 10
-3.7442
 20
13.3442
 30
14.9207
 70
192
 0
VERTEX
 8
TUBE_INSTANCE_14_6
 10
-3.7442
 20
13.3442
 30
15.6473
 70
192
 0
VERTEX
 8
TUBE_INSTANCE_14_6
 10
-3.9119
 20
13.575
 30
14.9207
 70
192
 0
VERTEX
 8
TUBE_INSTANCE_14_6
 10
-3.9119
 20
13.575
 30
14.9207
 70
192
 0
VERTEX
 8
TUBE_INSTANCE_14_6
 10
-3.9119
 20
13.575
 30
15.6473
 70
192
 0
VERTEX
 8
TUBE_INSTANCE_14_6
 10
0
 20
0
 30
0
 70
128
 71
11
 72
12
 73
20
 74
19
 0
VERTEX
 8
TUBE_INSTANCE_14_6
 10
0
 20
0
 30
0
 70
128
 71
3
 72
4
 73
12
 74
11
 0
VERTEX
 8
TUBE_INSTANCE_14_6
 10
0
 20
0
 30
0
 70
128
 71
19
 72
20
 73
8
 74
7
 0
VERTEX
 8
TUBE_INSTANCE_14_6
 10
0
 20
0
 30
0
 70
128
 71
7
 72
8
 73
17
 74
16
 0
VERTEX
 8
TUBE_INSTANCE_14_6
 10
0
 20
0
 30
0
 70
128
 71
16
 72
17
 73
4
 74
3
 0
VERTEX
 8
TUBE_INSTANCE_14_6
 10
0
 20
0
 30
0
 70
128
 71
3
 72
11
 73
7
 74
16
 0
VERTEX
 8
TUBE_INSTANCE_14_6
 10
0
 20
0
 30
0
 70
128
 71
11
 72
19
 73
7
 74
7
 0
SEQEND
 0
POLYLINE
 8
TUBE_INSTANCE_13_6
 66
1
 10
0.0
 20
0.0
 30
0.0
 70
64
 71
20
 72
7
 0
VERTEX
 8
TUBE_INSTANCE_13_6
 10
-3.9119
 20
11.7503
 30
15.6473
 70
192
 0
VERTEX
 8
TUBE_INSTANCE_13_6
 10
-3.6405
 20
11.6621
 30
14.9207
 70
192
 0
VERTEX
 8
TUBE_INSTANCE_13_6
 10
-3.6405
 20
11.6621
 30
14.9207
 70
192
 0
VERTEX
 8
TUBE_INSTANCE_13_6
 10
-3.6405
 20
11.6621
 30
15.6473
 70
192
 0
VERTEX
 8
TUBE_INSTANCE_13_6
 10
-3.6405
 20
11.6621
 30
15.6473
 70
192
 0
VERTEX
 8
TUBE_INSTANCE_13_6
 10
-3.9119
 20
11.574
 30
14.9207
 70
192
 0
VERTEX
 8
TUBE_INSTANCE_13_6
 10
-3.9119
 20
11.574
 30
14.9207
 70
192
 0
VERTEX
 8
TUBE_INSTANCE_13_6
 10
-3.9119
 20
11.574
 30
15.6473
 70
192
 0
VERTEX
 8
TUBE_INSTANCE_13_6
 10
-3.9119
 20
11.574
 30
15.6473
 70
192
 0
VERTEX
 8
TUBE_INSTANCE_13_6
 10
-3.7442
 20
11.8048
 30
14.9207
 70
192
 0
VERTEX
 8
TUBE_INSTANCE_13_6
 10
-3.7442
 20
11.8048
 30
14.9207
 70
192
 0
VERTEX
 8
TUBE_INSTANCE_13_6
 10
-3.7442
 20
11.8048
 30
15.6473
 70
192
 0
VERTEX
 8
TUBE_INSTANCE_13_6
 10
-3.7442
 20
11.8048
 30
15.6473
 70
192
 0
VERTEX
 8
TUBE_INSTANCE_13_6
 10
-3.7442
 20
11.5195
 30
15.6473
 70
192
 0
VERTEX
 8
TUBE_INSTANCE_13_6
 10
-3.7442
 20
11.5195
 30
14.9207
 70
192
 0
VERTEX
 8
TUBE_INSTANCE_13_6
 10
-3.7442
 20
11.5195
 30
14.9207
 70
192
 0
VERTEX
 8
TUBE_INSTANCE_13_6
 10
-3.7442
 20
11.5195
 30
15.6473
 70
192
 0
VERTEX
 8
TUBE_INSTANCE_13_6
 10
-3.9119
 20
11.7503
 30
14.9207
 70
192
 0
VERTEX
 8
TUBE_INSTANCE_13_6
 10
-3.9119
 20
11.7503
 30
14.9207
 70
192
 0
VERTEX
 8
TUBE_INSTANCE_13_6
 10
-3.9119
 20
11.7503
 30
15.6473
 70
192
 0
VERTEX
 8
TUBE_INSTANCE_13_6
 10
0
 20
0
 30
0
 70
128
 71
11
 72
12
 73
20
 74
19
 0
VERTEX
 8
TUBE_INSTANCE_13_6
 10
0
 20
0
 30
0
 70
128
 71
3
 72
4
 73
12
 74
11
 0
VERTEX
 8
TUBE_INSTANCE_13_6
 10
0
 20
0
 30
0
 70
128
 71
19
 72
20
 73
8
 74
7
 0
VERTEX
 8
TUBE_INSTANCE_13_6
 10
0
 20
0
 30
0
 70
128
 71
7
 72
8
 73
17
 74
16
 0
VERTEX
 8
TUBE_INSTANCE_13_6
 10
0
 20
0
 30
0
 70
128
 71
16
 72
17
 73
4
 74
3
 0
VERTEX
 8
TUBE_INSTANCE_13_6
 10
0
 20
0
 30
0
 70
128
 71
3
 72
11
 73
7
 74
16
 0
VERTEX
 8
TUBE_INSTANCE_13_6
 10
0
 20
0
 30
0
 70
128
 71
11
 72
19
 73
7
 74
7
 0
SEQEND
 0
POLYLINE
 8
TUBE_INSTANCE_12_6
 66
1
 10
0.0
 20
0.0
 30
0.0
 70
64
 71
20
 72
7
 0
VERTEX
 8
TUBE_INSTANCE_12_6
 10
-3.9119
 20
9.923
 30
15.6473
 70
192
 0
VERTEX
 8
TUBE_INSTANCE_12_6
 10
-3.6405
 20
9.8349
 30
14.9207
 70
192
 0
VERTEX
 8
TUBE_INSTANCE_12_6
 10
-3.6405
 20
9.8349
 30
14.9207
 70
192
 0
VERTEX
 8
TUBE_INSTANCE_12_6
 10
-3.6405
 20
9.8349
 30
15.6473
 70
192
 0
VERTEX
 8
TUBE_INSTANCE_12_6
 10
-3.6405
 20
9.8349
 30
15.6473
 70
192
 0
VERTEX
 8
TUBE_INSTANCE_12_6
 10
-3.9119
 20
9.7467
 30
14.9207
 70
192
 0
VERTEX
 8
TUBE_INSTANCE_12_6
 10
-3.9119
 20
9.7467
 30
14.9207
 70
192
 0
VERTEX
 8
TUBE_INSTANCE_12_6
 10
-3.9119
 20
9.7467
 30
15.6473
 70
192
 0
VERTEX
 8
TUBE_INSTANCE_12_6
 10
-3.9119
 20
9.7467
 30
15.6473
 70
192
 0
VERTEX
 8
TUBE_INSTANCE_12_6
 10
-3.7442
 20
9.9775
 30
14.9207
 70
192
 0
VERTEX
 8
TUBE_INSTANCE_12_6
 10
-3.7442
 20
9.9775
 30
14.9207
 70
192
 0
VERTEX
 8
TUBE_INSTANCE_12_6
 10
-3.7442
 20
9.9775
 30
15.6473
 70
192
 0
VERTEX
 8
TUBE_INSTANCE_12_6
 10
-3.7442
 20
9.9775
 30
15.6473
 70
192
 0
VERTEX
 8
TUBE_INSTANCE_12_6
 10
-3.7442
 20
9.6922
 30
15.6473
 70
192
 0
VERTEX
 8
TUBE_INSTANCE_12_6
 10
-3.7442
 20
9.6922
 30
14.9207
 70
192
 0
VERTEX
 8
TUBE_INSTANCE_12_6
 10
-3.7442
 20
9.6922
 30
14.9207
 70
192
 0
VERTEX
 8
TUBE_INSTANCE_12_6
 10
-3.7442
 20
9.6922
 30
15.6473
 70
192
 0
VERTEX
 8
TUBE_INSTANCE_12_6
 10
-3.9119
 20
9.923
 30
14.9207
 70
192
 0
VERTEX
 8
TUBE_INSTANCE_12_6
 10
-3.9119
 20
9.923
 30
14.9207
 70
192
 0
VERTEX
 8
TUBE_INSTANCE_12_6
 10
-3.9119
 20
9.923
 30
15.6473
 70
192
 0
VERTEX
 8
TUBE_INSTANCE_12_6
 10
0
 20
0
 30
0
 70
128
 71
11
 72
12
 73
20
 74
19
 0
VERTEX
 8
TUBE_INSTANCE_12_6
 10
0
 20
0
 30
0
 70
128
 71
3
 72
4
 73
12
 74
11
 0
VERTEX
 8
TUBE_INSTANCE_12_6
 10
0
 20
0
 30
0
 70
128
 71
19
 72
20
 73
8
 74
7
 0
VERTEX
 8
TUBE_INSTANCE_12_6
 10
0
 20
0
 30
0
 70
128
 71
7
 72
8
 73
17
 74
16
 0
VERTEX
 8
TUBE_INSTANCE_12_6
 10
0
 20
0
 30
0
 70
128
 71
16
 72
17
 73
4
 74
3
 0
VERTEX
 8
TUBE_INSTANCE_12_6
 10
0
 20
0
 30
0
 70
128
 71
3
 72
11
 73
7
 74
16
 0
VERTEX
 8
TUBE_INSTANCE_12_6
 10
0
 20
0
 30
0
 70
128
 71
11
 72
19
 73
7
 74
7
 0
SEQEND
 0
POLYLINE
 8
TUBE_INSTANCE_11_6
 66
1
 10
0.0
 20
0.0
 30
0.0
 70
64
 71
20
 72
7
 0
VERTEX
 8
TUBE_INSTANCE_11_6
 10
-3.9119
 20
8.1242
 30
15.6473
 70
192
 0
VERTEX
 8
TUBE_INSTANCE_11_6
 10
-3.6405
 20
8.036
 30
14.9207
 70
192
 0
VERTEX
 8
TUBE_INSTANCE_11_6
 10
-3.6405
 20
8.036
 30
14.9207
 70
192
 0
VERTEX
 8
TUBE_INSTANCE_11_6
 10
-3.6405
 20
8.036
 30
15.6473
 70
192
 0
VERTEX
 8
TUBE_INSTANCE_11_6
 10
-3.6405
 20
8.036
 30
15.6473
 70
192
 0
VERTEX
 8
TUBE_INSTANCE_11_6
 10
-3.9119
 20
7.9479
 30
14.9207
 70
192
 0
VERTEX
 8
TUBE_INSTANCE_11_6
 10
-3.9119
 20
7.9479
 30
14.9207
 70
192
 0
VERTEX
 8
TUBE_INSTANCE_11_6
 10
-3.9119
 20
7.9479
 30
15.6473
 70
192
 0
VERTEX
 8
TUBE_INSTANCE_11_6
 10
-3.9119
 20
7.9479
 30
15.6473
 70
192
 0
VERTEX
 8
TUBE_INSTANCE_11_6
 10
-3.7442
 20
8.1787
 30
14.9207
 70
192
 0
VERTEX
 8
TUBE_INSTANCE_11_6
 10
-3.7442
 20
8.1787
 30
14.9207
 70
192
 0
VERTEX
 8
TUBE_INSTANCE_11_6
 10
-3.7442
 20
8.1787
 30
15.6473
 70
192
 0
VERTEX
 8
TUBE_INSTANCE_11_6
 10
-3.7442
 20
8.1787
 30
15.6473
 70
192
 0
VERTEX
 8
TUBE_INSTANCE_11_6
 10
-3.7442
 20
7.8934
 30
15.6473
 70
192
 0
VERTEX
 8
TUBE_INSTANCE_11_6
 10
-3.7442
 20
7.8934
 30
14.9207
 70
192
 0
VERTEX
 8
TUBE_INSTANCE_11_6
 10
-3.7442
 20
7.8934
 30
14.9207
 70
192
 0
VERTEX
 8
TUBE_INSTANCE_11_6
 10
-3.7442
 20
7.8934
 30
15.6473
 70
192
 0
VERTEX
 8
TUBE_INSTANCE_11_6
 10
-3.9119
 20
8.1242
 30
14.9207
 70
192
 0
VERTEX
 8
TUBE_INSTANCE_11_6
 10
-3.9119
 20
8.1242
 30
14.9207
 70
192
 0
VERTEX
 8
TUBE_INSTANCE_11_6
 10
-3.9119
 20
8.1242
 30
15.6473
 70
192
 0
VERTEX
 8
TUBE_INSTANCE_11_6
 10
0
 20
0
 30
0
 70
128
 71
11
 72
12
 73
20
 74
19
 0
VERTEX
 8
TUBE_INSTANCE_11_6
 10
0
 20
0
 30
0
 70
128
 71
3
 72
4
 73
12
 74
11
 0
VERTEX
 8
TUBE_INSTANCE_11_6
 10
0
 20
0
 30
0
 70
128
 71
19
 72
20
 73
8
 74
7
 0
VERTEX
 8
TUBE_INSTANCE_11_6
 10
0
 20
0
 30
0
 70
128
 71
7
 72
8
 73
17
 74
16
 0
VERTEX
 8
TUBE_INSTANCE_11_6
 10
0
 20
0
 30
0
 70
128
 71
16
 72
17
 73
4
 74
3
 0
VERTEX
 8
TUBE_INSTANCE_11_6
 10
0
 20
0
 30
0
 70
128
 71
3
 72
11
 73
7
 74
16
 0
VERTEX
 8
TUBE_INSTANCE_11_6
 10
0
 20
0
 30
0
 70
128
 71
11
 72
19
 73
7
 74
7
 0
SEQEND
 0
POLYLINE
 8
TUBE_INSTANCE_10_6
 66
1
 10
0.0
 20
0.0
 30
0.0
 70
64
 71
20
 72
7
 0
VERTEX
 8
TUBE_INSTANCE_10_6
 10
-3.9119
 20
6.2861
 30
15.6473
 70
192
 0
VERTEX
 8
TUBE_INSTANCE_10_6
 10
-3.6405
 20
6.198
 30
14.9207
 70
192
 0
VERTEX
 8
TUBE_INSTANCE_10_6
 10
-3.6405
 20
6.198
 30
14.9207
 70
192
 0
VERTEX
 8
TUBE_INSTANCE_10_6
 10
-3.6405
 20
6.198
 30
15.6473
 70
192
 0
VERTEX
 8
TUBE_INSTANCE_10_6
 10
-3.6405
 20
6.198
 30
15.6473
 70
192
 0
VERTEX
 8
TUBE_INSTANCE_10_6
 10
-3.9119
 20
6.1098
 30
14.9207
 70
192
 0
VERTEX
 8
TUBE_INSTANCE_10_6
 10
-3.9119
 20
6.1098
 30
14.9207
 70
192
 0
VERTEX
 8
TUBE_INSTANCE_10_6
 10
-3.9119
 20
6.1098
 30
15.6473
 70
192
 0
VERTEX
 8
TUBE_INSTANCE_10_6
 10
-3.9119
 20
6.1098
 30
15.6473
 70
192
 0
VERTEX
 8
TUBE_INSTANCE_10_6
 10
-3.7442
 20
6.3406
 30
14.9207
 70
192
 0
VERTEX
 8
TUBE_INSTANCE_10_6
 10
-3.7442
 20
6.3406
 30
14.9207
 70
192
 0
VERTEX
 8
TUBE_INSTANCE_10_6
 10
-3.7442
 20
6.3406
 30
15.6473
 70
192
 0
VERTEX
 8
TUBE_INSTANCE_10_6
 10
-3.7442
 20
6.3406
 30
15.6473
 70
192
 0
VERTEX
 8
TUBE_INSTANCE_10_6
 10
-3.7442
 20
6.0553
 30
15.6473
 70
192
 0
VERTEX
 8
TUBE_INSTANCE_10_6
 10
-3.7442
 20
6.0553
 30
14.9207
 70
192
 0
VERTEX
 8
TUBE_INSTANCE_10_6
 10
-3.7442
 20
6.0553
 30
14.9207
 70
192
 0
VERTEX
 8
TUBE_INSTANCE_10_6
 10
-3.7442
 20
6.0553
 30
15.6473
 70
192
 0
VERTEX
 8
TUBE_INSTANCE_10_6
 10
-3.9119
 20
6.2861
 30
14.9207
 70
192
 0
VERTEX
 8
TUBE_INSTANCE_10_6
 10
-3.9119
 20
6.2861
 30
14.9207
 70
192
 0
VERTEX
 8
TUBE_INSTANCE_10_6
 10
-3.9119
 20
6.2861
 30
15.6473
 70
192
 0
VERTEX
 8
TUBE_INSTANCE_10_6
 10
0
 20
0
 30
0
 70
128
 71
11
 72
12
 73
20
 74
19
 0
VERTEX
 8
TUBE_INSTANCE_10_6
 10
0
 20
0
 30
0
 70
128
 71
3
 72
4
 73
12
 74
11
 0
VERTEX
 8
TUBE_INSTANCE_10_6
 10
0
 20
0
 30
0
 70
128
 71
19
 72
20
 73
8
 74
7
 0
VERTEX
 8
TUBE_INSTANCE_10_6
 10
0
 20
0
 30
0
 70
128
 71
7
 72
8
 73
17
 74
16
 0
VERTEX
 8
TUBE_INSTANCE_10_6
 10
0
 20
0
 30
0
 70
128
 71
16
 72
17
 73
4
 74
3
 0
VERTEX
 8
TUBE_INSTANCE_10_6
 10
0
 20
0
 30
0
 70
128
 71
3
 72
11
 73
7
 74
16
 0
VERTEX
 8
TUBE_INSTANCE_10_6
 10
0
 20
0
 30
0
 70
128
 71
11
 72
19
 73
7
 74
7
 0
SEQEND
 0
POLYLINE
 8
TUBE_INSTANCE_9_6
 66
1
 10
0.0
 20
0.0
 30
0.0
 70
64
 71
20
 72
7
 0
VERTEX
 8
TUBE_INSTANCE_9_6
 10
-3.9119
 20
4.4401
 30
15.6473
 70
192
 0
VERTEX
 8
TUBE_INSTANCE_9_6
 10
-3.6405
 20
4.3519
 30
14.9207
 70
192
 0
VERTEX
 8
TUBE_INSTANCE_9_6
 10
-3.6405
 20
4.3519
 30
14.9207
 70
192
 0
VERTEX
 8
TUBE_INSTANCE_9_6
 10
-3.6405
 20
4.3519
 30
15.6473
 70
192
 0
VERTEX
 8
TUBE_INSTANCE_9_6
 10
-3.6405
 20
4.3519
 30
15.6473
 70
192
 0
VERTEX
 8
TUBE_INSTANCE_9_6
 10
-3.9119
 20
4.2637
 30
14.9207
 70
192
 0
VERTEX
 8
TUBE_INSTANCE_9_6
 10
-3.9119
 20
4.2637
 30
14.9207
 70
192
 0
VERTEX
 8
TUBE_INSTANCE_9_6
 10
-3.9119
 20
4.2637
 30
15.6473
 70
192
 0
VERTEX
 8
TUBE_INSTANCE_9_6
 10
-3.9119
 20
4.2637
 30
15.6473
 70
192
 0
VERTEX
 8
TUBE_INSTANCE_9_6
 10
-3.7442
 20
4.4946
 30
14.9207
 70
192
 0
VERTEX
 8
TUBE_INSTANCE_9_6
 10
-3.7442
 20
4.4946
 30
14.9207
 70
192
 0
VERTEX
 8
TUBE_INSTANCE_9_6
 10
-3.7442
 20
4.4946
 30
15.6473
 70
192
 0
VERTEX
 8
TUBE_INSTANCE_9_6
 10
-3.7442
 20
4.4946
 30
15.6473
 70
192
 0
VERTEX
 8
TUBE_INSTANCE_9_6
 10
-3.7442
 20
4.2092
 30
15.6473
 70
192
 0
VERTEX
 8
TUBE_INSTANCE_9_6
 10
-3.7442
 20
4.2092
 30
14.9207
 70
192
 0
VERTEX
 8
TUBE_INSTANCE_9_6
 10
-3.7442
 20
4.2092
 30
14.9207
 70
192
 0
VERTEX
 8
TUBE_INSTANCE_9_6
 10
-3.7442
 20
4.2092
 30
15.6473
 70
192
 0
VERTEX
 8
TUBE_INSTANCE_9_6
 10
-3.9119
 20
4.4401
 30
14.9207
 70
192
 0
VERTEX
 8
TUBE_INSTANCE_9_6
 10
-3.9119
 20
4.4401
 30
14.9207
 70
192
 0
VERTEX
 8
TUBE_INSTANCE_9_6
 10
-3.9119
 20
4.4401
 30
15.6473
 70
192
 0
VERTEX
 8
TUBE_INSTANCE_9_6
 10
0
 20
0
 30
0
 70
128
 71
11
 72
12
 73
20
 74
19
 0
VERTEX
 8
TUBE_INSTANCE_9_6
 10
0
 20
0
 30
0
 70
128
 71
3
 72
4
 73
12
 74
11
 0
VERTEX
 8
TUBE_INSTANCE_9_6
 10
0
 20
0
 30
0
 70
128
 71
19
 72
20
 73
8
 74
7
 0
VERTEX
 8
TUBE_INSTANCE_9_6
 10
0
 20
0
 30
0
 70
128
 71
7
 72
8
 73
17
 74
16
 0
VERTEX
 8
TUBE_INSTANCE_9_6
 10
0
 20
0
 30
0
 70
128
 71
16
 72
17
 73
4
 74
3
 0
VERTEX
 8
TUBE_INSTANCE_9_6
 10
0
 20
0
 30
0
 70
128
 71
3
 72
11
 73
7
 74
16
 0
VERTEX
 8
TUBE_INSTANCE_9_6
 10
0
 20
0
 30
0
 70
128
 71
11
 72
19
 73
7
 74
7
 0
SEQEND
 0
POLYLINE
 8
TUBE_INSTANCE_8_6
 66
1
 10
0.0
 20
0.0
 30
0.0
 70
64
 71
20
 72
7
 0
VERTEX
 8
TUBE_INSTANCE_8_6
 10
-3.9119
 20
2.6774
 30
15.6473
 70
192
 0
VERTEX
 8
TUBE_INSTANCE_8_6
 10
-3.6405
 20
2.5892
 30
14.9207
 70
192
 0
VERTEX
 8
TUBE_INSTANCE_8_6
 10
-3.6405
 20
2.5892
 30
14.9207
 70
192
 0
VERTEX
 8
TUBE_INSTANCE_8_6
 10
-3.6405
 20
2.5892
 30
15.6473
 70
192
 0
VERTEX
 8
TUBE_INSTANCE_8_6
 10
-3.6405
 20
2.5892
 30
15.6473
 70
192
 0
VERTEX
 8
TUBE_INSTANCE_8_6
 10
-3.9119
 20
2.501
 30
14.9207
 70
192
 0
VERTEX
 8
TUBE_INSTANCE_8_6
 10
-3.9119
 20
2.501
 30
14.9207
 70
192
 0
VERTEX
 8
TUBE_INSTANCE_8_6
 10
-3.9119
 20
2.501
 30
15.6473
 70
192
 0
VERTEX
 8
TUBE_INSTANCE_8_6
 10
-3.9119
 20
2.501
 30
15.6473
 70
192
 0
VERTEX
 8
TUBE_INSTANCE_8_6
 10
-3.7442
 20
2.7318
 30
14.9207
 70
192
 0
VERTEX
 8
TUBE_INSTANCE_8_6
 10
-3.7442
 20
2.7318
 30
14.9207
 70
192
 0
VERTEX
 8
TUBE_INSTANCE_8_6
 10
-3.7442
 20
2.7318
 30
15.6473
 70
192
 0
VERTEX
 8
TUBE_INSTANCE_8_6
 10
-3.7442
 20
2.7318
 30
15.6473
 70
192
 0
VERTEX
 8
TUBE_INSTANCE_8_6
 10
-3.7442
 20
2.4465
 30
15.6473
 70
192
 0
VERTEX
 8
TUBE_INSTANCE_8_6
 10
-3.7442
 20
2.4465
 30
14.9207
 70
192
 0
VERTEX
 8
TUBE_INSTANCE_8_6
 10
-3.7442
 20
2.4465
 30
14.9207
 70
192
 0
VERTEX
 8
TUBE_INSTANCE_8_6
 10
-3.7442
 20
2.4465
 30
15.6473
 70
192
 0
VERTEX
 8
TUBE_INSTANCE_8_6
 10
-3.9119
 20
2.6774
 30
14.9207
 70
192
 0
VERTEX
 8
TUBE_INSTANCE_8_6
 10
-3.9119
 20
2.6774
 30
14.9207
 70
192
 0
VERTEX
 8
TUBE_INSTANCE_8_6
 10
-3.9119
 20
2.6774
 30
15.6473
 70
192
 0
VERTEX
 8
TUBE_INSTANCE_8_6
 10
0
 20
0
 30
0
 70
128
 71
11
 72
12
 73
20
 74
19
 0
VERTEX
 8
TUBE_INSTANCE_8_6
 10
0
 20
0
 30
0
 70
128
 71
3
 72
4
 73
12
 74
11
 0
VERTEX
 8
TUBE_INSTANCE_8_6
 10
0
 20
0
 30
0
 70
128
 71
19
 72
20
 73
8
 74
7
 0
VERTEX
 8
TUBE_INSTANCE_8_6
 10
0
 20
0
 30
0
 70
128
 71
7
 72
8
 73
17
 74
16
 0
VERTEX
 8
TUBE_INSTANCE_8_6
 10
0
 20
0
 30
0
 70
128
 71
16
 72
17
 73
4
 74
3
 0
VERTEX
 8
TUBE_INSTANCE_8_6
 10
0
 20
0
 30
0
 70
128
 71
3
 72
11
 73
7
 74
16
 0
VERTEX
 8
TUBE_INSTANCE_8_6
 10
0
 20
0
 30
0
 70
128
 71
11
 72
19
 73
7
 74
7
 0
SEQEND
 0
POLYLINE
 8
TUBE_INSTANCE_7_6
 66
1
 10
0.0
 20
0.0
 30
0.0
 70
64
 71
20
 72
7
 0
VERTEX
 8
TUBE_INSTANCE_7_6
 10
-3.9119
 20
0.9035
 30
15.6473
 70
192
 0
VERTEX
 8
TUBE_INSTANCE_7_6
 10
-3.6405
 20
0.8153
 30
14.9207
 70
192
 0
VERTEX
 8
TUBE_INSTANCE_7_6
 10
-3.6405
 20
0.8153
 30
14.9207
 70
192
 0
VERTEX
 8
TUBE_INSTANCE_7_6
 10
-3.6405
 20
0.8153
 30
15.6473
 70
192
 0
VERTEX
 8
TUBE_INSTANCE_7_6
 10
-3.6405
 20
0.8153
 30
15.6473
 70
192
 0
VERTEX
 8
TUBE_INSTANCE_7_6
 10
-3.9119
 20
0.7271
 30
14.9207
 70
192
 0
VERTEX
 8
TUBE_INSTANCE_7_6
 10
-3.9119
 20
0.7271
 30
14.9207
 70
192
 0
VERTEX
 8
TUBE_INSTANCE_7_6
 10
-3.9119
 20
0.7271
 30
15.6473
 70
192
 0
VERTEX
 8
TUBE_INSTANCE_7_6
 10
-3.9119
 20
0.7271
 30
15.6473
 70
192
 0
VERTEX
 8
TUBE_INSTANCE_7_6
 10
-3.7442
 20
0.958
 30
14.9207
 70
192
 0
VERTEX
 8
TUBE_INSTANCE_7_6
 10
-3.7442
 20
0.958
 30
14.9207
 70
192
 0
VERTEX
 8
TUBE_INSTANCE_7_6
 10
-3.7442
 20
0.958
 30
15.6473
 70
192
 0
VERTEX
 8
TUBE_INSTANCE_7_6
 10
-3.7442
 20
0.958
 30
15.6473
 70
192
 0
VERTEX
 8
TUBE_INSTANCE_7_6
 10
-3.7442
 20
0.6727
 30
15.6473
 70
192
 0
VERTEX
 8
TUBE_INSTANCE_7_6
 10
-3.7442
 20
0.6727
 30
14.9207
 70
192
 0
VERTEX
 8
TUBE_INSTANCE_7_6
 10
-3.7442
 20
0.6727
 30
14.9207
 70
192
 0
VERTEX
 8
TUBE_INSTANCE_7_6
 10
-3.7442
 20
0.6727
 30
15.6473
 70
192
 0
VERTEX
 8
TUBE_INSTANCE_7_6
 10
-3.9119
 20
0.9035
 30
14.9207
 70
192
 0
VERTEX
 8
TUBE_INSTANCE_7_6
 10
-3.9119
 20
0.9035
 30
14.9207
 70
192
 0
VERTEX
 8
TUBE_INSTANCE_7_6
 10
-3.9119
 20
0.9035
 30
15.6473
 70
192
 0
VERTEX
 8
TUBE_INSTANCE_7_6
 10
0
 20
0
 30
0
 70
128
 71
11
 72
12
 73
20
 74
19
 0
VERTEX
 8
TUBE_INSTANCE_7_6
 10
0
 20
0
 30
0
 70
128
 71
3
 72
4
 73
12
 74
11
 0
VERTEX
 8
TUBE_INSTANCE_7_6
 10
0
 20
0
 30
0
 70
128
 71
19
 72
20
 73
8
 74
7
 0
VERTEX
 8
TUBE_INSTANCE_7_6
 10
0
 20
0
 30
0
 70
128
 71
7
 72
8
 73
17
 74
16
 0
VERTEX
 8
TUBE_INSTANCE_7_6
 10
0
 20
0
 30
0
 70
128
 71
16
 72
17
 73
4
 74
3
 0
VERTEX
 8
TUBE_INSTANCE_7_6
 10
0
 20
0
 30
0
 70
128
 71
3
 72
11
 73
7
 74
16
 0
VERTEX
 8
TUBE_INSTANCE_7_6
 10
0
 20
0
 30
0
 70
128
 71
11
 72
19
 73
7
 74
7
 0
SEQEND
 0
POLYLINE
 8
TUBE_INSTANCE_6_6
 66
1
 10
0.0
 20
0.0
 30
0.0
 70
64
 71
20
 72
7
 0
VERTEX
 8
TUBE_INSTANCE_6_6
 10
-3.9119
 20
-0.9033
 30
15.6473
 70
192
 0
VERTEX
 8
TUBE_INSTANCE_6_6
 10
-3.6405
 20
-0.9915
 30
14.9207
 70
192
 0
VERTEX
 8
TUBE_INSTANCE_6_6
 10
-3.6405
 20
-0.9915
 30
14.9207
 70
192
 0
VERTEX
 8
TUBE_INSTANCE_6_6
 10
-3.6405
 20
-0.9915
 30
15.6473
 70
192
 0
VERTEX
 8
TUBE_INSTANCE_6_6
 10
-3.6405
 20
-0.9915
 30
15.6473
 70
192
 0
VERTEX
 8
TUBE_INSTANCE_6_6
 10
-3.9119
 20
-1.0796
 30
14.9207
 70
192
 0
VERTEX
 8
TUBE_INSTANCE_6_6
 10
-3.9119
 20
-1.0796
 30
14.9207
 70
192
 0
VERTEX
 8
TUBE_INSTANCE_6_6
 10
-3.9119
 20
-1.0796
 30
15.6473
 70
192
 0
VERTEX
 8
TUBE_INSTANCE_6_6
 10
-3.9119
 20
-1.0796
 30
15.6473
 70
192
 0
VERTEX
 8
TUBE_INSTANCE_6_6
 10
-3.7442
 20
-0.8488
 30
14.9207
 70
192
 0
VERTEX
 8
TUBE_INSTANCE_6_6
 10
-3.7442
 20
-0.8488
 30
14.9207
 70
192
 0
VERTEX
 8
TUBE_INSTANCE_6_6
 10
-3.7442
 20
-0.8488
 30
15.6473
 70
192
 0
VERTEX
 8
TUBE_INSTANCE_6_6
 10
-3.7442
 20
-0.8488
 30
15.6473
 70
192
 0
VERTEX
 8
TUBE_INSTANCE_6_6
 10
-3.7442
 20
-1.1341
 30
15.6473
 70
192
 0
VERTEX
 8
TUBE_INSTANCE_6_6
 10
-3.7442
 20
-1.1341
 30
14.9207
 70
192
 0
VERTEX
 8
TUBE_INSTANCE_6_6
 10
-3.7442
 20
-1.1341
 30
14.9207
 70
192
 0
VERTEX
 8
TUBE_INSTANCE_6_6
 10
-3.7442
 20
-1.1341
 30
15.6473
 70
192
 0
VERTEX
 8
TUBE_INSTANCE_6_6
 10
-3.9119
 20
-0.9033
 30
14.9207
 70
192
 0
VERTEX
 8
TUBE_INSTANCE_6_6
 10
-3.9119
 20
-0.9033
 30
14.9207
 70
192
 0
VERTEX
 8
TUBE_INSTANCE_6_6
 10
-3.9119
 20
-0.9033
 30
15.6473
 70
192
 0
VERTEX
 8
TUBE_INSTANCE_6_6
 10
0
 20
0
 30
0
 70
128
 71
11
 72
12
 73
20
 74
19
 0
VERTEX
 8
TUBE_INSTANCE_6_6
 10
0
 20
0
 30
0
 70
128
 71
3
 72
4
 73
12
 74
11
 0
VERTEX
 8
TUBE_INSTANCE_6_6
 10
0
 20
0
 30
0
 70
128
 71
19
 72
20
 73
8
 74
7
 0
VERTEX
 8
TUBE_INSTANCE_6_6
 10
0
 20
0
 30
0
 70
128
 71
7
 72
8
 73
17
 74
16
 0
VERTEX
 8
TUBE_INSTANCE_6_6
 10
0
 20
0
 30
0
 70
128
 71
16
 72
17
 73
4
 74
3
 0
VERTEX
 8
TUBE_INSTANCE_6_6
 10
0
 20
0
 30
0
 70
128
 71
3
 72
11
 73
7
 74
16
 0
VERTEX
 8
TUBE_INSTANCE_6_6
 10
0
 20
0
 30
0
 70
128
 71
11
 72
19
 73
7
 74
7
 0
SEQEND
 0
POLYLINE
 8
TUBE_INSTANCE_5_6
 66
1
 10
0.0
 20
0.0
 30
0.0
 70
64
 71
20
 72
7
 0
VERTEX
 8
TUBE_INSTANCE_5_6
 10
-3.9119
 20
-2.6809
 30
15.6473
 70
192
 0
VERTEX
 8
TUBE_INSTANCE_5_6
 10
-3.6405
 20
-2.7691
 30
14.9207
 70
192
 0
VERTEX
 8
TUBE_INSTANCE_5_6
 10
-3.6405
 20
-2.7691
 30
14.9207
 70
192
 0
VERTEX
 8
TUBE_INSTANCE_5_6
 10
-3.6405
 20
-2.7691
 30
15.6473
 70
192
 0
VERTEX
 8
TUBE_INSTANCE_5_6
 10
-3.6405
 20
-2.7691
 30
15.6473
 70
192
 0
VERTEX
 8
TUBE_INSTANCE_5_6
 10
-3.9119
 20
-2.8573
 30
14.9207
 70
192
 0
VERTEX
 8
TUBE_INSTANCE_5_6
 10
-3.9119
 20
-2.8573
 30
14.9207
 70
192
 0
VERTEX
 8
TUBE_INSTANCE_5_6
 10
-3.9119
 20
-2.8573
 30
15.6473
 70
192
 0
VERTEX
 8
TUBE_INSTANCE_5_6
 10
-3.9119
 20
-2.8573
 30
15.6473
 70
192
 0
VERTEX
 8
TUBE_INSTANCE_5_6
 10
-3.7442
 20
-2.6265
 30
14.9207
 70
192
 0
VERTEX
 8
TUBE_INSTANCE_5_6
 10
-3.7442
 20
-2.6265
 30
14.9207
 70
192
 0
VERTEX
 8
TUBE_INSTANCE_5_6
 10
-3.7442
 20
-2.6265
 30
15.6473
 70
192
 0
VERTEX
 8
TUBE_INSTANCE_5_6
 10
-3.7442
 20
-2.6265
 30
15.6473
 70
192
 0
VERTEX
 8
TUBE_INSTANCE_5_6
 10
-3.7442
 20
-2.9118
 30
15.6473
 70
192
 0
VERTEX
 8
TUBE_INSTANCE_5_6
 10
-3.7442
 20
-2.9118
 30
14.9207
 70
192
 0
VERTEX
 8
TUBE_INSTANCE_5_6
 10
-3.7442
 20
-2.9118
 30
14.9207
 70
192
 0
VERTEX
 8
TUBE_INSTANCE_5_6
 10
-3.7442
 20
-2.9118
 30
15.6473
 70
192
 0
VERTEX
 8
TUBE_INSTANCE_5_6
 10
-3.9119
 20
-2.6809
 30
14.9207
 70
192
 0
VERTEX
 8
TUBE_INSTANCE_5_6
 10
-3.9119
 20
-2.6809
 30
14.9207
 70
192
 0
VERTEX
 8
TUBE_INSTANCE_5_6
 10
-3.9119
 20
-2.6809
 30
15.6473
 70
192
 0
VERTEX
 8
TUBE_INSTANCE_5_6
 10
0
 20
0
 30
0
 70
128
 71
11
 72
12
 73
20
 74
19
 0
VERTEX
 8
TUBE_INSTANCE_5_6
 10
0
 20
0
 30
0
 70
128
 71
3
 72
4
 73
12
 74
11
 0
VERTEX
 8
TUBE_INSTANCE_5_6
 10
0
 20
0
 30
0
 70
128
 71
19
 72
20
 73
8
 74
7
 0
VERTEX
 8
TUBE_INSTANCE_5_6
 10
0
 20
0
 30
0
 70
128
 71
7
 72
8
 73
17
 74
16
 0
VERTEX
 8
TUBE_INSTANCE_5_6
 10
0
 20
0
 30
0
 70
128
 71
16
 72
17
 73
4
 74
3
 0
VERTEX
 8
TUBE_INSTANCE_5_6
 10
0
 20
0
 30
0
 70
128
 71
3
 72
11
 73
7
 74
16
 0
VERTEX
 8
TUBE_INSTANCE_5_6
 10
0
 20
0
 30
0
 70
128
 71
11
 72
19
 73
7
 74
7
 0
SEQEND
 0
POLYLINE
 8
TUBE_INSTANCE_4_6
 66
1
 10
0.0
 20
0.0
 30
0.0
 70
64
 71
20
 72
7
 0
VERTEX
 8
TUBE_INSTANCE_4_6
 10
-3.9119
 20
-4.4707
 30
15.6473
 70
192
 0
VERTEX
 8
TUBE_INSTANCE_4_6
 10
-3.6405
 20
-4.5589
 30
14.9207
 70
192
 0
VERTEX
 8
TUBE_INSTANCE_4_6
 10
-3.6405
 20
-4.5589
 30
14.9207
 70
192
 0
VERTEX
 8
TUBE_INSTANCE_4_6
 10
-3.6405
 20
-4.5589
 30
15.6473
 70
192
 0
VERTEX
 8
TUBE_INSTANCE_4_6
 10
-3.6405
 20
-4.5589
 30
15.6473
 70
192
 0
VERTEX
 8
TUBE_INSTANCE_4_6
 10
-3.9119
 20
-4.647
 30
14.9207
 70
192
 0
VERTEX
 8
TUBE_INSTANCE_4_6
 10
-3.9119
 20
-4.647
 30
14.9207
 70
192
 0
VERTEX
 8
TUBE_INSTANCE_4_6
 10
-3.9119
 20
-4.647
 30
15.6473
 70
192
 0
VERTEX
 8
TUBE_INSTANCE_4_6
 10
-3.9119
 20
-4.647
 30
15.6473
 70
192
 0
VERTEX
 8
TUBE_INSTANCE_4_6
 10
-3.7442
 20
-4.4162
 30
14.9207
 70
192
 0
VERTEX
 8
TUBE_INSTANCE_4_6
 10
-3.7442
 20
-4.4162
 30
14.9207
 70
192
 0
VERTEX
 8
TUBE_INSTANCE_4_6
 10
-3.7442
 20
-4.4162
 30
15.6473
 70
192
 0
VERTEX
 8
TUBE_INSTANCE_4_6
 10
-3.7442
 20
-4.4162
 30
15.6473
 70
192
 0
VERTEX
 8
TUBE_INSTANCE_4_6
 10
-3.7442
 20
-4.7015
 30
15.6473
 70
192
 0
VERTEX
 8
TUBE_INSTANCE_4_6
 10
-3.7442
 20
-4.7015
 30
14.9207
 70
192
 0
VERTEX
 8
TUBE_INSTANCE_4_6
 10
-3.7442
 20
-4.7015
 30
14.9207
 70
192
 0
VERTEX
 8
TUBE_INSTANCE_4_6
 10
-3.7442
 20
-4.7015
 30
15.6473
 70
192
 0
VERTEX
 8
TUBE_INSTANCE_4_6
 10
-3.9119
 20
-4.4707
 30
14.9207
 70
192
 0
VERTEX
 8
TUBE_INSTANCE_4_6
 10
-3.9119
 20
-4.4707
 30
14.9207
 70
192
 0
VERTEX
 8
TUBE_INSTANCE_4_6
 10
-3.9119
 20
-4.4707
 30
15.6473
 70
192
 0
VERTEX
 8
TUBE_INSTANCE_4_6
 10
0
 20
0
 30
0
 70
128
 71
11
 72
12
 73
20
 74
19
 0
VERTEX
 8
TUBE_INSTANCE_4_6
 10
0
 20
0
 30
0
 70
128
 71
3
 72
4
 73
12
 74
11
 0
VERTEX
 8
TUBE_INSTANCE_4_6
 10
0
 20
0
 30
0
 70
128
 71
19
 72
20
 73
8
 74
7
 0
VERTEX
 8
TUBE_INSTANCE_4_6
 10
0
 20
0
 30
0
 70
128
 71
7
 72
8
 73
17
 74
16
 0
VERTEX
 8
TUBE_INSTANCE_4_6
 10
0
 20
0
 30
0
 70
128
 71
16
 72
17
 73
4
 74
3
 0
VERTEX
 8
TUBE_INSTANCE_4_6
 10
0
 20
0
 30
0
 70
128
 71
3
 72
11
 73
7
 74
16
 0
VERTEX
 8
TUBE_INSTANCE_4_6
 10
0
 20
0
 30
0
 70
128
 71
11
 72
19
 73
7
 74
7
 0
SEQEND
 0
POLYLINE
 8
TUBE_INSTANCE_3_6
 66
1
 10
0.0
 20
0.0
 30
0.0
 70
64
 71
20
 72
7
 0
VERTEX
 8
TUBE_INSTANCE_3_6
 10
-3.9119
 20
-6.2569
 30
15.6473
 70
192
 0
VERTEX
 8
TUBE_INSTANCE_3_6
 10
-3.6405
 20
-6.3451
 30
14.9207
 70
192
 0
VERTEX
 8
TUBE_INSTANCE_3_6
 10
-3.6405
 20
-6.3451
 30
14.9207
 70
192
 0
VERTEX
 8
TUBE_INSTANCE_3_6
 10
-3.6405
 20
-6.3451
 30
15.6473
 70
192
 0
VERTEX
 8
TUBE_INSTANCE_3_6
 10
-3.6405
 20
-6.3451
 30
15.6473
 70
192
 0
VERTEX
 8
TUBE_INSTANCE_3_6
 10
-3.9119
 20
-6.4333
 30
14.9207
 70
192
 0
VERTEX
 8
TUBE_INSTANCE_3_6
 10
-3.9119
 20
-6.4333
 30
14.9207
 70
192
 0
VERTEX
 8
TUBE_INSTANCE_3_6
 10
-3.9119
 20
-6.4333
 30
15.6473
 70
192
 0
VERTEX
 8
TUBE_INSTANCE_3_6
 10
-3.9119
 20
-6.4333
 30
15.6473
 70
192
 0
VERTEX
 8
TUBE_INSTANCE_3_6
 10
-3.7442
 20
-6.2025
 30
14.9207
 70
192
 0
VERTEX
 8
TUBE_INSTANCE_3_6
 10
-3.7442
 20
-6.2025
 30
14.9207
 70
192
 0
VERTEX
 8
TUBE_INSTANCE_3_6
 10
-3.7442
 20
-6.2025
 30
15.6473
 70
192
 0
VERTEX
 8
TUBE_INSTANCE_3_6
 10
-3.7442
 20
-6.2025
 30
15.6473
 70
192
 0
VERTEX
 8
TUBE_INSTANCE_3_6
 10
-3.7442
 20
-6.4878
 30
15.6473
 70
192
 0
VERTEX
 8
TUBE_INSTANCE_3_6
 10
-3.7442
 20
-6.4878
 30
14.9207
 70
192
 0
VERTEX
 8
TUBE_INSTANCE_3_6
 10
-3.7442
 20
-6.4878
 30
14.9207
 70
192
 0
VERTEX
 8
TUBE_INSTANCE_3_6
 10
-3.7442
 20
-6.4878
 30
15.6473
 70
192
 0
VERTEX
 8
TUBE_INSTANCE_3_6
 10
-3.9119
 20
-6.2569
 30
14.9207
 70
192
 0
VERTEX
 8
TUBE_INSTANCE_3_6
 10
-3.9119
 20
-6.2569
 30
14.9207
 70
192
 0
VERTEX
 8
TUBE_INSTANCE_3_6
 10
-3.9119
 20
-6.2569
 30
15.6473
 70
192
 0
VERTEX
 8
TUBE_INSTANCE_3_6
 10
0
 20
0
 30
0
 70
128
 71
11
 72
12
 73
20
 74
19
 0
VERTEX
 8
TUBE_INSTANCE_3_6
 10
0
 20
0
 30
0
 70
128
 71
3
 72
4
 73
12
 74
11
 0
VERTEX
 8
TUBE_INSTANCE_3_6
 10
0
 20
0
 30
0
 70
128
 71
19
 72
20
 73
8
 74
7
 0
VERTEX
 8
TUBE_INSTANCE_3_6
 10
0
 20
0
 30
0
 70
128
 71
7
 72
8
 73
17
 74
16
 0
VERTEX
 8
TUBE_INSTANCE_3_6
 10
0
 20
0
 30
0
 70
128
 71
16
 72
17
 73
4
 74
3
 0
VERTEX
 8
TUBE_INSTANCE_3_6
 10
0
 20
0
 30
0
 70
128
 71
3
 72
11
 73
7
 74
16
 0
VERTEX
 8
TUBE_INSTANCE_3_6
 10
0
 20
0
 30
0
 70
128
 71
11
 72
19
 73
7
 74
7
 0
SEQEND
 0
POLYLINE
 8
TUBE_INSTANCE_2_6
 66
1
 10
0.0
 20
0.0
 30
0.0
 70
64
 71
20
 72
7
 0
VERTEX
 8
TUBE_INSTANCE_2_6
 10
-3.9119
 20
-8.0664
 30
15.6473
 70
192
 0
VERTEX
 8
TUBE_INSTANCE_2_6
 10
-3.6405
 20
-8.1546
 30
14.9207
 70
192
 0
VERTEX
 8
TUBE_INSTANCE_2_6
 10
-3.6405
 20
-8.1546
 30
14.9207
 70
192
 0
VERTEX
 8
TUBE_INSTANCE_2_6
 10
-3.6405
 20
-8.1546
 30
15.6473
 70
192
 0
VERTEX
 8
TUBE_INSTANCE_2_6
 10
-3.6405
 20
-8.1546
 30
15.6473
 70
192
 0
VERTEX
 8
TUBE_INSTANCE_2_6
 10
-3.9119
 20
-8.2427
 30
14.9207
 70
192
 0
VERTEX
 8
TUBE_INSTANCE_2_6
 10
-3.9119
 20
-8.2427
 30
14.9207
 70
192
 0
VERTEX
 8
TUBE_INSTANCE_2_6
 10
-3.9119
 20
-8.2427
 30
15.6473
 70
192
 0
VERTEX
 8
TUBE_INSTANCE_2_6
 10
-3.9119
 20
-8.2427
 30
15.6473
 70
192
 0
VERTEX
 8
TUBE_INSTANCE_2_6
 10
-3.7442
 20
-8.0119
 30
14.9207
 70
192
 0
VERTEX
 8
TUBE_INSTANCE_2_6
 10
-3.7442
 20
-8.0119
 30
14.9207
 70
192
 0
VERTEX
 8
TUBE_INSTANCE_2_6
 10
-3.7442
 20
-8.0119
 30
15.6473
 70
192
 0
VERTEX
 8
TUBE_INSTANCE_2_6
 10
-3.7442
 20
-8.0119
 30
15.6473
 70
192
 0
VERTEX
 8
TUBE_INSTANCE_2_6
 10
-3.7442
 20
-8.2972
 30
15.6473
 70
192
 0
VERTEX
 8
TUBE_INSTANCE_2_6
 10
-3.7442
 20
-8.2972
 30
14.9207
 70
192
 0
VERTEX
 8
TUBE_INSTANCE_2_6
 10
-3.7442
 20
-8.2972
 30
14.9207
 70
192
 0
VERTEX
 8
TUBE_INSTANCE_2_6
 10
-3.7442
 20
-8.2972
 30
15.6473
 70
192
 0
VERTEX
 8
TUBE_INSTANCE_2_6
 10
-3.9119
 20
-8.0664
 30
14.9207
 70
192
 0
VERTEX
 8
TUBE_INSTANCE_2_6
 10
-3.9119
 20
-8.0664
 30
14.9207
 70
192
 0
VERTEX
 8
TUBE_INSTANCE_2_6
 10
-3.9119
 20
-8.0664
 30
15.6473
 70
192
 0
VERTEX
 8
TUBE_INSTANCE_2_6
 10
0
 20
0
 30
0
 70
128
 71
11
 72
12
 73
20
 74
19
 0
VERTEX
 8
TUBE_INSTANCE_2_6
 10
0
 20
0
 30
0
 70
128
 71
3
 72
4
 73
12
 74
11
 0
VERTEX
 8
TUBE_INSTANCE_2_6
 10
0
 20
0
 30
0
 70
128
 71
19
 72
20
 73
8
 74
7
 0
VERTEX
 8
TUBE_INSTANCE_2_6
 10
0
 20
0
 30
0
 70
128
 71
7
 72
8
 73
17
 74
16
 0
VERTEX
 8
TUBE_INSTANCE_2_6
 10
0
 20
0
 30
0
 70
128
 71
16
 72
17
 73
4
 74
3
 0
VERTEX
 8
TUBE_INSTANCE_2_6
 10
0
 20
0
 30
0
 70
128
 71
3
 72
11
 73
7
 74
16
 0
VERTEX
 8
TUBE_INSTANCE_2_6
 10
0
 20
0
 30
0
 70
128
 71
11
 72
19
 73
7
 74
7
 0
SEQEND
 0
POLYLINE
 8
TUBE_INSTANCE_1_6
 66
1
 10
0.0
 20
0.0
 30
0.0
 70
64
 71
20
 72
7
 0
VERTEX
 8
TUBE_INSTANCE_1_6
 10
-3.9119
 20
-9.8024
 30
15.6473
 70
192
 0
VERTEX
 8
TUBE_INSTANCE_1_6
 10
-3.6405
 20
-9.8906
 30
14.9207
 70
192
 0
VERTEX
 8
TUBE_INSTANCE_1_6
 10
-3.6405
 20
-9.8906
 30
14.9207
 70
192
 0
VERTEX
 8
TUBE_INSTANCE_1_6
 10
-3.6405
 20
-9.8906
 30
15.6473
 70
192
 0
VERTEX
 8
TUBE_INSTANCE_1_6
 10
-3.6405
 20
-9.8906
 30
15.6473
 70
192
 0
VERTEX
 8
TUBE_INSTANCE_1_6
 10
-3.9119
 20
-9.9788
 30
14.9207
 70
192
 0
VERTEX
 8
TUBE_INSTANCE_1_6
 10
-3.9119
 20
-9.9788
 30
14.9207
 70
192
 0
VERTEX
 8
TUBE_INSTANCE_1_6
 10
-3.9119
 20
-9.9788
 30
15.6473
 70
192
 0
VERTEX
 8
TUBE_INSTANCE_1_6
 10
-3.9119
 20
-9.9788
 30
15.6473
 70
192
 0
VERTEX
 8
TUBE_INSTANCE_1_6
 10
-3.7442
 20
-9.7479
 30
14.9207
 70
192
 0
VERTEX
 8
TUBE_INSTANCE_1_6
 10
-3.7442
 20
-9.7479
 30
14.9207
 70
192
 0
VERTEX
 8
TUBE_INSTANCE_1_6
 10
-3.7442
 20
-9.7479
 30
15.6473
 70
192
 0
VERTEX
 8
TUBE_INSTANCE_1_6
 10
-3.7442
 20
-9.7479
 30
15.6473
 70
192
 0
VERTEX
 8
TUBE_INSTANCE_1_6
 10
-3.7442
 20
-10.0333
 30
15.6473
 70
192
 0
VERTEX
 8
TUBE_INSTANCE_1_6
 10
-3.7442
 20
-10.0333
 30
14.9207
 70
192
 0
VERTEX
 8
TUBE_INSTANCE_1_6
 10
-3.7442
 20
-10.0333
 30
14.9207
 70
192
 0
VERTEX
 8
TUBE_INSTANCE_1_6
 10
-3.7442
 20
-10.0333
 30
15.6473
 70
192
 0
VERTEX
 8
TUBE_INSTANCE_1_6
 10
-3.9119
 20
-9.8024
 30
14.9207
 70
192
 0
VERTEX
 8
TUBE_INSTANCE_1_6
 10
-3.9119
 20
-9.8024
 30
14.9207
 70
192
 0
VERTEX
 8
TUBE_INSTANCE_1_6
 10
-3.9119
 20
-9.8024
 30
15.6473
 70
192
 0
VERTEX
 8
TUBE_INSTANCE_1_6
 10
0
 20
0
 30
0
 70
128
 71
11
 72
12
 73
20
 74
19
 0
VERTEX
 8
TUBE_INSTANCE_1_6
 10
0
 20
0
 30
0
 70
128
 71
3
 72
4
 73
12
 74
11
 0
VERTEX
 8
TUBE_INSTANCE_1_6
 10
0
 20
0
 30
0
 70
128
 71
19
 72
20
 73
8
 74
7
 0
VERTEX
 8
TUBE_INSTANCE_1_6
 10
0
 20
0
 30
0
 70
128
 71
7
 72
8
 73
17
 74
16
 0
VERTEX
 8
TUBE_INSTANCE_1_6
 10
0
 20
0
 30
0
 70
128
 71
16
 72
17
 73
4
 74
3
 0
VERTEX
 8
TUBE_INSTANCE_1_6
 10
0
 20
0
 30
0
 70
128
 71
3
 72
11
 73
7
 74
16
 0
VERTEX
 8
TUBE_INSTANCE_1_6
 10
0
 20
0
 30
0
 70
128
 71
11
 72
19
 73
7
 74
7
 0
SEQEND
 0
POLYLINE
 8
TUBE_INSTANCE_6
 66
1
 10
0.0
 20
0.0
 30
0.0
 70
64
 71
20
 72
7
 0
VERTEX
 8
TUBE_INSTANCE_6
 10
-3.9119
 20
-11.5718
 30
15.6473
 70
192
 0
VERTEX
 8
TUBE_INSTANCE_6
 10
-3.6405
 20
-11.6599
 30
14.9207
 70
192
 0
VERTEX
 8
TUBE_INSTANCE_6
 10
-3.6405
 20
-11.6599
 30
14.9207
 70
192
 0
VERTEX
 8
TUBE_INSTANCE_6
 10
-3.6405
 20
-11.6599
 30
15.6473
 70
192
 0
VERTEX
 8
TUBE_INSTANCE_6
 10
-3.6405
 20
-11.6599
 30
15.6473
 70
192
 0
VERTEX
 8
TUBE_INSTANCE_6
 10
-3.9119
 20
-11.7481
 30
14.9207
 70
192
 0
VERTEX
 8
TUBE_INSTANCE_6
 10
-3.9119
 20
-11.7481
 30
14.9207
 70
192
 0
VERTEX
 8
TUBE_INSTANCE_6
 10
-3.9119
 20
-11.7481
 30
15.6473
 70
192
 0
VERTEX
 8
TUBE_INSTANCE_6
 10
-3.9119
 20
-11.7481
 30
15.6473
 70
192
 0
VERTEX
 8
TUBE_INSTANCE_6
 10
-3.7442
 20
-11.5173
 30
14.9207
 70
192
 0
VERTEX
 8
TUBE_INSTANCE_6
 10
-3.7442
 20
-11.5173
 30
14.9207
 70
192
 0
VERTEX
 8
TUBE_INSTANCE_6
 10
-3.7442
 20
-11.5173
 30
15.6473
 70
192
 0
VERTEX
 8
TUBE_INSTANCE_6
 10
-3.7442
 20
-11.5173
 30
15.6473
 70
192
 0
VERTEX
 8
TUBE_INSTANCE_6
 10
-3.7442
 20
-11.8026
 30
15.6473
 70
192
 0
VERTEX
 8
TUBE_INSTANCE_6
 10
-3.7442
 20
-11.8026
 30
14.9207
 70
192
 0
VERTEX
 8
TUBE_INSTANCE_6
 10
-3.7442
 20
-11.8026
 30
14.9207
 70
192
 0
VERTEX
 8
TUBE_INSTANCE_6
 10
-3.7442
 20
-11.8026
 30
15.6473
 70
192
 0
VERTEX
 8
TUBE_INSTANCE_6
 10
-3.9119
 20
-11.5718
 30
14.9207
 70
192
 0
VERTEX
 8
TUBE_INSTANCE_6
 10
-3.9119
 20
-11.5718
 30
14.9207
 70
192
 0
VERTEX
 8
TUBE_INSTANCE_6
 10
-3.9119
 20
-11.5718
 30
15.6473
 70
192
 0
VERTEX
 8
TUBE_INSTANCE_6
 10
0
 20
0
 30
0
 70
128
 71
11
 72
12
 73
20
 74
19
 0
VERTEX
 8
TUBE_INSTANCE_6
 10
0
 20
0
 30
0
 70
128
 71
3
 72
4
 73
12
 74
11
 0
VERTEX
 8
TUBE_INSTANCE_6
 10
0
 20
0
 30
0
 70
128
 71
19
 72
20
 73
8
 74
7
 0
VERTEX
 8
TUBE_INSTANCE_6
 10
0
 20
0
 30
0
 70
128
 71
7
 72
8
 73
17
 74
16
 0
VERTEX
 8
TUBE_INSTANCE_6
 10
0
 20
0
 30
0
 70
128
 71
16
 72
17
 73
4
 74
3
 0
VERTEX
 8
TUBE_INSTANCE_6
 10
0
 20
0
 30
0
 70
128
 71
3
 72
11
 73
7
 74
16
 0
VERTEX
 8
TUBE_INSTANCE_6
 10
0
 20
0
 30
0
 70
128
 71
11
 72
19
 73
7
 74
7
 0
SEQEND
 0
POLYLINE
 8
TUBE_6
 66
1
 10
0.0
 20
0.0
 30
0.0
 70
64
 71
20
 72
7
 0
VERTEX
 8
TUBE_6
 10
-3.9119
 20
-13.3609
 30
15.6473
 70
192
 0
VERTEX
 8
TUBE_6
 10
-3.6405
 20
-13.4491
 30
14.9207
 70
192
 0
VERTEX
 8
TUBE_6
 10
-3.6405
 20
-13.4491
 30
14.9207
 70
192
 0
VERTEX
 8
TUBE_6
 10
-3.6405
 20
-13.4491
 30
15.6473
 70
192
 0
VERTEX
 8
TUBE_6
 10
-3.6405
 20
-13.4491
 30
15.6473
 70
192
 0
VERTEX
 8
TUBE_6
 10
-3.9119
 20
-13.5373
 30
14.9207
 70
192
 0
VERTEX
 8
TUBE_6
 10
-3.9119
 20
-13.5373
 30
14.9207
 70
192
 0
VERTEX
 8
TUBE_6
 10
-3.9119
 20
-13.5373
 30
15.6473
 70
192
 0
VERTEX
 8
TUBE_6
 10
-3.9119
 20
-13.5373
 30
15.6473
 70
192
 0
VERTEX
 8
TUBE_6
 10
-3.7442
 20
-13.3064
 30
14.9207
 70
192
 0
VERTEX
 8
TUBE_6
 10
-3.7442
 20
-13.3064
 30
14.9207
 70
192
 0
VERTEX
 8
TUBE_6
 10
-3.7442
 20
-13.3064
 30
15.6473
 70
192
 0
VERTEX
 8
TUBE_6
 10
-3.7442
 20
-13.3064
 30
15.6473
 70
192
 0
VERTEX
 8
TUBE_6
 10
-3.7442
 20
-13.5918
 30
15.6473
 70
192
 0
VERTEX
 8
TUBE_6
 10
-3.7442
 20
-13.5918
 30
14.9207
 70
192
 0
VERTEX
 8
TUBE_6
 10
-3.7442
 20
-13.5918
 30
14.9207
 70
192
 0
VERTEX
 8
TUBE_6
 10
-3.7442
 20
-13.5918
 30
15.6473
 70
192
 0
VERTEX
 8
TUBE_6
 10
-3.9119
 20
-13.3609
 30
14.9207
 70
192
 0
VERTEX
 8
TUBE_6
 10
-3.9119
 20
-13.3609
 30
14.9207
 70
192
 0
VERTEX
 8
TUBE_6
 10
-3.9119
 20
-13.3609
 30
15.6473
 70
192
 0
VERTEX
 8
TUBE_6
 10
0
 20
0
 30
0
 70
128
 71
11
 72
12
 73
20
 74
19
 0
VERTEX
 8
TUBE_6
 10
0
 20
0
 30
0
 70
128
 71
3
 72
4
 73
12
 74
11
 0
VERTEX
 8
TUBE_6
 10
0
 20
0
 30
0
 70
128
 71
19
 72
20
 73
8
 74
7
 0
VERTEX
 8
TUBE_6
 10
0
 20
0
 30
0
 70
128
 71
7
 72
8
 73
17
 74
16
 0
VERTEX
 8
TUBE_6
 10
0
 20
0
 30
0
 70
128
 71
16
 72
17
 73
4
 74
3
 0
VERTEX
 8
TUBE_6
 10
0
 20
0
 30
0
 70
128
 71
3
 72
11
 73
7
 74
16
 0
VERTEX
 8
TUBE_6
 10
0
 20
0
 30
0
 70
128
 71
11
 72
19
 73
7
 74
7
 0
SEQEND
 0
POLYLINE
 8
TUBE_INSTANCE_14_5
 66
1
 10
0.0
 20
0.0
 30
0.0
 70
64
 71
20
 72
7
 0
VERTEX
 8
TUBE_INSTANCE_14_5
 10
-2.059
 20
13.575
 30
15.6473
 70
192
 0
VERTEX
 8
TUBE_INSTANCE_14_5
 10
-1.7877
 20
13.4868
 30
14.9207
 70
192
 0
VERTEX
 8
TUBE_INSTANCE_14_5
 10
-1.7877
 20
13.4868
 30
14.9207
 70
192
 0
VERTEX
 8
TUBE_INSTANCE_14_5
 10
-1.7877
 20
13.4868
 30
15.6473
 70
192
 0
VERTEX
 8
TUBE_INSTANCE_14_5
 10
-1.7877
 20
13.4868
 30
15.6473
 70
192
 0
VERTEX
 8
TUBE_INSTANCE_14_5
 10
-2.059
 20
13.3986
 30
14.9207
 70
192
 0
VERTEX
 8
TUBE_INSTANCE_14_5
 10
-2.059
 20
13.3986
 30
14.9207
 70
192
 0
VERTEX
 8
TUBE_INSTANCE_14_5
 10
-2.059
 20
13.3986
 30
15.6473
 70
192
 0
VERTEX
 8
TUBE_INSTANCE_14_5
 10
-2.059
 20
13.3986
 30
15.6473
 70
192
 0
VERTEX
 8
TUBE_INSTANCE_14_5
 10
-1.8913
 20
13.6295
 30
14.9207
 70
192
 0
VERTEX
 8
TUBE_INSTANCE_14_5
 10
-1.8913
 20
13.6295
 30
14.9207
 70
192
 0
VERTEX
 8
TUBE_INSTANCE_14_5
 10
-1.8913
 20
13.6295
 30
15.6473
 70
192
 0
VERTEX
 8
TUBE_INSTANCE_14_5
 10
-1.8913
 20
13.6295
 30
15.6473
 70
192
 0
VERTEX
 8
TUBE_INSTANCE_14_5
 10
-1.8913
 20
13.3442
 30
15.6473
 70
192
 0
VERTEX
 8
TUBE_INSTANCE_14_5
 10
-1.8913
 20
13.3442
 30
14.9207
 70
192
 0
VERTEX
 8
TUBE_INSTANCE_14_5
 10
-1.8913
 20
13.3442
 30
14.9207
 70
192
 0
VERTEX
 8
TUBE_INSTANCE_14_5
 10
-1.8913
 20
13.3442
 30
15.6473
 70
192
 0
VERTEX
 8
TUBE_INSTANCE_14_5
 10
-2.059
 20
13.575
 30
14.9207
 70
192
 0
VERTEX
 8
TUBE_INSTANCE_14_5
 10
-2.059
 20
13.575
 30
14.9207
 70
192
 0
VERTEX
 8
TUBE_INSTANCE_14_5
 10
-2.059
 20
13.575
 30
15.6473
 70
192
 0
VERTEX
 8
TUBE_INSTANCE_14_5
 10
0
 20
0
 30
0
 70
128
 71
11
 72
12
 73
20
 74
19
 0
VERTEX
 8
TUBE_INSTANCE_14_5
 10
0
 20
0
 30
0
 70
128
 71
3
 72
4
 73
12
 74
11
 0
VERTEX
 8
TUBE_INSTANCE_14_5
 10
0
 20
0
 30
0
 70
128
 71
19
 72
20
 73
8
 74
7
 0
VERTEX
 8
TUBE_INSTANCE_14_5
 10
0
 20
0
 30
0
 70
128
 71
7
 72
8
 73
17
 74
16
 0
VERTEX
 8
TUBE_INSTANCE_14_5
 10
0
 20
0
 30
0
 70
128
 71
16
 72
17
 73
4
 74
3
 0
VERTEX
 8
TUBE_INSTANCE_14_5
 10
0
 20
0
 30
0
 70
128
 71
3
 72
11
 73
7
 74
16
 0
VERTEX
 8
TUBE_INSTANCE_14_5
 10
0
 20
0
 30
0
 70
128
 71
11
 72
19
 73
7
 74
7
 0
SEQEND
 0
POLYLINE
 8
TUBE_INSTANCE_13_5
 66
1
 10
0.0
 20
0.0
 30
0.0
 70
64
 71
20
 72
7
 0
VERTEX
 8
TUBE_INSTANCE_13_5
 10
-2.059
 20
11.7503
 30
15.6473
 70
192
 0
VERTEX
 8
TUBE_INSTANCE_13_5
 10
-1.7877
 20
11.6621
 30
14.9207
 70
192
 0
VERTEX
 8
TUBE_INSTANCE_13_5
 10
-1.7877
 20
11.6621
 30
14.9207
 70
192
 0
VERTEX
 8
TUBE_INSTANCE_13_5
 10
-1.7877
 20
11.6621
 30
15.6473
 70
192
 0
VERTEX
 8
TUBE_INSTANCE_13_5
 10
-1.7877
 20
11.6621
 30
15.6473
 70
192
 0
VERTEX
 8
TUBE_INSTANCE_13_5
 10
-2.059
 20
11.574
 30
14.9207
 70
192
 0
VERTEX
 8
TUBE_INSTANCE_13_5
 10
-2.059
 20
11.574
 30
14.9207
 70
192
 0
VERTEX
 8
TUBE_INSTANCE_13_5
 10
-2.059
 20
11.574
 30
15.6473
 70
192
 0
VERTEX
 8
TUBE_INSTANCE_13_5
 10
-2.059
 20
11.574
 30
15.6473
 70
192
 0
VERTEX
 8
TUBE_INSTANCE_13_5
 10
-1.8913
 20
11.8048
 30
14.9207
 70
192
 0
VERTEX
 8
TUBE_INSTANCE_13_5
 10
-1.8913
 20
11.8048
 30
14.9207
 70
192
 0
VERTEX
 8
TUBE_INSTANCE_13_5
 10
-1.8913
 20
11.8048
 30
15.6473
 70
192
 0
VERTEX
 8
TUBE_INSTANCE_13_5
 10
-1.8913
 20
11.8048
 30
15.6473
 70
192
 0
VERTEX
 8
TUBE_INSTANCE_13_5
 10
-1.8913
 20
11.5195
 30
15.6473
 70
192
 0
VERTEX
 8
TUBE_INSTANCE_13_5
 10
-1.8913
 20
11.5195
 30
14.9207
 70
192
 0
VERTEX
 8
TUBE_INSTANCE_13_5
 10
-1.8913
 20
11.5195
 30
14.9207
 70
192
 0
VERTEX
 8
TUBE_INSTANCE_13_5
 10
-1.8913
 20
11.5195
 30
15.6473
 70
192
 0
VERTEX
 8
TUBE_INSTANCE_13_5
 10
-2.059
 20
11.7503
 30
14.9207
 70
192
 0
VERTEX
 8
TUBE_INSTANCE_13_5
 10
-2.059
 20
11.7503
 30
14.9207
 70
192
 0
VERTEX
 8
TUBE_INSTANCE_13_5
 10
-2.059
 20
11.7503
 30
15.6473
 70
192
 0
VERTEX
 8
TUBE_INSTANCE_13_5
 10
0
 20
0
 30
0
 70
128
 71
11
 72
12
 73
20
 74
19
 0
VERTEX
 8
TUBE_INSTANCE_13_5
 10
0
 20
0
 30
0
 70
128
 71
3
 72
4
 73
12
 74
11
 0
VERTEX
 8
TUBE_INSTANCE_13_5
 10
0
 20
0
 30
0
 70
128
 71
19
 72
20
 73
8
 74
7
 0
VERTEX
 8
TUBE_INSTANCE_13_5
 10
0
 20
0
 30
0
 70
128
 71
7
 72
8
 73
17
 74
16
 0
VERTEX
 8
TUBE_INSTANCE_13_5
 10
0
 20
0
 30
0
 70
128
 71
16
 72
17
 73
4
 74
3
 0
VERTEX
 8
TUBE_INSTANCE_13_5
 10
0
 20
0
 30
0
 70
128
 71
3
 72
11
 73
7
 74
16
 0
VERTEX
 8
TUBE_INSTANCE_13_5
 10
0
 20
0
 30
0
 70
128
 71
11
 72
19
 73
7
 74
7
 0
SEQEND
 0
POLYLINE
 8
TUBE_INSTANCE_12_5
 66
1
 10
0.0
 20
0.0
 30
0.0
 70
64
 71
20
 72
7
 0
VERTEX
 8
TUBE_INSTANCE_12_5
 10
-2.059
 20
9.923
 30
15.6473
 70
192
 0
VERTEX
 8
TUBE_INSTANCE_12_5
 10
-1.7877
 20
9.8349
 30
14.9207
 70
192
 0
VERTEX
 8
TUBE_INSTANCE_12_5
 10
-1.7877
 20
9.8349
 30
14.9207
 70
192
 0
VERTEX
 8
TUBE_INSTANCE_12_5
 10
-1.7877
 20
9.8349
 30
15.6473
 70
192
 0
VERTEX
 8
TUBE_INSTANCE_12_5
 10
-1.7877
 20
9.8349
 30
15.6473
 70
192
 0
VERTEX
 8
TUBE_INSTANCE_12_5
 10
-2.059
 20
9.7467
 30
14.9207
 70
192
 0
VERTEX
 8
TUBE_INSTANCE_12_5
 10
-2.059
 20
9.7467
 30
14.9207
 70
192
 0
VERTEX
 8
TUBE_INSTANCE_12_5
 10
-2.059
 20
9.7467
 30
15.6473
 70
192
 0
VERTEX
 8
TUBE_INSTANCE_12_5
 10
-2.059
 20
9.7467
 30
15.6473
 70
192
 0
VERTEX
 8
TUBE_INSTANCE_12_5
 10
-1.8913
 20
9.9775
 30
14.9207
 70
192
 0
VERTEX
 8
TUBE_INSTANCE_12_5
 10
-1.8913
 20
9.9775
 30
14.9207
 70
192
 0
VERTEX
 8
TUBE_INSTANCE_12_5
 10
-1.8913
 20
9.9775
 30
15.6473
 70
192
 0
VERTEX
 8
TUBE_INSTANCE_12_5
 10
-1.8913
 20
9.9775
 30
15.6473
 70
192
 0
VERTEX
 8
TUBE_INSTANCE_12_5
 10
-1.8913
 20
9.6922
 30
15.6473
 70
192
 0
VERTEX
 8
TUBE_INSTANCE_12_5
 10
-1.8913
 20
9.6922
 30
14.9207
 70
192
 0
VERTEX
 8
TUBE_INSTANCE_12_5
 10
-1.8913
 20
9.6922
 30
14.9207
 70
192
 0
VERTEX
 8
TUBE_INSTANCE_12_5
 10
-1.8913
 20
9.6922
 30
15.6473
 70
192
 0
VERTEX
 8
TUBE_INSTANCE_12_5
 10
-2.059
 20
9.923
 30
14.9207
 70
192
 0
VERTEX
 8
TUBE_INSTANCE_12_5
 10
-2.059
 20
9.923
 30
14.9207
 70
192
 0
VERTEX
 8
TUBE_INSTANCE_12_5
 10
-2.059
 20
9.923
 30
15.6473
 70
192
 0
VERTEX
 8
TUBE_INSTANCE_12_5
 10
0
 20
0
 30
0
 70
128
 71
11
 72
12
 73
20
 74
19
 0
VERTEX
 8
TUBE_INSTANCE_12_5
 10
0
 20
0
 30
0
 70
128
 71
3
 72
4
 73
12
 74
11
 0
VERTEX
 8
TUBE_INSTANCE_12_5
 10
0
 20
0
 30
0
 70
128
 71
19
 72
20
 73
8
 74
7
 0
VERTEX
 8
TUBE_INSTANCE_12_5
 10
0
 20
0
 30
0
 70
128
 71
7
 72
8
 73
17
 74
16
 0
VERTEX
 8
TUBE_INSTANCE_12_5
 10
0
 20
0
 30
0
 70
128
 71
16
 72
17
 73
4
 74
3
 0
VERTEX
 8
TUBE_INSTANCE_12_5
 10
0
 20
0
 30
0
 70
128
 71
3
 72
11
 73
7
 74
16
 0
VERTEX
 8
TUBE_INSTANCE_12_5
 10
0
 20
0
 30
0
 70
128
 71
11
 72
19
 73
7
 74
7
 0
SEQEND
 0
POLYLINE
 8
TUBE_INSTANCE_11_5
 66
1
 10
0.0
 20
0.0
 30
0.0
 70
64
 71
20
 72
7
 0
VERTEX
 8
TUBE_INSTANCE_11_5
 10
-2.059
 20
8.1242
 30
15.6473
 70
192
 0
VERTEX
 8
TUBE_INSTANCE_11_5
 10
-1.7877
 20
8.036
 30
14.9207
 70
192
 0
VERTEX
 8
TUBE_INSTANCE_11_5
 10
-1.7877
 20
8.036
 30
14.9207
 70
192
 0
VERTEX
 8
TUBE_INSTANCE_11_5
 10
-1.7877
 20
8.036
 30
15.6473
 70
192
 0
VERTEX
 8
TUBE_INSTANCE_11_5
 10
-1.7877
 20
8.036
 30
15.6473
 70
192
 0
VERTEX
 8
TUBE_INSTANCE_11_5
 10
-2.059
 20
7.9479
 30
14.9207
 70
192
 0
VERTEX
 8
TUBE_INSTANCE_11_5
 10
-2.059
 20
7.9479
 30
14.9207
 70
192
 0
VERTEX
 8
TUBE_INSTANCE_11_5
 10
-2.059
 20
7.9479
 30
15.6473
 70
192
 0
VERTEX
 8
TUBE_INSTANCE_11_5
 10
-2.059
 20
7.9479
 30
15.6473
 70
192
 0
VERTEX
 8
TUBE_INSTANCE_11_5
 10
-1.8913
 20
8.1787
 30
14.9207
 70
192
 0
VERTEX
 8
TUBE_INSTANCE_11_5
 10
-1.8913
 20
8.1787
 30
14.9207
 70
192
 0
VERTEX
 8
TUBE_INSTANCE_11_5
 10
-1.8913
 20
8.1787
 30
15.6473
 70
192
 0
VERTEX
 8
TUBE_INSTANCE_11_5
 10
-1.8913
 20
8.1787
 30
15.6473
 70
192
 0
VERTEX
 8
TUBE_INSTANCE_11_5
 10
-1.8913
 20
7.8934
 30
15.6473
 70
192
 0
VERTEX
 8
TUBE_INSTANCE_11_5
 10
-1.8913
 20
7.8934
 30
14.9207
 70
192
 0
VERTEX
 8
TUBE_INSTANCE_11_5
 10
-1.8913
 20
7.8934
 30
14.9207
 70
192
 0
VERTEX
 8
TUBE_INSTANCE_11_5
 10
-1.8913
 20
7.8934
 30
15.6473
 70
192
 0
VERTEX
 8
TUBE_INSTANCE_11_5
 10
-2.059
 20
8.1242
 30
14.9207
 70
192
 0
VERTEX
 8
TUBE_INSTANCE_11_5
 10
-2.059
 20
8.1242
 30
14.9207
 70
192
 0
VERTEX
 8
TUBE_INSTANCE_11_5
 10
-2.059
 20
8.1242
 30
15.6473
 70
192
 0
VERTEX
 8
TUBE_INSTANCE_11_5
 10
0
 20
0
 30
0
 70
128
 71
11
 72
12
 73
20
 74
19
 0
VERTEX
 8
TUBE_INSTANCE_11_5
 10
0
 20
0
 30
0
 70
128
 71
3
 72
4
 73
12
 74
11
 0
VERTEX
 8
TUBE_INSTANCE_11_5
 10
0
 20
0
 30
0
 70
128
 71
19
 72
20
 73
8
 74
7
 0
VERTEX
 8
TUBE_INSTANCE_11_5
 10
0
 20
0
 30
0
 70
128
 71
7
 72
8
 73
17
 74
16
 0
VERTEX
 8
TUBE_INSTANCE_11_5
 10
0
 20
0
 30
0
 70
128
 71
16
 72
17
 73
4
 74
3
 0
VERTEX
 8
TUBE_INSTANCE_11_5
 10
0
 20
0
 30
0
 70
128
 71
3
 72
11
 73
7
 74
16
 0
VERTEX
 8
TUBE_INSTANCE_11_5
 10
0
 20
0
 30
0
 70
128
 71
11
 72
19
 73
7
 74
7
 0
SEQEND
 0
POLYLINE
 8
TUBE_INSTANCE_10_5
 66
1
 10
0.0
 20
0.0
 30
0.0
 70
64
 71
20
 72
7
 0
VERTEX
 8
TUBE_INSTANCE_10_5
 10
-2.059
 20
6.2861
 30
15.6473
 70
192
 0
VERTEX
 8
TUBE_INSTANCE_10_5
 10
-1.7877
 20
6.198
 30
14.9207
 70
192
 0
VERTEX
 8
TUBE_INSTANCE_10_5
 10
-1.7877
 20
6.198
 30
14.9207
 70
192
 0
VERTEX
 8
TUBE_INSTANCE_10_5
 10
-1.7877
 20
6.198
 30
15.6473
 70
192
 0
VERTEX
 8
TUBE_INSTANCE_10_5
 10
-1.7877
 20
6.198
 30
15.6473
 70
192
 0
VERTEX
 8
TUBE_INSTANCE_10_5
 10
-2.059
 20
6.1098
 30
14.9207
 70
192
 0
VERTEX
 8
TUBE_INSTANCE_10_5
 10
-2.059
 20
6.1098
 30
14.9207
 70
192
 0
VERTEX
 8
TUBE_INSTANCE_10_5
 10
-2.059
 20
6.1098
 30
15.6473
 70
192
 0
VERTEX
 8
TUBE_INSTANCE_10_5
 10
-2.059
 20
6.1098
 30
15.6473
 70
192
 0
VERTEX
 8
TUBE_INSTANCE_10_5
 10
-1.8913
 20
6.3406
 30
14.9207
 70
192
 0
VERTEX
 8
TUBE_INSTANCE_10_5
 10
-1.8913
 20
6.3406
 30
14.9207
 70
192
 0
VERTEX
 8
TUBE_INSTANCE_10_5
 10
-1.8913
 20
6.3406
 30
15.6473
 70
192
 0
VERTEX
 8
TUBE_INSTANCE_10_5
 10
-1.8913
 20
6.3406
 30
15.6473
 70
192
 0
VERTEX
 8
TUBE_INSTANCE_10_5
 10
-1.8913
 20
6.0553
 30
15.6473
 70
192
 0
VERTEX
 8
TUBE_INSTANCE_10_5
 10
-1.8913
 20
6.0553
 30
14.9207
 70
192
 0
VERTEX
 8
TUBE_INSTANCE_10_5
 10
-1.8913
 20
6.0553
 30
14.9207
 70
192
 0
VERTEX
 8
TUBE_INSTANCE_10_5
 10
-1.8913
 20
6.0553
 30
15.6473
 70
192
 0
VERTEX
 8
TUBE_INSTANCE_10_5
 10
-2.059
 20
6.2861
 30
14.9207
 70
192
 0
VERTEX
 8
TUBE_INSTANCE_10_5
 10
-2.059
 20
6.2861
 30
14.9207
 70
192
 0
VERTEX
 8
TUBE_INSTANCE_10_5
 10
-2.059
 20
6.2861
 30
15.6473
 70
192
 0
VERTEX
 8
TUBE_INSTANCE_10_5
 10
0
 20
0
 30
0
 70
128
 71
11
 72
12
 73
20
 74
19
 0
VERTEX
 8
TUBE_INSTANCE_10_5
 10
0
 20
0
 30
0
 70
128
 71
3
 72
4
 73
12
 74
11
 0
VERTEX
 8
TUBE_INSTANCE_10_5
 10
0
 20
0
 30
0
 70
128
 71
19
 72
20
 73
8
 74
7
 0
VERTEX
 8
TUBE_INSTANCE_10_5
 10
0
 20
0
 30
0
 70
128
 71
7
 72
8
 73
17
 74
16
 0
VERTEX
 8
TUBE_INSTANCE_10_5
 10
0
 20
0
 30
0
 70
128
 71
16
 72
17
 73
4
 74
3
 0
VERTEX
 8
TUBE_INSTANCE_10_5
 10
0
 20
0
 30
0
 70
128
 71
3
 72
11
 73
7
 74
16
 0
VERTEX
 8
TUBE_INSTANCE_10_5
 10
0
 20
0
 30
0
 70
128
 71
11
 72
19
 73
7
 74
7
 0
SEQEND
 0
POLYLINE
 8
TUBE_INSTANCE_9_5
 66
1
 10
0.0
 20
0.0
 30
0.0
 70
64
 71
20
 72
7
 0
VERTEX
 8
TUBE_INSTANCE_9_5
 10
-2.059
 20
4.4401
 30
15.6473
 70
192
 0
VERTEX
 8
TUBE_INSTANCE_9_5
 10
-1.7877
 20
4.3519
 30
14.9207
 70
192
 0
VERTEX
 8
TUBE_INSTANCE_9_5
 10
-1.7877
 20
4.3519
 30
14.9207
 70
192
 0
VERTEX
 8
TUBE_INSTANCE_9_5
 10
-1.7877
 20
4.3519
 30
15.6473
 70
192
 0
VERTEX
 8
TUBE_INSTANCE_9_5
 10
-1.7877
 20
4.3519
 30
15.6473
 70
192
 0
VERTEX
 8
TUBE_INSTANCE_9_5
 10
-2.059
 20
4.2637
 30
14.9207
 70
192
 0
VERTEX
 8
TUBE_INSTANCE_9_5
 10
-2.059
 20
4.2637
 30
14.9207
 70
192
 0
VERTEX
 8
TUBE_INSTANCE_9_5
 10
-2.059
 20
4.2637
 30
15.6473
 70
192
 0
VERTEX
 8
TUBE_INSTANCE_9_5
 10
-2.059
 20
4.2637
 30
15.6473
 70
192
 0
VERTEX
 8
TUBE_INSTANCE_9_5
 10
-1.8913
 20
4.4946
 30
14.9207
 70
192
 0
VERTEX
 8
TUBE_INSTANCE_9_5
 10
-1.8913
 20
4.4946
 30
14.9207
 70
192
 0
VERTEX
 8
TUBE_INSTANCE_9_5
 10
-1.8913
 20
4.4946
 30
15.6473
 70
192
 0
VERTEX
 8
TUBE_INSTANCE_9_5
 10
-1.8913
 20
4.4946
 30
15.6473
 70
192
 0
VERTEX
 8
TUBE_INSTANCE_9_5
 10
-1.8913
 20
4.2092
 30
15.6473
 70
192
 0
VERTEX
 8
TUBE_INSTANCE_9_5
 10
-1.8913
 20
4.2092
 30
14.9207
 70
192
 0
VERTEX
 8
TUBE_INSTANCE_9_5
 10
-1.8913
 20
4.2092
 30
14.9207
 70
192
 0
VERTEX
 8
TUBE_INSTANCE_9_5
 10
-1.8913
 20
4.2092
 30
15.6473
 70
192
 0
VERTEX
 8
TUBE_INSTANCE_9_5
 10
-2.059
 20
4.4401
 30
14.9207
 70
192
 0
VERTEX
 8
TUBE_INSTANCE_9_5
 10
-2.059
 20
4.4401
 30
14.9207
 70
192
 0
VERTEX
 8
TUBE_INSTANCE_9_5
 10
-2.059
 20
4.4401
 30
15.6473
 70
192
 0
VERTEX
 8
TUBE_INSTANCE_9_5
 10
0
 20
0
 30
0
 70
128
 71
11
 72
12
 73
20
 74
19
 0
VERTEX
 8
TUBE_INSTANCE_9_5
 10
0
 20
0
 30
0
 70
128
 71
3
 72
4
 73
12
 74
11
 0
VERTEX
 8
TUBE_INSTANCE_9_5
 10
0
 20
0
 30
0
 70
128
 71
19
 72
20
 73
8
 74
7
 0
VERTEX
 8
TUBE_INSTANCE_9_5
 10
0
 20
0
 30
0
 70
128
 71
7
 72
8
 73
17
 74
16
 0
VERTEX
 8
TUBE_INSTANCE_9_5
 10
0
 20
0
 30
0
 70
128
 71
16
 72
17
 73
4
 74
3
 0
VERTEX
 8
TUBE_INSTANCE_9_5
 10
0
 20
0
 30
0
 70
128
 71
3
 72
11
 73
7
 74
16
 0
VERTEX
 8
TUBE_INSTANCE_9_5
 10
0
 20
0
 30
0
 70
128
 71
11
 72
19
 73
7
 74
7
 0
SEQEND
 0
POLYLINE
 8
TUBE_INSTANCE_8_5
 66
1
 10
0.0
 20
0.0
 30
0.0
 70
64
 71
20
 72
7
 0
VERTEX
 8
TUBE_INSTANCE_8_5
 10
-2.059
 20
2.6774
 30
15.6473
 70
192
 0
VERTEX
 8
TUBE_INSTANCE_8_5
 10
-1.7877
 20
2.5892
 30
14.9207
 70
192
 0
VERTEX
 8
TUBE_INSTANCE_8_5
 10
-1.7877
 20
2.5892
 30
14.9207
 70
192
 0
VERTEX
 8
TUBE_INSTANCE_8_5
 10
-1.7877
 20
2.5892
 30
15.6473
 70
192
 0
VERTEX
 8
TUBE_INSTANCE_8_5
 10
-1.7877
 20
2.5892
 30
15.6473
 70
192
 0
VERTEX
 8
TUBE_INSTANCE_8_5
 10
-2.059
 20
2.501
 30
14.9207
 70
192
 0
VERTEX
 8
TUBE_INSTANCE_8_5
 10
-2.059
 20
2.501
 30
14.9207
 70
192
 0
VERTEX
 8
TUBE_INSTANCE_8_5
 10
-2.059
 20
2.501
 30
15.6473
 70
192
 0
VERTEX
 8
TUBE_INSTANCE_8_5
 10
-2.059
 20
2.501
 30
15.6473
 70
192
 0
VERTEX
 8
TUBE_INSTANCE_8_5
 10
-1.8913
 20
2.7318
 30
14.9207
 70
192
 0
VERTEX
 8
TUBE_INSTANCE_8_5
 10
-1.8913
 20
2.7318
 30
14.9207
 70
192
 0
VERTEX
 8
TUBE_INSTANCE_8_5
 10
-1.8913
 20
2.7318
 30
15.6473
 70
192
 0
VERTEX
 8
TUBE_INSTANCE_8_5
 10
-1.8913
 20
2.7318
 30
15.6473
 70
192
 0
VERTEX
 8
TUBE_INSTANCE_8_5
 10
-1.8913
 20
2.4465
 30
15.6473
 70
192
 0
VERTEX
 8
TUBE_INSTANCE_8_5
 10
-1.8913
 20
2.4465
 30
14.9207
 70
192
 0
VERTEX
 8
TUBE_INSTANCE_8_5
 10
-1.8913
 20
2.4465
 30
14.9207
 70
192
 0
VERTEX
 8
TUBE_INSTANCE_8_5
 10
-1.8913
 20
2.4465
 30
15.6473
 70
192
 0
VERTEX
 8
TUBE_INSTANCE_8_5
 10
-2.059
 20
2.6774
 30
14.9207
 70
192
 0
VERTEX
 8
TUBE_INSTANCE_8_5
 10
-2.059
 20
2.6774
 30
14.9207
 70
192
 0
VERTEX
 8
TUBE_INSTANCE_8_5
 10
-2.059
 20
2.6774
 30
15.6473
 70
192
 0
VERTEX
 8
TUBE_INSTANCE_8_5
 10
0
 20
0
 30
0
 70
128
 71
11
 72
12
 73
20
 74
19
 0
VERTEX
 8
TUBE_INSTANCE_8_5
 10
0
 20
0
 30
0
 70
128
 71
3
 72
4
 73
12
 74
11
 0
VERTEX
 8
TUBE_INSTANCE_8_5
 10
0
 20
0
 30
0
 70
128
 71
19
 72
20
 73
8
 74
7
 0
VERTEX
 8
TUBE_INSTANCE_8_5
 10
0
 20
0
 30
0
 70
128
 71
7
 72
8
 73
17
 74
16
 0
VERTEX
 8
TUBE_INSTANCE_8_5
 10
0
 20
0
 30
0
 70
128
 71
16
 72
17
 73
4
 74
3
 0
VERTEX
 8
TUBE_INSTANCE_8_5
 10
0
 20
0
 30
0
 70
128
 71
3
 72
11
 73
7
 74
16
 0
VERTEX
 8
TUBE_INSTANCE_8_5
 10
0
 20
0
 30
0
 70
128
 71
11
 72
19
 73
7
 74
7
 0
SEQEND
 0
POLYLINE
 8
TUBE_INSTANCE_7_5
 66
1
 10
0.0
 20
0.0
 30
0.0
 70
64
 71
20
 72
7
 0
VERTEX
 8
TUBE_INSTANCE_7_5
 10
-2.059
 20
0.9035
 30
15.6473
 70
192
 0
VERTEX
 8
TUBE_INSTANCE_7_5
 10
-1.7877
 20
0.8153
 30
14.9207
 70
192
 0
VERTEX
 8
TUBE_INSTANCE_7_5
 10
-1.7877
 20
0.8153
 30
14.9207
 70
192
 0
VERTEX
 8
TUBE_INSTANCE_7_5
 10
-1.7877
 20
0.8153
 30
15.6473
 70
192
 0
VERTEX
 8
TUBE_INSTANCE_7_5
 10
-1.7877
 20
0.8153
 30
15.6473
 70
192
 0
VERTEX
 8
TUBE_INSTANCE_7_5
 10
-2.059
 20
0.7272
 30
14.9207
 70
192
 0
VERTEX
 8
TUBE_INSTANCE_7_5
 10
-2.059
 20
0.7272
 30
14.9207
 70
192
 0
VERTEX
 8
TUBE_INSTANCE_7_5
 10
-2.059
 20
0.7272
 30
15.6473
 70
192
 0
VERTEX
 8
TUBE_INSTANCE_7_5
 10
-2.059
 20
0.7272
 30
15.6473
 70
192
 0
VERTEX
 8
TUBE_INSTANCE_7_5
 10
-1.8913
 20
0.958
 30
14.9207
 70
192
 0
VERTEX
 8
TUBE_INSTANCE_7_5
 10
-1.8913
 20
0.958
 30
14.9207
 70
192
 0
VERTEX
 8
TUBE_INSTANCE_7_5
 10
-1.8913
 20
0.958
 30
15.6473
 70
192
 0
VERTEX
 8
TUBE_INSTANCE_7_5
 10
-1.8913
 20
0.958
 30
15.6473
 70
192
 0
VERTEX
 8
TUBE_INSTANCE_7_5
 10
-1.8913
 20
0.6727
 30
15.6473
 70
192
 0
VERTEX
 8
TUBE_INSTANCE_7_5
 10
-1.8913
 20
0.6727
 30
14.9207
 70
192
 0
VERTEX
 8
TUBE_INSTANCE_7_5
 10
-1.8913
 20
0.6727
 30
14.9207
 70
192
 0
VERTEX
 8
TUBE_INSTANCE_7_5
 10
-1.8913
 20
0.6727
 30
15.6473
 70
192
 0
VERTEX
 8
TUBE_INSTANCE_7_5
 10
-2.059
 20
0.9035
 30
14.9207
 70
192
 0
VERTEX
 8
TUBE_INSTANCE_7_5
 10
-2.059
 20
0.9035
 30
14.9207
 70
192
 0
VERTEX
 8
TUBE_INSTANCE_7_5
 10
-2.059
 20
0.9035
 30
15.6473
 70
192
 0
VERTEX
 8
TUBE_INSTANCE_7_5
 10
0
 20
0
 30
0
 70
128
 71
11
 72
12
 73
20
 74
19
 0
VERTEX
 8
TUBE_INSTANCE_7_5
 10
0
 20
0
 30
0
 70
128
 71
3
 72
4
 73
12
 74
11
 0
VERTEX
 8
TUBE_INSTANCE_7_5
 10
0
 20
0
 30
0
 70
128
 71
19
 72
20
 73
8
 74
7
 0
VERTEX
 8
TUBE_INSTANCE_7_5
 10
0
 20
0
 30
0
 70
128
 71
7
 72
8
 73
17
 74
16
 0
VERTEX
 8
TUBE_INSTANCE_7_5
 10
0
 20
0
 30
0
 70
128
 71
16
 72
17
 73
4
 74
3
 0
VERTEX
 8
TUBE_INSTANCE_7_5
 10
0
 20
0
 30
0
 70
128
 71
3
 72
11
 73
7
 74
16
 0
VERTEX
 8
TUBE_INSTANCE_7_5
 10
0
 20
0
 30
0
 70
128
 71
11
 72
19
 73
7
 74
7
 0
SEQEND
 0
POLYLINE
 8
TUBE_INSTANCE_6_5
 66
1
 10
0.0
 20
0.0
 30
0.0
 70
64
 71
20
 72
7
 0
VERTEX
 8
TUBE_INSTANCE_6_5
 10
-2.059
 20
-0.9033
 30
15.6473
 70
192
 0
VERTEX
 8
TUBE_INSTANCE_6_5
 10
-1.7877
 20
-0.9915
 30
14.9207
 70
192
 0
VERTEX
 8
TUBE_INSTANCE_6_5
 10
-1.7877
 20
-0.9915
 30
14.9207
 70
192
 0
VERTEX
 8
TUBE_INSTANCE_6_5
 10
-1.7877
 20
-0.9915
 30
15.6473
 70
192
 0
VERTEX
 8
TUBE_INSTANCE_6_5
 10
-1.7877
 20
-0.9915
 30
15.6473
 70
192
 0
VERTEX
 8
TUBE_INSTANCE_6_5
 10
-2.059
 20
-1.0796
 30
14.9207
 70
192
 0
VERTEX
 8
TUBE_INSTANCE_6_5
 10
-2.059
 20
-1.0796
 30
14.9207
 70
192
 0
VERTEX
 8
TUBE_INSTANCE_6_5
 10
-2.059
 20
-1.0796
 30
15.6473
 70
192
 0
VERTEX
 8
TUBE_INSTANCE_6_5
 10
-2.059
 20
-1.0796
 30
15.6473
 70
192
 0
VERTEX
 8
TUBE_INSTANCE_6_5
 10
-1.8913
 20
-0.8488
 30
14.9207
 70
192
 0
VERTEX
 8
TUBE_INSTANCE_6_5
 10
-1.8913
 20
-0.8488
 30
14.9207
 70
192
 0
VERTEX
 8
TUBE_INSTANCE_6_5
 10
-1.8913
 20
-0.8488
 30
15.6473
 70
192
 0
VERTEX
 8
TUBE_INSTANCE_6_5
 10
-1.8913
 20
-0.8488
 30
15.6473
 70
192
 0
VERTEX
 8
TUBE_INSTANCE_6_5
 10
-1.8913
 20
-1.1341
 30
15.6473
 70
192
 0
VERTEX
 8
TUBE_INSTANCE_6_5
 10
-1.8913
 20
-1.1341
 30
14.9207
 70
192
 0
VERTEX
 8
TUBE_INSTANCE_6_5
 10
-1.8913
 20
-1.1341
 30
14.9207
 70
192
 0
VERTEX
 8
TUBE_INSTANCE_6_5
 10
-1.8913
 20
-1.1341
 30
15.6473
 70
192
 0
VERTEX
 8
TUBE_INSTANCE_6_5
 10
-2.059
 20
-0.9033
 30
14.9207
 70
192
 0
VERTEX
 8
TUBE_INSTANCE_6_5
 10
-2.059
 20
-0.9033
 30
14.9207
 70
192
 0
VERTEX
 8
TUBE_INSTANCE_6_5
 10
-2.059
 20
-0.9033
 30
15.6473
 70
192
 0
VERTEX
 8
TUBE_INSTANCE_6_5
 10
0
 20
0
 30
0
 70
128
 71
11
 72
12
 73
20
 74
19
 0
VERTEX
 8
TUBE_INSTANCE_6_5
 10
0
 20
0
 30
0
 70
128
 71
3
 72
4
 73
12
 74
11
 0
VERTEX
 8
TUBE_INSTANCE_6_5
 10
0
 20
0
 30
0
 70
128
 71
19
 72
20
 73
8
 74
7
 0
VERTEX
 8
TUBE_INSTANCE_6_5
 10
0
 20
0
 30
0
 70
128
 71
7
 72
8
 73
17
 74
16
 0
VERTEX
 8
TUBE_INSTANCE_6_5
 10
0
 20
0
 30
0
 70
128
 71
16
 72
17
 73
4
 74
3
 0
VERTEX
 8
TUBE_INSTANCE_6_5
 10
0
 20
0
 30
0
 70
128
 71
3
 72
11
 73
7
 74
16
 0
VERTEX
 8
TUBE_INSTANCE_6_5
 10
0
 20
0
 30
0
 70
128
 71
11
 72
19
 73
7
 74
7
 0
SEQEND
 0
POLYLINE
 8
TUBE_INSTANCE_5_5
 66
1
 10
0.0
 20
0.0
 30
0.0
 70
64
 71
20
 72
7
 0
VERTEX
 8
TUBE_INSTANCE_5_5
 10
-2.059
 20
-2.6809
 30
15.6473
 70
192
 0
VERTEX
 8
TUBE_INSTANCE_5_5
 10
-1.7876
 20
-2.7691
 30
14.9207
 70
192
 0
VERTEX
 8
TUBE_INSTANCE_5_5
 10
-1.7876
 20
-2.7691
 30
14.9207
 70
192
 0
VERTEX
 8
TUBE_INSTANCE_5_5
 10
-1.7876
 20
-2.7691
 30
15.6473
 70
192
 0
VERTEX
 8
TUBE_INSTANCE_5_5
 10
-1.7876
 20
-2.7691
 30
15.6473
 70
192
 0
VERTEX
 8
TUBE_INSTANCE_5_5
 10
-2.059
 20
-2.8573
 30
14.9207
 70
192
 0
VERTEX
 8
TUBE_INSTANCE_5_5
 10
-2.059
 20
-2.8573
 30
14.9207
 70
192
 0
VERTEX
 8
TUBE_INSTANCE_5_5
 10
-2.059
 20
-2.8573
 30
15.6473
 70
192
 0
VERTEX
 8
TUBE_INSTANCE_5_5
 10
-2.059
 20
-2.8573
 30
15.6473
 70
192
 0
VERTEX
 8
TUBE_INSTANCE_5_5
 10
-1.8913
 20
-2.6265
 30
14.9207
 70
192
 0
VERTEX
 8
TUBE_INSTANCE_5_5
 10
-1.8913
 20
-2.6265
 30
14.9207
 70
192
 0
VERTEX
 8
TUBE_INSTANCE_5_5
 10
-1.8913
 20
-2.6265
 30
15.6473
 70
192
 0
VERTEX
 8
TUBE_INSTANCE_5_5
 10
-1.8913
 20
-2.6265
 30
15.6473
 70
192
 0
VERTEX
 8
TUBE_INSTANCE_5_5
 10
-1.8913
 20
-2.9118
 30
15.6473
 70
192
 0
VERTEX
 8
TUBE_INSTANCE_5_5
 10
-1.8913
 20
-2.9118
 30
14.9207
 70
192
 0
VERTEX
 8
TUBE_INSTANCE_5_5
 10
-1.8913
 20
-2.9118
 30
14.9207
 70
192
 0
VERTEX
 8
TUBE_INSTANCE_5_5
 10
-1.8913
 20
-2.9118
 30
15.6473
 70
192
 0
VERTEX
 8
TUBE_INSTANCE_5_5
 10
-2.059
 20
-2.6809
 30
14.9207
 70
192
 0
VERTEX
 8
TUBE_INSTANCE_5_5
 10
-2.059
 20
-2.6809
 30
14.9207
 70
192
 0
VERTEX
 8
TUBE_INSTANCE_5_5
 10
-2.059
 20
-2.6809
 30
15.6473
 70
192
 0
VERTEX
 8
TUBE_INSTANCE_5_5
 10
0
 20
0
 30
0
 70
128
 71
11
 72
12
 73
20
 74
19
 0
VERTEX
 8
TUBE_INSTANCE_5_5
 10
0
 20
0
 30
0
 70
128
 71
3
 72
4
 73
12
 74
11
 0
VERTEX
 8
TUBE_INSTANCE_5_5
 10
0
 20
0
 30
0
 70
128
 71
19
 72
20
 73
8
 74
7
 0
VERTEX
 8
TUBE_INSTANCE_5_5
 10
0
 20
0
 30
0
 70
128
 71
7
 72
8
 73
17
 74
16
 0
VERTEX
 8
TUBE_INSTANCE_5_5
 10
0
 20
0
 30
0
 70
128
 71
16
 72
17
 73
4
 74
3
 0
VERTEX
 8
TUBE_INSTANCE_5_5
 10
0
 20
0
 30
0
 70
128
 71
3
 72
11
 73
7
 74
16
 0
VERTEX
 8
TUBE_INSTANCE_5_5
 10
0
 20
0
 30
0
 70
128
 71
11
 72
19
 73
7
 74
7
 0
SEQEND
 0
POLYLINE
 8
TUBE_INSTANCE_4_5
 66
1
 10
0.0
 20
0.0
 30
0.0
 70
64
 71
20
 72
7
 0
VERTEX
 8
TUBE_INSTANCE_4_5
 10
-2.059
 20
-4.4707
 30
15.6473
 70
192
 0
VERTEX
 8
TUBE_INSTANCE_4_5
 10
-1.7876
 20
-4.5589
 30
14.9207
 70
192
 0
VERTEX
 8
TUBE_INSTANCE_4_5
 10
-1.7876
 20
-4.5589
 30
14.9207
 70
192
 0
VERTEX
 8
TUBE_INSTANCE_4_5
 10
-1.7876
 20
-4.5589
 30
15.6473
 70
192
 0
VERTEX
 8
TUBE_INSTANCE_4_5
 10
-1.7876
 20
-4.5589
 30
15.6473
 70
192
 0
VERTEX
 8
TUBE_INSTANCE_4_5
 10
-2.059
 20
-4.647
 30
14.9207
 70
192
 0
VERTEX
 8
TUBE_INSTANCE_4_5
 10
-2.059
 20
-4.647
 30
14.9207
 70
192
 0
VERTEX
 8
TUBE_INSTANCE_4_5
 10
-2.059
 20
-4.647
 30
15.6473
 70
192
 0
VERTEX
 8
TUBE_INSTANCE_4_5
 10
-2.059
 20
-4.647
 30
15.6473
 70
192
 0
VERTEX
 8
TUBE_INSTANCE_4_5
 10
-1.8913
 20
-4.4162
 30
14.9207
 70
192
 0
VERTEX
 8
TUBE_INSTANCE_4_5
 10
-1.8913
 20
-4.4162
 30
14.9207
 70
192
 0
VERTEX
 8
TUBE_INSTANCE_4_5
 10
-1.8913
 20
-4.4162
 30
15.6473
 70
192
 0
VERTEX
 8
TUBE_INSTANCE_4_5
 10
-1.8913
 20
-4.4162
 30
15.6473
 70
192
 0
VERTEX
 8
TUBE_INSTANCE_4_5
 10
-1.8913
 20
-4.7015
 30
15.6473
 70
192
 0
VERTEX
 8
TUBE_INSTANCE_4_5
 10
-1.8913
 20
-4.7015
 30
14.9207
 70
192
 0
VERTEX
 8
TUBE_INSTANCE_4_5
 10
-1.8913
 20
-4.7015
 30
14.9207
 70
192
 0
VERTEX
 8
TUBE_INSTANCE_4_5
 10
-1.8913
 20
-4.7015
 30
15.6473
 70
192
 0
VERTEX
 8
TUBE_INSTANCE_4_5
 10
-2.059
 20
-4.4707
 30
14.9207
 70
192
 0
VERTEX
 8
TUBE_INSTANCE_4_5
 10
-2.059
 20
-4.4707
 30
14.9207
 70
192
 0
VERTEX
 8
TUBE_INSTANCE_4_5
 10
-2.059
 20
-4.4707
 30
15.6473
 70
192
 0
VERTEX
 8
TUBE_INSTANCE_4_5
 10
0
 20
0
 30
0
 70
128
 71
11
 72
12
 73
20
 74
19
 0
VERTEX
 8
TUBE_INSTANCE_4_5
 10
0
 20
0
 30
0
 70
128
 71
3
 72
4
 73
12
 74
11
 0
VERTEX
 8
TUBE_INSTANCE_4_5
 10
0
 20
0
 30
0
 70
128
 71
19
 72
20
 73
8
 74
7
 0
VERTEX
 8
TUBE_INSTANCE_4_5
 10
0
 20
0
 30
0
 70
128
 71
7
 72
8
 73
17
 74
16
 0
VERTEX
 8
TUBE_INSTANCE_4_5
 10
0
 20
0
 30
0
 70
128
 71
16
 72
17
 73
4
 74
3
 0
VERTEX
 8
TUBE_INSTANCE_4_5
 10
0
 20
0
 30
0
 70
128
 71
3
 72
11
 73
7
 74
16
 0
VERTEX
 8
TUBE_INSTANCE_4_5
 10
0
 20
0
 30
0
 70
128
 71
11
 72
19
 73
7
 74
7
 0
SEQEND
 0
POLYLINE
 8
TUBE_INSTANCE_3_5
 66
1
 10
0.0
 20
0.0
 30
0.0
 70
64
 71
20
 72
7
 0
VERTEX
 8
TUBE_INSTANCE_3_5
 10
-2.059
 20
-6.2569
 30
15.6473
 70
192
 0
VERTEX
 8
TUBE_INSTANCE_3_5
 10
-1.7876
 20
-6.3451
 30
14.9207
 70
192
 0
VERTEX
 8
TUBE_INSTANCE_3_5
 10
-1.7876
 20
-6.3451
 30
14.9207
 70
192
 0
VERTEX
 8
TUBE_INSTANCE_3_5
 10
-1.7876
 20
-6.3451
 30
15.6473
 70
192
 0
VERTEX
 8
TUBE_INSTANCE_3_5
 10
-1.7876
 20
-6.3451
 30
15.6473
 70
192
 0
VERTEX
 8
TUBE_INSTANCE_3_5
 10
-2.059
 20
-6.4333
 30
14.9207
 70
192
 0
VERTEX
 8
TUBE_INSTANCE_3_5
 10
-2.059
 20
-6.4333
 30
14.9207
 70
192
 0
VERTEX
 8
TUBE_INSTANCE_3_5
 10
-2.059
 20
-6.4333
 30
15.6473
 70
192
 0
VERTEX
 8
TUBE_INSTANCE_3_5
 10
-2.059
 20
-6.4333
 30
15.6473
 70
192
 0
VERTEX
 8
TUBE_INSTANCE_3_5
 10
-1.8913
 20
-6.2025
 30
14.9207
 70
192
 0
VERTEX
 8
TUBE_INSTANCE_3_5
 10
-1.8913
 20
-6.2025
 30
14.9207
 70
192
 0
VERTEX
 8
TUBE_INSTANCE_3_5
 10
-1.8913
 20
-6.2025
 30
15.6473
 70
192
 0
VERTEX
 8
TUBE_INSTANCE_3_5
 10
-1.8913
 20
-6.2025
 30
15.6473
 70
192
 0
VERTEX
 8
TUBE_INSTANCE_3_5
 10
-1.8913
 20
-6.4878
 30
15.6473
 70
192
 0
VERTEX
 8
TUBE_INSTANCE_3_5
 10
-1.8913
 20
-6.4878
 30
14.9207
 70
192
 0
VERTEX
 8
TUBE_INSTANCE_3_5
 10
-1.8913
 20
-6.4878
 30
14.9207
 70
192
 0
VERTEX
 8
TUBE_INSTANCE_3_5
 10
-1.8913
 20
-6.4878
 30
15.6473
 70
192
 0
VERTEX
 8
TUBE_INSTANCE_3_5
 10
-2.059
 20
-6.2569
 30
14.9207
 70
192
 0
VERTEX
 8
TUBE_INSTANCE_3_5
 10
-2.059
 20
-6.2569
 30
14.9207
 70
192
 0
VERTEX
 8
TUBE_INSTANCE_3_5
 10
-2.059
 20
-6.2569
 30
15.6473
 70
192
 0
VERTEX
 8
TUBE_INSTANCE_3_5
 10
0
 20
0
 30
0
 70
128
 71
11
 72
12
 73
20
 74
19
 0
VERTEX
 8
TUBE_INSTANCE_3_5
 10
0
 20
0
 30
0
 70
128
 71
3
 72
4
 73
12
 74
11
 0
VERTEX
 8
TUBE_INSTANCE_3_5
 10
0
 20
0
 30
0
 70
128
 71
19
 72
20
 73
8
 74
7
 0
VERTEX
 8
TUBE_INSTANCE_3_5
 10
0
 20
0
 30
0
 70
128
 71
7
 72
8
 73
17
 74
16
 0
VERTEX
 8
TUBE_INSTANCE_3_5
 10
0
 20
0
 30
0
 70
128
 71
16
 72
17
 73
4
 74
3
 0
VERTEX
 8
TUBE_INSTANCE_3_5
 10
0
 20
0
 30
0
 70
128
 71
3
 72
11
 73
7
 74
16
 0
VERTEX
 8
TUBE_INSTANCE_3_5
 10
0
 20
0
 30
0
 70
128
 71
11
 72
19
 73
7
 74
7
 0
SEQEND
 0
POLYLINE
 8
TUBE_INSTANCE_2_5
 66
1
 10
0.0
 20
0.0
 30
0.0
 70
64
 71
20
 72
7
 0
VERTEX
 8
TUBE_INSTANCE_2_5
 10
-2.059
 20
-8.0664
 30
15.6473
 70
192
 0
VERTEX
 8
TUBE_INSTANCE_2_5
 10
-1.7876
 20
-8.1546
 30
14.9207
 70
192
 0
VERTEX
 8
TUBE_INSTANCE_2_5
 10
-1.7876
 20
-8.1546
 30
14.9207
 70
192
 0
VERTEX
 8
TUBE_INSTANCE_2_5
 10
-1.7876
 20
-8.1546
 30
15.6473
 70
192
 0
VERTEX
 8
TUBE_INSTANCE_2_5
 10
-1.7876
 20
-8.1546
 30
15.6473
 70
192
 0
VERTEX
 8
TUBE_INSTANCE_2_5
 10
-2.059
 20
-8.2427
 30
14.9207
 70
192
 0
VERTEX
 8
TUBE_INSTANCE_2_5
 10
-2.059
 20
-8.2427
 30
14.9207
 70
192
 0
VERTEX
 8
TUBE_INSTANCE_2_5
 10
-2.059
 20
-8.2427
 30
15.6473
 70
192
 0
VERTEX
 8
TUBE_INSTANCE_2_5
 10
-2.059
 20
-8.2427
 30
15.6473
 70
192
 0
VERTEX
 8
TUBE_INSTANCE_2_5
 10
-1.8913
 20
-8.0119
 30
14.9207
 70
192
 0
VERTEX
 8
TUBE_INSTANCE_2_5
 10
-1.8913
 20
-8.0119
 30
14.9207
 70
192
 0
VERTEX
 8
TUBE_INSTANCE_2_5
 10
-1.8913
 20
-8.0119
 30
15.6473
 70
192
 0
VERTEX
 8
TUBE_INSTANCE_2_5
 10
-1.8913
 20
-8.0119
 30
15.6473
 70
192
 0
VERTEX
 8
TUBE_INSTANCE_2_5
 10
-1.8913
 20
-8.2972
 30
15.6473
 70
192
 0
VERTEX
 8
TUBE_INSTANCE_2_5
 10
-1.8913
 20
-8.2972
 30
14.9207
 70
192
 0
VERTEX
 8
TUBE_INSTANCE_2_5
 10
-1.8913
 20
-8.2972
 30
14.9207
 70
192
 0
VERTEX
 8
TUBE_INSTANCE_2_5
 10
-1.8913
 20
-8.2972
 30
15.6473
 70
192
 0
VERTEX
 8
TUBE_INSTANCE_2_5
 10
-2.059
 20
-8.0664
 30
14.9207
 70
192
 0
VERTEX
 8
TUBE_INSTANCE_2_5
 10
-2.059
 20
-8.0664
 30
14.9207
 70
192
 0
VERTEX
 8
TUBE_INSTANCE_2_5
 10
-2.059
 20
-8.0664
 30
15.6473
 70
192
 0
VERTEX
 8
TUBE_INSTANCE_2_5
 10
0
 20
0
 30
0
 70
128
 71
11
 72
12
 73
20
 74
19
 0
VERTEX
 8
TUBE_INSTANCE_2_5
 10
0
 20
0
 30
0
 70
128
 71
3
 72
4
 73
12
 74
11
 0
VERTEX
 8
TUBE_INSTANCE_2_5
 10
0
 20
0
 30
0
 70
128
 71
19
 72
20
 73
8
 74
7
 0
VERTEX
 8
TUBE_INSTANCE_2_5
 10
0
 20
0
 30
0
 70
128
 71
7
 72
8
 73
17
 74
16
 0
VERTEX
 8
TUBE_INSTANCE_2_5
 10
0
 20
0
 30
0
 70
128
 71
16
 72
17
 73
4
 74
3
 0
VERTEX
 8
TUBE_INSTANCE_2_5
 10
0
 20
0
 30
0
 70
128
 71
3
 72
11
 73
7
 74
16
 0
VERTEX
 8
TUBE_INSTANCE_2_5
 10
0
 20
0
 30
0
 70
128
 71
11
 72
19
 73
7
 74
7
 0
SEQEND
 0
POLYLINE
 8
TUBE_INSTANCE_1_5
 66
1
 10
0.0
 20
0.0
 30
0.0
 70
64
 71
20
 72
7
 0
VERTEX
 8
TUBE_INSTANCE_1_5
 10
-2.059
 20
-9.8024
 30
15.6473
 70
192
 0
VERTEX
 8
TUBE_INSTANCE_1_5
 10
-1.7876
 20
-9.8906
 30
14.9207
 70
192
 0
VERTEX
 8
TUBE_INSTANCE_1_5
 10
-1.7876
 20
-9.8906
 30
14.9207
 70
192
 0
VERTEX
 8
TUBE_INSTANCE_1_5
 10
-1.7876
 20
-9.8906
 30
15.6473
 70
192
 0
VERTEX
 8
TUBE_INSTANCE_1_5
 10
-1.7876
 20
-9.8906
 30
15.6473
 70
192
 0
VERTEX
 8
TUBE_INSTANCE_1_5
 10
-2.059
 20
-9.9788
 30
14.9207
 70
192
 0
VERTEX
 8
TUBE_INSTANCE_1_5
 10
-2.059
 20
-9.9788
 30
14.9207
 70
192
 0
VERTEX
 8
TUBE_INSTANCE_1_5
 10
-2.059
 20
-9.9788
 30
15.6473
 70
192
 0
VERTEX
 8
TUBE_INSTANCE_1_5
 10
-2.059
 20
-9.9788
 30
15.6473
 70
192
 0
VERTEX
 8
TUBE_INSTANCE_1_5
 10
-1.8913
 20
-9.7479
 30
14.9207
 70
192
 0
VERTEX
 8
TUBE_INSTANCE_1_5
 10
-1.8913
 20
-9.7479
 30
14.9207
 70
192
 0
VERTEX
 8
TUBE_INSTANCE_1_5
 10
-1.8913
 20
-9.7479
 30
15.6473
 70
192
 0
VERTEX
 8
TUBE_INSTANCE_1_5
 10
-1.8913
 20
-9.7479
 30
15.6473
 70
192
 0
VERTEX
 8
TUBE_INSTANCE_1_5
 10
-1.8913
 20
-10.0333
 30
15.6473
 70
192
 0
VERTEX
 8
TUBE_INSTANCE_1_5
 10
-1.8913
 20
-10.0333
 30
14.9207
 70
192
 0
VERTEX
 8
TUBE_INSTANCE_1_5
 10
-1.8913
 20
-10.0333
 30
14.9207
 70
192
 0
VERTEX
 8
TUBE_INSTANCE_1_5
 10
-1.8913
 20
-10.0333
 30
15.6473
 70
192
 0
VERTEX
 8
TUBE_INSTANCE_1_5
 10
-2.059
 20
-9.8024
 30
14.9207
 70
192
 0
VERTEX
 8
TUBE_INSTANCE_1_5
 10
-2.059
 20
-9.8024
 30
14.9207
 70
192
 0
VERTEX
 8
TUBE_INSTANCE_1_5
 10
-2.059
 20
-9.8024
 30
15.6473
 70
192
 0
VERTEX
 8
TUBE_INSTANCE_1_5
 10
0
 20
0
 30
0
 70
128
 71
11
 72
12
 73
20
 74
19
 0
VERTEX
 8
TUBE_INSTANCE_1_5
 10
0
 20
0
 30
0
 70
128
 71
3
 72
4
 73
12
 74
11
 0
VERTEX
 8
TUBE_INSTANCE_1_5
 10
0
 20
0
 30
0
 70
128
 71
19
 72
20
 73
8
 74
7
 0
VERTEX
 8
TUBE_INSTANCE_1_5
 10
0
 20
0
 30
0
 70
128
 71
7
 72
8
 73
17
 74
16
 0
VERTEX
 8
TUBE_INSTANCE_1_5
 10
0
 20
0
 30
0
 70
128
 71
16
 72
17
 73
4
 74
3
 0
VERTEX
 8
TUBE_INSTANCE_1_5
 10
0
 20
0
 30
0
 70
128
 71
3
 72
11
 73
7
 74
16
 0
VERTEX
 8
TUBE_INSTANCE_1_5
 10
0
 20
0
 30
0
 70
128
 71
11
 72
19
 73
7
 74
7
 0
SEQEND
 0
POLYLINE
 8
TUBE_INSTANCE_5
 66
1
 10
0.0
 20
0.0
 30
0.0
 70
64
 71
20
 72
7
 0
VERTEX
 8
TUBE_INSTANCE_5
 10
-2.059
 20
-11.5718
 30
15.6473
 70
192
 0
VERTEX
 8
TUBE_INSTANCE_5
 10
-1.7876
 20
-11.6599
 30
14.9207
 70
192
 0
VERTEX
 8
TUBE_INSTANCE_5
 10
-1.7876
 20
-11.6599
 30
14.9207
 70
192
 0
VERTEX
 8
TUBE_INSTANCE_5
 10
-1.7876
 20
-11.6599
 30
15.6473
 70
192
 0
VERTEX
 8
TUBE_INSTANCE_5
 10
-1.7876
 20
-11.6599
 30
15.6473
 70
192
 0
VERTEX
 8
TUBE_INSTANCE_5
 10
-2.059
 20
-11.7481
 30
14.9207
 70
192
 0
VERTEX
 8
TUBE_INSTANCE_5
 10
-2.059
 20
-11.7481
 30
14.9207
 70
192
 0
VERTEX
 8
TUBE_INSTANCE_5
 10
-2.059
 20
-11.7481
 30
15.6473
 70
192
 0
VERTEX
 8
TUBE_INSTANCE_5
 10
-2.059
 20
-11.7481
 30
15.6473
 70
192
 0
VERTEX
 8
TUBE_INSTANCE_5
 10
-1.8913
 20
-11.5173
 30
14.9207
 70
192
 0
VERTEX
 8
TUBE_INSTANCE_5
 10
-1.8913
 20
-11.5173
 30
14.9207
 70
192
 0
VERTEX
 8
TUBE_INSTANCE_5
 10
-1.8913
 20
-11.5173
 30
15.6473
 70
192
 0
VERTEX
 8
TUBE_INSTANCE_5
 10
-1.8913
 20
-11.5173
 30
15.6473
 70
192
 0
VERTEX
 8
TUBE_INSTANCE_5
 10
-1.8913
 20
-11.8026
 30
15.6473
 70
192
 0
VERTEX
 8
TUBE_INSTANCE_5
 10
-1.8913
 20
-11.8026
 30
14.9207
 70
192
 0
VERTEX
 8
TUBE_INSTANCE_5
 10
-1.8913
 20
-11.8026
 30
14.9207
 70
192
 0
VERTEX
 8
TUBE_INSTANCE_5
 10
-1.8913
 20
-11.8026
 30
15.6473
 70
192
 0
VERTEX
 8
TUBE_INSTANCE_5
 10
-2.059
 20
-11.5718
 30
14.9207
 70
192
 0
VERTEX
 8
TUBE_INSTANCE_5
 10
-2.059
 20
-11.5718
 30
14.9207
 70
192
 0
VERTEX
 8
TUBE_INSTANCE_5
 10
-2.059
 20
-11.5718
 30
15.6473
 70
192
 0
VERTEX
 8
TUBE_INSTANCE_5
 10
0
 20
0
 30
0
 70
128
 71
11
 72
12
 73
20
 74
19
 0
VERTEX
 8
TUBE_INSTANCE_5
 10
0
 20
0
 30
0
 70
128
 71
3
 72
4
 73
12
 74
11
 0
VERTEX
 8
TUBE_INSTANCE_5
 10
0
 20
0
 30
0
 70
128
 71
19
 72
20
 73
8
 74
7
 0
VERTEX
 8
TUBE_INSTANCE_5
 10
0
 20
0
 30
0
 70
128
 71
7
 72
8
 73
17
 74
16
 0
VERTEX
 8
TUBE_INSTANCE_5
 10
0
 20
0
 30
0
 70
128
 71
16
 72
17
 73
4
 74
3
 0
VERTEX
 8
TUBE_INSTANCE_5
 10
0
 20
0
 30
0
 70
128
 71
3
 72
11
 73
7
 74
16
 0
VERTEX
 8
TUBE_INSTANCE_5
 10
0
 20
0
 30
0
 70
128
 71
11
 72
19
 73
7
 74
7
 0
SEQEND
 0
POLYLINE
 8
TUBE_5
 66
1
 10
0.0
 20
0.0
 30
0.0
 70
64
 71
20
 72
7
 0
VERTEX
 8
TUBE_5
 10
-2.059
 20
-13.3609
 30
15.6473
 70
192
 0
VERTEX
 8
TUBE_5
 10
-1.7876
 20
-13.4491
 30
14.9207
 70
192
 0
VERTEX
 8
TUBE_5
 10
-1.7876
 20
-13.4491
 30
14.9207
 70
192
 0
VERTEX
 8
TUBE_5
 10
-1.7876
 20
-13.4491
 30
15.6473
 70
192
 0
VERTEX
 8
TUBE_5
 10
-1.7876
 20
-13.4491
 30
15.6473
 70
192
 0
VERTEX
 8
TUBE_5
 10
-2.059
 20
-13.5373
 30
14.9207
 70
192
 0
VERTEX
 8
TUBE_5
 10
-2.059
 20
-13.5373
 30
14.9207
 70
192
 0
VERTEX
 8
TUBE_5
 10
-2.059
 20
-13.5373
 30
15.6473
 70
192
 0
VERTEX
 8
TUBE_5
 10
-2.059
 20
-13.5373
 30
15.6473
 70
192
 0
VERTEX
 8
TUBE_5
 10
-1.8913
 20
-13.3064
 30
14.9207
 70
192
 0
VERTEX
 8
TUBE_5
 10
-1.8913
 20
-13.3064
 30
14.9207
 70
192
 0
VERTEX
 8
TUBE_5
 10
-1.8913
 20
-13.3064
 30
15.6473
 70
192
 0
VERTEX
 8
TUBE_5
 10
-1.8913
 20
-13.3064
 30
15.6473
 70
192
 0
VERTEX
 8
TUBE_5
 10
-1.8913
 20
-13.5918
 30
15.6473
 70
192
 0
VERTEX
 8
TUBE_5
 10
-1.8913
 20
-13.5918
 30
14.9207
 70
192
 0
VERTEX
 8
TUBE_5
 10
-1.8913
 20
-13.5918
 30
14.9207
 70
192
 0
VERTEX
 8
TUBE_5
 10
-1.8913
 20
-13.5918
 30
15.6473
 70
192
 0
VERTEX
 8
TUBE_5
 10
-2.059
 20
-13.3609
 30
14.9207
 70
192
 0
VERTEX
 8
TUBE_5
 10
-2.059
 20
-13.3609
 30
14.9207
 70
192
 0
VERTEX
 8
TUBE_5
 10
-2.059
 20
-13.3609
 30
15.6473
 70
192
 0
VERTEX
 8
TUBE_5
 10
0
 20
0
 30
0
 70
128
 71
11
 72
12
 73
20
 74
19
 0
VERTEX
 8
TUBE_5
 10
0
 20
0
 30
0
 70
128
 71
3
 72
4
 73
12
 74
11
 0
VERTEX
 8
TUBE_5
 10
0
 20
0
 30
0
 70
128
 71
19
 72
20
 73
8
 74
7
 0
VERTEX
 8
TUBE_5
 10
0
 20
0
 30
0
 70
128
 71
7
 72
8
 73
17
 74
16
 0
VERTEX
 8
TUBE_5
 10
0
 20
0
 30
0
 70
128
 71
16
 72
17
 73
4
 74
3
 0
VERTEX
 8
TUBE_5
 10
0
 20
0
 30
0
 70
128
 71
3
 72
11
 73
7
 74
16
 0
VERTEX
 8
TUBE_5
 10
0
 20
0
 30
0
 70
128
 71
11
 72
19
 73
7
 74
7
 0
SEQEND
 0
POLYLINE
 8
TUBE_INSTANCE_14_4
 66
1
 10
0.0
 20
0.0
 30
0.0
 70
64
 71
20
 72
7
 0
VERTEX
 8
TUBE_INSTANCE_14_4
 10
-0.2539
 20
13.575
 30
15.6473
 70
192
 0
VERTEX
 8
TUBE_INSTANCE_14_4
 10
0.0175
 20
13.4868
 30
14.9207
 70
192
 0
VERTEX
 8
TUBE_INSTANCE_14_4
 10
0.0175
 20
13.4868
 30
14.9207
 70
192
 0
VERTEX
 8
TUBE_INSTANCE_14_4
 10
0.0175
 20
13.4868
 30
15.6473
 70
192
 0
VERTEX
 8
TUBE_INSTANCE_14_4
 10
0.0175
 20
13.4868
 30
15.6473
 70
192
 0
VERTEX
 8
TUBE_INSTANCE_14_4
 10
-0.2539
 20
13.3986
 30
14.9207
 70
192
 0
VERTEX
 8
TUBE_INSTANCE_14_4
 10
-0.2539
 20
13.3986
 30
14.9207
 70
192
 0
VERTEX
 8
TUBE_INSTANCE_14_4
 10
-0.2539
 20
13.3986
 30
15.6473
 70
192
 0
VERTEX
 8
TUBE_INSTANCE_14_4
 10
-0.2539
 20
13.3986
 30
15.6473
 70
192
 0
VERTEX
 8
TUBE_INSTANCE_14_4
 10
-0.0862
 20
13.6295
 30
14.9207
 70
192
 0
VERTEX
 8
TUBE_INSTANCE_14_4
 10
-0.0862
 20
13.6295
 30
14.9207
 70
192
 0
VERTEX
 8
TUBE_INSTANCE_14_4
 10
-0.0862
 20
13.6295
 30
15.6473
 70
192
 0
VERTEX
 8
TUBE_INSTANCE_14_4
 10
-0.0862
 20
13.6295
 30
15.6473
 70
192
 0
VERTEX
 8
TUBE_INSTANCE_14_4
 10
-0.0862
 20
13.3442
 30
15.6473
 70
192
 0
VERTEX
 8
TUBE_INSTANCE_14_4
 10
-0.0862
 20
13.3442
 30
14.9207
 70
192
 0
VERTEX
 8
TUBE_INSTANCE_14_4
 10
-0.0862
 20
13.3442
 30
14.9207
 70
192
 0
VERTEX
 8
TUBE_INSTANCE_14_4
 10
-0.0862
 20
13.3442
 30
15.6473
 70
192
 0
VERTEX
 8
TUBE_INSTANCE_14_4
 10
-0.2539
 20
13.575
 30
14.9207
 70
192
 0
VERTEX
 8
TUBE_INSTANCE_14_4
 10
-0.2539
 20
13.575
 30
14.9207
 70
192
 0
VERTEX
 8
TUBE_INSTANCE_14_4
 10
-0.2539
 20
13.575
 30
15.6473
 70
192
 0
VERTEX
 8
TUBE_INSTANCE_14_4
 10
0
 20
0
 30
0
 70
128
 71
11
 72
12
 73
20
 74
19
 0
VERTEX
 8
TUBE_INSTANCE_14_4
 10
0
 20
0
 30
0
 70
128
 71
3
 72
4
 73
12
 74
11
 0
VERTEX
 8
TUBE_INSTANCE_14_4
 10
0
 20
0
 30
0
 70
128
 71
19
 72
20
 73
8
 74
7
 0
VERTEX
 8
TUBE_INSTANCE_14_4
 10
0
 20
0
 30
0
 70
128
 71
7
 72
8
 73
17
 74
16
 0
VERTEX
 8
TUBE_INSTANCE_14_4
 10
0
 20
0
 30
0
 70
128
 71
16
 72
17
 73
4
 74
3
 0
VERTEX
 8
TUBE_INSTANCE_14_4
 10
0
 20
0
 30
0
 70
128
 71
3
 72
11
 73
7
 74
16
 0
VERTEX
 8
TUBE_INSTANCE_14_4
 10
0
 20
0
 30
0
 70
128
 71
11
 72
19
 73
7
 74
7
 0
SEQEND
 0
POLYLINE
 8
TUBE_INSTANCE_13_4
 66
1
 10
0.0
 20
0.0
 30
0.0
 70
64
 71
20
 72
7
 0
VERTEX
 8
TUBE_INSTANCE_13_4
 10
-0.2539
 20
11.7503
 30
15.6473
 70
192
 0
VERTEX
 8
TUBE_INSTANCE_13_4
 10
0.0175
 20
11.6621
 30
14.9207
 70
192
 0
VERTEX
 8
TUBE_INSTANCE_13_4
 10
0.0175
 20
11.6621
 30
14.9207
 70
192
 0
VERTEX
 8
TUBE_INSTANCE_13_4
 10
0.0175
 20
11.6621
 30
15.6473
 70
192
 0
VERTEX
 8
TUBE_INSTANCE_13_4
 10
0.0175
 20
11.6621
 30
15.6473
 70
192
 0
VERTEX
 8
TUBE_INSTANCE_13_4
 10
-0.2539
 20
11.574
 30
14.9207
 70
192
 0
VERTEX
 8
TUBE_INSTANCE_13_4
 10
-0.2539
 20
11.574
 30
14.9207
 70
192
 0
VERTEX
 8
TUBE_INSTANCE_13_4
 10
-0.2539
 20
11.574
 30
15.6473
 70
192
 0
VERTEX
 8
TUBE_INSTANCE_13_4
 10
-0.2539
 20
11.574
 30
15.6473
 70
192
 0
VERTEX
 8
TUBE_INSTANCE_13_4
 10
-0.0862
 20
11.8048
 30
14.9207
 70
192
 0
VERTEX
 8
TUBE_INSTANCE_13_4
 10
-0.0862
 20
11.8048
 30
14.9207
 70
192
 0
VERTEX
 8
TUBE_INSTANCE_13_4
 10
-0.0862
 20
11.8048
 30
15.6473
 70
192
 0
VERTEX
 8
TUBE_INSTANCE_13_4
 10
-0.0862
 20
11.8048
 30
15.6473
 70
192
 0
VERTEX
 8
TUBE_INSTANCE_13_4
 10
-0.0862
 20
11.5195
 30
15.6473
 70
192
 0
VERTEX
 8
TUBE_INSTANCE_13_4
 10
-0.0862
 20
11.5195
 30
14.9207
 70
192
 0
VERTEX
 8
TUBE_INSTANCE_13_4
 10
-0.0862
 20
11.5195
 30
14.9207
 70
192
 0
VERTEX
 8
TUBE_INSTANCE_13_4
 10
-0.0862
 20
11.5195
 30
15.6473
 70
192
 0
VERTEX
 8
TUBE_INSTANCE_13_4
 10
-0.2539
 20
11.7503
 30
14.9207
 70
192
 0
VERTEX
 8
TUBE_INSTANCE_13_4
 10
-0.2539
 20
11.7503
 30
14.9207
 70
192
 0
VERTEX
 8
TUBE_INSTANCE_13_4
 10
-0.2539
 20
11.7503
 30
15.6473
 70
192
 0
VERTEX
 8
TUBE_INSTANCE_13_4
 10
0
 20
0
 30
0
 70
128
 71
11
 72
12
 73
20
 74
19
 0
VERTEX
 8
TUBE_INSTANCE_13_4
 10
0
 20
0
 30
0
 70
128
 71
3
 72
4
 73
12
 74
11
 0
VERTEX
 8
TUBE_INSTANCE_13_4
 10
0
 20
0
 30
0
 70
128
 71
19
 72
20
 73
8
 74
7
 0
VERTEX
 8
TUBE_INSTANCE_13_4
 10
0
 20
0
 30
0
 70
128
 71
7
 72
8
 73
17
 74
16
 0
VERTEX
 8
TUBE_INSTANCE_13_4
 10
0
 20
0
 30
0
 70
128
 71
16
 72
17
 73
4
 74
3
 0
VERTEX
 8
TUBE_INSTANCE_13_4
 10
0
 20
0
 30
0
 70
128
 71
3
 72
11
 73
7
 74
16
 0
VERTEX
 8
TUBE_INSTANCE_13_4
 10
0
 20
0
 30
0
 70
128
 71
11
 72
19
 73
7
 74
7
 0
SEQEND
 0
POLYLINE
 8
TUBE_INSTANCE_12_4
 66
1
 10
0.0
 20
0.0
 30
0.0
 70
64
 71
20
 72
7
 0
VERTEX
 8
TUBE_INSTANCE_12_4
 10
-0.2539
 20
9.9231
 30
15.6473
 70
192
 0
VERTEX
 8
TUBE_INSTANCE_12_4
 10
0.0175
 20
9.8349
 30
14.9207
 70
192
 0
VERTEX
 8
TUBE_INSTANCE_12_4
 10
0.0175
 20
9.8349
 30
14.9207
 70
192
 0
VERTEX
 8
TUBE_INSTANCE_12_4
 10
0.0175
 20
9.8349
 30
15.6473
 70
192
 0
VERTEX
 8
TUBE_INSTANCE_12_4
 10
0.0175
 20
9.8349
 30
15.6473
 70
192
 0
VERTEX
 8
TUBE_INSTANCE_12_4
 10
-0.2539
 20
9.7467
 30
14.9207
 70
192
 0
VERTEX
 8
TUBE_INSTANCE_12_4
 10
-0.2539
 20
9.7467
 30
14.9207
 70
192
 0
VERTEX
 8
TUBE_INSTANCE_12_4
 10
-0.2539
 20
9.7467
 30
15.6473
 70
192
 0
VERTEX
 8
TUBE_INSTANCE_12_4
 10
-0.2539
 20
9.7467
 30
15.6473
 70
192
 0
VERTEX
 8
TUBE_INSTANCE_12_4
 10
-0.0862
 20
9.9775
 30
14.9207
 70
192
 0
VERTEX
 8
TUBE_INSTANCE_12_4
 10
-0.0862
 20
9.9775
 30
14.9207
 70
192
 0
VERTEX
 8
TUBE_INSTANCE_12_4
 10
-0.0862
 20
9.9775
 30
15.6473
 70
192
 0
VERTEX
 8
TUBE_INSTANCE_12_4
 10
-0.0862
 20
9.9775
 30
15.6473
 70
192
 0
VERTEX
 8
TUBE_INSTANCE_12_4
 10
-0.0862
 20
9.6922
 30
15.6473
 70
192
 0
VERTEX
 8
TUBE_INSTANCE_12_4
 10
-0.0862
 20
9.6922
 30
14.9207
 70
192
 0
VERTEX
 8
TUBE_INSTANCE_12_4
 10
-0.0862
 20
9.6922
 30
14.9207
 70
192
 0
VERTEX
 8
TUBE_INSTANCE_12_4
 10
-0.0862
 20
9.6922
 30
15.6473
 70
192
 0
VERTEX
 8
TUBE_INSTANCE_12_4
 10
-0.2539
 20
9.9231
 30
14.9207
 70
192
 0
VERTEX
 8
TUBE_INSTANCE_12_4
 10
-0.2539
 20
9.9231
 30
14.9207
 70
192
 0
VERTEX
 8
TUBE_INSTANCE_12_4
 10
-0.2539
 20
9.9231
 30
15.6473
 70
192
 0
VERTEX
 8
TUBE_INSTANCE_12_4
 10
0
 20
0
 30
0
 70
128
 71
11
 72
12
 73
20
 74
19
 0
VERTEX
 8
TUBE_INSTANCE_12_4
 10
0
 20
0
 30
0
 70
128
 71
3
 72
4
 73
12
 74
11
 0
VERTEX
 8
TUBE_INSTANCE_12_4
 10
0
 20
0
 30
0
 70
128
 71
19
 72
20
 73
8
 74
7
 0
VERTEX
 8
TUBE_INSTANCE_12_4
 10
0
 20
0
 30
0
 70
128
 71
7
 72
8
 73
17
 74
16
 0
VERTEX
 8
TUBE_INSTANCE_12_4
 10
0
 20
0
 30
0
 70
128
 71
16
 72
17
 73
4
 74
3
 0
VERTEX
 8
TUBE_INSTANCE_12_4
 10
0
 20
0
 30
0
 70
128
 71
3
 72
11
 73
7
 74
16
 0
VERTEX
 8
TUBE_INSTANCE_12_4
 10
0
 20
0
 30
0
 70
128
 71
11
 72
19
 73
7
 74
7
 0
SEQEND
 0
POLYLINE
 8
TUBE_INSTANCE_11_4
 66
1
 10
0.0
 20
0.0
 30
0.0
 70
64
 71
20
 72
7
 0
VERTEX
 8
TUBE_INSTANCE_11_4
 10
-0.2539
 20
8.1242
 30
15.6473
 70
192
 0
VERTEX
 8
TUBE_INSTANCE_11_4
 10
0.0175
 20
8.036
 30
14.9207
 70
192
 0
VERTEX
 8
TUBE_INSTANCE_11_4
 10
0.0175
 20
8.036
 30
14.9207
 70
192
 0
VERTEX
 8
TUBE_INSTANCE_11_4
 10
0.0175
 20
8.036
 30
15.6473
 70
192
 0
VERTEX
 8
TUBE_INSTANCE_11_4
 10
0.0175
 20
8.036
 30
15.6473
 70
192
 0
VERTEX
 8
TUBE_INSTANCE_11_4
 10
-0.2539
 20
7.9479
 30
14.9207
 70
192
 0
VERTEX
 8
TUBE_INSTANCE_11_4
 10
-0.2539
 20
7.9479
 30
14.9207
 70
192
 0
VERTEX
 8
TUBE_INSTANCE_11_4
 10
-0.2539
 20
7.9479
 30
15.6473
 70
192
 0
VERTEX
 8
TUBE_INSTANCE_11_4
 10
-0.2539
 20
7.9479
 30
15.6473
 70
192
 0
VERTEX
 8
TUBE_INSTANCE_11_4
 10
-0.0862
 20
8.1787
 30
14.9207
 70
192
 0
VERTEX
 8
TUBE_INSTANCE_11_4
 10
-0.0862
 20
8.1787
 30
14.9207
 70
192
 0
VERTEX
 8
TUBE_INSTANCE_11_4
 10
-0.0862
 20
8.1787
 30
15.6473
 70
192
 0
VERTEX
 8
TUBE_INSTANCE_11_4
 10
-0.0862
 20
8.1787
 30
15.6473
 70
192
 0
VERTEX
 8
TUBE_INSTANCE_11_4
 10
-0.0862
 20
7.8934
 30
15.6473
 70
192
 0
VERTEX
 8
TUBE_INSTANCE_11_4
 10
-0.0862
 20
7.8934
 30
14.9207
 70
192
 0
VERTEX
 8
TUBE_INSTANCE_11_4
 10
-0.0862
 20
7.8934
 30
14.9207
 70
192
 0
VERTEX
 8
TUBE_INSTANCE_11_4
 10
-0.0862
 20
7.8934
 30
15.6473
 70
192
 0
VERTEX
 8
TUBE_INSTANCE_11_4
 10
-0.2539
 20
8.1242
 30
14.9207
 70
192
 0
VERTEX
 8
TUBE_INSTANCE_11_4
 10
-0.2539
 20
8.1242
 30
14.9207
 70
192
 0
VERTEX
 8
TUBE_INSTANCE_11_4
 10
-0.2539
 20
8.1242
 30
15.6473
 70
192
 0
VERTEX
 8
TUBE_INSTANCE_11_4
 10
0
 20
0
 30
0
 70
128
 71
11
 72
12
 73
20
 74
19
 0
VERTEX
 8
TUBE_INSTANCE_11_4
 10
0
 20
0
 30
0
 70
128
 71
3
 72
4
 73
12
 74
11
 0
VERTEX
 8
TUBE_INSTANCE_11_4
 10
0
 20
0
 30
0
 70
128
 71
19
 72
20
 73
8
 74
7
 0
VERTEX
 8
TUBE_INSTANCE_11_4
 10
0
 20
0
 30
0
 70
128
 71
7
 72
8
 73
17
 74
16
 0
VERTEX
 8
TUBE_INSTANCE_11_4
 10
0
 20
0
 30
0
 70
128
 71
16
 72
17
 73
4
 74
3
 0
VERTEX
 8
TUBE_INSTANCE_11_4
 10
0
 20
0
 30
0
 70
128
 71
3
 72
11
 73
7
 74
16
 0
VERTEX
 8
TUBE_INSTANCE_11_4
 10
0
 20
0
 30
0
 70
128
 71
11
 72
19
 73
7
 74
7
 0
SEQEND
 0
POLYLINE
 8
TUBE_INSTANCE_10_4
 66
1
 10
0.0
 20
0.0
 30
0.0
 70
64
 71
20
 72
7
 0
VERTEX
 8
TUBE_INSTANCE_10_4
 10
-0.2539
 20
6.2861
 30
15.6473
 70
192
 0
VERTEX
 8
TUBE_INSTANCE_10_4
 10
0.0175
 20
6.198
 30
14.9207
 70
192
 0
VERTEX
 8
TUBE_INSTANCE_10_4
 10
0.0175
 20
6.198
 30
14.9207
 70
192
 0
VERTEX
 8
TUBE_INSTANCE_10_4
 10
0.0175
 20
6.198
 30
15.6473
 70
192
 0
VERTEX
 8
TUBE_INSTANCE_10_4
 10
0.0175
 20
6.198
 30
15.6473
 70
192
 0
VERTEX
 8
TUBE_INSTANCE_10_4
 10
-0.2539
 20
6.1098
 30
14.9207
 70
192
 0
VERTEX
 8
TUBE_INSTANCE_10_4
 10
-0.2539
 20
6.1098
 30
14.9207
 70
192
 0
VERTEX
 8
TUBE_INSTANCE_10_4
 10
-0.2539
 20
6.1098
 30
15.6473
 70
192
 0
VERTEX
 8
TUBE_INSTANCE_10_4
 10
-0.2539
 20
6.1098
 30
15.6473
 70
192
 0
VERTEX
 8
TUBE_INSTANCE_10_4
 10
-0.0862
 20
6.3406
 30
14.9207
 70
192
 0
VERTEX
 8
TUBE_INSTANCE_10_4
 10
-0.0862
 20
6.3406
 30
14.9207
 70
192
 0
VERTEX
 8
TUBE_INSTANCE_10_4
 10
-0.0862
 20
6.3406
 30
15.6473
 70
192
 0
VERTEX
 8
TUBE_INSTANCE_10_4
 10
-0.0862
 20
6.3406
 30
15.6473
 70
192
 0
VERTEX
 8
TUBE_INSTANCE_10_4
 10
-0.0862
 20
6.0553
 30
15.6473
 70
192
 0
VERTEX
 8
TUBE_INSTANCE_10_4
 10
-0.0862
 20
6.0553
 30
14.9207
 70
192
 0
VERTEX
 8
TUBE_INSTANCE_10_4
 10
-0.0862
 20
6.0553
 30
14.9207
 70
192
 0
VERTEX
 8
TUBE_INSTANCE_10_4
 10
-0.0862
 20
6.0553
 30
15.6473
 70
192
 0
VERTEX
 8
TUBE_INSTANCE_10_4
 10
-0.2539
 20
6.2861
 30
14.9207
 70
192
 0
VERTEX
 8
TUBE_INSTANCE_10_4
 10
-0.2539
 20
6.2861
 30
14.9207
 70
192
 0
VERTEX
 8
TUBE_INSTANCE_10_4
 10
-0.2539
 20
6.2861
 30
15.6473
 70
192
 0
VERTEX
 8
TUBE_INSTANCE_10_4
 10
0
 20
0
 30
0
 70
128
 71
11
 72
12
 73
20
 74
19
 0
VERTEX
 8
TUBE_INSTANCE_10_4
 10
0
 20
0
 30
0
 70
128
 71
3
 72
4
 73
12
 74
11
 0
VERTEX
 8
TUBE_INSTANCE_10_4
 10
0
 20
0
 30
0
 70
128
 71
19
 72
20
 73
8
 74
7
 0
VERTEX
 8
TUBE_INSTANCE_10_4
 10
0
 20
0
 30
0
 70
128
 71
7
 72
8
 73
17
 74
16
 0
VERTEX
 8
TUBE_INSTANCE_10_4
 10
0
 20
0
 30
0
 70
128
 71
16
 72
17
 73
4
 74
3
 0
VERTEX
 8
TUBE_INSTANCE_10_4
 10
0
 20
0
 30
0
 70
128
 71
3
 72
11
 73
7
 74
16
 0
VERTEX
 8
TUBE_INSTANCE_10_4
 10
0
 20
0
 30
0
 70
128
 71
11
 72
19
 73
7
 74
7
 0
SEQEND
 0
POLYLINE
 8
TUBE_INSTANCE_9_4
 66
1
 10
0.0
 20
0.0
 30
0.0
 70
64
 71
20
 72
7
 0
VERTEX
 8
TUBE_INSTANCE_9_4
 10
-0.2539
 20
4.4401
 30
15.6473
 70
192
 0
VERTEX
 8
TUBE_INSTANCE_9_4
 10
0.0175
 20
4.3519
 30
14.9207
 70
192
 0
VERTEX
 8
TUBE_INSTANCE_9_4
 10
0.0175
 20
4.3519
 30
14.9207
 70
192
 0
VERTEX
 8
TUBE_INSTANCE_9_4
 10
0.0175
 20
4.3519
 30
15.6473
 70
192
 0
VERTEX
 8
TUBE_INSTANCE_9_4
 10
0.0175
 20
4.3519
 30
15.6473
 70
192
 0
VERTEX
 8
TUBE_INSTANCE_9_4
 10
-0.2539
 20
4.2637
 30
14.9207
 70
192
 0
VERTEX
 8
TUBE_INSTANCE_9_4
 10
-0.2539
 20
4.2637
 30
14.9207
 70
192
 0
VERTEX
 8
TUBE_INSTANCE_9_4
 10
-0.2539
 20
4.2637
 30
15.6473
 70
192
 0
VERTEX
 8
TUBE_INSTANCE_9_4
 10
-0.2539
 20
4.2637
 30
15.6473
 70
192
 0
VERTEX
 8
TUBE_INSTANCE_9_4
 10
-0.0862
 20
4.4946
 30
14.9207
 70
192
 0
VERTEX
 8
TUBE_INSTANCE_9_4
 10
-0.0862
 20
4.4946
 30
14.9207
 70
192
 0
VERTEX
 8
TUBE_INSTANCE_9_4
 10
-0.0862
 20
4.4946
 30
15.6473
 70
192
 0
VERTEX
 8
TUBE_INSTANCE_9_4
 10
-0.0862
 20
4.4946
 30
15.6473
 70
192
 0
VERTEX
 8
TUBE_INSTANCE_9_4
 10
-0.0862
 20
4.2092
 30
15.6473
 70
192
 0
VERTEX
 8
TUBE_INSTANCE_9_4
 10
-0.0862
 20
4.2092
 30
14.9207
 70
192
 0
VERTEX
 8
TUBE_INSTANCE_9_4
 10
-0.0862
 20
4.2092
 30
14.9207
 70
192
 0
VERTEX
 8
TUBE_INSTANCE_9_4
 10
-0.0862
 20
4.2092
 30
15.6473
 70
192
 0
VERTEX
 8
TUBE_INSTANCE_9_4
 10
-0.2539
 20
4.4401
 30
14.9207
 70
192
 0
VERTEX
 8
TUBE_INSTANCE_9_4
 10
-0.2539
 20
4.4401
 30
14.9207
 70
192
 0
VERTEX
 8
TUBE_INSTANCE_9_4
 10
-0.2539
 20
4.4401
 30
15.6473
 70
192
 0
VERTEX
 8
TUBE_INSTANCE_9_4
 10
0
 20
0
 30
0
 70
128
 71
11
 72
12
 73
20
 74
19
 0
VERTEX
 8
TUBE_INSTANCE_9_4
 10
0
 20
0
 30
0
 70
128
 71
3
 72
4
 73
12
 74
11
 0
VERTEX
 8
TUBE_INSTANCE_9_4
 10
0
 20
0
 30
0
 70
128
 71
19
 72
20
 73
8
 74
7
 0
VERTEX
 8
TUBE_INSTANCE_9_4
 10
0
 20
0
 30
0
 70
128
 71
7
 72
8
 73
17
 74
16
 0
VERTEX
 8
TUBE_INSTANCE_9_4
 10
0
 20
0
 30
0
 70
128
 71
16
 72
17
 73
4
 74
3
 0
VERTEX
 8
TUBE_INSTANCE_9_4
 10
0
 20
0
 30
0
 70
128
 71
3
 72
11
 73
7
 74
16
 0
VERTEX
 8
TUBE_INSTANCE_9_4
 10
0
 20
0
 30
0
 70
128
 71
11
 72
19
 73
7
 74
7
 0
SEQEND
 0
POLYLINE
 8
TUBE_INSTANCE_8_4
 66
1
 10
0.0
 20
0.0
 30
0.0
 70
64
 71
20
 72
7
 0
VERTEX
 8
TUBE_INSTANCE_8_4
 10
-0.2539
 20
2.6774
 30
15.6473
 70
192
 0
VERTEX
 8
TUBE_INSTANCE_8_4
 10
0.0175
 20
2.5892
 30
14.9207
 70
192
 0
VERTEX
 8
TUBE_INSTANCE_8_4
 10
0.0175
 20
2.5892
 30
14.9207
 70
192
 0
VERTEX
 8
TUBE_INSTANCE_8_4
 10
0.0175
 20
2.5892
 30
15.6473
 70
192
 0
VERTEX
 8
TUBE_INSTANCE_8_4
 10
0.0175
 20
2.5892
 30
15.6473
 70
192
 0
VERTEX
 8
TUBE_INSTANCE_8_4
 10
-0.2539
 20
2.501
 30
14.9207
 70
192
 0
VERTEX
 8
TUBE_INSTANCE_8_4
 10
-0.2539
 20
2.501
 30
14.9207
 70
192
 0
VERTEX
 8
TUBE_INSTANCE_8_4
 10
-0.2539
 20
2.501
 30
15.6473
 70
192
 0
VERTEX
 8
TUBE_INSTANCE_8_4
 10
-0.2539
 20
2.501
 30
15.6473
 70
192
 0
VERTEX
 8
TUBE_INSTANCE_8_4
 10
-0.0862
 20
2.7318
 30
14.9207
 70
192
 0
VERTEX
 8
TUBE_INSTANCE_8_4
 10
-0.0862
 20
2.7318
 30
14.9207
 70
192
 0
VERTEX
 8
TUBE_INSTANCE_8_4
 10
-0.0862
 20
2.7318
 30
15.6473
 70
192
 0
VERTEX
 8
TUBE_INSTANCE_8_4
 10
-0.0862
 20
2.7318
 30
15.6473
 70
192
 0
VERTEX
 8
TUBE_INSTANCE_8_4
 10
-0.0862
 20
2.4465
 30
15.6473
 70
192
 0
VERTEX
 8
TUBE_INSTANCE_8_4
 10
-0.0862
 20
2.4465
 30
14.9207
 70
192
 0
VERTEX
 8
TUBE_INSTANCE_8_4
 10
-0.0862
 20
2.4465
 30
14.9207
 70
192
 0
VERTEX
 8
TUBE_INSTANCE_8_4
 10
-0.0862
 20
2.4465
 30
15.6473
 70
192
 0
VERTEX
 8
TUBE_INSTANCE_8_4
 10
-0.2539
 20
2.6774
 30
14.9207
 70
192
 0
VERTEX
 8
TUBE_INSTANCE_8_4
 10
-0.2539
 20
2.6774
 30
14.9207
 70
192
 0
VERTEX
 8
TUBE_INSTANCE_8_4
 10
-0.2539
 20
2.6774
 30
15.6473
 70
192
 0
VERTEX
 8
TUBE_INSTANCE_8_4
 10
0
 20
0
 30
0
 70
128
 71
11
 72
12
 73
20
 74
19
 0
VERTEX
 8
TUBE_INSTANCE_8_4
 10
0
 20
0
 30
0
 70
128
 71
3
 72
4
 73
12
 74
11
 0
VERTEX
 8
TUBE_INSTANCE_8_4
 10
0
 20
0
 30
0
 70
128
 71
19
 72
20
 73
8
 74
7
 0
VERTEX
 8
TUBE_INSTANCE_8_4
 10
0
 20
0
 30
0
 70
128
 71
7
 72
8
 73
17
 74
16
 0
VERTEX
 8
TUBE_INSTANCE_8_4
 10
0
 20
0
 30
0
 70
128
 71
16
 72
17
 73
4
 74
3
 0
VERTEX
 8
TUBE_INSTANCE_8_4
 10
0
 20
0
 30
0
 70
128
 71
3
 72
11
 73
7
 74
16
 0
VERTEX
 8
TUBE_INSTANCE_8_4
 10
0
 20
0
 30
0
 70
128
 71
11
 72
19
 73
7
 74
7
 0
SEQEND
 0
POLYLINE
 8
TUBE_INSTANCE_7_4
 66
1
 10
0.0
 20
0.0
 30
0.0
 70
64
 71
20
 72
7
 0
VERTEX
 8
TUBE_INSTANCE_7_4
 10
-0.2539
 20
0.9035
 30
15.6473
 70
192
 0
VERTEX
 8
TUBE_INSTANCE_7_4
 10
0.0175
 20
0.8153
 30
14.9207
 70
192
 0
VERTEX
 8
TUBE_INSTANCE_7_4
 10
0.0175
 20
0.8153
 30
14.9207
 70
192
 0
VERTEX
 8
TUBE_INSTANCE_7_4
 10
0.0175
 20
0.8153
 30
15.6473
 70
192
 0
VERTEX
 8
TUBE_INSTANCE_7_4
 10
0.0175
 20
0.8153
 30
15.6473
 70
192
 0
VERTEX
 8
TUBE_INSTANCE_7_4
 10
-0.2539
 20
0.7272
 30
14.9207
 70
192
 0
VERTEX
 8
TUBE_INSTANCE_7_4
 10
-0.2539
 20
0.7272
 30
14.9207
 70
192
 0
VERTEX
 8
TUBE_INSTANCE_7_4
 10
-0.2539
 20
0.7272
 30
15.6473
 70
192
 0
VERTEX
 8
TUBE_INSTANCE_7_4
 10
-0.2539
 20
0.7272
 30
15.6473
 70
192
 0
VERTEX
 8
TUBE_INSTANCE_7_4
 10
-0.0862
 20
0.958
 30
14.9207
 70
192
 0
VERTEX
 8
TUBE_INSTANCE_7_4
 10
-0.0862
 20
0.958
 30
14.9207
 70
192
 0
VERTEX
 8
TUBE_INSTANCE_7_4
 10
-0.0862
 20
0.958
 30
15.6473
 70
192
 0
VERTEX
 8
TUBE_INSTANCE_7_4
 10
-0.0862
 20
0.958
 30
15.6473
 70
192
 0
VERTEX
 8
TUBE_INSTANCE_7_4
 10
-0.0862
 20
0.6727
 30
15.6473
 70
192
 0
VERTEX
 8
TUBE_INSTANCE_7_4
 10
-0.0862
 20
0.6727
 30
14.9207
 70
192
 0
VERTEX
 8
TUBE_INSTANCE_7_4
 10
-0.0862
 20
0.6727
 30
14.9207
 70
192
 0
VERTEX
 8
TUBE_INSTANCE_7_4
 10
-0.0862
 20
0.6727
 30
15.6473
 70
192
 0
VERTEX
 8
TUBE_INSTANCE_7_4
 10
-0.2539
 20
0.9035
 30
14.9207
 70
192
 0
VERTEX
 8
TUBE_INSTANCE_7_4
 10
-0.2539
 20
0.9035
 30
14.9207
 70
192
 0
VERTEX
 8
TUBE_INSTANCE_7_4
 10
-0.2539
 20
0.9035
 30
15.6473
 70
192
 0
VERTEX
 8
TUBE_INSTANCE_7_4
 10
0
 20
0
 30
0
 70
128
 71
11
 72
12
 73
20
 74
19
 0
VERTEX
 8
TUBE_INSTANCE_7_4
 10
0
 20
0
 30
0
 70
128
 71
3
 72
4
 73
12
 74
11
 0
VERTEX
 8
TUBE_INSTANCE_7_4
 10
0
 20
0
 30
0
 70
128
 71
19
 72
20
 73
8
 74
7
 0
VERTEX
 8
TUBE_INSTANCE_7_4
 10
0
 20
0
 30
0
 70
128
 71
7
 72
8
 73
17
 74
16
 0
VERTEX
 8
TUBE_INSTANCE_7_4
 10
0
 20
0
 30
0
 70
128
 71
16
 72
17
 73
4
 74
3
 0
VERTEX
 8
TUBE_INSTANCE_7_4
 10
0
 20
0
 30
0
 70
128
 71
3
 72
11
 73
7
 74
16
 0
VERTEX
 8
TUBE_INSTANCE_7_4
 10
0
 20
0
 30
0
 70
128
 71
11
 72
19
 73
7
 74
7
 0
SEQEND
 0
POLYLINE
 8
TUBE_INSTANCE_6_4
 66
1
 10
0.0
 20
0.0
 30
0.0
 70
64
 71
20
 72
7
 0
VERTEX
 8
TUBE_INSTANCE_6_4
 10
-0.2539
 20
-0.9033
 30
15.6473
 70
192
 0
VERTEX
 8
TUBE_INSTANCE_6_4
 10
0.0175
 20
-0.9915
 30
14.9207
 70
192
 0
VERTEX
 8
TUBE_INSTANCE_6_4
 10
0.0175
 20
-0.9915
 30
14.9207
 70
192
 0
VERTEX
 8
TUBE_INSTANCE_6_4
 10
0.0175
 20
-0.9915
 30
15.6473
 70
192
 0
VERTEX
 8
TUBE_INSTANCE_6_4
 10
0.0175
 20
-0.9915
 30
15.6473
 70
192
 0
VERTEX
 8
TUBE_INSTANCE_6_4
 10
-0.2539
 20
-1.0796
 30
14.9207
 70
192
 0
VERTEX
 8
TUBE_INSTANCE_6_4
 10
-0.2539
 20
-1.0796
 30
14.9207
 70
192
 0
VERTEX
 8
TUBE_INSTANCE_6_4
 10
-0.2539
 20
-1.0796
 30
15.6473
 70
192
 0
VERTEX
 8
TUBE_INSTANCE_6_4
 10
-0.2539
 20
-1.0796
 30
15.6473
 70
192
 0
VERTEX
 8
TUBE_INSTANCE_6_4
 10
-0.0862
 20
-0.8488
 30
14.9207
 70
192
 0
VERTEX
 8
TUBE_INSTANCE_6_4
 10
-0.0862
 20
-0.8488
 30
14.9207
 70
192
 0
VERTEX
 8
TUBE_INSTANCE_6_4
 10
-0.0862
 20
-0.8488
 30
15.6473
 70
192
 0
VERTEX
 8
TUBE_INSTANCE_6_4
 10
-0.0862
 20
-0.8488
 30
15.6473
 70
192
 0
VERTEX
 8
TUBE_INSTANCE_6_4
 10
-0.0862
 20
-1.1341
 30
15.6473
 70
192
 0
VERTEX
 8
TUBE_INSTANCE_6_4
 10
-0.0862
 20
-1.1341
 30
14.9207
 70
192
 0
VERTEX
 8
TUBE_INSTANCE_6_4
 10
-0.0862
 20
-1.1341
 30
14.9207
 70
192
 0
VERTEX
 8
TUBE_INSTANCE_6_4
 10
-0.0862
 20
-1.1341
 30
15.6473
 70
192
 0
VERTEX
 8
TUBE_INSTANCE_6_4
 10
-0.2539
 20
-0.9033
 30
14.9207
 70
192
 0
VERTEX
 8
TUBE_INSTANCE_6_4
 10
-0.2539
 20
-0.9033
 30
14.9207
 70
192
 0
VERTEX
 8
TUBE_INSTANCE_6_4
 10
-0.2539
 20
-0.9033
 30
15.6473
 70
192
 0
VERTEX
 8
TUBE_INSTANCE_6_4
 10
0
 20
0
 30
0
 70
128
 71
11
 72
12
 73
20
 74
19
 0
VERTEX
 8
TUBE_INSTANCE_6_4
 10
0
 20
0
 30
0
 70
128
 71
3
 72
4
 73
12
 74
11
 0
VERTEX
 8
TUBE_INSTANCE_6_4
 10
0
 20
0
 30
0
 70
128
 71
19
 72
20
 73
8
 74
7
 0
VERTEX
 8
TUBE_INSTANCE_6_4
 10
0
 20
0
 30
0
 70
128
 71
7
 72
8
 73
17
 74
16
 0
VERTEX
 8
TUBE_INSTANCE_6_4
 10
0
 20
0
 30
0
 70
128
 71
16
 72
17
 73
4
 74
3
 0
VERTEX
 8
TUBE_INSTANCE_6_4
 10
0
 20
0
 30
0
 70
128
 71
3
 72
11
 73
7
 74
16
 0
VERTEX
 8
TUBE_INSTANCE_6_4
 10
0
 20
0
 30
0
 70
128
 71
11
 72
19
 73
7
 74
7
 0
SEQEND
 0
POLYLINE
 8
TUBE_INSTANCE_5_4
 66
1
 10
0.0
 20
0.0
 30
0.0
 70
64
 71
20
 72
7
 0
VERTEX
 8
TUBE_INSTANCE_5_4
 10
-0.2539
 20
-2.6809
 30
15.6473
 70
192
 0
VERTEX
 8
TUBE_INSTANCE_5_4
 10
0.0175
 20
-2.7691
 30
14.9207
 70
192
 0
VERTEX
 8
TUBE_INSTANCE_5_4
 10
0.0175
 20
-2.7691
 30
14.9207
 70
192
 0
VERTEX
 8
TUBE_INSTANCE_5_4
 10
0.0175
 20
-2.7691
 30
15.6473
 70
192
 0
VERTEX
 8
TUBE_INSTANCE_5_4
 10
0.0175
 20
-2.7691
 30
15.6473
 70
192
 0
VERTEX
 8
TUBE_INSTANCE_5_4
 10
-0.2539
 20
-2.8573
 30
14.9207
 70
192
 0
VERTEX
 8
TUBE_INSTANCE_5_4
 10
-0.2539
 20
-2.8573
 30
14.9207
 70
192
 0
VERTEX
 8
TUBE_INSTANCE_5_4
 10
-0.2539
 20
-2.8573
 30
15.6473
 70
192
 0
VERTEX
 8
TUBE_INSTANCE_5_4
 10
-0.2539
 20
-2.8573
 30
15.6473
 70
192
 0
VERTEX
 8
TUBE_INSTANCE_5_4
 10
-0.0862
 20
-2.6264
 30
14.9207
 70
192
 0
VERTEX
 8
TUBE_INSTANCE_5_4
 10
-0.0862
 20
-2.6264
 30
14.9207
 70
192
 0
VERTEX
 8
TUBE_INSTANCE_5_4
 10
-0.0862
 20
-2.6264
 30
15.6473
 70
192
 0
VERTEX
 8
TUBE_INSTANCE_5_4
 10
-0.0862
 20
-2.6264
 30
15.6473
 70
192
 0
VERTEX
 8
TUBE_INSTANCE_5_4
 10
-0.0862
 20
-2.9118
 30
15.6473
 70
192
 0
VERTEX
 8
TUBE_INSTANCE_5_4
 10
-0.0862
 20
-2.9118
 30
14.9207
 70
192
 0
VERTEX
 8
TUBE_INSTANCE_5_4
 10
-0.0862
 20
-2.9118
 30
14.9207
 70
192
 0
VERTEX
 8
TUBE_INSTANCE_5_4
 10
-0.0862
 20
-2.9118
 30
15.6473
 70
192
 0
VERTEX
 8
TUBE_INSTANCE_5_4
 10
-0.2539
 20
-2.6809
 30
14.9207
 70
192
 0
VERTEX
 8
TUBE_INSTANCE_5_4
 10
-0.2539
 20
-2.6809
 30
14.9207
 70
192
 0
VERTEX
 8
TUBE_INSTANCE_5_4
 10
-0.2539
 20
-2.6809
 30
15.6473
 70
192
 0
VERTEX
 8
TUBE_INSTANCE_5_4
 10
0
 20
0
 30
0
 70
128
 71
11
 72
12
 73
20
 74
19
 0
VERTEX
 8
TUBE_INSTANCE_5_4
 10
0
 20
0
 30
0
 70
128
 71
3
 72
4
 73
12
 74
11
 0
VERTEX
 8
TUBE_INSTANCE_5_4
 10
0
 20
0
 30
0
 70
128
 71
19
 72
20
 73
8
 74
7
 0
VERTEX
 8
TUBE_INSTANCE_5_4
 10
0
 20
0
 30
0
 70
128
 71
7
 72
8
 73
17
 74
16
 0
VERTEX
 8
TUBE_INSTANCE_5_4
 10
0
 20
0
 30
0
 70
128
 71
16
 72
17
 73
4
 74
3
 0
VERTEX
 8
TUBE_INSTANCE_5_4
 10
0
 20
0
 30
0
 70
128
 71
3
 72
11
 73
7
 74
16
 0
VERTEX
 8
TUBE_INSTANCE_5_4
 10
0
 20
0
 30
0
 70
128
 71
11
 72
19
 73
7
 74
7
 0
SEQEND
 0
POLYLINE
 8
TUBE_INSTANCE_4_4
 66
1
 10
0.0
 20
0.0
 30
0.0
 70
64
 71
20
 72
7
 0
VERTEX
 8
TUBE_INSTANCE_4_4
 10
-0.2539
 20
-4.4707
 30
15.6473
 70
192
 0
VERTEX
 8
TUBE_INSTANCE_4_4
 10
0.0175
 20
-4.5589
 30
14.9207
 70
192
 0
VERTEX
 8
TUBE_INSTANCE_4_4
 10
0.0175
 20
-4.5589
 30
14.9207
 70
192
 0
VERTEX
 8
TUBE_INSTANCE_4_4
 10
0.0175
 20
-4.5589
 30
15.6473
 70
192
 0
VERTEX
 8
TUBE_INSTANCE_4_4
 10
0.0175
 20
-4.5589
 30
15.6473
 70
192
 0
VERTEX
 8
TUBE_INSTANCE_4_4
 10
-0.2539
 20
-4.647
 30
14.9207
 70
192
 0
VERTEX
 8
TUBE_INSTANCE_4_4
 10
-0.2539
 20
-4.647
 30
14.9207
 70
192
 0
VERTEX
 8
TUBE_INSTANCE_4_4
 10
-0.2539
 20
-4.647
 30
15.6473
 70
192
 0
VERTEX
 8
TUBE_INSTANCE_4_4
 10
-0.2539
 20
-4.647
 30
15.6473
 70
192
 0
VERTEX
 8
TUBE_INSTANCE_4_4
 10
-0.0862
 20
-4.4162
 30
14.9207
 70
192
 0
VERTEX
 8
TUBE_INSTANCE_4_4
 10
-0.0862
 20
-4.4162
 30
14.9207
 70
192
 0
VERTEX
 8
TUBE_INSTANCE_4_4
 10
-0.0862
 20
-4.4162
 30
15.6473
 70
192
 0
VERTEX
 8
TUBE_INSTANCE_4_4
 10
-0.0862
 20
-4.4162
 30
15.6473
 70
192
 0
VERTEX
 8
TUBE_INSTANCE_4_4
 10
-0.0862
 20
-4.7015
 30
15.6473
 70
192
 0
VERTEX
 8
TUBE_INSTANCE_4_4
 10
-0.0862
 20
-4.7015
 30
14.9207
 70
192
 0
VERTEX
 8
TUBE_INSTANCE_4_4
 10
-0.0862
 20
-4.7015
 30
14.9207
 70
192
 0
VERTEX
 8
TUBE_INSTANCE_4_4
 10
-0.0862
 20
-4.7015
 30
15.6473
 70
192
 0
VERTEX
 8
TUBE_INSTANCE_4_4
 10
-0.2539
 20
-4.4707
 30
14.9207
 70
192
 0
VERTEX
 8
TUBE_INSTANCE_4_4
 10
-0.2539
 20
-4.4707
 30
14.9207
 70
192
 0
VERTEX
 8
TUBE_INSTANCE_4_4
 10
-0.2539
 20
-4.4707
 30
15.6473
 70
192
 0
VERTEX
 8
TUBE_INSTANCE_4_4
 10
0
 20
0
 30
0
 70
128
 71
11
 72
12
 73
20
 74
19
 0
VERTEX
 8
TUBE_INSTANCE_4_4
 10
0
 20
0
 30
0
 70
128
 71
3
 72
4
 73
12
 74
11
 0
VERTEX
 8
TUBE_INSTANCE_4_4
 10
0
 20
0
 30
0
 70
128
 71
19
 72
20
 73
8
 74
7
 0
VERTEX
 8
TUBE_INSTANCE_4_4
 10
0
 20
0
 30
0
 70
128
 71
7
 72
8
 73
17
 74
16
 0
VERTEX
 8
TUBE_INSTANCE_4_4
 10
0
 20
0
 30
0
 70
128
 71
16
 72
17
 73
4
 74
3
 0
VERTEX
 8
TUBE_INSTANCE_4_4
 10
0
 20
0
 30
0
 70
128
 71
3
 72
11
 73
7
 74
16
 0
VERTEX
 8
TUBE_INSTANCE_4_4
 10
0
 20
0
 30
0
 70
128
 71
11
 72
19
 73
7
 74
7
 0
SEQEND
 0
POLYLINE
 8
TUBE_INSTANCE_3_4
 66
1
 10
0.0
 20
0.0
 30
0.0
 70
64
 71
20
 72
7
 0
VERTEX
 8
TUBE_INSTANCE_3_4
 10
-0.2539
 20
-6.2569
 30
15.6473
 70
192
 0
VERTEX
 8
TUBE_INSTANCE_3_4
 10
0.0175
 20
-6.3451
 30
14.9207
 70
192
 0
VERTEX
 8
TUBE_INSTANCE_3_4
 10
0.0175
 20
-6.3451
 30
14.9207
 70
192
 0
VERTEX
 8
TUBE_INSTANCE_3_4
 10
0.0175
 20
-6.3451
 30
15.6473
 70
192
 0
VERTEX
 8
TUBE_INSTANCE_3_4
 10
0.0175
 20
-6.3451
 30
15.6473
 70
192
 0
VERTEX
 8
TUBE_INSTANCE_3_4
 10
-0.2539
 20
-6.4333
 30
14.9207
 70
192
 0
VERTEX
 8
TUBE_INSTANCE_3_4
 10
-0.2539
 20
-6.4333
 30
14.9207
 70
192
 0
VERTEX
 8
TUBE_INSTANCE_3_4
 10
-0.2539
 20
-6.4333
 30
15.6473
 70
192
 0
VERTEX
 8
TUBE_INSTANCE_3_4
 10
-0.2539
 20
-6.4333
 30
15.6473
 70
192
 0
VERTEX
 8
TUBE_INSTANCE_3_4
 10
-0.0862
 20
-6.2025
 30
14.9207
 70
192
 0
VERTEX
 8
TUBE_INSTANCE_3_4
 10
-0.0862
 20
-6.2025
 30
14.9207
 70
192
 0
VERTEX
 8
TUBE_INSTANCE_3_4
 10
-0.0862
 20
-6.2025
 30
15.6473
 70
192
 0
VERTEX
 8
TUBE_INSTANCE_3_4
 10
-0.0862
 20
-6.2025
 30
15.6473
 70
192
 0
VERTEX
 8
TUBE_INSTANCE_3_4
 10
-0.0862
 20
-6.4878
 30
15.6473
 70
192
 0
VERTEX
 8
TUBE_INSTANCE_3_4
 10
-0.0862
 20
-6.4878
 30
14.9207
 70
192
 0
VERTEX
 8
TUBE_INSTANCE_3_4
 10
-0.0862
 20
-6.4878
 30
14.9207
 70
192
 0
VERTEX
 8
TUBE_INSTANCE_3_4
 10
-0.0862
 20
-6.4878
 30
15.6473
 70
192
 0
VERTEX
 8
TUBE_INSTANCE_3_4
 10
-0.2539
 20
-6.2569
 30
14.9207
 70
192
 0
VERTEX
 8
TUBE_INSTANCE_3_4
 10
-0.2539
 20
-6.2569
 30
14.9207
 70
192
 0
VERTEX
 8
TUBE_INSTANCE_3_4
 10
-0.2539
 20
-6.2569
 30
15.6473
 70
192
 0
VERTEX
 8
TUBE_INSTANCE_3_4
 10
0
 20
0
 30
0
 70
128
 71
11
 72
12
 73
20
 74
19
 0
VERTEX
 8
TUBE_INSTANCE_3_4
 10
0
 20
0
 30
0
 70
128
 71
3
 72
4
 73
12
 74
11
 0
VERTEX
 8
TUBE_INSTANCE_3_4
 10
0
 20
0
 30
0
 70
128
 71
19
 72
20
 73
8
 74
7
 0
VERTEX
 8
TUBE_INSTANCE_3_4
 10
0
 20
0
 30
0
 70
128
 71
7
 72
8
 73
17
 74
16
 0
VERTEX
 8
TUBE_INSTANCE_3_4
 10
0
 20
0
 30
0
 70
128
 71
16
 72
17
 73
4
 74
3
 0
VERTEX
 8
TUBE_INSTANCE_3_4
 10
0
 20
0
 30
0
 70
128
 71
3
 72
11
 73
7
 74
16
 0
VERTEX
 8
TUBE_INSTANCE_3_4
 10
0
 20
0
 30
0
 70
128
 71
11
 72
19
 73
7
 74
7
 0
SEQEND
 0
POLYLINE
 8
TUBE_INSTANCE_2_4
 66
1
 10
0.0
 20
0.0
 30
0.0
 70
64
 71
20
 72
7
 0
VERTEX
 8
TUBE_INSTANCE_2_4
 10
-0.2539
 20
-8.0664
 30
15.6473
 70
192
 0
VERTEX
 8
TUBE_INSTANCE_2_4
 10
0.0175
 20
-8.1546
 30
14.9207
 70
192
 0
VERTEX
 8
TUBE_INSTANCE_2_4
 10
0.0175
 20
-8.1546
 30
14.9207
 70
192
 0
VERTEX
 8
TUBE_INSTANCE_2_4
 10
0.0175
 20
-8.1546
 30
15.6473
 70
192
 0
VERTEX
 8
TUBE_INSTANCE_2_4
 10
0.0175
 20
-8.1546
 30
15.6473
 70
192
 0
VERTEX
 8
TUBE_INSTANCE_2_4
 10
-0.2539
 20
-8.2427
 30
14.9207
 70
192
 0
VERTEX
 8
TUBE_INSTANCE_2_4
 10
-0.2539
 20
-8.2427
 30
14.9207
 70
192
 0
VERTEX
 8
TUBE_INSTANCE_2_4
 10
-0.2539
 20
-8.2427
 30
15.6473
 70
192
 0
VERTEX
 8
TUBE_INSTANCE_2_4
 10
-0.2539
 20
-8.2427
 30
15.6473
 70
192
 0
VERTEX
 8
TUBE_INSTANCE_2_4
 10
-0.0862
 20
-8.0119
 30
14.9207
 70
192
 0
VERTEX
 8
TUBE_INSTANCE_2_4
 10
-0.0862
 20
-8.0119
 30
14.9207
 70
192
 0
VERTEX
 8
TUBE_INSTANCE_2_4
 10
-0.0862
 20
-8.0119
 30
15.6473
 70
192
 0
VERTEX
 8
TUBE_INSTANCE_2_4
 10
-0.0862
 20
-8.0119
 30
15.6473
 70
192
 0
VERTEX
 8
TUBE_INSTANCE_2_4
 10
-0.0862
 20
-8.2972
 30
15.6473
 70
192
 0
VERTEX
 8
TUBE_INSTANCE_2_4
 10
-0.0862
 20
-8.2972
 30
14.9207
 70
192
 0
VERTEX
 8
TUBE_INSTANCE_2_4
 10
-0.0862
 20
-8.2972
 30
14.9207
 70
192
 0
VERTEX
 8
TUBE_INSTANCE_2_4
 10
-0.0862
 20
-8.2972
 30
15.6473
 70
192
 0
VERTEX
 8
TUBE_INSTANCE_2_4
 10
-0.2539
 20
-8.0664
 30
14.9207
 70
192
 0
VERTEX
 8
TUBE_INSTANCE_2_4
 10
-0.2539
 20
-8.0664
 30
14.9207
 70
192
 0
VERTEX
 8
TUBE_INSTANCE_2_4
 10
-0.2539
 20
-8.0664
 30
15.6473
 70
192
 0
VERTEX
 8
TUBE_INSTANCE_2_4
 10
0
 20
0
 30
0
 70
128
 71
11
 72
12
 73
20
 74
19
 0
VERTEX
 8
TUBE_INSTANCE_2_4
 10
0
 20
0
 30
0
 70
128
 71
3
 72
4
 73
12
 74
11
 0
VERTEX
 8
TUBE_INSTANCE_2_4
 10
0
 20
0
 30
0
 70
128
 71
19
 72
20
 73
8
 74
7
 0
VERTEX
 8
TUBE_INSTANCE_2_4
 10
0
 20
0
 30
0
 70
128
 71
7
 72
8
 73
17
 74
16
 0
VERTEX
 8
TUBE_INSTANCE_2_4
 10
0
 20
0
 30
0
 70
128
 71
16
 72
17
 73
4
 74
3
 0
VERTEX
 8
TUBE_INSTANCE_2_4
 10
0
 20
0
 30
0
 70
128
 71
3
 72
11
 73
7
 74
16
 0
VERTEX
 8
TUBE_INSTANCE_2_4
 10
0
 20
0
 30
0
 70
128
 71
11
 72
19
 73
7
 74
7
 0
SEQEND
 0
POLYLINE
 8
TUBE_INSTANCE_1_4
 66
1
 10
0.0
 20
0.0
 30
0.0
 70
64
 71
20
 72
7
 0
VERTEX
 8
TUBE_INSTANCE_1_4
 10
-0.2539
 20
-9.8024
 30
15.6473
 70
192
 0
VERTEX
 8
TUBE_INSTANCE_1_4
 10
0.0175
 20
-9.8906
 30
14.9207
 70
192
 0
VERTEX
 8
TUBE_INSTANCE_1_4
 10
0.0175
 20
-9.8906
 30
14.9207
 70
192
 0
VERTEX
 8
TUBE_INSTANCE_1_4
 10
0.0175
 20
-9.8906
 30
15.6473
 70
192
 0
VERTEX
 8
TUBE_INSTANCE_1_4
 10
0.0175
 20
-9.8906
 30
15.6473
 70
192
 0
VERTEX
 8
TUBE_INSTANCE_1_4
 10
-0.2539
 20
-9.9788
 30
14.9207
 70
192
 0
VERTEX
 8
TUBE_INSTANCE_1_4
 10
-0.2539
 20
-9.9788
 30
14.9207
 70
192
 0
VERTEX
 8
TUBE_INSTANCE_1_4
 10
-0.2539
 20
-9.9788
 30
15.6473
 70
192
 0
VERTEX
 8
TUBE_INSTANCE_1_4
 10
-0.2539
 20
-9.9788
 30
15.6473
 70
192
 0
VERTEX
 8
TUBE_INSTANCE_1_4
 10
-0.0862
 20
-9.7479
 30
14.9207
 70
192
 0
VERTEX
 8
TUBE_INSTANCE_1_4
 10
-0.0862
 20
-9.7479
 30
14.9207
 70
192
 0
VERTEX
 8
TUBE_INSTANCE_1_4
 10
-0.0862
 20
-9.7479
 30
15.6473
 70
192
 0
VERTEX
 8
TUBE_INSTANCE_1_4
 10
-0.0862
 20
-9.7479
 30
15.6473
 70
192
 0
VERTEX
 8
TUBE_INSTANCE_1_4
 10
-0.0862
 20
-10.0332
 30
15.6473
 70
192
 0
VERTEX
 8
TUBE_INSTANCE_1_4
 10
-0.0862
 20
-10.0332
 30
14.9207
 70
192
 0
VERTEX
 8
TUBE_INSTANCE_1_4
 10
-0.0862
 20
-10.0332
 30
14.9207
 70
192
 0
VERTEX
 8
TUBE_INSTANCE_1_4
 10
-0.0862
 20
-10.0332
 30
15.6473
 70
192
 0
VERTEX
 8
TUBE_INSTANCE_1_4
 10
-0.2539
 20
-9.8024
 30
14.9207
 70
192
 0
VERTEX
 8
TUBE_INSTANCE_1_4
 10
-0.2539
 20
-9.8024
 30
14.9207
 70
192
 0
VERTEX
 8
TUBE_INSTANCE_1_4
 10
-0.2539
 20
-9.8024
 30
15.6473
 70
192
 0
VERTEX
 8
TUBE_INSTANCE_1_4
 10
0
 20
0
 30
0
 70
128
 71
11
 72
12
 73
20
 74
19
 0
VERTEX
 8
TUBE_INSTANCE_1_4
 10
0
 20
0
 30
0
 70
128
 71
3
 72
4
 73
12
 74
11
 0
VERTEX
 8
TUBE_INSTANCE_1_4
 10
0
 20
0
 30
0
 70
128
 71
19
 72
20
 73
8
 74
7
 0
VERTEX
 8
TUBE_INSTANCE_1_4
 10
0
 20
0
 30
0
 70
128
 71
7
 72
8
 73
17
 74
16
 0
VERTEX
 8
TUBE_INSTANCE_1_4
 10
0
 20
0
 30
0
 70
128
 71
16
 72
17
 73
4
 74
3
 0
VERTEX
 8
TUBE_INSTANCE_1_4
 10
0
 20
0
 30
0
 70
128
 71
3
 72
11
 73
7
 74
16
 0
VERTEX
 8
TUBE_INSTANCE_1_4
 10
0
 20
0
 30
0
 70
128
 71
11
 72
19
 73
7
 74
7
 0
SEQEND
 0
POLYLINE
 8
TUBE_INSTANCE_4
 66
1
 10
0.0
 20
0.0
 30
0.0
 70
64
 71
20
 72
7
 0
VERTEX
 8
TUBE_INSTANCE_4
 10
-0.2539
 20
-11.5718
 30
15.6473
 70
192
 0
VERTEX
 8
TUBE_INSTANCE_4
 10
0.0175
 20
-11.6599
 30
14.9207
 70
192
 0
VERTEX
 8
TUBE_INSTANCE_4
 10
0.0175
 20
-11.6599
 30
14.9207
 70
192
 0
VERTEX
 8
TUBE_INSTANCE_4
 10
0.0175
 20
-11.6599
 30
15.6473
 70
192
 0
VERTEX
 8
TUBE_INSTANCE_4
 10
0.0175
 20
-11.6599
 30
15.6473
 70
192
 0
VERTEX
 8
TUBE_INSTANCE_4
 10
-0.2539
 20
-11.7481
 30
14.9207
 70
192
 0
VERTEX
 8
TUBE_INSTANCE_4
 10
-0.2539
 20
-11.7481
 30
14.9207
 70
192
 0
VERTEX
 8
TUBE_INSTANCE_4
 10
-0.2539
 20
-11.7481
 30
15.6473
 70
192
 0
VERTEX
 8
TUBE_INSTANCE_4
 10
-0.2539
 20
-11.7481
 30
15.6473
 70
192
 0
VERTEX
 8
TUBE_INSTANCE_4
 10
-0.0862
 20
-11.5173
 30
14.9207
 70
192
 0
VERTEX
 8
TUBE_INSTANCE_4
 10
-0.0862
 20
-11.5173
 30
14.9207
 70
192
 0
VERTEX
 8
TUBE_INSTANCE_4
 10
-0.0862
 20
-11.5173
 30
15.6473
 70
192
 0
VERTEX
 8
TUBE_INSTANCE_4
 10
-0.0862
 20
-11.5173
 30
15.6473
 70
192
 0
VERTEX
 8
TUBE_INSTANCE_4
 10
-0.0862
 20
-11.8026
 30
15.6473
 70
192
 0
VERTEX
 8
TUBE_INSTANCE_4
 10
-0.0862
 20
-11.8026
 30
14.9207
 70
192
 0
VERTEX
 8
TUBE_INSTANCE_4
 10
-0.0862
 20
-11.8026
 30
14.9207
 70
192
 0
VERTEX
 8
TUBE_INSTANCE_4
 10
-0.0862
 20
-11.8026
 30
15.6473
 70
192
 0
VERTEX
 8
TUBE_INSTANCE_4
 10
-0.2539
 20
-11.5718
 30
14.9207
 70
192
 0
VERTEX
 8
TUBE_INSTANCE_4
 10
-0.2539
 20
-11.5718
 30
14.9207
 70
192
 0
VERTEX
 8
TUBE_INSTANCE_4
 10
-0.2539
 20
-11.5718
 30
15.6473
 70
192
 0
VERTEX
 8
TUBE_INSTANCE_4
 10
0
 20
0
 30
0
 70
128
 71
11
 72
12
 73
20
 74
19
 0
VERTEX
 8
TUBE_INSTANCE_4
 10
0
 20
0
 30
0
 70
128
 71
3
 72
4
 73
12
 74
11
 0
VERTEX
 8
TUBE_INSTANCE_4
 10
0
 20
0
 30
0
 70
128
 71
19
 72
20
 73
8
 74
7
 0
VERTEX
 8
TUBE_INSTANCE_4
 10
0
 20
0
 30
0
 70
128
 71
7
 72
8
 73
17
 74
16
 0
VERTEX
 8
TUBE_INSTANCE_4
 10
0
 20
0
 30
0
 70
128
 71
16
 72
17
 73
4
 74
3
 0
VERTEX
 8
TUBE_INSTANCE_4
 10
0
 20
0
 30
0
 70
128
 71
3
 72
11
 73
7
 74
16
 0
VERTEX
 8
TUBE_INSTANCE_4
 10
0
 20
0
 30
0
 70
128
 71
11
 72
19
 73
7
 74
7
 0
SEQEND
 0
POLYLINE
 8
TUBE_4
 66
1
 10
0.0
 20
0.0
 30
0.0
 70
64
 71
20
 72
7
 0
VERTEX
 8
TUBE_4
 10
-0.2539
 20
-13.3609
 30
15.6473
 70
192
 0
VERTEX
 8
TUBE_4
 10
0.0175
 20
-13.4491
 30
14.9207
 70
192
 0
VERTEX
 8
TUBE_4
 10
0.0175
 20
-13.4491
 30
14.9207
 70
192
 0
VERTEX
 8
TUBE_4
 10
0.0175
 20
-13.4491
 30
15.6473
 70
192
 0
VERTEX
 8
TUBE_4
 10
0.0175
 20
-13.4491
 30
15.6473
 70
192
 0
VERTEX
 8
TUBE_4
 10
-0.2539
 20
-13.5373
 30
14.9207
 70
192
 0
VERTEX
 8
TUBE_4
 10
-0.2539
 20
-13.5373
 30
14.9207
 70
192
 0
VERTEX
 8
TUBE_4
 10
-0.2539
 20
-13.5373
 30
15.6473
 70
192
 0
VERTEX
 8
TUBE_4
 10
-0.2539
 20
-13.5373
 30
15.6473
 70
192
 0
VERTEX
 8
TUBE_4
 10
-0.0862
 20
-13.3064
 30
14.9207
 70
192
 0
VERTEX
 8
TUBE_4
 10
-0.0862
 20
-13.3064
 30
14.9207
 70
192
 0
VERTEX
 8
TUBE_4
 10
-0.0862
 20
-13.3064
 30
15.6473
 70
192
 0
VERTEX
 8
TUBE_4
 10
-0.0862
 20
-13.3064
 30
15.6473
 70
192
 0
VERTEX
 8
TUBE_4
 10
-0.0862
 20
-13.5918
 30
15.6473
 70
192
 0
VERTEX
 8
TUBE_4
 10
-0.0862
 20
-13.5918
 30
14.9207
 70
192
 0
VERTEX
 8
TUBE_4
 10
-0.0862
 20
-13.5918
 30
14.9207
 70
192
 0
VERTEX
 8
TUBE_4
 10
-0.0862
 20
-13.5918
 30
15.6473
 70
192
 0
VERTEX
 8
TUBE_4
 10
-0.2539
 20
-13.3609
 30
14.9207
 70
192
 0
VERTEX
 8
TUBE_4
 10
-0.2539
 20
-13.3609
 30
14.9207
 70
192
 0
VERTEX
 8
TUBE_4
 10
-0.2539
 20
-13.3609
 30
15.6473
 70
192
 0
VERTEX
 8
TUBE_4
 10
0
 20
0
 30
0
 70
128
 71
11
 72
12
 73
20
 74
19
 0
VERTEX
 8
TUBE_4
 10
0
 20
0
 30
0
 70
128
 71
3
 72
4
 73
12
 74
11
 0
VERTEX
 8
TUBE_4
 10
0
 20
0
 30
0
 70
128
 71
19
 72
20
 73
8
 74
7
 0
VERTEX
 8
TUBE_4
 10
0
 20
0
 30
0
 70
128
 71
7
 72
8
 73
17
 74
16
 0
VERTEX
 8
TUBE_4
 10
0
 20
0
 30
0
 70
128
 71
16
 72
17
 73
4
 74
3
 0
VERTEX
 8
TUBE_4
 10
0
 20
0
 30
0
 70
128
 71
3
 72
11
 73
7
 74
16
 0
VERTEX
 8
TUBE_4
 10
0
 20
0
 30
0
 70
128
 71
11
 72
19
 73
7
 74
7
 0
SEQEND
 0
POLYLINE
 8
TUBE_INSTANCE_14_3
 66
1
 10
0.0
 20
0.0
 30
0.0
 70
64
 71
20
 72
7
 0
VERTEX
 8
TUBE_INSTANCE_14_3
 10
1.5867
 20
13.575
 30
15.6473
 70
192
 0
VERTEX
 8
TUBE_INSTANCE_14_3
 10
1.858
 20
13.4868
 30
14.9207
 70
192
 0
VERTEX
 8
TUBE_INSTANCE_14_3
 10
1.858
 20
13.4868
 30
14.9207
 70
192
 0
VERTEX
 8
TUBE_INSTANCE_14_3
 10
1.858
 20
13.4868
 30
15.6473
 70
192
 0
VERTEX
 8
TUBE_INSTANCE_14_3
 10
1.858
 20
13.4868
 30
15.6473
 70
192
 0
VERTEX
 8
TUBE_INSTANCE_14_3
 10
1.5867
 20
13.3986
 30
14.9207
 70
192
 0
VERTEX
 8
TUBE_INSTANCE_14_3
 10
1.5867
 20
13.3986
 30
14.9207
 70
192
 0
VERTEX
 8
TUBE_INSTANCE_14_3
 10
1.5867
 20
13.3986
 30
15.6473
 70
192
 0
VERTEX
 8
TUBE_INSTANCE_14_3
 10
1.5867
 20
13.3986
 30
15.6473
 70
192
 0
VERTEX
 8
TUBE_INSTANCE_14_3
 10
1.7544
 20
13.6295
 30
14.9207
 70
192
 0
VERTEX
 8
TUBE_INSTANCE_14_3
 10
1.7544
 20
13.6295
 30
14.9207
 70
192
 0
VERTEX
 8
TUBE_INSTANCE_14_3
 10
1.7544
 20
13.6295
 30
15.6473
 70
192
 0
VERTEX
 8
TUBE_INSTANCE_14_3
 10
1.7544
 20
13.6295
 30
15.6473
 70
192
 0
VERTEX
 8
TUBE_INSTANCE_14_3
 10
1.7544
 20
13.3442
 30
15.6473
 70
192
 0
VERTEX
 8
TUBE_INSTANCE_14_3
 10
1.7544
 20
13.3442
 30
14.9207
 70
192
 0
VERTEX
 8
TUBE_INSTANCE_14_3
 10
1.7544
 20
13.3442
 30
14.9207
 70
192
 0
VERTEX
 8
TUBE_INSTANCE_14_3
 10
1.7544
 20
13.3442
 30
15.6473
 70
192
 0
VERTEX
 8
TUBE_INSTANCE_14_3
 10
1.5867
 20
13.575
 30
14.9207
 70
192
 0
VERTEX
 8
TUBE_INSTANCE_14_3
 10
1.5867
 20
13.575
 30
14.9207
 70
192
 0
VERTEX
 8
TUBE_INSTANCE_14_3
 10
1.5867
 20
13.575
 30
15.6473
 70
192
 0
VERTEX
 8
TUBE_INSTANCE_14_3
 10
0
 20
0
 30
0
 70
128
 71
11
 72
12
 73
20
 74
19
 0
VERTEX
 8
TUBE_INSTANCE_14_3
 10
0
 20
0
 30
0
 70
128
 71
3
 72
4
 73
12
 74
11
 0
VERTEX
 8
TUBE_INSTANCE_14_3
 10
0
 20
0
 30
0
 70
128
 71
19
 72
20
 73
8
 74
7
 0
VERTEX
 8
TUBE_INSTANCE_14_3
 10
0
 20
0
 30
0
 70
128
 71
7
 72
8
 73
17
 74
16
 0
VERTEX
 8
TUBE_INSTANCE_14_3
 10
0
 20
0
 30
0
 70
128
 71
16
 72
17
 73
4
 74
3
 0
VERTEX
 8
TUBE_INSTANCE_14_3
 10
0
 20
0
 30
0
 70
128
 71
3
 72
11
 73
7
 74
16
 0
VERTEX
 8
TUBE_INSTANCE_14_3
 10
0
 20
0
 30
0
 70
128
 71
11
 72
19
 73
7
 74
7
 0
SEQEND
 0
POLYLINE
 8
TUBE_INSTANCE_13_3
 66
1
 10
0.0
 20
0.0
 30
0.0
 70
64
 71
20
 72
7
 0
VERTEX
 8
TUBE_INSTANCE_13_3
 10
1.5867
 20
11.7503
 30
15.6473
 70
192
 0
VERTEX
 8
TUBE_INSTANCE_13_3
 10
1.858
 20
11.6621
 30
14.9207
 70
192
 0
VERTEX
 8
TUBE_INSTANCE_13_3
 10
1.858
 20
11.6621
 30
14.9207
 70
192
 0
VERTEX
 8
TUBE_INSTANCE_13_3
 10
1.858
 20
11.6621
 30
15.6473
 70
192
 0
VERTEX
 8
TUBE_INSTANCE_13_3
 10
1.858
 20
11.6621
 30
15.6473
 70
192
 0
VERTEX
 8
TUBE_INSTANCE_13_3
 10
1.5867
 20
11.574
 30
14.9207
 70
192
 0
VERTEX
 8
TUBE_INSTANCE_13_3
 10
1.5867
 20
11.574
 30
14.9207
 70
192
 0
VERTEX
 8
TUBE_INSTANCE_13_3
 10
1.5867
 20
11.574
 30
15.6473
 70
192
 0
VERTEX
 8
TUBE_INSTANCE_13_3
 10
1.5867
 20
11.574
 30
15.6473
 70
192
 0
VERTEX
 8
TUBE_INSTANCE_13_3
 10
1.7544
 20
11.8048
 30
14.9207
 70
192
 0
VERTEX
 8
TUBE_INSTANCE_13_3
 10
1.7544
 20
11.8048
 30
14.9207
 70
192
 0
VERTEX
 8
TUBE_INSTANCE_13_3
 10
1.7544
 20
11.8048
 30
15.6473
 70
192
 0
VERTEX
 8
TUBE_INSTANCE_13_3
 10
1.7544
 20
11.8048
 30
15.6473
 70
192
 0
VERTEX
 8
TUBE_INSTANCE_13_3
 10
1.7544
 20
11.5195
 30
15.6473
 70
192
 0
VERTEX
 8
TUBE_INSTANCE_13_3
 10
1.7544
 20
11.5195
 30
14.9207
 70
192
 0
VERTEX
 8
TUBE_INSTANCE_13_3
 10
1.7544
 20
11.5195
 30
14.9207
 70
192
 0
VERTEX
 8
TUBE_INSTANCE_13_3
 10
1.7544
 20
11.5195
 30
15.6473
 70
192
 0
VERTEX
 8
TUBE_INSTANCE_13_3
 10
1.5867
 20
11.7503
 30
14.9207
 70
192
 0
VERTEX
 8
TUBE_INSTANCE_13_3
 10
1.5867
 20
11.7503
 30
14.9207
 70
192
 0
VERTEX
 8
TUBE_INSTANCE_13_3
 10
1.5867
 20
11.7503
 30
15.6473
 70
192
 0
VERTEX
 8
TUBE_INSTANCE_13_3
 10
0
 20
0
 30
0
 70
128
 71
11
 72
12
 73
20
 74
19
 0
VERTEX
 8
TUBE_INSTANCE_13_3
 10
0
 20
0
 30
0
 70
128
 71
3
 72
4
 73
12
 74
11
 0
VERTEX
 8
TUBE_INSTANCE_13_3
 10
0
 20
0
 30
0
 70
128
 71
19
 72
20
 73
8
 74
7
 0
VERTEX
 8
TUBE_INSTANCE_13_3
 10
0
 20
0
 30
0
 70
128
 71
7
 72
8
 73
17
 74
16
 0
VERTEX
 8
TUBE_INSTANCE_13_3
 10
0
 20
0
 30
0
 70
128
 71
16
 72
17
 73
4
 74
3
 0
VERTEX
 8
TUBE_INSTANCE_13_3
 10
0
 20
0
 30
0
 70
128
 71
3
 72
11
 73
7
 74
16
 0
VERTEX
 8
TUBE_INSTANCE_13_3
 10
0
 20
0
 30
0
 70
128
 71
11
 72
19
 73
7
 74
7
 0
SEQEND
 0
POLYLINE
 8
TUBE_INSTANCE_12_3
 66
1
 10
0.0
 20
0.0
 30
0.0
 70
64
 71
20
 72
7
 0
VERTEX
 8
TUBE_INSTANCE_12_3
 10
1.5867
 20
9.9231
 30
15.6473
 70
192
 0
VERTEX
 8
TUBE_INSTANCE_12_3
 10
1.858
 20
9.8349
 30
14.9207
 70
192
 0
VERTEX
 8
TUBE_INSTANCE_12_3
 10
1.858
 20
9.8349
 30
14.9207
 70
192
 0
VERTEX
 8
TUBE_INSTANCE_12_3
 10
1.858
 20
9.8349
 30
15.6473
 70
192
 0
VERTEX
 8
TUBE_INSTANCE_12_3
 10
1.858
 20
9.8349
 30
15.6473
 70
192
 0
VERTEX
 8
TUBE_INSTANCE_12_3
 10
1.5867
 20
9.7467
 30
14.9207
 70
192
 0
VERTEX
 8
TUBE_INSTANCE_12_3
 10
1.5867
 20
9.7467
 30
14.9207
 70
192
 0
VERTEX
 8
TUBE_INSTANCE_12_3
 10
1.5867
 20
9.7467
 30
15.6473
 70
192
 0
VERTEX
 8
TUBE_INSTANCE_12_3
 10
1.5867
 20
9.7467
 30
15.6473
 70
192
 0
VERTEX
 8
TUBE_INSTANCE_12_3
 10
1.7544
 20
9.9775
 30
14.9207
 70
192
 0
VERTEX
 8
TUBE_INSTANCE_12_3
 10
1.7544
 20
9.9775
 30
14.9207
 70
192
 0
VERTEX
 8
TUBE_INSTANCE_12_3
 10
1.7544
 20
9.9775
 30
15.6473
 70
192
 0
VERTEX
 8
TUBE_INSTANCE_12_3
 10
1.7544
 20
9.9775
 30
15.6473
 70
192
 0
VERTEX
 8
TUBE_INSTANCE_12_3
 10
1.7544
 20
9.6922
 30
15.6473
 70
192
 0
VERTEX
 8
TUBE_INSTANCE_12_3
 10
1.7544
 20
9.6922
 30
14.9207
 70
192
 0
VERTEX
 8
TUBE_INSTANCE_12_3
 10
1.7544
 20
9.6922
 30
14.9207
 70
192
 0
VERTEX
 8
TUBE_INSTANCE_12_3
 10
1.7544
 20
9.6922
 30
15.6473
 70
192
 0
VERTEX
 8
TUBE_INSTANCE_12_3
 10
1.5867
 20
9.9231
 30
14.9207
 70
192
 0
VERTEX
 8
TUBE_INSTANCE_12_3
 10
1.5867
 20
9.9231
 30
14.9207
 70
192
 0
VERTEX
 8
TUBE_INSTANCE_12_3
 10
1.5867
 20
9.9231
 30
15.6473
 70
192
 0
VERTEX
 8
TUBE_INSTANCE_12_3
 10
0
 20
0
 30
0
 70
128
 71
11
 72
12
 73
20
 74
19
 0
VERTEX
 8
TUBE_INSTANCE_12_3
 10
0
 20
0
 30
0
 70
128
 71
3
 72
4
 73
12
 74
11
 0
VERTEX
 8
TUBE_INSTANCE_12_3
 10
0
 20
0
 30
0
 70
128
 71
19
 72
20
 73
8
 74
7
 0
VERTEX
 8
TUBE_INSTANCE_12_3
 10
0
 20
0
 30
0
 70
128
 71
7
 72
8
 73
17
 74
16
 0
VERTEX
 8
TUBE_INSTANCE_12_3
 10
0
 20
0
 30
0
 70
128
 71
16
 72
17
 73
4
 74
3
 0
VERTEX
 8
TUBE_INSTANCE_12_3
 10
0
 20
0
 30
0
 70
128
 71
3
 72
11
 73
7
 74
16
 0
VERTEX
 8
TUBE_INSTANCE_12_3
 10
0
 20
0
 30
0
 70
128
 71
11
 72
19
 73
7
 74
7
 0
SEQEND
 0
POLYLINE
 8
TUBE_INSTANCE_11_3
 66
1
 10
0.0
 20
0.0
 30
0.0
 70
64
 71
20
 72
7
 0
VERTEX
 8
TUBE_INSTANCE_11_3
 10
1.5867
 20
8.1242
 30
15.6473
 70
192
 0
VERTEX
 8
TUBE_INSTANCE_11_3
 10
1.858
 20
8.036
 30
14.9207
 70
192
 0
VERTEX
 8
TUBE_INSTANCE_11_3
 10
1.858
 20
8.036
 30
14.9207
 70
192
 0
VERTEX
 8
TUBE_INSTANCE_11_3
 10
1.858
 20
8.036
 30
15.6473
 70
192
 0
VERTEX
 8
TUBE_INSTANCE_11_3
 10
1.858
 20
8.036
 30
15.6473
 70
192
 0
VERTEX
 8
TUBE_INSTANCE_11_3
 10
1.5867
 20
7.9479
 30
14.9207
 70
192
 0
VERTEX
 8
TUBE_INSTANCE_11_3
 10
1.5867
 20
7.9479
 30
14.9207
 70
192
 0
VERTEX
 8
TUBE_INSTANCE_11_3
 10
1.5867
 20
7.9479
 30
15.6473
 70
192
 0
VERTEX
 8
TUBE_INSTANCE_11_3
 10
1.5867
 20
7.9479
 30
15.6473
 70
192
 0
VERTEX
 8
TUBE_INSTANCE_11_3
 10
1.7544
 20
8.1787
 30
14.9207
 70
192
 0
VERTEX
 8
TUBE_INSTANCE_11_3
 10
1.7544
 20
8.1787
 30
14.9207
 70
192
 0
VERTEX
 8
TUBE_INSTANCE_11_3
 10
1.7544
 20
8.1787
 30
15.6473
 70
192
 0
VERTEX
 8
TUBE_INSTANCE_11_3
 10
1.7544
 20
8.1787
 30
15.6473
 70
192
 0
VERTEX
 8
TUBE_INSTANCE_11_3
 10
1.7544
 20
7.8934
 30
15.6473
 70
192
 0
VERTEX
 8
TUBE_INSTANCE_11_3
 10
1.7544
 20
7.8934
 30
14.9207
 70
192
 0
VERTEX
 8
TUBE_INSTANCE_11_3
 10
1.7544
 20
7.8934
 30
14.9207
 70
192
 0
VERTEX
 8
TUBE_INSTANCE_11_3
 10
1.7544
 20
7.8934
 30
15.6473
 70
192
 0
VERTEX
 8
TUBE_INSTANCE_11_3
 10
1.5867
 20
8.1242
 30
14.9207
 70
192
 0
VERTEX
 8
TUBE_INSTANCE_11_3
 10
1.5867
 20
8.1242
 30
14.9207
 70
192
 0
VERTEX
 8
TUBE_INSTANCE_11_3
 10
1.5867
 20
8.1242
 30
15.6473
 70
192
 0
VERTEX
 8
TUBE_INSTANCE_11_3
 10
0
 20
0
 30
0
 70
128
 71
11
 72
12
 73
20
 74
19
 0
VERTEX
 8
TUBE_INSTANCE_11_3
 10
0
 20
0
 30
0
 70
128
 71
3
 72
4
 73
12
 74
11
 0
VERTEX
 8
TUBE_INSTANCE_11_3
 10
0
 20
0
 30
0
 70
128
 71
19
 72
20
 73
8
 74
7
 0
VERTEX
 8
TUBE_INSTANCE_11_3
 10
0
 20
0
 30
0
 70
128
 71
7
 72
8
 73
17
 74
16
 0
VERTEX
 8
TUBE_INSTANCE_11_3
 10
0
 20
0
 30
0
 70
128
 71
16
 72
17
 73
4
 74
3
 0
VERTEX
 8
TUBE_INSTANCE_11_3
 10
0
 20
0
 30
0
 70
128
 71
3
 72
11
 73
7
 74
16
 0
VERTEX
 8
TUBE_INSTANCE_11_3
 10
0
 20
0
 30
0
 70
128
 71
11
 72
19
 73
7
 74
7
 0
SEQEND
 0
POLYLINE
 8
TUBE_INSTANCE_10_3
 66
1
 10
0.0
 20
0.0
 30
0.0
 70
64
 71
20
 72
7
 0
VERTEX
 8
TUBE_INSTANCE_10_3
 10
1.5867
 20
6.2861
 30
15.6473
 70
192
 0
VERTEX
 8
TUBE_INSTANCE_10_3
 10
1.858
 20
6.198
 30
14.9207
 70
192
 0
VERTEX
 8
TUBE_INSTANCE_10_3
 10
1.858
 20
6.198
 30
14.9207
 70
192
 0
VERTEX
 8
TUBE_INSTANCE_10_3
 10
1.858
 20
6.198
 30
15.6473
 70
192
 0
VERTEX
 8
TUBE_INSTANCE_10_3
 10
1.858
 20
6.198
 30
15.6473
 70
192
 0
VERTEX
 8
TUBE_INSTANCE_10_3
 10
1.5867
 20
6.1098
 30
14.9207
 70
192
 0
VERTEX
 8
TUBE_INSTANCE_10_3
 10
1.5867
 20
6.1098
 30
14.9207
 70
192
 0
VERTEX
 8
TUBE_INSTANCE_10_3
 10
1.5867
 20
6.1098
 30
15.6473
 70
192
 0
VERTEX
 8
TUBE_INSTANCE_10_3
 10
1.5867
 20
6.1098
 30
15.6473
 70
192
 0
VERTEX
 8
TUBE_INSTANCE_10_3
 10
1.7544
 20
6.3406
 30
14.9207
 70
192
 0
VERTEX
 8
TUBE_INSTANCE_10_3
 10
1.7544
 20
6.3406
 30
14.9207
 70
192
 0
VERTEX
 8
TUBE_INSTANCE_10_3
 10
1.7544
 20
6.3406
 30
15.6473
 70
192
 0
VERTEX
 8
TUBE_INSTANCE_10_3
 10
1.7544
 20
6.3406
 30
15.6473
 70
192
 0
VERTEX
 8
TUBE_INSTANCE_10_3
 10
1.7544
 20
6.0553
 30
15.6473
 70
192
 0
VERTEX
 8
TUBE_INSTANCE_10_3
 10
1.7544
 20
6.0553
 30
14.9207
 70
192
 0
VERTEX
 8
TUBE_INSTANCE_10_3
 10
1.7544
 20
6.0553
 30
14.9207
 70
192
 0
VERTEX
 8
TUBE_INSTANCE_10_3
 10
1.7544
 20
6.0553
 30
15.6473
 70
192
 0
VERTEX
 8
TUBE_INSTANCE_10_3
 10
1.5867
 20
6.2861
 30
14.9207
 70
192
 0
VERTEX
 8
TUBE_INSTANCE_10_3
 10
1.5867
 20
6.2861
 30
14.9207
 70
192
 0
VERTEX
 8
TUBE_INSTANCE_10_3
 10
1.5867
 20
6.2861
 30
15.6473
 70
192
 0
VERTEX
 8
TUBE_INSTANCE_10_3
 10
0
 20
0
 30
0
 70
128
 71
11
 72
12
 73
20
 74
19
 0
VERTEX
 8
TUBE_INSTANCE_10_3
 10
0
 20
0
 30
0
 70
128
 71
3
 72
4
 73
12
 74
11
 0
VERTEX
 8
TUBE_INSTANCE_10_3
 10
0
 20
0
 30
0
 70
128
 71
19
 72
20
 73
8
 74
7
 0
VERTEX
 8
TUBE_INSTANCE_10_3
 10
0
 20
0
 30
0
 70
128
 71
7
 72
8
 73
17
 74
16
 0
VERTEX
 8
TUBE_INSTANCE_10_3
 10
0
 20
0
 30
0
 70
128
 71
16
 72
17
 73
4
 74
3
 0
VERTEX
 8
TUBE_INSTANCE_10_3
 10
0
 20
0
 30
0
 70
128
 71
3
 72
11
 73
7
 74
16
 0
VERTEX
 8
TUBE_INSTANCE_10_3
 10
0
 20
0
 30
0
 70
128
 71
11
 72
19
 73
7
 74
7
 0
SEQEND
 0
POLYLINE
 8
TUBE_INSTANCE_9_3
 66
1
 10
0.0
 20
0.0
 30
0.0
 70
64
 71
20
 72
7
 0
VERTEX
 8
TUBE_INSTANCE_9_3
 10
1.5867
 20
4.4401
 30
15.6473
 70
192
 0
VERTEX
 8
TUBE_INSTANCE_9_3
 10
1.858
 20
4.3519
 30
14.9207
 70
192
 0
VERTEX
 8
TUBE_INSTANCE_9_3
 10
1.858
 20
4.3519
 30
14.9207
 70
192
 0
VERTEX
 8
TUBE_INSTANCE_9_3
 10
1.858
 20
4.3519
 30
15.6473
 70
192
 0
VERTEX
 8
TUBE_INSTANCE_9_3
 10
1.858
 20
4.3519
 30
15.6473
 70
192
 0
VERTEX
 8
TUBE_INSTANCE_9_3
 10
1.5867
 20
4.2637
 30
14.9207
 70
192
 0
VERTEX
 8
TUBE_INSTANCE_9_3
 10
1.5867
 20
4.2637
 30
14.9207
 70
192
 0
VERTEX
 8
TUBE_INSTANCE_9_3
 10
1.5867
 20
4.2637
 30
15.6473
 70
192
 0
VERTEX
 8
TUBE_INSTANCE_9_3
 10
1.5867
 20
4.2637
 30
15.6473
 70
192
 0
VERTEX
 8
TUBE_INSTANCE_9_3
 10
1.7544
 20
4.4946
 30
14.9207
 70
192
 0
VERTEX
 8
TUBE_INSTANCE_9_3
 10
1.7544
 20
4.4946
 30
14.9207
 70
192
 0
VERTEX
 8
TUBE_INSTANCE_9_3
 10
1.7544
 20
4.4946
 30
15.6473
 70
192
 0
VERTEX
 8
TUBE_INSTANCE_9_3
 10
1.7544
 20
4.4946
 30
15.6473
 70
192
 0
VERTEX
 8
TUBE_INSTANCE_9_3
 10
1.7544
 20
4.2092
 30
15.6473
 70
192
 0
VERTEX
 8
TUBE_INSTANCE_9_3
 10
1.7544
 20
4.2092
 30
14.9207
 70
192
 0
VERTEX
 8
TUBE_INSTANCE_9_3
 10
1.7544
 20
4.2092
 30
14.9207
 70
192
 0
VERTEX
 8
TUBE_INSTANCE_9_3
 10
1.7544
 20
4.2092
 30
15.6473
 70
192
 0
VERTEX
 8
TUBE_INSTANCE_9_3
 10
1.5867
 20
4.4401
 30
14.9207
 70
192
 0
VERTEX
 8
TUBE_INSTANCE_9_3
 10
1.5867
 20
4.4401
 30
14.9207
 70
192
 0
VERTEX
 8
TUBE_INSTANCE_9_3
 10
1.5867
 20
4.4401
 30
15.6473
 70
192
 0
VERTEX
 8
TUBE_INSTANCE_9_3
 10
0
 20
0
 30
0
 70
128
 71
11
 72
12
 73
20
 74
19
 0
VERTEX
 8
TUBE_INSTANCE_9_3
 10
0
 20
0
 30
0
 70
128
 71
3
 72
4
 73
12
 74
11
 0
VERTEX
 8
TUBE_INSTANCE_9_3
 10
0
 20
0
 30
0
 70
128
 71
19
 72
20
 73
8
 74
7
 0
VERTEX
 8
TUBE_INSTANCE_9_3
 10
0
 20
0
 30
0
 70
128
 71
7
 72
8
 73
17
 74
16
 0
VERTEX
 8
TUBE_INSTANCE_9_3
 10
0
 20
0
 30
0
 70
128
 71
16
 72
17
 73
4
 74
3
 0
VERTEX
 8
TUBE_INSTANCE_9_3
 10
0
 20
0
 30
0
 70
128
 71
3
 72
11
 73
7
 74
16
 0
VERTEX
 8
TUBE_INSTANCE_9_3
 10
0
 20
0
 30
0
 70
128
 71
11
 72
19
 73
7
 74
7
 0
SEQEND
 0
POLYLINE
 8
TUBE_INSTANCE_8_3
 66
1
 10
0.0
 20
0.0
 30
0.0
 70
64
 71
20
 72
7
 0
VERTEX
 8
TUBE_INSTANCE_8_3
 10
1.5867
 20
2.6774
 30
15.6473
 70
192
 0
VERTEX
 8
TUBE_INSTANCE_8_3
 10
1.858
 20
2.5892
 30
14.9207
 70
192
 0
VERTEX
 8
TUBE_INSTANCE_8_3
 10
1.858
 20
2.5892
 30
14.9207
 70
192
 0
VERTEX
 8
TUBE_INSTANCE_8_3
 10
1.858
 20
2.5892
 30
15.6473
 70
192
 0
VERTEX
 8
TUBE_INSTANCE_8_3
 10
1.858
 20
2.5892
 30
15.6473
 70
192
 0
VERTEX
 8
TUBE_INSTANCE_8_3
 10
1.5867
 20
2.501
 30
14.9207
 70
192
 0
VERTEX
 8
TUBE_INSTANCE_8_3
 10
1.5867
 20
2.501
 30
14.9207
 70
192
 0
VERTEX
 8
TUBE_INSTANCE_8_3
 10
1.5867
 20
2.501
 30
15.6473
 70
192
 0
VERTEX
 8
TUBE_INSTANCE_8_3
 10
1.5867
 20
2.501
 30
15.6473
 70
192
 0
VERTEX
 8
TUBE_INSTANCE_8_3
 10
1.7544
 20
2.7318
 30
14.9207
 70
192
 0
VERTEX
 8
TUBE_INSTANCE_8_3
 10
1.7544
 20
2.7318
 30
14.9207
 70
192
 0
VERTEX
 8
TUBE_INSTANCE_8_3
 10
1.7544
 20
2.7318
 30
15.6473
 70
192
 0
VERTEX
 8
TUBE_INSTANCE_8_3
 10
1.7544
 20
2.7318
 30
15.6473
 70
192
 0
VERTEX
 8
TUBE_INSTANCE_8_3
 10
1.7544
 20
2.4465
 30
15.6473
 70
192
 0
VERTEX
 8
TUBE_INSTANCE_8_3
 10
1.7544
 20
2.4465
 30
14.9207
 70
192
 0
VERTEX
 8
TUBE_INSTANCE_8_3
 10
1.7544
 20
2.4465
 30
14.9207
 70
192
 0
VERTEX
 8
TUBE_INSTANCE_8_3
 10
1.7544
 20
2.4465
 30
15.6473
 70
192
 0
VERTEX
 8
TUBE_INSTANCE_8_3
 10
1.5867
 20
2.6774
 30
14.9207
 70
192
 0
VERTEX
 8
TUBE_INSTANCE_8_3
 10
1.5867
 20
2.6774
 30
14.9207
 70
192
 0
VERTEX
 8
TUBE_INSTANCE_8_3
 10
1.5867
 20
2.6774
 30
15.6473
 70
192
 0
VERTEX
 8
TUBE_INSTANCE_8_3
 10
0
 20
0
 30
0
 70
128
 71
11
 72
12
 73
20
 74
19
 0
VERTEX
 8
TUBE_INSTANCE_8_3
 10
0
 20
0
 30
0
 70
128
 71
3
 72
4
 73
12
 74
11
 0
VERTEX
 8
TUBE_INSTANCE_8_3
 10
0
 20
0
 30
0
 70
128
 71
19
 72
20
 73
8
 74
7
 0
VERTEX
 8
TUBE_INSTANCE_8_3
 10
0
 20
0
 30
0
 70
128
 71
7
 72
8
 73
17
 74
16
 0
VERTEX
 8
TUBE_INSTANCE_8_3
 10
0
 20
0
 30
0
 70
128
 71
16
 72
17
 73
4
 74
3
 0
VERTEX
 8
TUBE_INSTANCE_8_3
 10
0
 20
0
 30
0
 70
128
 71
3
 72
11
 73
7
 74
16
 0
VERTEX
 8
TUBE_INSTANCE_8_3
 10
0
 20
0
 30
0
 70
128
 71
11
 72
19
 73
7
 74
7
 0
SEQEND
 0
POLYLINE
 8
TUBE_INSTANCE_7_3
 66
1
 10
0.0
 20
0.0
 30
0.0
 70
64
 71
20
 72
7
 0
VERTEX
 8
TUBE_INSTANCE_7_3
 10
1.5867
 20
0.9035
 30
15.6473
 70
192
 0
VERTEX
 8
TUBE_INSTANCE_7_3
 10
1.858
 20
0.8153
 30
14.9207
 70
192
 0
VERTEX
 8
TUBE_INSTANCE_7_3
 10
1.858
 20
0.8153
 30
14.9207
 70
192
 0
VERTEX
 8
TUBE_INSTANCE_7_3
 10
1.858
 20
0.8153
 30
15.6473
 70
192
 0
VERTEX
 8
TUBE_INSTANCE_7_3
 10
1.858
 20
0.8153
 30
15.6473
 70
192
 0
VERTEX
 8
TUBE_INSTANCE_7_3
 10
1.5867
 20
0.7272
 30
14.9207
 70
192
 0
VERTEX
 8
TUBE_INSTANCE_7_3
 10
1.5867
 20
0.7272
 30
14.9207
 70
192
 0
VERTEX
 8
TUBE_INSTANCE_7_3
 10
1.5867
 20
0.7272
 30
15.6473
 70
192
 0
VERTEX
 8
TUBE_INSTANCE_7_3
 10
1.5867
 20
0.7272
 30
15.6473
 70
192
 0
VERTEX
 8
TUBE_INSTANCE_7_3
 10
1.7544
 20
0.958
 30
14.9207
 70
192
 0
VERTEX
 8
TUBE_INSTANCE_7_3
 10
1.7544
 20
0.958
 30
14.9207
 70
192
 0
VERTEX
 8
TUBE_INSTANCE_7_3
 10
1.7544
 20
0.958
 30
15.6473
 70
192
 0
VERTEX
 8
TUBE_INSTANCE_7_3
 10
1.7544
 20
0.958
 30
15.6473
 70
192
 0
VERTEX
 8
TUBE_INSTANCE_7_3
 10
1.7544
 20
0.6727
 30
15.6473
 70
192
 0
VERTEX
 8
TUBE_INSTANCE_7_3
 10
1.7544
 20
0.6727
 30
14.9207
 70
192
 0
VERTEX
 8
TUBE_INSTANCE_7_3
 10
1.7544
 20
0.6727
 30
14.9207
 70
192
 0
VERTEX
 8
TUBE_INSTANCE_7_3
 10
1.7544
 20
0.6727
 30
15.6473
 70
192
 0
VERTEX
 8
TUBE_INSTANCE_7_3
 10
1.5867
 20
0.9035
 30
14.9207
 70
192
 0
VERTEX
 8
TUBE_INSTANCE_7_3
 10
1.5867
 20
0.9035
 30
14.9207
 70
192
 0
VERTEX
 8
TUBE_INSTANCE_7_3
 10
1.5867
 20
0.9035
 30
15.6473
 70
192
 0
VERTEX
 8
TUBE_INSTANCE_7_3
 10
0
 20
0
 30
0
 70
128
 71
11
 72
12
 73
20
 74
19
 0
VERTEX
 8
TUBE_INSTANCE_7_3
 10
0
 20
0
 30
0
 70
128
 71
3
 72
4
 73
12
 74
11
 0
VERTEX
 8
TUBE_INSTANCE_7_3
 10
0
 20
0
 30
0
 70
128
 71
19
 72
20
 73
8
 74
7
 0
VERTEX
 8
TUBE_INSTANCE_7_3
 10
0
 20
0
 30
0
 70
128
 71
7
 72
8
 73
17
 74
16
 0
VERTEX
 8
TUBE_INSTANCE_7_3
 10
0
 20
0
 30
0
 70
128
 71
16
 72
17
 73
4
 74
3
 0
VERTEX
 8
TUBE_INSTANCE_7_3
 10
0
 20
0
 30
0
 70
128
 71
3
 72
11
 73
7
 74
16
 0
VERTEX
 8
TUBE_INSTANCE_7_3
 10
0
 20
0
 30
0
 70
128
 71
11
 72
19
 73
7
 74
7
 0
SEQEND
 0
POLYLINE
 8
TUBE_INSTANCE_6_3
 66
1
 10
0.0
 20
0.0
 30
0.0
 70
64
 71
20
 72
7
 0
VERTEX
 8
TUBE_INSTANCE_6_3
 10
1.5867
 20
-0.9033
 30
15.6473
 70
192
 0
VERTEX
 8
TUBE_INSTANCE_6_3
 10
1.858
 20
-0.9915
 30
14.9207
 70
192
 0
VERTEX
 8
TUBE_INSTANCE_6_3
 10
1.858
 20
-0.9915
 30
14.9207
 70
192
 0
VERTEX
 8
TUBE_INSTANCE_6_3
 10
1.858
 20
-0.9915
 30
15.6473
 70
192
 0
VERTEX
 8
TUBE_INSTANCE_6_3
 10
1.858
 20
-0.9915
 30
15.6473
 70
192
 0
VERTEX
 8
TUBE_INSTANCE_6_3
 10
1.5867
 20
-1.0796
 30
14.9207
 70
192
 0
VERTEX
 8
TUBE_INSTANCE_6_3
 10
1.5867
 20
-1.0796
 30
14.9207
 70
192
 0
VERTEX
 8
TUBE_INSTANCE_6_3
 10
1.5867
 20
-1.0796
 30
15.6473
 70
192
 0
VERTEX
 8
TUBE_INSTANCE_6_3
 10
1.5867
 20
-1.0796
 30
15.6473
 70
192
 0
VERTEX
 8
TUBE_INSTANCE_6_3
 10
1.7544
 20
-0.8488
 30
14.9207
 70
192
 0
VERTEX
 8
TUBE_INSTANCE_6_3
 10
1.7544
 20
-0.8488
 30
14.9207
 70
192
 0
VERTEX
 8
TUBE_INSTANCE_6_3
 10
1.7544
 20
-0.8488
 30
15.6473
 70
192
 0
VERTEX
 8
TUBE_INSTANCE_6_3
 10
1.7544
 20
-0.8488
 30
15.6473
 70
192
 0
VERTEX
 8
TUBE_INSTANCE_6_3
 10
1.7544
 20
-1.1341
 30
15.6473
 70
192
 0
VERTEX
 8
TUBE_INSTANCE_6_3
 10
1.7544
 20
-1.1341
 30
14.9207
 70
192
 0
VERTEX
 8
TUBE_INSTANCE_6_3
 10
1.7544
 20
-1.1341
 30
14.9207
 70
192
 0
VERTEX
 8
TUBE_INSTANCE_6_3
 10
1.7544
 20
-1.1341
 30
15.6473
 70
192
 0
VERTEX
 8
TUBE_INSTANCE_6_3
 10
1.5867
 20
-0.9033
 30
14.9207
 70
192
 0
VERTEX
 8
TUBE_INSTANCE_6_3
 10
1.5867
 20
-0.9033
 30
14.9207
 70
192
 0
VERTEX
 8
TUBE_INSTANCE_6_3
 10
1.5867
 20
-0.9033
 30
15.6473
 70
192
 0
VERTEX
 8
TUBE_INSTANCE_6_3
 10
0
 20
0
 30
0
 70
128
 71
11
 72
12
 73
20
 74
19
 0
VERTEX
 8
TUBE_INSTANCE_6_3
 10
0
 20
0
 30
0
 70
128
 71
3
 72
4
 73
12
 74
11
 0
VERTEX
 8
TUBE_INSTANCE_6_3
 10
0
 20
0
 30
0
 70
128
 71
19
 72
20
 73
8
 74
7
 0
VERTEX
 8
TUBE_INSTANCE_6_3
 10
0
 20
0
 30
0
 70
128
 71
7
 72
8
 73
17
 74
16
 0
VERTEX
 8
TUBE_INSTANCE_6_3
 10
0
 20
0
 30
0
 70
128
 71
16
 72
17
 73
4
 74
3
 0
VERTEX
 8
TUBE_INSTANCE_6_3
 10
0
 20
0
 30
0
 70
128
 71
3
 72
11
 73
7
 74
16
 0
VERTEX
 8
TUBE_INSTANCE_6_3
 10
0
 20
0
 30
0
 70
128
 71
11
 72
19
 73
7
 74
7
 0
SEQEND
 0
POLYLINE
 8
TUBE_INSTANCE_5_3
 66
1
 10
0.0
 20
0.0
 30
0.0
 70
64
 71
20
 72
7
 0
VERTEX
 8
TUBE_INSTANCE_5_3
 10
1.5867
 20
-2.6809
 30
15.6473
 70
192
 0
VERTEX
 8
TUBE_INSTANCE_5_3
 10
1.858
 20
-2.7691
 30
14.9207
 70
192
 0
VERTEX
 8
TUBE_INSTANCE_5_3
 10
1.858
 20
-2.7691
 30
14.9207
 70
192
 0
VERTEX
 8
TUBE_INSTANCE_5_3
 10
1.858
 20
-2.7691
 30
15.6473
 70
192
 0
VERTEX
 8
TUBE_INSTANCE_5_3
 10
1.858
 20
-2.7691
 30
15.6473
 70
192
 0
VERTEX
 8
TUBE_INSTANCE_5_3
 10
1.5867
 20
-2.8573
 30
14.9207
 70
192
 0
VERTEX
 8
TUBE_INSTANCE_5_3
 10
1.5867
 20
-2.8573
 30
14.9207
 70
192
 0
VERTEX
 8
TUBE_INSTANCE_5_3
 10
1.5867
 20
-2.8573
 30
15.6473
 70
192
 0
VERTEX
 8
TUBE_INSTANCE_5_3
 10
1.5867
 20
-2.8573
 30
15.6473
 70
192
 0
VERTEX
 8
TUBE_INSTANCE_5_3
 10
1.7544
 20
-2.6264
 30
14.9207
 70
192
 0
VERTEX
 8
TUBE_INSTANCE_5_3
 10
1.7544
 20
-2.6264
 30
14.9207
 70
192
 0
VERTEX
 8
TUBE_INSTANCE_5_3
 10
1.7544
 20
-2.6264
 30
15.6473
 70
192
 0
VERTEX
 8
TUBE_INSTANCE_5_3
 10
1.7544
 20
-2.6264
 30
15.6473
 70
192
 0
VERTEX
 8
TUBE_INSTANCE_5_3
 10
1.7544
 20
-2.9118
 30
15.6473
 70
192
 0
VERTEX
 8
TUBE_INSTANCE_5_3
 10
1.7544
 20
-2.9118
 30
14.9207
 70
192
 0
VERTEX
 8
TUBE_INSTANCE_5_3
 10
1.7544
 20
-2.9118
 30
14.9207
 70
192
 0
VERTEX
 8
TUBE_INSTANCE_5_3
 10
1.7544
 20
-2.9118
 30
15.6473
 70
192
 0
VERTEX
 8
TUBE_INSTANCE_5_3
 10
1.5867
 20
-2.6809
 30
14.9207
 70
192
 0
VERTEX
 8
TUBE_INSTANCE_5_3
 10
1.5867
 20
-2.6809
 30
14.9207
 70
192
 0
VERTEX
 8
TUBE_INSTANCE_5_3
 10
1.5867
 20
-2.6809
 30
15.6473
 70
192
 0
VERTEX
 8
TUBE_INSTANCE_5_3
 10
0
 20
0
 30
0
 70
128
 71
11
 72
12
 73
20
 74
19
 0
VERTEX
 8
TUBE_INSTANCE_5_3
 10
0
 20
0
 30
0
 70
128
 71
3
 72
4
 73
12
 74
11
 0
VERTEX
 8
TUBE_INSTANCE_5_3
 10
0
 20
0
 30
0
 70
128
 71
19
 72
20
 73
8
 74
7
 0
VERTEX
 8
TUBE_INSTANCE_5_3
 10
0
 20
0
 30
0
 70
128
 71
7
 72
8
 73
17
 74
16
 0
VERTEX
 8
TUBE_INSTANCE_5_3
 10
0
 20
0
 30
0
 70
128
 71
16
 72
17
 73
4
 74
3
 0
VERTEX
 8
TUBE_INSTANCE_5_3
 10
0
 20
0
 30
0
 70
128
 71
3
 72
11
 73
7
 74
16
 0
VERTEX
 8
TUBE_INSTANCE_5_3
 10
0
 20
0
 30
0
 70
128
 71
11
 72
19
 73
7
 74
7
 0
SEQEND
 0
POLYLINE
 8
TUBE_INSTANCE_4_3
 66
1
 10
0.0
 20
0.0
 30
0.0
 70
64
 71
20
 72
7
 0
VERTEX
 8
TUBE_INSTANCE_4_3
 10
1.5867
 20
-4.4707
 30
15.6473
 70
192
 0
VERTEX
 8
TUBE_INSTANCE_4_3
 10
1.858
 20
-4.5589
 30
14.9207
 70
192
 0
VERTEX
 8
TUBE_INSTANCE_4_3
 10
1.858
 20
-4.5589
 30
14.9207
 70
192
 0
VERTEX
 8
TUBE_INSTANCE_4_3
 10
1.858
 20
-4.5589
 30
15.6473
 70
192
 0
VERTEX
 8
TUBE_INSTANCE_4_3
 10
1.858
 20
-4.5589
 30
15.6473
 70
192
 0
VERTEX
 8
TUBE_INSTANCE_4_3
 10
1.5867
 20
-4.647
 30
14.9207
 70
192
 0
VERTEX
 8
TUBE_INSTANCE_4_3
 10
1.5867
 20
-4.647
 30
14.9207
 70
192
 0
VERTEX
 8
TUBE_INSTANCE_4_3
 10
1.5867
 20
-4.647
 30
15.6473
 70
192
 0
VERTEX
 8
TUBE_INSTANCE_4_3
 10
1.5867
 20
-4.647
 30
15.6473
 70
192
 0
VERTEX
 8
TUBE_INSTANCE_4_3
 10
1.7544
 20
-4.4162
 30
14.9207
 70
192
 0
VERTEX
 8
TUBE_INSTANCE_4_3
 10
1.7544
 20
-4.4162
 30
14.9207
 70
192
 0
VERTEX
 8
TUBE_INSTANCE_4_3
 10
1.7544
 20
-4.4162
 30
15.6473
 70
192
 0
VERTEX
 8
TUBE_INSTANCE_4_3
 10
1.7544
 20
-4.4162
 30
15.6473
 70
192
 0
VERTEX
 8
TUBE_INSTANCE_4_3
 10
1.7544
 20
-4.7015
 30
15.6473
 70
192
 0
VERTEX
 8
TUBE_INSTANCE_4_3
 10
1.7544
 20
-4.7015
 30
14.9207
 70
192
 0
VERTEX
 8
TUBE_INSTANCE_4_3
 10
1.7544
 20
-4.7015
 30
14.9207
 70
192
 0
VERTEX
 8
TUBE_INSTANCE_4_3
 10
1.7544
 20
-4.7015
 30
15.6473
 70
192
 0
VERTEX
 8
TUBE_INSTANCE_4_3
 10
1.5867
 20
-4.4707
 30
14.9207
 70
192
 0
VERTEX
 8
TUBE_INSTANCE_4_3
 10
1.5867
 20
-4.4707
 30
14.9207
 70
192
 0
VERTEX
 8
TUBE_INSTANCE_4_3
 10
1.5867
 20
-4.4707
 30
15.6473
 70
192
 0
VERTEX
 8
TUBE_INSTANCE_4_3
 10
0
 20
0
 30
0
 70
128
 71
11
 72
12
 73
20
 74
19
 0
VERTEX
 8
TUBE_INSTANCE_4_3
 10
0
 20
0
 30
0
 70
128
 71
3
 72
4
 73
12
 74
11
 0
VERTEX
 8
TUBE_INSTANCE_4_3
 10
0
 20
0
 30
0
 70
128
 71
19
 72
20
 73
8
 74
7
 0
VERTEX
 8
TUBE_INSTANCE_4_3
 10
0
 20
0
 30
0
 70
128
 71
7
 72
8
 73
17
 74
16
 0
VERTEX
 8
TUBE_INSTANCE_4_3
 10
0
 20
0
 30
0
 70
128
 71
16
 72
17
 73
4
 74
3
 0
VERTEX
 8
TUBE_INSTANCE_4_3
 10
0
 20
0
 30
0
 70
128
 71
3
 72
11
 73
7
 74
16
 0
VERTEX
 8
TUBE_INSTANCE_4_3
 10
0
 20
0
 30
0
 70
128
 71
11
 72
19
 73
7
 74
7
 0
SEQEND
 0
POLYLINE
 8
TUBE_INSTANCE_3_3
 66
1
 10
0.0
 20
0.0
 30
0.0
 70
64
 71
20
 72
7
 0
VERTEX
 8
TUBE_INSTANCE_3_3
 10
1.5867
 20
-6.2569
 30
15.6473
 70
192
 0
VERTEX
 8
TUBE_INSTANCE_3_3
 10
1.858
 20
-6.3451
 30
14.9207
 70
192
 0
VERTEX
 8
TUBE_INSTANCE_3_3
 10
1.858
 20
-6.3451
 30
14.9207
 70
192
 0
VERTEX
 8
TUBE_INSTANCE_3_3
 10
1.858
 20
-6.3451
 30
15.6473
 70
192
 0
VERTEX
 8
TUBE_INSTANCE_3_3
 10
1.858
 20
-6.3451
 30
15.6473
 70
192
 0
VERTEX
 8
TUBE_INSTANCE_3_3
 10
1.5867
 20
-6.4333
 30
14.9207
 70
192
 0
VERTEX
 8
TUBE_INSTANCE_3_3
 10
1.5867
 20
-6.4333
 30
14.9207
 70
192
 0
VERTEX
 8
TUBE_INSTANCE_3_3
 10
1.5867
 20
-6.4333
 30
15.6473
 70
192
 0
VERTEX
 8
TUBE_INSTANCE_3_3
 10
1.5867
 20
-6.4333
 30
15.6473
 70
192
 0
VERTEX
 8
TUBE_INSTANCE_3_3
 10
1.7544
 20
-6.2025
 30
14.9207
 70
192
 0
VERTEX
 8
TUBE_INSTANCE_3_3
 10
1.7544
 20
-6.2025
 30
14.9207
 70
192
 0
VERTEX
 8
TUBE_INSTANCE_3_3
 10
1.7544
 20
-6.2025
 30
15.6473
 70
192
 0
VERTEX
 8
TUBE_INSTANCE_3_3
 10
1.7544
 20
-6.2025
 30
15.6473
 70
192
 0
VERTEX
 8
TUBE_INSTANCE_3_3
 10
1.7544
 20
-6.4878
 30
15.6473
 70
192
 0
VERTEX
 8
TUBE_INSTANCE_3_3
 10
1.7544
 20
-6.4878
 30
14.9207
 70
192
 0
VERTEX
 8
TUBE_INSTANCE_3_3
 10
1.7544
 20
-6.4878
 30
14.9207
 70
192
 0
VERTEX
 8
TUBE_INSTANCE_3_3
 10
1.7544
 20
-6.4878
 30
15.6473
 70
192
 0
VERTEX
 8
TUBE_INSTANCE_3_3
 10
1.5867
 20
-6.2569
 30
14.9207
 70
192
 0
VERTEX
 8
TUBE_INSTANCE_3_3
 10
1.5867
 20
-6.2569
 30
14.9207
 70
192
 0
VERTEX
 8
TUBE_INSTANCE_3_3
 10
1.5867
 20
-6.2569
 30
15.6473
 70
192
 0
VERTEX
 8
TUBE_INSTANCE_3_3
 10
0
 20
0
 30
0
 70
128
 71
11
 72
12
 73
20
 74
19
 0
VERTEX
 8
TUBE_INSTANCE_3_3
 10
0
 20
0
 30
0
 70
128
 71
3
 72
4
 73
12
 74
11
 0
VERTEX
 8
TUBE_INSTANCE_3_3
 10
0
 20
0
 30
0
 70
128
 71
19
 72
20
 73
8
 74
7
 0
VERTEX
 8
TUBE_INSTANCE_3_3
 10
0
 20
0
 30
0
 70
128
 71
7
 72
8
 73
17
 74
16
 0
VERTEX
 8
TUBE_INSTANCE_3_3
 10
0
 20
0
 30
0
 70
128
 71
16
 72
17
 73
4
 74
3
 0
VERTEX
 8
TUBE_INSTANCE_3_3
 10
0
 20
0
 30
0
 70
128
 71
3
 72
11
 73
7
 74
16
 0
VERTEX
 8
TUBE_INSTANCE_3_3
 10
0
 20
0
 30
0
 70
128
 71
11
 72
19
 73
7
 74
7
 0
SEQEND
 0
POLYLINE
 8
TUBE_INSTANCE_2_3
 66
1
 10
0.0
 20
0.0
 30
0.0
 70
64
 71
20
 72
7
 0
VERTEX
 8
TUBE_INSTANCE_2_3
 10
1.5867
 20
-8.0664
 30
15.6473
 70
192
 0
VERTEX
 8
TUBE_INSTANCE_2_3
 10
1.858
 20
-8.1546
 30
14.9207
 70
192
 0
VERTEX
 8
TUBE_INSTANCE_2_3
 10
1.858
 20
-8.1546
 30
14.9207
 70
192
 0
VERTEX
 8
TUBE_INSTANCE_2_3
 10
1.858
 20
-8.1546
 30
15.6473
 70
192
 0
VERTEX
 8
TUBE_INSTANCE_2_3
 10
1.858
 20
-8.1546
 30
15.6473
 70
192
 0
VERTEX
 8
TUBE_INSTANCE_2_3
 10
1.5867
 20
-8.2427
 30
14.9207
 70
192
 0
VERTEX
 8
TUBE_INSTANCE_2_3
 10
1.5867
 20
-8.2427
 30
14.9207
 70
192
 0
VERTEX
 8
TUBE_INSTANCE_2_3
 10
1.5867
 20
-8.2427
 30
15.6473
 70
192
 0
VERTEX
 8
TUBE_INSTANCE_2_3
 10
1.5867
 20
-8.2427
 30
15.6473
 70
192
 0
VERTEX
 8
TUBE_INSTANCE_2_3
 10
1.7544
 20
-8.0119
 30
14.9207
 70
192
 0
VERTEX
 8
TUBE_INSTANCE_2_3
 10
1.7544
 20
-8.0119
 30
14.9207
 70
192
 0
VERTEX
 8
TUBE_INSTANCE_2_3
 10
1.7544
 20
-8.0119
 30
15.6473
 70
192
 0
VERTEX
 8
TUBE_INSTANCE_2_3
 10
1.7544
 20
-8.0119
 30
15.6473
 70
192
 0
VERTEX
 8
TUBE_INSTANCE_2_3
 10
1.7544
 20
-8.2972
 30
15.6473
 70
192
 0
VERTEX
 8
TUBE_INSTANCE_2_3
 10
1.7544
 20
-8.2972
 30
14.9207
 70
192
 0
VERTEX
 8
TUBE_INSTANCE_2_3
 10
1.7544
 20
-8.2972
 30
14.9207
 70
192
 0
VERTEX
 8
TUBE_INSTANCE_2_3
 10
1.7544
 20
-8.2972
 30
15.6473
 70
192
 0
VERTEX
 8
TUBE_INSTANCE_2_3
 10
1.5867
 20
-8.0664
 30
14.9207
 70
192
 0
VERTEX
 8
TUBE_INSTANCE_2_3
 10
1.5867
 20
-8.0664
 30
14.9207
 70
192
 0
VERTEX
 8
TUBE_INSTANCE_2_3
 10
1.5867
 20
-8.0664
 30
15.6473
 70
192
 0
VERTEX
 8
TUBE_INSTANCE_2_3
 10
0
 20
0
 30
0
 70
128
 71
11
 72
12
 73
20
 74
19
 0
VERTEX
 8
TUBE_INSTANCE_2_3
 10
0
 20
0
 30
0
 70
128
 71
3
 72
4
 73
12
 74
11
 0
VERTEX
 8
TUBE_INSTANCE_2_3
 10
0
 20
0
 30
0
 70
128
 71
19
 72
20
 73
8
 74
7
 0
VERTEX
 8
TUBE_INSTANCE_2_3
 10
0
 20
0
 30
0
 70
128
 71
7
 72
8
 73
17
 74
16
 0
VERTEX
 8
TUBE_INSTANCE_2_3
 10
0
 20
0
 30
0
 70
128
 71
16
 72
17
 73
4
 74
3
 0
VERTEX
 8
TUBE_INSTANCE_2_3
 10
0
 20
0
 30
0
 70
128
 71
3
 72
11
 73
7
 74
16
 0
VERTEX
 8
TUBE_INSTANCE_2_3
 10
0
 20
0
 30
0
 70
128
 71
11
 72
19
 73
7
 74
7
 0
SEQEND
 0
POLYLINE
 8
TUBE_INSTANCE_1_3
 66
1
 10
0.0
 20
0.0
 30
0.0
 70
64
 71
20
 72
7
 0
VERTEX
 8
TUBE_INSTANCE_1_3
 10
1.5867
 20
-9.8024
 30
15.6473
 70
192
 0
VERTEX
 8
TUBE_INSTANCE_1_3
 10
1.858
 20
-9.8906
 30
14.9207
 70
192
 0
VERTEX
 8
TUBE_INSTANCE_1_3
 10
1.858
 20
-9.8906
 30
14.9207
 70
192
 0
VERTEX
 8
TUBE_INSTANCE_1_3
 10
1.858
 20
-9.8906
 30
15.6473
 70
192
 0
VERTEX
 8
TUBE_INSTANCE_1_3
 10
1.858
 20
-9.8906
 30
15.6473
 70
192
 0
VERTEX
 8
TUBE_INSTANCE_1_3
 10
1.5867
 20
-9.9788
 30
14.9207
 70
192
 0
VERTEX
 8
TUBE_INSTANCE_1_3
 10
1.5867
 20
-9.9788
 30
14.9207
 70
192
 0
VERTEX
 8
TUBE_INSTANCE_1_3
 10
1.5867
 20
-9.9788
 30
15.6473
 70
192
 0
VERTEX
 8
TUBE_INSTANCE_1_3
 10
1.5867
 20
-9.9788
 30
15.6473
 70
192
 0
VERTEX
 8
TUBE_INSTANCE_1_3
 10
1.7544
 20
-9.7479
 30
14.9207
 70
192
 0
VERTEX
 8
TUBE_INSTANCE_1_3
 10
1.7544
 20
-9.7479
 30
14.9207
 70
192
 0
VERTEX
 8
TUBE_INSTANCE_1_3
 10
1.7544
 20
-9.7479
 30
15.6473
 70
192
 0
VERTEX
 8
TUBE_INSTANCE_1_3
 10
1.7544
 20
-9.7479
 30
15.6473
 70
192
 0
VERTEX
 8
TUBE_INSTANCE_1_3
 10
1.7544
 20
-10.0332
 30
15.6473
 70
192
 0
VERTEX
 8
TUBE_INSTANCE_1_3
 10
1.7544
 20
-10.0332
 30
14.9207
 70
192
 0
VERTEX
 8
TUBE_INSTANCE_1_3
 10
1.7544
 20
-10.0332
 30
14.9207
 70
192
 0
VERTEX
 8
TUBE_INSTANCE_1_3
 10
1.7544
 20
-10.0332
 30
15.6473
 70
192
 0
VERTEX
 8
TUBE_INSTANCE_1_3
 10
1.5867
 20
-9.8024
 30
14.9207
 70
192
 0
VERTEX
 8
TUBE_INSTANCE_1_3
 10
1.5867
 20
-9.8024
 30
14.9207
 70
192
 0
VERTEX
 8
TUBE_INSTANCE_1_3
 10
1.5867
 20
-9.8024
 30
15.6473
 70
192
 0
VERTEX
 8
TUBE_INSTANCE_1_3
 10
0
 20
0
 30
0
 70
128
 71
11
 72
12
 73
20
 74
19
 0
VERTEX
 8
TUBE_INSTANCE_1_3
 10
0
 20
0
 30
0
 70
128
 71
3
 72
4
 73
12
 74
11
 0
VERTEX
 8
TUBE_INSTANCE_1_3
 10
0
 20
0
 30
0
 70
128
 71
19
 72
20
 73
8
 74
7
 0
VERTEX
 8
TUBE_INSTANCE_1_3
 10
0
 20
0
 30
0
 70
128
 71
7
 72
8
 73
17
 74
16
 0
VERTEX
 8
TUBE_INSTANCE_1_3
 10
0
 20
0
 30
0
 70
128
 71
16
 72
17
 73
4
 74
3
 0
VERTEX
 8
TUBE_INSTANCE_1_3
 10
0
 20
0
 30
0
 70
128
 71
3
 72
11
 73
7
 74
16
 0
VERTEX
 8
TUBE_INSTANCE_1_3
 10
0
 20
0
 30
0
 70
128
 71
11
 72
19
 73
7
 74
7
 0
SEQEND
 0
POLYLINE
 8
TUBE_INSTANCE_3
 66
1
 10
0.0
 20
0.0
 30
0.0
 70
64
 71
20
 72
7
 0
VERTEX
 8
TUBE_INSTANCE_3
 10
1.5867
 20
-11.5718
 30
15.6473
 70
192
 0
VERTEX
 8
TUBE_INSTANCE_3
 10
1.858
 20
-11.6599
 30
14.9207
 70
192
 0
VERTEX
 8
TUBE_INSTANCE_3
 10
1.858
 20
-11.6599
 30
14.9207
 70
192
 0
VERTEX
 8
TUBE_INSTANCE_3
 10
1.858
 20
-11.6599
 30
15.6473
 70
192
 0
VERTEX
 8
TUBE_INSTANCE_3
 10
1.858
 20
-11.6599
 30
15.6473
 70
192
 0
VERTEX
 8
TUBE_INSTANCE_3
 10
1.5867
 20
-11.7481
 30
14.9207
 70
192
 0
VERTEX
 8
TUBE_INSTANCE_3
 10
1.5867
 20
-11.7481
 30
14.9207
 70
192
 0
VERTEX
 8
TUBE_INSTANCE_3
 10
1.5867
 20
-11.7481
 30
15.6473
 70
192
 0
VERTEX
 8
TUBE_INSTANCE_3
 10
1.5867
 20
-11.7481
 30
15.6473
 70
192
 0
VERTEX
 8
TUBE_INSTANCE_3
 10
1.7544
 20
-11.5173
 30
14.9207
 70
192
 0
VERTEX
 8
TUBE_INSTANCE_3
 10
1.7544
 20
-11.5173
 30
14.9207
 70
192
 0
VERTEX
 8
TUBE_INSTANCE_3
 10
1.7544
 20
-11.5173
 30
15.6473
 70
192
 0
VERTEX
 8
TUBE_INSTANCE_3
 10
1.7544
 20
-11.5173
 30
15.6473
 70
192
 0
VERTEX
 8
TUBE_INSTANCE_3
 10
1.7544
 20
-11.8026
 30
15.6473
 70
192
 0
VERTEX
 8
TUBE_INSTANCE_3
 10
1.7544
 20
-11.8026
 30
14.9207
 70
192
 0
VERTEX
 8
TUBE_INSTANCE_3
 10
1.7544
 20
-11.8026
 30
14.9207
 70
192
 0
VERTEX
 8
TUBE_INSTANCE_3
 10
1.7544
 20
-11.8026
 30
15.6473
 70
192
 0
VERTEX
 8
TUBE_INSTANCE_3
 10
1.5867
 20
-11.5718
 30
14.9207
 70
192
 0
VERTEX
 8
TUBE_INSTANCE_3
 10
1.5867
 20
-11.5718
 30
14.9207
 70
192
 0
VERTEX
 8
TUBE_INSTANCE_3
 10
1.5867
 20
-11.5718
 30
15.6473
 70
192
 0
VERTEX
 8
TUBE_INSTANCE_3
 10
0
 20
0
 30
0
 70
128
 71
11
 72
12
 73
20
 74
19
 0
VERTEX
 8
TUBE_INSTANCE_3
 10
0
 20
0
 30
0
 70
128
 71
3
 72
4
 73
12
 74
11
 0
VERTEX
 8
TUBE_INSTANCE_3
 10
0
 20
0
 30
0
 70
128
 71
19
 72
20
 73
8
 74
7
 0
VERTEX
 8
TUBE_INSTANCE_3
 10
0
 20
0
 30
0
 70
128
 71
7
 72
8
 73
17
 74
16
 0
VERTEX
 8
TUBE_INSTANCE_3
 10
0
 20
0
 30
0
 70
128
 71
16
 72
17
 73
4
 74
3
 0
VERTEX
 8
TUBE_INSTANCE_3
 10
0
 20
0
 30
0
 70
128
 71
3
 72
11
 73
7
 74
16
 0
VERTEX
 8
TUBE_INSTANCE_3
 10
0
 20
0
 30
0
 70
128
 71
11
 72
19
 73
7
 74
7
 0
SEQEND
 0
POLYLINE
 8
TUBE_3
 66
1
 10
0.0
 20
0.0
 30
0.0
 70
64
 71
20
 72
7
 0
VERTEX
 8
TUBE_3
 10
1.5867
 20
-13.3609
 30
15.6473
 70
192
 0
VERTEX
 8
TUBE_3
 10
1.858
 20
-13.4491
 30
14.9207
 70
192
 0
VERTEX
 8
TUBE_3
 10
1.858
 20
-13.4491
 30
14.9207
 70
192
 0
VERTEX
 8
TUBE_3
 10
1.858
 20
-13.4491
 30
15.6473
 70
192
 0
VERTEX
 8
TUBE_3
 10
1.858
 20
-13.4491
 30
15.6473
 70
192
 0
VERTEX
 8
TUBE_3
 10
1.5867
 20
-13.5373
 30
14.9207
 70
192
 0
VERTEX
 8
TUBE_3
 10
1.5867
 20
-13.5373
 30
14.9207
 70
192
 0
VERTEX
 8
TUBE_3
 10
1.5867
 20
-13.5373
 30
15.6473
 70
192
 0
VERTEX
 8
TUBE_3
 10
1.5867
 20
-13.5373
 30
15.6473
 70
192
 0
VERTEX
 8
TUBE_3
 10
1.7544
 20
-13.3064
 30
14.9207
 70
192
 0
VERTEX
 8
TUBE_3
 10
1.7544
 20
-13.3064
 30
14.9207
 70
192
 0
VERTEX
 8
TUBE_3
 10
1.7544
 20
-13.3064
 30
15.6473
 70
192
 0
VERTEX
 8
TUBE_3
 10
1.7544
 20
-13.3064
 30
15.6473
 70
192
 0
VERTEX
 8
TUBE_3
 10
1.7544
 20
-13.5918
 30
15.6473
 70
192
 0
VERTEX
 8
TUBE_3
 10
1.7544
 20
-13.5918
 30
14.9207
 70
192
 0
VERTEX
 8
TUBE_3
 10
1.7544
 20
-13.5918
 30
14.9207
 70
192
 0
VERTEX
 8
TUBE_3
 10
1.7544
 20
-13.5918
 30
15.6473
 70
192
 0
VERTEX
 8
TUBE_3
 10
1.5867
 20
-13.3609
 30
14.9207
 70
192
 0
VERTEX
 8
TUBE_3
 10
1.5867
 20
-13.3609
 30
14.9207
 70
192
 0
VERTEX
 8
TUBE_3
 10
1.5867
 20
-13.3609
 30
15.6473
 70
192
 0
VERTEX
 8
TUBE_3
 10
0
 20
0
 30
0
 70
128
 71
11
 72
12
 73
20
 74
19
 0
VERTEX
 8
TUBE_3
 10
0
 20
0
 30
0
 70
128
 71
3
 72
4
 73
12
 74
11
 0
VERTEX
 8
TUBE_3
 10
0
 20
0
 30
0
 70
128
 71
19
 72
20
 73
8
 74
7
 0
VERTEX
 8
TUBE_3
 10
0
 20
0
 30
0
 70
128
 71
7
 72
8
 73
17
 74
16
 0
VERTEX
 8
TUBE_3
 10
0
 20
0
 30
0
 70
128
 71
16
 72
17
 73
4
 74
3
 0
VERTEX
 8
TUBE_3
 10
0
 20
0
 30
0
 70
128
 71
3
 72
11
 73
7
 74
16
 0
VERTEX
 8
TUBE_3
 10
0
 20
0
 30
0
 70
128
 71
11
 72
19
 73
7
 74
7
 0
SEQEND
 0
POLYLINE
 8
TUBE_INSTANCE_14_2
 66
1
 10
0.0
 20
0.0
 30
0.0
 70
64
 71
20
 72
7
 0
VERTEX
 8
TUBE_INSTANCE_14_2
 10
3.3602
 20
13.575
 30
15.6473
 70
192
 0
VERTEX
 8
TUBE_INSTANCE_14_2
 10
3.6315
 20
13.4868
 30
14.9207
 70
192
 0
VERTEX
 8
TUBE_INSTANCE_14_2
 10
3.6315
 20
13.4868
 30
14.9207
 70
192
 0
VERTEX
 8
TUBE_INSTANCE_14_2
 10
3.6315
 20
13.4868
 30
15.6473
 70
192
 0
VERTEX
 8
TUBE_INSTANCE_14_2
 10
3.6315
 20
13.4868
 30
15.6473
 70
192
 0
VERTEX
 8
TUBE_INSTANCE_14_2
 10
3.3602
 20
13.3987
 30
14.9207
 70
192
 0
VERTEX
 8
TUBE_INSTANCE_14_2
 10
3.3602
 20
13.3987
 30
14.9207
 70
192
 0
VERTEX
 8
TUBE_INSTANCE_14_2
 10
3.3602
 20
13.3987
 30
15.6473
 70
192
 0
VERTEX
 8
TUBE_INSTANCE_14_2
 10
3.3602
 20
13.3987
 30
15.6473
 70
192
 0
VERTEX
 8
TUBE_INSTANCE_14_2
 10
3.5279
 20
13.6295
 30
14.9207
 70
192
 0
VERTEX
 8
TUBE_INSTANCE_14_2
 10
3.5279
 20
13.6295
 30
14.9207
 70
192
 0
VERTEX
 8
TUBE_INSTANCE_14_2
 10
3.5279
 20
13.6295
 30
15.6473
 70
192
 0
VERTEX
 8
TUBE_INSTANCE_14_2
 10
3.5279
 20
13.6295
 30
15.6473
 70
192
 0
VERTEX
 8
TUBE_INSTANCE_14_2
 10
3.5279
 20
13.3442
 30
15.6473
 70
192
 0
VERTEX
 8
TUBE_INSTANCE_14_2
 10
3.5279
 20
13.3442
 30
14.9207
 70
192
 0
VERTEX
 8
TUBE_INSTANCE_14_2
 10
3.5279
 20
13.3442
 30
14.9207
 70
192
 0
VERTEX
 8
TUBE_INSTANCE_14_2
 10
3.5279
 20
13.3442
 30
15.6473
 70
192
 0
VERTEX
 8
TUBE_INSTANCE_14_2
 10
3.3602
 20
13.575
 30
14.9207
 70
192
 0
VERTEX
 8
TUBE_INSTANCE_14_2
 10
3.3602
 20
13.575
 30
14.9207
 70
192
 0
VERTEX
 8
TUBE_INSTANCE_14_2
 10
3.3602
 20
13.575
 30
15.6473
 70
192
 0
VERTEX
 8
TUBE_INSTANCE_14_2
 10
0
 20
0
 30
0
 70
128
 71
11
 72
12
 73
20
 74
19
 0
VERTEX
 8
TUBE_INSTANCE_14_2
 10
0
 20
0
 30
0
 70
128
 71
3
 72
4
 73
12
 74
11
 0
VERTEX
 8
TUBE_INSTANCE_14_2
 10
0
 20
0
 30
0
 70
128
 71
19
 72
20
 73
8
 74
7
 0
VERTEX
 8
TUBE_INSTANCE_14_2
 10
0
 20
0
 30
0
 70
128
 71
7
 72
8
 73
17
 74
16
 0
VERTEX
 8
TUBE_INSTANCE_14_2
 10
0
 20
0
 30
0
 70
128
 71
16
 72
17
 73
4
 74
3
 0
VERTEX
 8
TUBE_INSTANCE_14_2
 10
0
 20
0
 30
0
 70
128
 71
3
 72
11
 73
7
 74
16
 0
VERTEX
 8
TUBE_INSTANCE_14_2
 10
0
 20
0
 30
0
 70
128
 71
11
 72
19
 73
7
 74
7
 0
SEQEND
 0
POLYLINE
 8
TUBE_INSTANCE_13_2
 66
1
 10
0.0
 20
0.0
 30
0.0
 70
64
 71
20
 72
7
 0
VERTEX
 8
TUBE_INSTANCE_13_2
 10
3.3602
 20
11.7503
 30
15.6473
 70
192
 0
VERTEX
 8
TUBE_INSTANCE_13_2
 10
3.6315
 20
11.6621
 30
14.9207
 70
192
 0
VERTEX
 8
TUBE_INSTANCE_13_2
 10
3.6315
 20
11.6621
 30
14.9207
 70
192
 0
VERTEX
 8
TUBE_INSTANCE_13_2
 10
3.6315
 20
11.6621
 30
15.6473
 70
192
 0
VERTEX
 8
TUBE_INSTANCE_13_2
 10
3.6315
 20
11.6621
 30
15.6473
 70
192
 0
VERTEX
 8
TUBE_INSTANCE_13_2
 10
3.3602
 20
11.574
 30
14.9207
 70
192
 0
VERTEX
 8
TUBE_INSTANCE_13_2
 10
3.3602
 20
11.574
 30
14.9207
 70
192
 0
VERTEX
 8
TUBE_INSTANCE_13_2
 10
3.3602
 20
11.574
 30
15.6473
 70
192
 0
VERTEX
 8
TUBE_INSTANCE_13_2
 10
3.3602
 20
11.574
 30
15.6473
 70
192
 0
VERTEX
 8
TUBE_INSTANCE_13_2
 10
3.5279
 20
11.8048
 30
14.9207
 70
192
 0
VERTEX
 8
TUBE_INSTANCE_13_2
 10
3.5279
 20
11.8048
 30
14.9207
 70
192
 0
VERTEX
 8
TUBE_INSTANCE_13_2
 10
3.5279
 20
11.8048
 30
15.6473
 70
192
 0
VERTEX
 8
TUBE_INSTANCE_13_2
 10
3.5279
 20
11.8048
 30
15.6473
 70
192
 0
VERTEX
 8
TUBE_INSTANCE_13_2
 10
3.5279
 20
11.5195
 30
15.6473
 70
192
 0
VERTEX
 8
TUBE_INSTANCE_13_2
 10
3.5279
 20
11.5195
 30
14.9207
 70
192
 0
VERTEX
 8
TUBE_INSTANCE_13_2
 10
3.5279
 20
11.5195
 30
14.9207
 70
192
 0
VERTEX
 8
TUBE_INSTANCE_13_2
 10
3.5279
 20
11.5195
 30
15.6473
 70
192
 0
VERTEX
 8
TUBE_INSTANCE_13_2
 10
3.3602
 20
11.7503
 30
14.9207
 70
192
 0
VERTEX
 8
TUBE_INSTANCE_13_2
 10
3.3602
 20
11.7503
 30
14.9207
 70
192
 0
VERTEX
 8
TUBE_INSTANCE_13_2
 10
3.3602
 20
11.7503
 30
15.6473
 70
192
 0
VERTEX
 8
TUBE_INSTANCE_13_2
 10
0
 20
0
 30
0
 70
128
 71
11
 72
12
 73
20
 74
19
 0
VERTEX
 8
TUBE_INSTANCE_13_2
 10
0
 20
0
 30
0
 70
128
 71
3
 72
4
 73
12
 74
11
 0
VERTEX
 8
TUBE_INSTANCE_13_2
 10
0
 20
0
 30
0
 70
128
 71
19
 72
20
 73
8
 74
7
 0
VERTEX
 8
TUBE_INSTANCE_13_2
 10
0
 20
0
 30
0
 70
128
 71
7
 72
8
 73
17
 74
16
 0
VERTEX
 8
TUBE_INSTANCE_13_2
 10
0
 20
0
 30
0
 70
128
 71
16
 72
17
 73
4
 74
3
 0
VERTEX
 8
TUBE_INSTANCE_13_2
 10
0
 20
0
 30
0
 70
128
 71
3
 72
11
 73
7
 74
16
 0
VERTEX
 8
TUBE_INSTANCE_13_2
 10
0
 20
0
 30
0
 70
128
 71
11
 72
19
 73
7
 74
7
 0
SEQEND
 0
POLYLINE
 8
TUBE_INSTANCE_12_2
 66
1
 10
0.0
 20
0.0
 30
0.0
 70
64
 71
20
 72
7
 0
VERTEX
 8
TUBE_INSTANCE_12_2
 10
3.3602
 20
9.9231
 30
15.6473
 70
192
 0
VERTEX
 8
TUBE_INSTANCE_12_2
 10
3.6315
 20
9.8349
 30
14.9207
 70
192
 0
VERTEX
 8
TUBE_INSTANCE_12_2
 10
3.6315
 20
9.8349
 30
14.9207
 70
192
 0
VERTEX
 8
TUBE_INSTANCE_12_2
 10
3.6315
 20
9.8349
 30
15.6473
 70
192
 0
VERTEX
 8
TUBE_INSTANCE_12_2
 10
3.6315
 20
9.8349
 30
15.6473
 70
192
 0
VERTEX
 8
TUBE_INSTANCE_12_2
 10
3.3602
 20
9.7467
 30
14.9207
 70
192
 0
VERTEX
 8
TUBE_INSTANCE_12_2
 10
3.3602
 20
9.7467
 30
14.9207
 70
192
 0
VERTEX
 8
TUBE_INSTANCE_12_2
 10
3.3602
 20
9.7467
 30
15.6473
 70
192
 0
VERTEX
 8
TUBE_INSTANCE_12_2
 10
3.3602
 20
9.7467
 30
15.6473
 70
192
 0
VERTEX
 8
TUBE_INSTANCE_12_2
 10
3.5279
 20
9.9775
 30
14.9207
 70
192
 0
VERTEX
 8
TUBE_INSTANCE_12_2
 10
3.5279
 20
9.9775
 30
14.9207
 70
192
 0
VERTEX
 8
TUBE_INSTANCE_12_2
 10
3.5279
 20
9.9775
 30
15.6473
 70
192
 0
VERTEX
 8
TUBE_INSTANCE_12_2
 10
3.5279
 20
9.9775
 30
15.6473
 70
192
 0
VERTEX
 8
TUBE_INSTANCE_12_2
 10
3.5279
 20
9.6922
 30
15.6473
 70
192
 0
VERTEX
 8
TUBE_INSTANCE_12_2
 10
3.5279
 20
9.6922
 30
14.9207
 70
192
 0
VERTEX
 8
TUBE_INSTANCE_12_2
 10
3.5279
 20
9.6922
 30
14.9207
 70
192
 0
VERTEX
 8
TUBE_INSTANCE_12_2
 10
3.5279
 20
9.6922
 30
15.6473
 70
192
 0
VERTEX
 8
TUBE_INSTANCE_12_2
 10
3.3602
 20
9.9231
 30
14.9207
 70
192
 0
VERTEX
 8
TUBE_INSTANCE_12_2
 10
3.3602
 20
9.9231
 30
14.9207
 70
192
 0
VERTEX
 8
TUBE_INSTANCE_12_2
 10
3.3602
 20
9.9231
 30
15.6473
 70
192
 0
VERTEX
 8
TUBE_INSTANCE_12_2
 10
0
 20
0
 30
0
 70
128
 71
11
 72
12
 73
20
 74
19
 0
VERTEX
 8
TUBE_INSTANCE_12_2
 10
0
 20
0
 30
0
 70
128
 71
3
 72
4
 73
12
 74
11
 0
VERTEX
 8
TUBE_INSTANCE_12_2
 10
0
 20
0
 30
0
 70
128
 71
19
 72
20
 73
8
 74
7
 0
VERTEX
 8
TUBE_INSTANCE_12_2
 10
0
 20
0
 30
0
 70
128
 71
7
 72
8
 73
17
 74
16
 0
VERTEX
 8
TUBE_INSTANCE_12_2
 10
0
 20
0
 30
0
 70
128
 71
16
 72
17
 73
4
 74
3
 0
VERTEX
 8
TUBE_INSTANCE_12_2
 10
0
 20
0
 30
0
 70
128
 71
3
 72
11
 73
7
 74
16
 0
VERTEX
 8
TUBE_INSTANCE_12_2
 10
0
 20
0
 30
0
 70
128
 71
11
 72
19
 73
7
 74
7
 0
SEQEND
 0
POLYLINE
 8
TUBE_INSTANCE_11_2
 66
1
 10
0.0
 20
0.0
 30
0.0
 70
64
 71
20
 72
7
 0
VERTEX
 8
TUBE_INSTANCE_11_2
 10
3.3602
 20
8.1242
 30
15.6473
 70
192
 0
VERTEX
 8
TUBE_INSTANCE_11_2
 10
3.6315
 20
8.036
 30
14.9207
 70
192
 0
VERTEX
 8
TUBE_INSTANCE_11_2
 10
3.6315
 20
8.036
 30
14.9207
 70
192
 0
VERTEX
 8
TUBE_INSTANCE_11_2
 10
3.6315
 20
8.036
 30
15.6473
 70
192
 0
VERTEX
 8
TUBE_INSTANCE_11_2
 10
3.6315
 20
8.036
 30
15.6473
 70
192
 0
VERTEX
 8
TUBE_INSTANCE_11_2
 10
3.3602
 20
7.9479
 30
14.9207
 70
192
 0
VERTEX
 8
TUBE_INSTANCE_11_2
 10
3.3602
 20
7.9479
 30
14.9207
 70
192
 0
VERTEX
 8
TUBE_INSTANCE_11_2
 10
3.3602
 20
7.9479
 30
15.6473
 70
192
 0
VERTEX
 8
TUBE_INSTANCE_11_2
 10
3.3602
 20
7.9479
 30
15.6473
 70
192
 0
VERTEX
 8
TUBE_INSTANCE_11_2
 10
3.5279
 20
8.1787
 30
14.9207
 70
192
 0
VERTEX
 8
TUBE_INSTANCE_11_2
 10
3.5279
 20
8.1787
 30
14.9207
 70
192
 0
VERTEX
 8
TUBE_INSTANCE_11_2
 10
3.5279
 20
8.1787
 30
15.6473
 70
192
 0
VERTEX
 8
TUBE_INSTANCE_11_2
 10
3.5279
 20
8.1787
 30
15.6473
 70
192
 0
VERTEX
 8
TUBE_INSTANCE_11_2
 10
3.5279
 20
7.8934
 30
15.6473
 70
192
 0
VERTEX
 8
TUBE_INSTANCE_11_2
 10
3.5279
 20
7.8934
 30
14.9207
 70
192
 0
VERTEX
 8
TUBE_INSTANCE_11_2
 10
3.5279
 20
7.8934
 30
14.9207
 70
192
 0
VERTEX
 8
TUBE_INSTANCE_11_2
 10
3.5279
 20
7.8934
 30
15.6473
 70
192
 0
VERTEX
 8
TUBE_INSTANCE_11_2
 10
3.3602
 20
8.1242
 30
14.9207
 70
192
 0
VERTEX
 8
TUBE_INSTANCE_11_2
 10
3.3602
 20
8.1242
 30
14.9207
 70
192
 0
VERTEX
 8
TUBE_INSTANCE_11_2
 10
3.3602
 20
8.1242
 30
15.6473
 70
192
 0
VERTEX
 8
TUBE_INSTANCE_11_2
 10
0
 20
0
 30
0
 70
128
 71
11
 72
12
 73
20
 74
19
 0
VERTEX
 8
TUBE_INSTANCE_11_2
 10
0
 20
0
 30
0
 70
128
 71
3
 72
4
 73
12
 74
11
 0
VERTEX
 8
TUBE_INSTANCE_11_2
 10
0
 20
0
 30
0
 70
128
 71
19
 72
20
 73
8
 74
7
 0
VERTEX
 8
TUBE_INSTANCE_11_2
 10
0
 20
0
 30
0
 70
128
 71
7
 72
8
 73
17
 74
16
 0
VERTEX
 8
TUBE_INSTANCE_11_2
 10
0
 20
0
 30
0
 70
128
 71
16
 72
17
 73
4
 74
3
 0
VERTEX
 8
TUBE_INSTANCE_11_2
 10
0
 20
0
 30
0
 70
128
 71
3
 72
11
 73
7
 74
16
 0
VERTEX
 8
TUBE_INSTANCE_11_2
 10
0
 20
0
 30
0
 70
128
 71
11
 72
19
 73
7
 74
7
 0
SEQEND
 0
POLYLINE
 8
TUBE_INSTANCE_10_2
 66
1
 10
0.0
 20
0.0
 30
0.0
 70
64
 71
20
 72
7
 0
VERTEX
 8
TUBE_INSTANCE_10_2
 10
3.3602
 20
6.2861
 30
15.6473
 70
192
 0
VERTEX
 8
TUBE_INSTANCE_10_2
 10
3.6315
 20
6.198
 30
14.9207
 70
192
 0
VERTEX
 8
TUBE_INSTANCE_10_2
 10
3.6315
 20
6.198
 30
14.9207
 70
192
 0
VERTEX
 8
TUBE_INSTANCE_10_2
 10
3.6315
 20
6.198
 30
15.6473
 70
192
 0
VERTEX
 8
TUBE_INSTANCE_10_2
 10
3.6315
 20
6.198
 30
15.6473
 70
192
 0
VERTEX
 8
TUBE_INSTANCE_10_2
 10
3.3602
 20
6.1098
 30
14.9207
 70
192
 0
VERTEX
 8
TUBE_INSTANCE_10_2
 10
3.3602
 20
6.1098
 30
14.9207
 70
192
 0
VERTEX
 8
TUBE_INSTANCE_10_2
 10
3.3602
 20
6.1098
 30
15.6473
 70
192
 0
VERTEX
 8
TUBE_INSTANCE_10_2
 10
3.3602
 20
6.1098
 30
15.6473
 70
192
 0
VERTEX
 8
TUBE_INSTANCE_10_2
 10
3.5279
 20
6.3406
 30
14.9207
 70
192
 0
VERTEX
 8
TUBE_INSTANCE_10_2
 10
3.5279
 20
6.3406
 30
14.9207
 70
192
 0
VERTEX
 8
TUBE_INSTANCE_10_2
 10
3.5279
 20
6.3406
 30
15.6473
 70
192
 0
VERTEX
 8
TUBE_INSTANCE_10_2
 10
3.5279
 20
6.3406
 30
15.6473
 70
192
 0
VERTEX
 8
TUBE_INSTANCE_10_2
 10
3.5279
 20
6.0553
 30
15.6473
 70
192
 0
VERTEX
 8
TUBE_INSTANCE_10_2
 10
3.5279
 20
6.0553
 30
14.9207
 70
192
 0
VERTEX
 8
TUBE_INSTANCE_10_2
 10
3.5279
 20
6.0553
 30
14.9207
 70
192
 0
VERTEX
 8
TUBE_INSTANCE_10_2
 10
3.5279
 20
6.0553
 30
15.6473
 70
192
 0
VERTEX
 8
TUBE_INSTANCE_10_2
 10
3.3602
 20
6.2861
 30
14.9207
 70
192
 0
VERTEX
 8
TUBE_INSTANCE_10_2
 10
3.3602
 20
6.2861
 30
14.9207
 70
192
 0
VERTEX
 8
TUBE_INSTANCE_10_2
 10
3.3602
 20
6.2861
 30
15.6473
 70
192
 0
VERTEX
 8
TUBE_INSTANCE_10_2
 10
0
 20
0
 30
0
 70
128
 71
11
 72
12
 73
20
 74
19
 0
VERTEX
 8
TUBE_INSTANCE_10_2
 10
0
 20
0
 30
0
 70
128
 71
3
 72
4
 73
12
 74
11
 0
VERTEX
 8
TUBE_INSTANCE_10_2
 10
0
 20
0
 30
0
 70
128
 71
19
 72
20
 73
8
 74
7
 0
VERTEX
 8
TUBE_INSTANCE_10_2
 10
0
 20
0
 30
0
 70
128
 71
7
 72
8
 73
17
 74
16
 0
VERTEX
 8
TUBE_INSTANCE_10_2
 10
0
 20
0
 30
0
 70
128
 71
16
 72
17
 73
4
 74
3
 0
VERTEX
 8
TUBE_INSTANCE_10_2
 10
0
 20
0
 30
0
 70
128
 71
3
 72
11
 73
7
 74
16
 0
VERTEX
 8
TUBE_INSTANCE_10_2
 10
0
 20
0
 30
0
 70
128
 71
11
 72
19
 73
7
 74
7
 0
SEQEND
 0
POLYLINE
 8
TUBE_INSTANCE_9_2
 66
1
 10
0.0
 20
0.0
 30
0.0
 70
64
 71
20
 72
7
 0
VERTEX
 8
TUBE_INSTANCE_9_2
 10
3.3602
 20
4.4401
 30
15.6473
 70
192
 0
VERTEX
 8
TUBE_INSTANCE_9_2
 10
3.6315
 20
4.3519
 30
14.9207
 70
192
 0
VERTEX
 8
TUBE_INSTANCE_9_2
 10
3.6315
 20
4.3519
 30
14.9207
 70
192
 0
VERTEX
 8
TUBE_INSTANCE_9_2
 10
3.6315
 20
4.3519
 30
15.6473
 70
192
 0
VERTEX
 8
TUBE_INSTANCE_9_2
 10
3.6315
 20
4.3519
 30
15.6473
 70
192
 0
VERTEX
 8
TUBE_INSTANCE_9_2
 10
3.3602
 20
4.2637
 30
14.9207
 70
192
 0
VERTEX
 8
TUBE_INSTANCE_9_2
 10
3.3602
 20
4.2637
 30
14.9207
 70
192
 0
VERTEX
 8
TUBE_INSTANCE_9_2
 10
3.3602
 20
4.2637
 30
15.6473
 70
192
 0
VERTEX
 8
TUBE_INSTANCE_9_2
 10
3.3602
 20
4.2637
 30
15.6473
 70
192
 0
VERTEX
 8
TUBE_INSTANCE_9_2
 10
3.5279
 20
4.4946
 30
14.9207
 70
192
 0
VERTEX
 8
TUBE_INSTANCE_9_2
 10
3.5279
 20
4.4946
 30
14.9207
 70
192
 0
VERTEX
 8
TUBE_INSTANCE_9_2
 10
3.5279
 20
4.4946
 30
15.6473
 70
192
 0
VERTEX
 8
TUBE_INSTANCE_9_2
 10
3.5279
 20
4.4946
 30
15.6473
 70
192
 0
VERTEX
 8
TUBE_INSTANCE_9_2
 10
3.5279
 20
4.2092
 30
15.6473
 70
192
 0
VERTEX
 8
TUBE_INSTANCE_9_2
 10
3.5279
 20
4.2092
 30
14.9207
 70
192
 0
VERTEX
 8
TUBE_INSTANCE_9_2
 10
3.5279
 20
4.2092
 30
14.9207
 70
192
 0
VERTEX
 8
TUBE_INSTANCE_9_2
 10
3.5279
 20
4.2092
 30
15.6473
 70
192
 0
VERTEX
 8
TUBE_INSTANCE_9_2
 10
3.3602
 20
4.4401
 30
14.9207
 70
192
 0
VERTEX
 8
TUBE_INSTANCE_9_2
 10
3.3602
 20
4.4401
 30
14.9207
 70
192
 0
VERTEX
 8
TUBE_INSTANCE_9_2
 10
3.3602
 20
4.4401
 30
15.6473
 70
192
 0
VERTEX
 8
TUBE_INSTANCE_9_2
 10
0
 20
0
 30
0
 70
128
 71
11
 72
12
 73
20
 74
19
 0
VERTEX
 8
TUBE_INSTANCE_9_2
 10
0
 20
0
 30
0
 70
128
 71
3
 72
4
 73
12
 74
11
 0
VERTEX
 8
TUBE_INSTANCE_9_2
 10
0
 20
0
 30
0
 70
128
 71
19
 72
20
 73
8
 74
7
 0
VERTEX
 8
TUBE_INSTANCE_9_2
 10
0
 20
0
 30
0
 70
128
 71
7
 72
8
 73
17
 74
16
 0
VERTEX
 8
TUBE_INSTANCE_9_2
 10
0
 20
0
 30
0
 70
128
 71
16
 72
17
 73
4
 74
3
 0
VERTEX
 8
TUBE_INSTANCE_9_2
 10
0
 20
0
 30
0
 70
128
 71
3
 72
11
 73
7
 74
16
 0
VERTEX
 8
TUBE_INSTANCE_9_2
 10
0
 20
0
 30
0
 70
128
 71
11
 72
19
 73
7
 74
7
 0
SEQEND
 0
POLYLINE
 8
TUBE_INSTANCE_8_2
 66
1
 10
0.0
 20
0.0
 30
0.0
 70
64
 71
20
 72
7
 0
VERTEX
 8
TUBE_INSTANCE_8_2
 10
3.3602
 20
2.6774
 30
15.6473
 70
192
 0
VERTEX
 8
TUBE_INSTANCE_8_2
 10
3.6315
 20
2.5892
 30
14.9207
 70
192
 0
VERTEX
 8
TUBE_INSTANCE_8_2
 10
3.6315
 20
2.5892
 30
14.9207
 70
192
 0
VERTEX
 8
TUBE_INSTANCE_8_2
 10
3.6315
 20
2.5892
 30
15.6473
 70
192
 0
VERTEX
 8
TUBE_INSTANCE_8_2
 10
3.6315
 20
2.5892
 30
15.6473
 70
192
 0
VERTEX
 8
TUBE_INSTANCE_8_2
 10
3.3602
 20
2.501
 30
14.9207
 70
192
 0
VERTEX
 8
TUBE_INSTANCE_8_2
 10
3.3602
 20
2.501
 30
14.9207
 70
192
 0
VERTEX
 8
TUBE_INSTANCE_8_2
 10
3.3602
 20
2.501
 30
15.6473
 70
192
 0
VERTEX
 8
TUBE_INSTANCE_8_2
 10
3.3602
 20
2.501
 30
15.6473
 70
192
 0
VERTEX
 8
TUBE_INSTANCE_8_2
 10
3.5279
 20
2.7318
 30
14.9207
 70
192
 0
VERTEX
 8
TUBE_INSTANCE_8_2
 10
3.5279
 20
2.7318
 30
14.9207
 70
192
 0
VERTEX
 8
TUBE_INSTANCE_8_2
 10
3.5279
 20
2.7318
 30
15.6473
 70
192
 0
VERTEX
 8
TUBE_INSTANCE_8_2
 10
3.5279
 20
2.7318
 30
15.6473
 70
192
 0
VERTEX
 8
TUBE_INSTANCE_8_2
 10
3.5279
 20
2.4465
 30
15.6473
 70
192
 0
VERTEX
 8
TUBE_INSTANCE_8_2
 10
3.5279
 20
2.4465
 30
14.9207
 70
192
 0
VERTEX
 8
TUBE_INSTANCE_8_2
 10
3.5279
 20
2.4465
 30
14.9207
 70
192
 0
VERTEX
 8
TUBE_INSTANCE_8_2
 10
3.5279
 20
2.4465
 30
15.6473
 70
192
 0
VERTEX
 8
TUBE_INSTANCE_8_2
 10
3.3602
 20
2.6774
 30
14.9207
 70
192
 0
VERTEX
 8
TUBE_INSTANCE_8_2
 10
3.3602
 20
2.6774
 30
14.9207
 70
192
 0
VERTEX
 8
TUBE_INSTANCE_8_2
 10
3.3602
 20
2.6774
 30
15.6473
 70
192
 0
VERTEX
 8
TUBE_INSTANCE_8_2
 10
0
 20
0
 30
0
 70
128
 71
11
 72
12
 73
20
 74
19
 0
VERTEX
 8
TUBE_INSTANCE_8_2
 10
0
 20
0
 30
0
 70
128
 71
3
 72
4
 73
12
 74
11
 0
VERTEX
 8
TUBE_INSTANCE_8_2
 10
0
 20
0
 30
0
 70
128
 71
19
 72
20
 73
8
 74
7
 0
VERTEX
 8
TUBE_INSTANCE_8_2
 10
0
 20
0
 30
0
 70
128
 71
7
 72
8
 73
17
 74
16
 0
VERTEX
 8
TUBE_INSTANCE_8_2
 10
0
 20
0
 30
0
 70
128
 71
16
 72
17
 73
4
 74
3
 0
VERTEX
 8
TUBE_INSTANCE_8_2
 10
0
 20
0
 30
0
 70
128
 71
3
 72
11
 73
7
 74
16
 0
VERTEX
 8
TUBE_INSTANCE_8_2
 10
0
 20
0
 30
0
 70
128
 71
11
 72
19
 73
7
 74
7
 0
SEQEND
 0
POLYLINE
 8
TUBE_INSTANCE_7_2
 66
1
 10
0.0
 20
0.0
 30
0.0
 70
64
 71
20
 72
7
 0
VERTEX
 8
TUBE_INSTANCE_7_2
 10
3.3602
 20
0.9035
 30
15.6473
 70
192
 0
VERTEX
 8
TUBE_INSTANCE_7_2
 10
3.6315
 20
0.8153
 30
14.9207
 70
192
 0
VERTEX
 8
TUBE_INSTANCE_7_2
 10
3.6315
 20
0.8153
 30
14.9207
 70
192
 0
VERTEX
 8
TUBE_INSTANCE_7_2
 10
3.6315
 20
0.8153
 30
15.6473
 70
192
 0
VERTEX
 8
TUBE_INSTANCE_7_2
 10
3.6315
 20
0.8153
 30
15.6473
 70
192
 0
VERTEX
 8
TUBE_INSTANCE_7_2
 10
3.3602
 20
0.7272
 30
14.9207
 70
192
 0
VERTEX
 8
TUBE_INSTANCE_7_2
 10
3.3602
 20
0.7272
 30
14.9207
 70
192
 0
VERTEX
 8
TUBE_INSTANCE_7_2
 10
3.3602
 20
0.7272
 30
15.6473
 70
192
 0
VERTEX
 8
TUBE_INSTANCE_7_2
 10
3.3602
 20
0.7272
 30
15.6473
 70
192
 0
VERTEX
 8
TUBE_INSTANCE_7_2
 10
3.5279
 20
0.958
 30
14.9207
 70
192
 0
VERTEX
 8
TUBE_INSTANCE_7_2
 10
3.5279
 20
0.958
 30
14.9207
 70
192
 0
VERTEX
 8
TUBE_INSTANCE_7_2
 10
3.5279
 20
0.958
 30
15.6473
 70
192
 0
VERTEX
 8
TUBE_INSTANCE_7_2
 10
3.5279
 20
0.958
 30
15.6473
 70
192
 0
VERTEX
 8
TUBE_INSTANCE_7_2
 10
3.5279
 20
0.6727
 30
15.6473
 70
192
 0
VERTEX
 8
TUBE_INSTANCE_7_2
 10
3.5279
 20
0.6727
 30
14.9207
 70
192
 0
VERTEX
 8
TUBE_INSTANCE_7_2
 10
3.5279
 20
0.6727
 30
14.9207
 70
192
 0
VERTEX
 8
TUBE_INSTANCE_7_2
 10
3.5279
 20
0.6727
 30
15.6473
 70
192
 0
VERTEX
 8
TUBE_INSTANCE_7_2
 10
3.3602
 20
0.9035
 30
14.9207
 70
192
 0
VERTEX
 8
TUBE_INSTANCE_7_2
 10
3.3602
 20
0.9035
 30
14.9207
 70
192
 0
VERTEX
 8
TUBE_INSTANCE_7_2
 10
3.3602
 20
0.9035
 30
15.6473
 70
192
 0
VERTEX
 8
TUBE_INSTANCE_7_2
 10
0
 20
0
 30
0
 70
128
 71
11
 72
12
 73
20
 74
19
 0
VERTEX
 8
TUBE_INSTANCE_7_2
 10
0
 20
0
 30
0
 70
128
 71
3
 72
4
 73
12
 74
11
 0
VERTEX
 8
TUBE_INSTANCE_7_2
 10
0
 20
0
 30
0
 70
128
 71
19
 72
20
 73
8
 74
7
 0
VERTEX
 8
TUBE_INSTANCE_7_2
 10
0
 20
0
 30
0
 70
128
 71
7
 72
8
 73
17
 74
16
 0
VERTEX
 8
TUBE_INSTANCE_7_2
 10
0
 20
0
 30
0
 70
128
 71
16
 72
17
 73
4
 74
3
 0
VERTEX
 8
TUBE_INSTANCE_7_2
 10
0
 20
0
 30
0
 70
128
 71
3
 72
11
 73
7
 74
16
 0
VERTEX
 8
TUBE_INSTANCE_7_2
 10
0
 20
0
 30
0
 70
128
 71
11
 72
19
 73
7
 74
7
 0
SEQEND
 0
POLYLINE
 8
TUBE_INSTANCE_6_2
 66
1
 10
0.0
 20
0.0
 30
0.0
 70
64
 71
20
 72
7
 0
VERTEX
 8
TUBE_INSTANCE_6_2
 10
3.3602
 20
-0.9033
 30
15.6473
 70
192
 0
VERTEX
 8
TUBE_INSTANCE_6_2
 10
3.6315
 20
-0.9915
 30
14.9207
 70
192
 0
VERTEX
 8
TUBE_INSTANCE_6_2
 10
3.6315
 20
-0.9915
 30
14.9207
 70
192
 0
VERTEX
 8
TUBE_INSTANCE_6_2
 10
3.6315
 20
-0.9915
 30
15.6473
 70
192
 0
VERTEX
 8
TUBE_INSTANCE_6_2
 10
3.6315
 20
-0.9915
 30
15.6473
 70
192
 0
VERTEX
 8
TUBE_INSTANCE_6_2
 10
3.3602
 20
-1.0796
 30
14.9207
 70
192
 0
VERTEX
 8
TUBE_INSTANCE_6_2
 10
3.3602
 20
-1.0796
 30
14.9207
 70
192
 0
VERTEX
 8
TUBE_INSTANCE_6_2
 10
3.3602
 20
-1.0796
 30
15.6473
 70
192
 0
VERTEX
 8
TUBE_INSTANCE_6_2
 10
3.3602
 20
-1.0796
 30
15.6473
 70
192
 0
VERTEX
 8
TUBE_INSTANCE_6_2
 10
3.5279
 20
-0.8488
 30
14.9207
 70
192
 0
VERTEX
 8
TUBE_INSTANCE_6_2
 10
3.5279
 20
-0.8488
 30
14.9207
 70
192
 0
VERTEX
 8
TUBE_INSTANCE_6_2
 10
3.5279
 20
-0.8488
 30
15.6473
 70
192
 0
VERTEX
 8
TUBE_INSTANCE_6_2
 10
3.5279
 20
-0.8488
 30
15.6473
 70
192
 0
VERTEX
 8
TUBE_INSTANCE_6_2
 10
3.5279
 20
-1.1341
 30
15.6473
 70
192
 0
VERTEX
 8
TUBE_INSTANCE_6_2
 10
3.5279
 20
-1.1341
 30
14.9207
 70
192
 0
VERTEX
 8
TUBE_INSTANCE_6_2
 10
3.5279
 20
-1.1341
 30
14.9207
 70
192
 0
VERTEX
 8
TUBE_INSTANCE_6_2
 10
3.5279
 20
-1.1341
 30
15.6473
 70
192
 0
VERTEX
 8
TUBE_INSTANCE_6_2
 10
3.3602
 20
-0.9033
 30
14.9207
 70
192
 0
VERTEX
 8
TUBE_INSTANCE_6_2
 10
3.3602
 20
-0.9033
 30
14.9207
 70
192
 0
VERTEX
 8
TUBE_INSTANCE_6_2
 10
3.3602
 20
-0.9033
 30
15.6473
 70
192
 0
VERTEX
 8
TUBE_INSTANCE_6_2
 10
0
 20
0
 30
0
 70
128
 71
11
 72
12
 73
20
 74
19
 0
VERTEX
 8
TUBE_INSTANCE_6_2
 10
0
 20
0
 30
0
 70
128
 71
3
 72
4
 73
12
 74
11
 0
VERTEX
 8
TUBE_INSTANCE_6_2
 10
0
 20
0
 30
0
 70
128
 71
19
 72
20
 73
8
 74
7
 0
VERTEX
 8
TUBE_INSTANCE_6_2
 10
0
 20
0
 30
0
 70
128
 71
7
 72
8
 73
17
 74
16
 0
VERTEX
 8
TUBE_INSTANCE_6_2
 10
0
 20
0
 30
0
 70
128
 71
16
 72
17
 73
4
 74
3
 0
VERTEX
 8
TUBE_INSTANCE_6_2
 10
0
 20
0
 30
0
 70
128
 71
3
 72
11
 73
7
 74
16
 0
VERTEX
 8
TUBE_INSTANCE_6_2
 10
0
 20
0
 30
0
 70
128
 71
11
 72
19
 73
7
 74
7
 0
SEQEND
 0
POLYLINE
 8
TUBE_INSTANCE_5_2
 66
1
 10
0.0
 20
0.0
 30
0.0
 70
64
 71
20
 72
7
 0
VERTEX
 8
TUBE_INSTANCE_5_2
 10
3.3602
 20
-2.6809
 30
15.6473
 70
192
 0
VERTEX
 8
TUBE_INSTANCE_5_2
 10
3.6315
 20
-2.7691
 30
14.9207
 70
192
 0
VERTEX
 8
TUBE_INSTANCE_5_2
 10
3.6315
 20
-2.7691
 30
14.9207
 70
192
 0
VERTEX
 8
TUBE_INSTANCE_5_2
 10
3.6315
 20
-2.7691
 30
15.6473
 70
192
 0
VERTEX
 8
TUBE_INSTANCE_5_2
 10
3.6315
 20
-2.7691
 30
15.6473
 70
192
 0
VERTEX
 8
TUBE_INSTANCE_5_2
 10
3.3602
 20
-2.8573
 30
14.9207
 70
192
 0
VERTEX
 8
TUBE_INSTANCE_5_2
 10
3.3602
 20
-2.8573
 30
14.9207
 70
192
 0
VERTEX
 8
TUBE_INSTANCE_5_2
 10
3.3602
 20
-2.8573
 30
15.6473
 70
192
 0
VERTEX
 8
TUBE_INSTANCE_5_2
 10
3.3602
 20
-2.8573
 30
15.6473
 70
192
 0
VERTEX
 8
TUBE_INSTANCE_5_2
 10
3.5279
 20
-2.6264
 30
14.9207
 70
192
 0
VERTEX
 8
TUBE_INSTANCE_5_2
 10
3.5279
 20
-2.6264
 30
14.9207
 70
192
 0
VERTEX
 8
TUBE_INSTANCE_5_2
 10
3.5279
 20
-2.6264
 30
15.6473
 70
192
 0
VERTEX
 8
TUBE_INSTANCE_5_2
 10
3.5279
 20
-2.6264
 30
15.6473
 70
192
 0
VERTEX
 8
TUBE_INSTANCE_5_2
 10
3.5279
 20
-2.9118
 30
15.6473
 70
192
 0
VERTEX
 8
TUBE_INSTANCE_5_2
 10
3.5279
 20
-2.9118
 30
14.9207
 70
192
 0
VERTEX
 8
TUBE_INSTANCE_5_2
 10
3.5279
 20
-2.9118
 30
14.9207
 70
192
 0
VERTEX
 8
TUBE_INSTANCE_5_2
 10
3.5279
 20
-2.9118
 30
15.6473
 70
192
 0
VERTEX
 8
TUBE_INSTANCE_5_2
 10
3.3602
 20
-2.6809
 30
14.9207
 70
192
 0
VERTEX
 8
TUBE_INSTANCE_5_2
 10
3.3602
 20
-2.6809
 30
14.9207
 70
192
 0
VERTEX
 8
TUBE_INSTANCE_5_2
 10
3.3602
 20
-2.6809
 30
15.6473
 70
192
 0
VERTEX
 8
TUBE_INSTANCE_5_2
 10
0
 20
0
 30
0
 70
128
 71
11
 72
12
 73
20
 74
19
 0
VERTEX
 8
TUBE_INSTANCE_5_2
 10
0
 20
0
 30
0
 70
128
 71
3
 72
4
 73
12
 74
11
 0
VERTEX
 8
TUBE_INSTANCE_5_2
 10
0
 20
0
 30
0
 70
128
 71
19
 72
20
 73
8
 74
7
 0
VERTEX
 8
TUBE_INSTANCE_5_2
 10
0
 20
0
 30
0
 70
128
 71
7
 72
8
 73
17
 74
16
 0
VERTEX
 8
TUBE_INSTANCE_5_2
 10
0
 20
0
 30
0
 70
128
 71
16
 72
17
 73
4
 74
3
 0
VERTEX
 8
TUBE_INSTANCE_5_2
 10
0
 20
0
 30
0
 70
128
 71
3
 72
11
 73
7
 74
16
 0
VERTEX
 8
TUBE_INSTANCE_5_2
 10
0
 20
0
 30
0
 70
128
 71
11
 72
19
 73
7
 74
7
 0
SEQEND
 0
POLYLINE
 8
TUBE_INSTANCE_4_2
 66
1
 10
0.0
 20
0.0
 30
0.0
 70
64
 71
20
 72
7
 0
VERTEX
 8
TUBE_INSTANCE_4_2
 10
3.3602
 20
-4.4707
 30
15.6473
 70
192
 0
VERTEX
 8
TUBE_INSTANCE_4_2
 10
3.6315
 20
-4.5589
 30
14.9207
 70
192
 0
VERTEX
 8
TUBE_INSTANCE_4_2
 10
3.6315
 20
-4.5589
 30
14.9207
 70
192
 0
VERTEX
 8
TUBE_INSTANCE_4_2
 10
3.6315
 20
-4.5589
 30
15.6473
 70
192
 0
VERTEX
 8
TUBE_INSTANCE_4_2
 10
3.6315
 20
-4.5589
 30
15.6473
 70
192
 0
VERTEX
 8
TUBE_INSTANCE_4_2
 10
3.3602
 20
-4.647
 30
14.9207
 70
192
 0
VERTEX
 8
TUBE_INSTANCE_4_2
 10
3.3602
 20
-4.647
 30
14.9207
 70
192
 0
VERTEX
 8
TUBE_INSTANCE_4_2
 10
3.3602
 20
-4.647
 30
15.6473
 70
192
 0
VERTEX
 8
TUBE_INSTANCE_4_2
 10
3.3602
 20
-4.647
 30
15.6473
 70
192
 0
VERTEX
 8
TUBE_INSTANCE_4_2
 10
3.5279
 20
-4.4162
 30
14.9207
 70
192
 0
VERTEX
 8
TUBE_INSTANCE_4_2
 10
3.5279
 20
-4.4162
 30
14.9207
 70
192
 0
VERTEX
 8
TUBE_INSTANCE_4_2
 10
3.5279
 20
-4.4162
 30
15.6473
 70
192
 0
VERTEX
 8
TUBE_INSTANCE_4_2
 10
3.5279
 20
-4.4162
 30
15.6473
 70
192
 0
VERTEX
 8
TUBE_INSTANCE_4_2
 10
3.5279
 20
-4.7015
 30
15.6473
 70
192
 0
VERTEX
 8
TUBE_INSTANCE_4_2
 10
3.5279
 20
-4.7015
 30
14.9207
 70
192
 0
VERTEX
 8
TUBE_INSTANCE_4_2
 10
3.5279
 20
-4.7015
 30
14.9207
 70
192
 0
VERTEX
 8
TUBE_INSTANCE_4_2
 10
3.5279
 20
-4.7015
 30
15.6473
 70
192
 0
VERTEX
 8
TUBE_INSTANCE_4_2
 10
3.3602
 20
-4.4707
 30
14.9207
 70
192
 0
VERTEX
 8
TUBE_INSTANCE_4_2
 10
3.3602
 20
-4.4707
 30
14.9207
 70
192
 0
VERTEX
 8
TUBE_INSTANCE_4_2
 10
3.3602
 20
-4.4707
 30
15.6473
 70
192
 0
VERTEX
 8
TUBE_INSTANCE_4_2
 10
0
 20
0
 30
0
 70
128
 71
11
 72
12
 73
20
 74
19
 0
VERTEX
 8
TUBE_INSTANCE_4_2
 10
0
 20
0
 30
0
 70
128
 71
3
 72
4
 73
12
 74
11
 0
VERTEX
 8
TUBE_INSTANCE_4_2
 10
0
 20
0
 30
0
 70
128
 71
19
 72
20
 73
8
 74
7
 0
VERTEX
 8
TUBE_INSTANCE_4_2
 10
0
 20
0
 30
0
 70
128
 71
7
 72
8
 73
17
 74
16
 0
VERTEX
 8
TUBE_INSTANCE_4_2
 10
0
 20
0
 30
0
 70
128
 71
16
 72
17
 73
4
 74
3
 0
VERTEX
 8
TUBE_INSTANCE_4_2
 10
0
 20
0
 30
0
 70
128
 71
3
 72
11
 73
7
 74
16
 0
VERTEX
 8
TUBE_INSTANCE_4_2
 10
0
 20
0
 30
0
 70
128
 71
11
 72
19
 73
7
 74
7
 0
SEQEND
 0
POLYLINE
 8
TUBE_INSTANCE_3_2
 66
1
 10
0.0
 20
0.0
 30
0.0
 70
64
 71
20
 72
7
 0
VERTEX
 8
TUBE_INSTANCE_3_2
 10
3.3602
 20
-6.2569
 30
15.6473
 70
192
 0
VERTEX
 8
TUBE_INSTANCE_3_2
 10
3.6315
 20
-6.3451
 30
14.9207
 70
192
 0
VERTEX
 8
TUBE_INSTANCE_3_2
 10
3.6315
 20
-6.3451
 30
14.9207
 70
192
 0
VERTEX
 8
TUBE_INSTANCE_3_2
 10
3.6315
 20
-6.3451
 30
15.6473
 70
192
 0
VERTEX
 8
TUBE_INSTANCE_3_2
 10
3.6315
 20
-6.3451
 30
15.6473
 70
192
 0
VERTEX
 8
TUBE_INSTANCE_3_2
 10
3.3602
 20
-6.4333
 30
14.9207
 70
192
 0
VERTEX
 8
TUBE_INSTANCE_3_2
 10
3.3602
 20
-6.4333
 30
14.9207
 70
192
 0
VERTEX
 8
TUBE_INSTANCE_3_2
 10
3.3602
 20
-6.4333
 30
15.6473
 70
192
 0
VERTEX
 8
TUBE_INSTANCE_3_2
 10
3.3602
 20
-6.4333
 30
15.6473
 70
192
 0
VERTEX
 8
TUBE_INSTANCE_3_2
 10
3.5279
 20
-6.2024
 30
14.9207
 70
192
 0
VERTEX
 8
TUBE_INSTANCE_3_2
 10
3.5279
 20
-6.2024
 30
14.9207
 70
192
 0
VERTEX
 8
TUBE_INSTANCE_3_2
 10
3.5279
 20
-6.2024
 30
15.6473
 70
192
 0
VERTEX
 8
TUBE_INSTANCE_3_2
 10
3.5279
 20
-6.2024
 30
15.6473
 70
192
 0
VERTEX
 8
TUBE_INSTANCE_3_2
 10
3.5279
 20
-6.4878
 30
15.6473
 70
192
 0
VERTEX
 8
TUBE_INSTANCE_3_2
 10
3.5279
 20
-6.4878
 30
14.9207
 70
192
 0
VERTEX
 8
TUBE_INSTANCE_3_2
 10
3.5279
 20
-6.4878
 30
14.9207
 70
192
 0
VERTEX
 8
TUBE_INSTANCE_3_2
 10
3.5279
 20
-6.4878
 30
15.6473
 70
192
 0
VERTEX
 8
TUBE_INSTANCE_3_2
 10
3.3602
 20
-6.2569
 30
14.9207
 70
192
 0
VERTEX
 8
TUBE_INSTANCE_3_2
 10
3.3602
 20
-6.2569
 30
14.9207
 70
192
 0
VERTEX
 8
TUBE_INSTANCE_3_2
 10
3.3602
 20
-6.2569
 30
15.6473
 70
192
 0
VERTEX
 8
TUBE_INSTANCE_3_2
 10
0
 20
0
 30
0
 70
128
 71
11
 72
12
 73
20
 74
19
 0
VERTEX
 8
TUBE_INSTANCE_3_2
 10
0
 20
0
 30
0
 70
128
 71
3
 72
4
 73
12
 74
11
 0
VERTEX
 8
TUBE_INSTANCE_3_2
 10
0
 20
0
 30
0
 70
128
 71
19
 72
20
 73
8
 74
7
 0
VERTEX
 8
TUBE_INSTANCE_3_2
 10
0
 20
0
 30
0
 70
128
 71
7
 72
8
 73
17
 74
16
 0
VERTEX
 8
TUBE_INSTANCE_3_2
 10
0
 20
0
 30
0
 70
128
 71
16
 72
17
 73
4
 74
3
 0
VERTEX
 8
TUBE_INSTANCE_3_2
 10
0
 20
0
 30
0
 70
128
 71
3
 72
11
 73
7
 74
16
 0
VERTEX
 8
TUBE_INSTANCE_3_2
 10
0
 20
0
 30
0
 70
128
 71
11
 72
19
 73
7
 74
7
 0
SEQEND
 0
POLYLINE
 8
TUBE_INSTANCE_2_2
 66
1
 10
0.0
 20
0.0
 30
0.0
 70
64
 71
20
 72
7
 0
VERTEX
 8
TUBE_INSTANCE_2_2
 10
3.3602
 20
-8.0664
 30
15.6473
 70
192
 0
VERTEX
 8
TUBE_INSTANCE_2_2
 10
3.6315
 20
-8.1546
 30
14.9207
 70
192
 0
VERTEX
 8
TUBE_INSTANCE_2_2
 10
3.6315
 20
-8.1546
 30
14.9207
 70
192
 0
VERTEX
 8
TUBE_INSTANCE_2_2
 10
3.6315
 20
-8.1546
 30
15.6473
 70
192
 0
VERTEX
 8
TUBE_INSTANCE_2_2
 10
3.6315
 20
-8.1546
 30
15.6473
 70
192
 0
VERTEX
 8
TUBE_INSTANCE_2_2
 10
3.3602
 20
-8.2427
 30
14.9207
 70
192
 0
VERTEX
 8
TUBE_INSTANCE_2_2
 10
3.3602
 20
-8.2427
 30
14.9207
 70
192
 0
VERTEX
 8
TUBE_INSTANCE_2_2
 10
3.3602
 20
-8.2427
 30
15.6473
 70
192
 0
VERTEX
 8
TUBE_INSTANCE_2_2
 10
3.3602
 20
-8.2427
 30
15.6473
 70
192
 0
VERTEX
 8
TUBE_INSTANCE_2_2
 10
3.5279
 20
-8.0119
 30
14.9207
 70
192
 0
VERTEX
 8
TUBE_INSTANCE_2_2
 10
3.5279
 20
-8.0119
 30
14.9207
 70
192
 0
VERTEX
 8
TUBE_INSTANCE_2_2
 10
3.5279
 20
-8.0119
 30
15.6473
 70
192
 0
VERTEX
 8
TUBE_INSTANCE_2_2
 10
3.5279
 20
-8.0119
 30
15.6473
 70
192
 0
VERTEX
 8
TUBE_INSTANCE_2_2
 10
3.5279
 20
-8.2972
 30
15.6473
 70
192
 0
VERTEX
 8
TUBE_INSTANCE_2_2
 10
3.5279
 20
-8.2972
 30
14.9207
 70
192
 0
VERTEX
 8
TUBE_INSTANCE_2_2
 10
3.5279
 20
-8.2972
 30
14.9207
 70
192
 0
VERTEX
 8
TUBE_INSTANCE_2_2
 10
3.5279
 20
-8.2972
 30
15.6473
 70
192
 0
VERTEX
 8
TUBE_INSTANCE_2_2
 10
3.3602
 20
-8.0664
 30
14.9207
 70
192
 0
VERTEX
 8
TUBE_INSTANCE_2_2
 10
3.3602
 20
-8.0664
 30
14.9207
 70
192
 0
VERTEX
 8
TUBE_INSTANCE_2_2
 10
3.3602
 20
-8.0664
 30
15.6473
 70
192
 0
VERTEX
 8
TUBE_INSTANCE_2_2
 10
0
 20
0
 30
0
 70
128
 71
11
 72
12
 73
20
 74
19
 0
VERTEX
 8
TUBE_INSTANCE_2_2
 10
0
 20
0
 30
0
 70
128
 71
3
 72
4
 73
12
 74
11
 0
VERTEX
 8
TUBE_INSTANCE_2_2
 10
0
 20
0
 30
0
 70
128
 71
19
 72
20
 73
8
 74
7
 0
VERTEX
 8
TUBE_INSTANCE_2_2
 10
0
 20
0
 30
0
 70
128
 71
7
 72
8
 73
17
 74
16
 0
VERTEX
 8
TUBE_INSTANCE_2_2
 10
0
 20
0
 30
0
 70
128
 71
16
 72
17
 73
4
 74
3
 0
VERTEX
 8
TUBE_INSTANCE_2_2
 10
0
 20
0
 30
0
 70
128
 71
3
 72
11
 73
7
 74
16
 0
VERTEX
 8
TUBE_INSTANCE_2_2
 10
0
 20
0
 30
0
 70
128
 71
11
 72
19
 73
7
 74
7
 0
SEQEND
 0
POLYLINE
 8
TUBE_INSTANCE_1_2
 66
1
 10
0.0
 20
0.0
 30
0.0
 70
64
 71
20
 72
7
 0
VERTEX
 8
TUBE_INSTANCE_1_2
 10
3.3602
 20
-9.8024
 30
15.6473
 70
192
 0
VERTEX
 8
TUBE_INSTANCE_1_2
 10
3.6315
 20
-9.8906
 30
14.9207
 70
192
 0
VERTEX
 8
TUBE_INSTANCE_1_2
 10
3.6315
 20
-9.8906
 30
14.9207
 70
192
 0
VERTEX
 8
TUBE_INSTANCE_1_2
 10
3.6315
 20
-9.8906
 30
15.6473
 70
192
 0
VERTEX
 8
TUBE_INSTANCE_1_2
 10
3.6315
 20
-9.8906
 30
15.6473
 70
192
 0
VERTEX
 8
TUBE_INSTANCE_1_2
 10
3.3602
 20
-9.9788
 30
14.9207
 70
192
 0
VERTEX
 8
TUBE_INSTANCE_1_2
 10
3.3602
 20
-9.9788
 30
14.9207
 70
192
 0
VERTEX
 8
TUBE_INSTANCE_1_2
 10
3.3602
 20
-9.9788
 30
15.6473
 70
192
 0
VERTEX
 8
TUBE_INSTANCE_1_2
 10
3.3602
 20
-9.9788
 30
15.6473
 70
192
 0
VERTEX
 8
TUBE_INSTANCE_1_2
 10
3.5279
 20
-9.7479
 30
14.9207
 70
192
 0
VERTEX
 8
TUBE_INSTANCE_1_2
 10
3.5279
 20
-9.7479
 30
14.9207
 70
192
 0
VERTEX
 8
TUBE_INSTANCE_1_2
 10
3.5279
 20
-9.7479
 30
15.6473
 70
192
 0
VERTEX
 8
TUBE_INSTANCE_1_2
 10
3.5279
 20
-9.7479
 30
15.6473
 70
192
 0
VERTEX
 8
TUBE_INSTANCE_1_2
 10
3.5279
 20
-10.0332
 30
15.6473
 70
192
 0
VERTEX
 8
TUBE_INSTANCE_1_2
 10
3.5279
 20
-10.0332
 30
14.9207
 70
192
 0
VERTEX
 8
TUBE_INSTANCE_1_2
 10
3.5279
 20
-10.0332
 30
14.9207
 70
192
 0
VERTEX
 8
TUBE_INSTANCE_1_2
 10
3.5279
 20
-10.0332
 30
15.6473
 70
192
 0
VERTEX
 8
TUBE_INSTANCE_1_2
 10
3.3602
 20
-9.8024
 30
14.9207
 70
192
 0
VERTEX
 8
TUBE_INSTANCE_1_2
 10
3.3602
 20
-9.8024
 30
14.9207
 70
192
 0
VERTEX
 8
TUBE_INSTANCE_1_2
 10
3.3602
 20
-9.8024
 30
15.6473
 70
192
 0
VERTEX
 8
TUBE_INSTANCE_1_2
 10
0
 20
0
 30
0
 70
128
 71
11
 72
12
 73
20
 74
19
 0
VERTEX
 8
TUBE_INSTANCE_1_2
 10
0
 20
0
 30
0
 70
128
 71
3
 72
4
 73
12
 74
11
 0
VERTEX
 8
TUBE_INSTANCE_1_2
 10
0
 20
0
 30
0
 70
128
 71
19
 72
20
 73
8
 74
7
 0
VERTEX
 8
TUBE_INSTANCE_1_2
 10
0
 20
0
 30
0
 70
128
 71
7
 72
8
 73
17
 74
16
 0
VERTEX
 8
TUBE_INSTANCE_1_2
 10
0
 20
0
 30
0
 70
128
 71
16
 72
17
 73
4
 74
3
 0
VERTEX
 8
TUBE_INSTANCE_1_2
 10
0
 20
0
 30
0
 70
128
 71
3
 72
11
 73
7
 74
16
 0
VERTEX
 8
TUBE_INSTANCE_1_2
 10
0
 20
0
 30
0
 70
128
 71
11
 72
19
 73
7
 74
7
 0
SEQEND
 0
POLYLINE
 8
TUBE_INSTANCE_2
 66
1
 10
0.0
 20
0.0
 30
0.0
 70
64
 71
20
 72
7
 0
VERTEX
 8
TUBE_INSTANCE_2
 10
3.3602
 20
-11.5718
 30
15.6473
 70
192
 0
VERTEX
 8
TUBE_INSTANCE_2
 10
3.6315
 20
-11.6599
 30
14.9207
 70
192
 0
VERTEX
 8
TUBE_INSTANCE_2
 10
3.6315
 20
-11.6599
 30
14.9207
 70
192
 0
VERTEX
 8
TUBE_INSTANCE_2
 10
3.6315
 20
-11.6599
 30
15.6473
 70
192
 0
VERTEX
 8
TUBE_INSTANCE_2
 10
3.6315
 20
-11.6599
 30
15.6473
 70
192
 0
VERTEX
 8
TUBE_INSTANCE_2
 10
3.3602
 20
-11.7481
 30
14.9207
 70
192
 0
VERTEX
 8
TUBE_INSTANCE_2
 10
3.3602
 20
-11.7481
 30
14.9207
 70
192
 0
VERTEX
 8
TUBE_INSTANCE_2
 10
3.3602
 20
-11.7481
 30
15.6473
 70
192
 0
VERTEX
 8
TUBE_INSTANCE_2
 10
3.3602
 20
-11.7481
 30
15.6473
 70
192
 0
VERTEX
 8
TUBE_INSTANCE_2
 10
3.5279
 20
-11.5173
 30
14.9207
 70
192
 0
VERTEX
 8
TUBE_INSTANCE_2
 10
3.5279
 20
-11.5173
 30
14.9207
 70
192
 0
VERTEX
 8
TUBE_INSTANCE_2
 10
3.5279
 20
-11.5173
 30
15.6473
 70
192
 0
VERTEX
 8
TUBE_INSTANCE_2
 10
3.5279
 20
-11.5173
 30
15.6473
 70
192
 0
VERTEX
 8
TUBE_INSTANCE_2
 10
3.5279
 20
-11.8026
 30
15.6473
 70
192
 0
VERTEX
 8
TUBE_INSTANCE_2
 10
3.5279
 20
-11.8026
 30
14.9207
 70
192
 0
VERTEX
 8
TUBE_INSTANCE_2
 10
3.5279
 20
-11.8026
 30
14.9207
 70
192
 0
VERTEX
 8
TUBE_INSTANCE_2
 10
3.5279
 20
-11.8026
 30
15.6473
 70
192
 0
VERTEX
 8
TUBE_INSTANCE_2
 10
3.3602
 20
-11.5718
 30
14.9207
 70
192
 0
VERTEX
 8
TUBE_INSTANCE_2
 10
3.3602
 20
-11.5718
 30
14.9207
 70
192
 0
VERTEX
 8
TUBE_INSTANCE_2
 10
3.3602
 20
-11.5718
 30
15.6473
 70
192
 0
VERTEX
 8
TUBE_INSTANCE_2
 10
0
 20
0
 30
0
 70
128
 71
11
 72
12
 73
20
 74
19
 0
VERTEX
 8
TUBE_INSTANCE_2
 10
0
 20
0
 30
0
 70
128
 71
3
 72
4
 73
12
 74
11
 0
VERTEX
 8
TUBE_INSTANCE_2
 10
0
 20
0
 30
0
 70
128
 71
19
 72
20
 73
8
 74
7
 0
VERTEX
 8
TUBE_INSTANCE_2
 10
0
 20
0
 30
0
 70
128
 71
7
 72
8
 73
17
 74
16
 0
VERTEX
 8
TUBE_INSTANCE_2
 10
0
 20
0
 30
0
 70
128
 71
16
 72
17
 73
4
 74
3
 0
VERTEX
 8
TUBE_INSTANCE_2
 10
0
 20
0
 30
0
 70
128
 71
3
 72
11
 73
7
 74
16
 0
VERTEX
 8
TUBE_INSTANCE_2
 10
0
 20
0
 30
0
 70
128
 71
11
 72
19
 73
7
 74
7
 0
SEQEND
 0
POLYLINE
 8
TUBE_2
 66
1
 10
0.0
 20
0.0
 30
0.0
 70
64
 71
20
 72
7
 0
VERTEX
 8
TUBE_2
 10
3.3602
 20
-13.3609
 30
15.6473
 70
192
 0
VERTEX
 8
TUBE_2
 10
3.6315
 20
-13.4491
 30
14.9207
 70
192
 0
VERTEX
 8
TUBE_2
 10
3.6315
 20
-13.4491
 30
14.9207
 70
192
 0
VERTEX
 8
TUBE_2
 10
3.6315
 20
-13.4491
 30
15.6473
 70
192
 0
VERTEX
 8
TUBE_2
 10
3.6315
 20
-13.4491
 30
15.6473
 70
192
 0
VERTEX
 8
TUBE_2
 10
3.3602
 20
-13.5373
 30
14.9207
 70
192
 0
VERTEX
 8
TUBE_2
 10
3.3602
 20
-13.5373
 30
14.9207
 70
192
 0
VERTEX
 8
TUBE_2
 10
3.3602
 20
-13.5373
 30
15.6473
 70
192
 0
VERTEX
 8
TUBE_2
 10
3.3602
 20
-13.5373
 30
15.6473
 70
192
 0
VERTEX
 8
TUBE_2
 10
3.5279
 20
-13.3064
 30
14.9207
 70
192
 0
VERTEX
 8
TUBE_2
 10
3.5279
 20
-13.3064
 30
14.9207
 70
192
 0
VERTEX
 8
TUBE_2
 10
3.5279
 20
-13.3064
 30
15.6473
 70
192
 0
VERTEX
 8
TUBE_2
 10
3.5279
 20
-13.3064
 30
15.6473
 70
192
 0
VERTEX
 8
TUBE_2
 10
3.5279
 20
-13.5918
 30
15.6473
 70
192
 0
VERTEX
 8
TUBE_2
 10
3.5279
 20
-13.5918
 30
14.9207
 70
192
 0
VERTEX
 8
TUBE_2
 10
3.5279
 20
-13.5918
 30
14.9207
 70
192
 0
VERTEX
 8
TUBE_2
 10
3.5279
 20
-13.5918
 30
15.6473
 70
192
 0
VERTEX
 8
TUBE_2
 10
3.3602
 20
-13.3609
 30
14.9207
 70
192
 0
VERTEX
 8
TUBE_2
 10
3.3602
 20
-13.3609
 30
14.9207
 70
192
 0
VERTEX
 8
TUBE_2
 10
3.3602
 20
-13.3609
 30
15.6473
 70
192
 0
VERTEX
 8
TUBE_2
 10
0
 20
0
 30
0
 70
128
 71
11
 72
12
 73
20
 74
19
 0
VERTEX
 8
TUBE_2
 10
0
 20
0
 30
0
 70
128
 71
3
 72
4
 73
12
 74
11
 0
VERTEX
 8
TUBE_2
 10
0
 20
0
 30
0
 70
128
 71
19
 72
20
 73
8
 74
7
 0
VERTEX
 8
TUBE_2
 10
0
 20
0
 30
0
 70
128
 71
7
 72
8
 73
17
 74
16
 0
VERTEX
 8
TUBE_2
 10
0
 20
0
 30
0
 70
128
 71
16
 72
17
 73
4
 74
3
 0
VERTEX
 8
TUBE_2
 10
0
 20
0
 30
0
 70
128
 71
3
 72
11
 73
7
 74
16
 0
VERTEX
 8
TUBE_2
 10
0
 20
0
 30
0
 70
128
 71
11
 72
19
 73
7
 74
7
 0
SEQEND
 0
POLYLINE
 8
TUBE_INSTANCE_14_1
 66
1
 10
0.0
 20
0.0
 30
0.0
 70
64
 71
20
 72
7
 0
VERTEX
 8
TUBE_INSTANCE_14_1
 10
5.1366
 20
13.575
 30
15.6473
 70
192
 0
VERTEX
 8
TUBE_INSTANCE_14_1
 10
5.4079
 20
13.4868
 30
14.9207
 70
192
 0
VERTEX
 8
TUBE_INSTANCE_14_1
 10
5.4079
 20
13.4868
 30
14.9207
 70
192
 0
VERTEX
 8
TUBE_INSTANCE_14_1
 10
5.4079
 20
13.4868
 30
15.6473
 70
192
 0
VERTEX
 8
TUBE_INSTANCE_14_1
 10
5.4079
 20
13.4868
 30
15.6473
 70
192
 0
VERTEX
 8
TUBE_INSTANCE_14_1
 10
5.1366
 20
13.3987
 30
14.9207
 70
192
 0
VERTEX
 8
TUBE_INSTANCE_14_1
 10
5.1366
 20
13.3987
 30
14.9207
 70
192
 0
VERTEX
 8
TUBE_INSTANCE_14_1
 10
5.1366
 20
13.3987
 30
15.6473
 70
192
 0
VERTEX
 8
TUBE_INSTANCE_14_1
 10
5.1366
 20
13.3987
 30
15.6473
 70
192
 0
VERTEX
 8
TUBE_INSTANCE_14_1
 10
5.3043
 20
13.6295
 30
14.9207
 70
192
 0
VERTEX
 8
TUBE_INSTANCE_14_1
 10
5.3043
 20
13.6295
 30
14.9207
 70
192
 0
VERTEX
 8
TUBE_INSTANCE_14_1
 10
5.3043
 20
13.6295
 30
15.6473
 70
192
 0
VERTEX
 8
TUBE_INSTANCE_14_1
 10
5.3043
 20
13.6295
 30
15.6473
 70
192
 0
VERTEX
 8
TUBE_INSTANCE_14_1
 10
5.3043
 20
13.3442
 30
15.6473
 70
192
 0
VERTEX
 8
TUBE_INSTANCE_14_1
 10
5.3043
 20
13.3442
 30
14.9207
 70
192
 0
VERTEX
 8
TUBE_INSTANCE_14_1
 10
5.3043
 20
13.3442
 30
14.9207
 70
192
 0
VERTEX
 8
TUBE_INSTANCE_14_1
 10
5.3043
 20
13.3442
 30
15.6473
 70
192
 0
VERTEX
 8
TUBE_INSTANCE_14_1
 10
5.1366
 20
13.575
 30
14.9207
 70
192
 0
VERTEX
 8
TUBE_INSTANCE_14_1
 10
5.1366
 20
13.575
 30
14.9207
 70
192
 0
VERTEX
 8
TUBE_INSTANCE_14_1
 10
5.1366
 20
13.575
 30
15.6473
 70
192
 0
VERTEX
 8
TUBE_INSTANCE_14_1
 10
0
 20
0
 30
0
 70
128
 71
11
 72
12
 73
20
 74
19
 0
VERTEX
 8
TUBE_INSTANCE_14_1
 10
0
 20
0
 30
0
 70
128
 71
3
 72
4
 73
12
 74
11
 0
VERTEX
 8
TUBE_INSTANCE_14_1
 10
0
 20
0
 30
0
 70
128
 71
19
 72
20
 73
8
 74
7
 0
VERTEX
 8
TUBE_INSTANCE_14_1
 10
0
 20
0
 30
0
 70
128
 71
7
 72
8
 73
17
 74
16
 0
VERTEX
 8
TUBE_INSTANCE_14_1
 10
0
 20
0
 30
0
 70
128
 71
16
 72
17
 73
4
 74
3
 0
VERTEX
 8
TUBE_INSTANCE_14_1
 10
0
 20
0
 30
0
 70
128
 71
3
 72
11
 73
7
 74
16
 0
VERTEX
 8
TUBE_INSTANCE_14_1
 10
0
 20
0
 30
0
 70
128
 71
11
 72
19
 73
7
 74
7
 0
SEQEND
 0
POLYLINE
 8
TUBE_INSTANCE_13_1
 66
1
 10
0.0
 20
0.0
 30
0.0
 70
64
 71
20
 72
7
 0
VERTEX
 8
TUBE_INSTANCE_13_1
 10
5.1366
 20
11.7503
 30
15.6473
 70
192
 0
VERTEX
 8
TUBE_INSTANCE_13_1
 10
5.4079
 20
11.6621
 30
14.9207
 70
192
 0
VERTEX
 8
TUBE_INSTANCE_13_1
 10
5.4079
 20
11.6621
 30
14.9207
 70
192
 0
VERTEX
 8
TUBE_INSTANCE_13_1
 10
5.4079
 20
11.6621
 30
15.6473
 70
192
 0
VERTEX
 8
TUBE_INSTANCE_13_1
 10
5.4079
 20
11.6621
 30
15.6473
 70
192
 0
VERTEX
 8
TUBE_INSTANCE_13_1
 10
5.1366
 20
11.574
 30
14.9207
 70
192
 0
VERTEX
 8
TUBE_INSTANCE_13_1
 10
5.1366
 20
11.574
 30
14.9207
 70
192
 0
VERTEX
 8
TUBE_INSTANCE_13_1
 10
5.1366
 20
11.574
 30
15.6473
 70
192
 0
VERTEX
 8
TUBE_INSTANCE_13_1
 10
5.1366
 20
11.574
 30
15.6473
 70
192
 0
VERTEX
 8
TUBE_INSTANCE_13_1
 10
5.3043
 20
11.8048
 30
14.9207
 70
192
 0
VERTEX
 8
TUBE_INSTANCE_13_1
 10
5.3043
 20
11.8048
 30
14.9207
 70
192
 0
VERTEX
 8
TUBE_INSTANCE_13_1
 10
5.3043
 20
11.8048
 30
15.6473
 70
192
 0
VERTEX
 8
TUBE_INSTANCE_13_1
 10
5.3043
 20
11.8048
 30
15.6473
 70
192
 0
VERTEX
 8
TUBE_INSTANCE_13_1
 10
5.3043
 20
11.5195
 30
15.6473
 70
192
 0
VERTEX
 8
TUBE_INSTANCE_13_1
 10
5.3043
 20
11.5195
 30
14.9207
 70
192
 0
VERTEX
 8
TUBE_INSTANCE_13_1
 10
5.3043
 20
11.5195
 30
14.9207
 70
192
 0
VERTEX
 8
TUBE_INSTANCE_13_1
 10
5.3043
 20
11.5195
 30
15.6473
 70
192
 0
VERTEX
 8
TUBE_INSTANCE_13_1
 10
5.1366
 20
11.7503
 30
14.9207
 70
192
 0
VERTEX
 8
TUBE_INSTANCE_13_1
 10
5.1366
 20
11.7503
 30
14.9207
 70
192
 0
VERTEX
 8
TUBE_INSTANCE_13_1
 10
5.1366
 20
11.7503
 30
15.6473
 70
192
 0
VERTEX
 8
TUBE_INSTANCE_13_1
 10
0
 20
0
 30
0
 70
128
 71
11
 72
12
 73
20
 74
19
 0
VERTEX
 8
TUBE_INSTANCE_13_1
 10
0
 20
0
 30
0
 70
128
 71
3
 72
4
 73
12
 74
11
 0
VERTEX
 8
TUBE_INSTANCE_13_1
 10
0
 20
0
 30
0
 70
128
 71
19
 72
20
 73
8
 74
7
 0
VERTEX
 8
TUBE_INSTANCE_13_1
 10
0
 20
0
 30
0
 70
128
 71
7
 72
8
 73
17
 74
16
 0
VERTEX
 8
TUBE_INSTANCE_13_1
 10
0
 20
0
 30
0
 70
128
 71
16
 72
17
 73
4
 74
3
 0
VERTEX
 8
TUBE_INSTANCE_13_1
 10
0
 20
0
 30
0
 70
128
 71
3
 72
11
 73
7
 74
16
 0
VERTEX
 8
TUBE_INSTANCE_13_1
 10
0
 20
0
 30
0
 70
128
 71
11
 72
19
 73
7
 74
7
 0
SEQEND
 0
POLYLINE
 8
TUBE_INSTANCE_12_1
 66
1
 10
0.0
 20
0.0
 30
0.0
 70
64
 71
20
 72
7
 0
VERTEX
 8
TUBE_INSTANCE_12_1
 10
5.1366
 20
9.9231
 30
15.6473
 70
192
 0
VERTEX
 8
TUBE_INSTANCE_12_1
 10
5.4079
 20
9.8349
 30
14.9207
 70
192
 0
VERTEX
 8
TUBE_INSTANCE_12_1
 10
5.4079
 20
9.8349
 30
14.9207
 70
192
 0
VERTEX
 8
TUBE_INSTANCE_12_1
 10
5.4079
 20
9.8349
 30
15.6473
 70
192
 0
VERTEX
 8
TUBE_INSTANCE_12_1
 10
5.4079
 20
9.8349
 30
15.6473
 70
192
 0
VERTEX
 8
TUBE_INSTANCE_12_1
 10
5.1366
 20
9.7467
 30
14.9207
 70
192
 0
VERTEX
 8
TUBE_INSTANCE_12_1
 10
5.1366
 20
9.7467
 30
14.9207
 70
192
 0
VERTEX
 8
TUBE_INSTANCE_12_1
 10
5.1366
 20
9.7467
 30
15.6473
 70
192
 0
VERTEX
 8
TUBE_INSTANCE_12_1
 10
5.1366
 20
9.7467
 30
15.6473
 70
192
 0
VERTEX
 8
TUBE_INSTANCE_12_1
 10
5.3043
 20
9.9775
 30
14.9207
 70
192
 0
VERTEX
 8
TUBE_INSTANCE_12_1
 10
5.3043
 20
9.9775
 30
14.9207
 70
192
 0
VERTEX
 8
TUBE_INSTANCE_12_1
 10
5.3043
 20
9.9775
 30
15.6473
 70
192
 0
VERTEX
 8
TUBE_INSTANCE_12_1
 10
5.3043
 20
9.9775
 30
15.6473
 70
192
 0
VERTEX
 8
TUBE_INSTANCE_12_1
 10
5.3043
 20
9.6922
 30
15.6473
 70
192
 0
VERTEX
 8
TUBE_INSTANCE_12_1
 10
5.3043
 20
9.6922
 30
14.9207
 70
192
 0
VERTEX
 8
TUBE_INSTANCE_12_1
 10
5.3043
 20
9.6922
 30
14.9207
 70
192
 0
VERTEX
 8
TUBE_INSTANCE_12_1
 10
5.3043
 20
9.6922
 30
15.6473
 70
192
 0
VERTEX
 8
TUBE_INSTANCE_12_1
 10
5.1366
 20
9.9231
 30
14.9207
 70
192
 0
VERTEX
 8
TUBE_INSTANCE_12_1
 10
5.1366
 20
9.9231
 30
14.9207
 70
192
 0
VERTEX
 8
TUBE_INSTANCE_12_1
 10
5.1366
 20
9.9231
 30
15.6473
 70
192
 0
VERTEX
 8
TUBE_INSTANCE_12_1
 10
0
 20
0
 30
0
 70
128
 71
11
 72
12
 73
20
 74
19
 0
VERTEX
 8
TUBE_INSTANCE_12_1
 10
0
 20
0
 30
0
 70
128
 71
3
 72
4
 73
12
 74
11
 0
VERTEX
 8
TUBE_INSTANCE_12_1
 10
0
 20
0
 30
0
 70
128
 71
19
 72
20
 73
8
 74
7
 0
VERTEX
 8
TUBE_INSTANCE_12_1
 10
0
 20
0
 30
0
 70
128
 71
7
 72
8
 73
17
 74
16
 0
VERTEX
 8
TUBE_INSTANCE_12_1
 10
0
 20
0
 30
0
 70
128
 71
16
 72
17
 73
4
 74
3
 0
VERTEX
 8
TUBE_INSTANCE_12_1
 10
0
 20
0
 30
0
 70
128
 71
3
 72
11
 73
7
 74
16
 0
VERTEX
 8
TUBE_INSTANCE_12_1
 10
0
 20
0
 30
0
 70
128
 71
11
 72
19
 73
7
 74
7
 0
SEQEND
 0
POLYLINE
 8
TUBE_INSTANCE_11_1
 66
1
 10
0.0
 20
0.0
 30
0.0
 70
64
 71
20
 72
7
 0
VERTEX
 8
TUBE_INSTANCE_11_1
 10
5.1366
 20
8.1242
 30
15.6473
 70
192
 0
VERTEX
 8
TUBE_INSTANCE_11_1
 10
5.4079
 20
8.036
 30
14.9207
 70
192
 0
VERTEX
 8
TUBE_INSTANCE_11_1
 10
5.4079
 20
8.036
 30
14.9207
 70
192
 0
VERTEX
 8
TUBE_INSTANCE_11_1
 10
5.4079
 20
8.036
 30
15.6473
 70
192
 0
VERTEX
 8
TUBE_INSTANCE_11_1
 10
5.4079
 20
8.036
 30
15.6473
 70
192
 0
VERTEX
 8
TUBE_INSTANCE_11_1
 10
5.1366
 20
7.9479
 30
14.9207
 70
192
 0
VERTEX
 8
TUBE_INSTANCE_11_1
 10
5.1366
 20
7.9479
 30
14.9207
 70
192
 0
VERTEX
 8
TUBE_INSTANCE_11_1
 10
5.1366
 20
7.9479
 30
15.6473
 70
192
 0
VERTEX
 8
TUBE_INSTANCE_11_1
 10
5.1366
 20
7.9479
 30
15.6473
 70
192
 0
VERTEX
 8
TUBE_INSTANCE_11_1
 10
5.3043
 20
8.1787
 30
14.9207
 70
192
 0
VERTEX
 8
TUBE_INSTANCE_11_1
 10
5.3043
 20
8.1787
 30
14.9207
 70
192
 0
VERTEX
 8
TUBE_INSTANCE_11_1
 10
5.3043
 20
8.1787
 30
15.6473
 70
192
 0
VERTEX
 8
TUBE_INSTANCE_11_1
 10
5.3043
 20
8.1787
 30
15.6473
 70
192
 0
VERTEX
 8
TUBE_INSTANCE_11_1
 10
5.3043
 20
7.8934
 30
15.6473
 70
192
 0
VERTEX
 8
TUBE_INSTANCE_11_1
 10
5.3043
 20
7.8934
 30
14.9207
 70
192
 0
VERTEX
 8
TUBE_INSTANCE_11_1
 10
5.3043
 20
7.8934
 30
14.9207
 70
192
 0
VERTEX
 8
TUBE_INSTANCE_11_1
 10
5.3043
 20
7.8934
 30
15.6473
 70
192
 0
VERTEX
 8
TUBE_INSTANCE_11_1
 10
5.1366
 20
8.1242
 30
14.9207
 70
192
 0
VERTEX
 8
TUBE_INSTANCE_11_1
 10
5.1366
 20
8.1242
 30
14.9207
 70
192
 0
VERTEX
 8
TUBE_INSTANCE_11_1
 10
5.1366
 20
8.1242
 30
15.6473
 70
192
 0
VERTEX
 8
TUBE_INSTANCE_11_1
 10
0
 20
0
 30
0
 70
128
 71
11
 72
12
 73
20
 74
19
 0
VERTEX
 8
TUBE_INSTANCE_11_1
 10
0
 20
0
 30
0
 70
128
 71
3
 72
4
 73
12
 74
11
 0
VERTEX
 8
TUBE_INSTANCE_11_1
 10
0
 20
0
 30
0
 70
128
 71
19
 72
20
 73
8
 74
7
 0
VERTEX
 8
TUBE_INSTANCE_11_1
 10
0
 20
0
 30
0
 70
128
 71
7
 72
8
 73
17
 74
16
 0
VERTEX
 8
TUBE_INSTANCE_11_1
 10
0
 20
0
 30
0
 70
128
 71
16
 72
17
 73
4
 74
3
 0
VERTEX
 8
TUBE_INSTANCE_11_1
 10
0
 20
0
 30
0
 70
128
 71
3
 72
11
 73
7
 74
16
 0
VERTEX
 8
TUBE_INSTANCE_11_1
 10
0
 20
0
 30
0
 70
128
 71
11
 72
19
 73
7
 74
7
 0
SEQEND
 0
POLYLINE
 8
TUBE_INSTANCE_10_1
 66
1
 10
0.0
 20
0.0
 30
0.0
 70
64
 71
20
 72
7
 0
VERTEX
 8
TUBE_INSTANCE_10_1
 10
5.1366
 20
6.2861
 30
15.6473
 70
192
 0
VERTEX
 8
TUBE_INSTANCE_10_1
 10
5.4079
 20
6.198
 30
14.9207
 70
192
 0
VERTEX
 8
TUBE_INSTANCE_10_1
 10
5.4079
 20
6.198
 30
14.9207
 70
192
 0
VERTEX
 8
TUBE_INSTANCE_10_1
 10
5.4079
 20
6.198
 30
15.6473
 70
192
 0
VERTEX
 8
TUBE_INSTANCE_10_1
 10
5.4079
 20
6.198
 30
15.6473
 70
192
 0
VERTEX
 8
TUBE_INSTANCE_10_1
 10
5.1366
 20
6.1098
 30
14.9207
 70
192
 0
VERTEX
 8
TUBE_INSTANCE_10_1
 10
5.1366
 20
6.1098
 30
14.9207
 70
192
 0
VERTEX
 8
TUBE_INSTANCE_10_1
 10
5.1366
 20
6.1098
 30
15.6473
 70
192
 0
VERTEX
 8
TUBE_INSTANCE_10_1
 10
5.1366
 20
6.1098
 30
15.6473
 70
192
 0
VERTEX
 8
TUBE_INSTANCE_10_1
 10
5.3043
 20
6.3406
 30
14.9207
 70
192
 0
VERTEX
 8
TUBE_INSTANCE_10_1
 10
5.3043
 20
6.3406
 30
14.9207
 70
192
 0
VERTEX
 8
TUBE_INSTANCE_10_1
 10
5.3043
 20
6.3406
 30
15.6473
 70
192
 0
VERTEX
 8
TUBE_INSTANCE_10_1
 10
5.3043
 20
6.3406
 30
15.6473
 70
192
 0
VERTEX
 8
TUBE_INSTANCE_10_1
 10
5.3043
 20
6.0553
 30
15.6473
 70
192
 0
VERTEX
 8
TUBE_INSTANCE_10_1
 10
5.3043
 20
6.0553
 30
14.9207
 70
192
 0
VERTEX
 8
TUBE_INSTANCE_10_1
 10
5.3043
 20
6.0553
 30
14.9207
 70
192
 0
VERTEX
 8
TUBE_INSTANCE_10_1
 10
5.3043
 20
6.0553
 30
15.6473
 70
192
 0
VERTEX
 8
TUBE_INSTANCE_10_1
 10
5.1366
 20
6.2861
 30
14.9207
 70
192
 0
VERTEX
 8
TUBE_INSTANCE_10_1
 10
5.1366
 20
6.2861
 30
14.9207
 70
192
 0
VERTEX
 8
TUBE_INSTANCE_10_1
 10
5.1366
 20
6.2861
 30
15.6473
 70
192
 0
VERTEX
 8
TUBE_INSTANCE_10_1
 10
0
 20
0
 30
0
 70
128
 71
11
 72
12
 73
20
 74
19
 0
VERTEX
 8
TUBE_INSTANCE_10_1
 10
0
 20
0
 30
0
 70
128
 71
3
 72
4
 73
12
 74
11
 0
VERTEX
 8
TUBE_INSTANCE_10_1
 10
0
 20
0
 30
0
 70
128
 71
19
 72
20
 73
8
 74
7
 0
VERTEX
 8
TUBE_INSTANCE_10_1
 10
0
 20
0
 30
0
 70
128
 71
7
 72
8
 73
17
 74
16
 0
VERTEX
 8
TUBE_INSTANCE_10_1
 10
0
 20
0
 30
0
 70
128
 71
16
 72
17
 73
4
 74
3
 0
VERTEX
 8
TUBE_INSTANCE_10_1
 10
0
 20
0
 30
0
 70
128
 71
3
 72
11
 73
7
 74
16
 0
VERTEX
 8
TUBE_INSTANCE_10_1
 10
0
 20
0
 30
0
 70
128
 71
11
 72
19
 73
7
 74
7
 0
SEQEND
 0
POLYLINE
 8
TUBE_INSTANCE_9_1
 66
1
 10
0.0
 20
0.0
 30
0.0
 70
64
 71
20
 72
7
 0
VERTEX
 8
TUBE_INSTANCE_9_1
 10
5.1366
 20
4.4401
 30
15.6473
 70
192
 0
VERTEX
 8
TUBE_INSTANCE_9_1
 10
5.4079
 20
4.3519
 30
14.9207
 70
192
 0
VERTEX
 8
TUBE_INSTANCE_9_1
 10
5.4079
 20
4.3519
 30
14.9207
 70
192
 0
VERTEX
 8
TUBE_INSTANCE_9_1
 10
5.4079
 20
4.3519
 30
15.6473
 70
192
 0
VERTEX
 8
TUBE_INSTANCE_9_1
 10
5.4079
 20
4.3519
 30
15.6473
 70
192
 0
VERTEX
 8
TUBE_INSTANCE_9_1
 10
5.1366
 20
4.2637
 30
14.9207
 70
192
 0
VERTEX
 8
TUBE_INSTANCE_9_1
 10
5.1366
 20
4.2637
 30
14.9207
 70
192
 0
VERTEX
 8
TUBE_INSTANCE_9_1
 10
5.1366
 20
4.2637
 30
15.6473
 70
192
 0
VERTEX
 8
TUBE_INSTANCE_9_1
 10
5.1366
 20
4.2637
 30
15.6473
 70
192
 0
VERTEX
 8
TUBE_INSTANCE_9_1
 10
5.3043
 20
4.4946
 30
14.9207
 70
192
 0
VERTEX
 8
TUBE_INSTANCE_9_1
 10
5.3043
 20
4.4946
 30
14.9207
 70
192
 0
VERTEX
 8
TUBE_INSTANCE_9_1
 10
5.3043
 20
4.4946
 30
15.6473
 70
192
 0
VERTEX
 8
TUBE_INSTANCE_9_1
 10
5.3043
 20
4.4946
 30
15.6473
 70
192
 0
VERTEX
 8
TUBE_INSTANCE_9_1
 10
5.3043
 20
4.2092
 30
15.6473
 70
192
 0
VERTEX
 8
TUBE_INSTANCE_9_1
 10
5.3043
 20
4.2092
 30
14.9207
 70
192
 0
VERTEX
 8
TUBE_INSTANCE_9_1
 10
5.3043
 20
4.2092
 30
14.9207
 70
192
 0
VERTEX
 8
TUBE_INSTANCE_9_1
 10
5.3043
 20
4.2092
 30
15.6473
 70
192
 0
VERTEX
 8
TUBE_INSTANCE_9_1
 10
5.1366
 20
4.4401
 30
14.9207
 70
192
 0
VERTEX
 8
TUBE_INSTANCE_9_1
 10
5.1366
 20
4.4401
 30
14.9207
 70
192
 0
VERTEX
 8
TUBE_INSTANCE_9_1
 10
5.1366
 20
4.4401
 30
15.6473
 70
192
 0
VERTEX
 8
TUBE_INSTANCE_9_1
 10
0
 20
0
 30
0
 70
128
 71
11
 72
12
 73
20
 74
19
 0
VERTEX
 8
TUBE_INSTANCE_9_1
 10
0
 20
0
 30
0
 70
128
 71
3
 72
4
 73
12
 74
11
 0
VERTEX
 8
TUBE_INSTANCE_9_1
 10
0
 20
0
 30
0
 70
128
 71
19
 72
20
 73
8
 74
7
 0
VERTEX
 8
TUBE_INSTANCE_9_1
 10
0
 20
0
 30
0
 70
128
 71
7
 72
8
 73
17
 74
16
 0
VERTEX
 8
TUBE_INSTANCE_9_1
 10
0
 20
0
 30
0
 70
128
 71
16
 72
17
 73
4
 74
3
 0
VERTEX
 8
TUBE_INSTANCE_9_1
 10
0
 20
0
 30
0
 70
128
 71
3
 72
11
 73
7
 74
16
 0
VERTEX
 8
TUBE_INSTANCE_9_1
 10
0
 20
0
 30
0
 70
128
 71
11
 72
19
 73
7
 74
7
 0
SEQEND
 0
POLYLINE
 8
TUBE_I88
 66
1
 10
0.0
 20
0.0
 30
0.0
 70
64
 71
20
 72
7
 0
VERTEX
 8
TUBE_I88
 10
5.1366
 20
2.6774
 30
15.6473
 70
192
 0
VERTEX
 8
TUBE_I88
 10
5.4079
 20
2.5892
 30
14.9207
 70
192
 0
VERTEX
 8
TUBE_I88
 10
5.4079
 20
2.5892
 30
14.9207
 70
192
 0
VERTEX
 8
TUBE_I88
 10
5.4079
 20
2.5892
 30
15.6473
 70
192
 0
VERTEX
 8
TUBE_I88
 10
5.4079
 20
2.5892
 30
15.6473
 70
192
 0
VERTEX
 8
TUBE_I88
 10
5.1366
 20
2.501
 30
14.9207
 70
192
 0
VERTEX
 8
TUBE_I88
 10
5.1366
 20
2.501
 30
14.9207
 70
192
 0
VERTEX
 8
TUBE_I88
 10
5.1366
 20
2.501
 30
15.6473
 70
192
 0
VERTEX
 8
TUBE_I88
 10
5.1366
 20
2.501
 30
15.6473
 70
192
 0
VERTEX
 8
TUBE_I88
 10
5.3043
 20
2.7318
 30
14.9207
 70
192
 0
VERTEX
 8
TUBE_I88
 10
5.3043
 20
2.7318
 30
14.9207
 70
192
 0
VERTEX
 8
TUBE_I88
 10
5.3043
 20
2.7318
 30
15.6473
 70
192
 0
VERTEX
 8
TUBE_I88
 10
5.3043
 20
2.7318
 30
15.6473
 70
192
 0
VERTEX
 8
TUBE_I88
 10
5.3043
 20
2.4465
 30
15.6473
 70
192
 0
VERTEX
 8
TUBE_I88
 10
5.3043
 20
2.4465
 30
14.9207
 70
192
 0
VERTEX
 8
TUBE_I88
 10
5.3043
 20
2.4465
 30
14.9207
 70
192
 0
VERTEX
 8
TUBE_I88
 10
5.3043
 20
2.4465
 30
15.6473
 70
192
 0
VERTEX
 8
TUBE_I88
 10
5.1366
 20
2.6774
 30
14.9207
 70
192
 0
VERTEX
 8
TUBE_I88
 10
5.1366
 20
2.6774
 30
14.9207
 70
192
 0
VERTEX
 8
TUBE_I88
 10
5.1366
 20
2.6774
 30
15.6473
 70
192
 0
VERTEX
 8
TUBE_I88
 10
0
 20
0
 30
0
 70
128
 71
11
 72
12
 73
20
 74
19
 0
VERTEX
 8
TUBE_I88
 10
0
 20
0
 30
0
 70
128
 71
3
 72
4
 73
12
 74
11
 0
VERTEX
 8
TUBE_I88
 10
0
 20
0
 30
0
 70
128
 71
19
 72
20
 73
8
 74
7
 0
VERTEX
 8
TUBE_I88
 10
0
 20
0
 30
0
 70
128
 71
7
 72
8
 73
17
 74
16
 0
VERTEX
 8
TUBE_I88
 10
0
 20
0
 30
0
 70
128
 71
16
 72
17
 73
4
 74
3
 0
VERTEX
 8
TUBE_I88
 10
0
 20
0
 30
0
 70
128
 71
3
 72
11
 73
7
 74
16
 0
VERTEX
 8
TUBE_I88
 10
0
 20
0
 30
0
 70
128
 71
11
 72
19
 73
7
 74
7
 0
SEQEND
 0
POLYLINE
 8
TUBE_I4
 66
1
 10
0.0
 20
0.0
 30
0.0
 70
64
 71
20
 72
7
 0
VERTEX
 8
TUBE_I4
 10
5.1366
 20
0.9035
 30
15.6473
 70
192
 0
VERTEX
 8
TUBE_I4
 10
5.4079
 20
0.8153
 30
14.9207
 70
192
 0
VERTEX
 8
TUBE_I4
 10
5.4079
 20
0.8153
 30
14.9207
 70
192
 0
VERTEX
 8
TUBE_I4
 10
5.4079
 20
0.8153
 30
15.6473
 70
192
 0
VERTEX
 8
TUBE_I4
 10
5.4079
 20
0.8153
 30
15.6473
 70
192
 0
VERTEX
 8
TUBE_I4
 10
5.1366
 20
0.7272
 30
14.9207
 70
192
 0
VERTEX
 8
TUBE_I4
 10
5.1366
 20
0.7272
 30
14.9207
 70
192
 0
VERTEX
 8
TUBE_I4
 10
5.1366
 20
0.7272
 30
15.6473
 70
192
 0
VERTEX
 8
TUBE_I4
 10
5.1366
 20
0.7272
 30
15.6473
 70
192
 0
VERTEX
 8
TUBE_I4
 10
5.3043
 20
0.958
 30
14.9207
 70
192
 0
VERTEX
 8
TUBE_I4
 10
5.3043
 20
0.958
 30
14.9207
 70
192
 0
VERTEX
 8
TUBE_I4
 10
5.3043
 20
0.958
 30
15.6473
 70
192
 0
VERTEX
 8
TUBE_I4
 10
5.3043
 20
0.958
 30
15.6473
 70
192
 0
VERTEX
 8
TUBE_I4
 10
5.3043
 20
0.6727
 30
15.6473
 70
192
 0
VERTEX
 8
TUBE_I4
 10
5.3043
 20
0.6727
 30
14.9207
 70
192
 0
VERTEX
 8
TUBE_I4
 10
5.3043
 20
0.6727
 30
14.9207
 70
192
 0
VERTEX
 8
TUBE_I4
 10
5.3043
 20
0.6727
 30
15.6473
 70
192
 0
VERTEX
 8
TUBE_I4
 10
5.1366
 20
0.9035
 30
14.9207
 70
192
 0
VERTEX
 8
TUBE_I4
 10
5.1366
 20
0.9035
 30
14.9207
 70
192
 0
VERTEX
 8
TUBE_I4
 10
5.1366
 20
0.9035
 30
15.6473
 70
192
 0
VERTEX
 8
TUBE_I4
 10
0
 20
0
 30
0
 70
128
 71
11
 72
12
 73
20
 74
19
 0
VERTEX
 8
TUBE_I4
 10
0
 20
0
 30
0
 70
128
 71
3
 72
4
 73
12
 74
11
 0
VERTEX
 8
TUBE_I4
 10
0
 20
0
 30
0
 70
128
 71
19
 72
20
 73
8
 74
7
 0
VERTEX
 8
TUBE_I4
 10
0
 20
0
 30
0
 70
128
 71
7
 72
8
 73
17
 74
16
 0
VERTEX
 8
TUBE_I4
 10
0
 20
0
 30
0
 70
128
 71
16
 72
17
 73
4
 74
3
 0
VERTEX
 8
TUBE_I4
 10
0
 20
0
 30
0
 70
128
 71
3
 72
11
 73
7
 74
16
 0
VERTEX
 8
TUBE_I4
 10
0
 20
0
 30
0
 70
128
 71
11
 72
19
 73
7
 74
7
 0
SEQEND
 0
POLYLINE
 8
TUBE_I66
 66
1
 10
0.0
 20
0.0
 30
0.0
 70
64
 71
20
 72
7
 0
VERTEX
 8
TUBE_I66
 10
5.1366
 20
-0.9033
 30
15.6473
 70
192
 0
VERTEX
 8
TUBE_I66
 10
5.4079
 20
-0.9915
 30
14.9207
 70
192
 0
VERTEX
 8
TUBE_I66
 10
5.4079
 20
-0.9915
 30
14.9207
 70
192
 0
VERTEX
 8
TUBE_I66
 10
5.4079
 20
-0.9915
 30
15.6473
 70
192
 0
VERTEX
 8
TUBE_I66
 10
5.4079
 20
-0.9915
 30
15.6473
 70
192
 0
VERTEX
 8
TUBE_I66
 10
5.1366
 20
-1.0796
 30
14.9207
 70
192
 0
VERTEX
 8
TUBE_I66
 10
5.1366
 20
-1.0796
 30
14.9207
 70
192
 0
VERTEX
 8
TUBE_I66
 10
5.1366
 20
-1.0796
 30
15.6473
 70
192
 0
VERTEX
 8
TUBE_I66
 10
5.1366
 20
-1.0796
 30
15.6473
 70
192
 0
VERTEX
 8
TUBE_I66
 10
5.3043
 20
-0.8488
 30
14.9207
 70
192
 0
VERTEX
 8
TUBE_I66
 10
5.3043
 20
-0.8488
 30
14.9207
 70
192
 0
VERTEX
 8
TUBE_I66
 10
5.3043
 20
-0.8488
 30
15.6473
 70
192
 0
VERTEX
 8
TUBE_I66
 10
5.3043
 20
-0.8488
 30
15.6473
 70
192
 0
VERTEX
 8
TUBE_I66
 10
5.3043
 20
-1.1341
 30
15.6473
 70
192
 0
VERTEX
 8
TUBE_I66
 10
5.3043
 20
-1.1341
 30
14.9207
 70
192
 0
VERTEX
 8
TUBE_I66
 10
5.3043
 20
-1.1341
 30
14.9207
 70
192
 0
VERTEX
 8
TUBE_I66
 10
5.3043
 20
-1.1341
 30
15.6473
 70
192
 0
VERTEX
 8
TUBE_I66
 10
5.1366
 20
-0.9033
 30
14.9207
 70
192
 0
VERTEX
 8
TUBE_I66
 10
5.1366
 20
-0.9033
 30
14.9207
 70
192
 0
VERTEX
 8
TUBE_I66
 10
5.1366
 20
-0.9033
 30
15.6473
 70
192
 0
VERTEX
 8
TUBE_I66
 10
0
 20
0
 30
0
 70
128
 71
11
 72
12
 73
20
 74
19
 0
VERTEX
 8
TUBE_I66
 10
0
 20
0
 30
0
 70
128
 71
3
 72
4
 73
12
 74
11
 0
VERTEX
 8
TUBE_I66
 10
0
 20
0
 30
0
 70
128
 71
19
 72
20
 73
8
 74
7
 0
VERTEX
 8
TUBE_I66
 10
0
 20
0
 30
0
 70
128
 71
7
 72
8
 73
17
 74
16
 0
VERTEX
 8
TUBE_I66
 10
0
 20
0
 30
0
 70
128
 71
16
 72
17
 73
4
 74
3
 0
VERTEX
 8
TUBE_I66
 10
0
 20
0
 30
0
 70
128
 71
3
 72
11
 73
7
 74
16
 0
VERTEX
 8
TUBE_I66
 10
0
 20
0
 30
0
 70
128
 71
11
 72
19
 73
7
 74
7
 0
SEQEND
 0
POLYLINE
 8
TUBE_IN55
 66
1
 10
0.0
 20
0.0
 30
0.0
 70
64
 71
20
 72
7
 0
VERTEX
 8
TUBE_IN55
 10
5.1366
 20
-2.6809
 30
15.6473
 70
192
 0
VERTEX
 8
TUBE_IN55
 10
5.4079
 20
-2.7691
 30
14.9207
 70
192
 0
VERTEX
 8
TUBE_IN55
 10
5.4079
 20
-2.7691
 30
14.9207
 70
192
 0
VERTEX
 8
TUBE_IN55
 10
5.4079
 20
-2.7691
 30
15.6473
 70
192
 0
VERTEX
 8
TUBE_IN55
 10
5.4079
 20
-2.7691
 30
15.6473
 70
192
 0
VERTEX
 8
TUBE_IN55
 10
5.1366
 20
-2.8573
 30
14.9207
 70
192
 0
VERTEX
 8
TUBE_IN55
 10
5.1366
 20
-2.8573
 30
14.9207
 70
192
 0
VERTEX
 8
TUBE_IN55
 10
5.1366
 20
-2.8573
 30
15.6473
 70
192
 0
VERTEX
 8
TUBE_IN55
 10
5.1366
 20
-2.8573
 30
15.6473
 70
192
 0
VERTEX
 8
TUBE_IN55
 10
5.3043
 20
-2.6264
 30
14.9207
 70
192
 0
VERTEX
 8
TUBE_IN55
 10
5.3043
 20
-2.6264
 30
14.9207
 70
192
 0
VERTEX
 8
TUBE_IN55
 10
5.3043
 20
-2.6264
 30
15.6473
 70
192
 0
VERTEX
 8
TUBE_IN55
 10
5.3043
 20
-2.6264
 30
15.6473
 70
192
 0
VERTEX
 8
TUBE_IN55
 10
5.3043
 20
-2.9118
 30
15.6473
 70
192
 0
VERTEX
 8
TUBE_IN55
 10
5.3043
 20
-2.9118
 30
14.9207
 70
192
 0
VERTEX
 8
TUBE_IN55
 10
5.3043
 20
-2.9118
 30
14.9207
 70
192
 0
VERTEX
 8
TUBE_IN55
 10
5.3043
 20
-2.9118
 30
15.6473
 70
192
 0
VERTEX
 8
TUBE_IN55
 10
5.1366
 20
-2.6809
 30
14.9207
 70
192
 0
VERTEX
 8
TUBE_IN55
 10
5.1366
 20
-2.6809
 30
14.9207
 70
192
 0
VERTEX
 8
TUBE_IN55
 10
5.1366
 20
-2.6809
 30
15.6473
 70
192
 0
VERTEX
 8
TUBE_IN55
 10
0
 20
0
 30
0
 70
128
 71
11
 72
12
 73
20
 74
19
 0
VERTEX
 8
TUBE_IN55
 10
0
 20
0
 30
0
 70
128
 71
3
 72
4
 73
12
 74
11
 0
VERTEX
 8
TUBE_IN55
 10
0
 20
0
 30
0
 70
128
 71
19
 72
20
 73
8
 74
7
 0
VERTEX
 8
TUBE_IN55
 10
0
 20
0
 30
0
 70
128
 71
7
 72
8
 73
17
 74
16
 0
VERTEX
 8
TUBE_IN55
 10
0
 20
0
 30
0
 70
128
 71
16
 72
17
 73
4
 74
3
 0
VERTEX
 8
TUBE_IN55
 10
0
 20
0
 30
0
 70
128
 71
3
 72
11
 73
7
 74
16
 0
VERTEX
 8
TUBE_IN55
 10
0
 20
0
 30
0
 70
128
 71
11
 72
19
 73
7
 74
7
 0
SEQEND
 0
POLYLINE
 8
TUBE_44
 66
1
 10
0.0
 20
0.0
 30
0.0
 70
64
 71
20
 72
7
 0
VERTEX
 8
TUBE_44
 10
5.1366
 20
-4.4707
 30
15.6473
 70
192
 0
VERTEX
 8
TUBE_44
 10
5.4079
 20
-4.5589
 30
14.9207
 70
192
 0
VERTEX
 8
TUBE_44
 10
5.4079
 20
-4.5589
 30
14.9207
 70
192
 0
VERTEX
 8
TUBE_44
 10
5.4079
 20
-4.5589
 30
15.6473
 70
192
 0
VERTEX
 8
TUBE_44
 10
5.4079
 20
-4.5589
 30
15.6473
 70
192
 0
VERTEX
 8
TUBE_44
 10
5.1366
 20
-4.647
 30
14.9207
 70
192
 0
VERTEX
 8
TUBE_44
 10
5.1366
 20
-4.647
 30
14.9207
 70
192
 0
VERTEX
 8
TUBE_44
 10
5.1366
 20
-4.647
 30
15.6473
 70
192
 0
VERTEX
 8
TUBE_44
 10
5.1366
 20
-4.647
 30
15.6473
 70
192
 0
VERTEX
 8
TUBE_44
 10
5.3043
 20
-4.4162
 30
14.9207
 70
192
 0
VERTEX
 8
TUBE_44
 10
5.3043
 20
-4.4162
 30
14.9207
 70
192
 0
VERTEX
 8
TUBE_44
 10
5.3043
 20
-4.4162
 30
15.6473
 70
192
 0
VERTEX
 8
TUBE_44
 10
5.3043
 20
-4.4162
 30
15.6473
 70
192
 0
VERTEX
 8
TUBE_44
 10
5.3043
 20
-4.7015
 30
15.6473
 70
192
 0
VERTEX
 8
TUBE_44
 10
5.3043
 20
-4.7015
 30
14.9207
 70
192
 0
VERTEX
 8
TUBE_44
 10
5.3043
 20
-4.7015
 30
14.9207
 70
192
 0
VERTEX
 8
TUBE_44
 10
5.3043
 20
-4.7015
 30
15.6473
 70
192
 0
VERTEX
 8
TUBE_44
 10
5.1366
 20
-4.4707
 30
14.9207
 70
192
 0
VERTEX
 8
TUBE_44
 10
5.1366
 20
-4.4707
 30
14.9207
 70
192
 0
VERTEX
 8
TUBE_44
 10
5.1366
 20
-4.4707
 30
15.6473
 70
192
 0
VERTEX
 8
TUBE_44
 10
0
 20
0
 30
0
 70
128
 71
11
 72
12
 73
20
 74
19
 0
VERTEX
 8
TUBE_44
 10
0
 20
0
 30
0
 70
128
 71
3
 72
4
 73
12
 74
11
 0
VERTEX
 8
TUBE_44
 10
0
 20
0
 30
0
 70
128
 71
19
 72
20
 73
8
 74
7
 0
VERTEX
 8
TUBE_44
 10
0
 20
0
 30
0
 70
128
 71
7
 72
8
 73
17
 74
16
 0
VERTEX
 8
TUBE_44
 10
0
 20
0
 30
0
 70
128
 71
16
 72
17
 73
4
 74
3
 0
VERTEX
 8
TUBE_44
 10
0
 20
0
 30
0
 70
128
 71
3
 72
11
 73
7
 74
16
 0
VERTEX
 8
TUBE_44
 10
0
 20
0
 30
0
 70
128
 71
11
 72
19
 73
7
 74
7
 0
SEQEND
 0
POLYLINE
 8
TUBE_IN3
 66
1
 10
0.0
 20
0.0
 30
0.0
 70
64
 71
20
 72
7
 0
VERTEX
 8
TUBE_IN3
 10
5.1366
 20
-6.2569
 30
15.6473
 70
192
 0
VERTEX
 8
TUBE_IN3
 10
5.4079
 20
-6.3451
 30
14.9207
 70
192
 0
VERTEX
 8
TUBE_IN3
 10
5.4079
 20
-6.3451
 30
14.9207
 70
192
 0
VERTEX
 8
TUBE_IN3
 10
5.4079
 20
-6.3451
 30
15.6473
 70
192
 0
VERTEX
 8
TUBE_IN3
 10
5.4079
 20
-6.3451
 30
15.6473
 70
192
 0
VERTEX
 8
TUBE_IN3
 10
5.1366
 20
-6.4333
 30
14.9207
 70
192
 0
VERTEX
 8
TUBE_IN3
 10
5.1366
 20
-6.4333
 30
14.9207
 70
192
 0
VERTEX
 8
TUBE_IN3
 10
5.1366
 20
-6.4333
 30
15.6473
 70
192
 0
VERTEX
 8
TUBE_IN3
 10
5.1366
 20
-6.4333
 30
15.6473
 70
192
 0
VERTEX
 8
TUBE_IN3
 10
5.3043
 20
-6.2024
 30
14.9207
 70
192
 0
VERTEX
 8
TUBE_IN3
 10
5.3043
 20
-6.2024
 30
14.9207
 70
192
 0
VERTEX
 8
TUBE_IN3
 10
5.3043
 20
-6.2024
 30
15.6473
 70
192
 0
VERTEX
 8
TUBE_IN3
 10
5.3043
 20
-6.2024
 30
15.6473
 70
192
 0
VERTEX
 8
TUBE_IN3
 10
5.3043
 20
-6.4878
 30
15.6473
 70
192
 0
VERTEX
 8
TUBE_IN3
 10
5.3043
 20
-6.4878
 30
14.9207
 70
192
 0
VERTEX
 8
TUBE_IN3
 10
5.3043
 20
-6.4878
 30
14.9207
 70
192
 0
VERTEX
 8
TUBE_IN3
 10
5.3043
 20
-6.4878
 30
15.6473
 70
192
 0
VERTEX
 8
TUBE_IN3
 10
5.1366
 20
-6.2569
 30
14.9207
 70
192
 0
VERTEX
 8
TUBE_IN3
 10
5.1366
 20
-6.2569
 30
14.9207
 70
192
 0
VERTEX
 8
TUBE_IN3
 10
5.1366
 20
-6.2569
 30
15.6473
 70
192
 0
VERTEX
 8
TUBE_IN3
 10
0
 20
0
 30
0
 70
128
 71
11
 72
12
 73
20
 74
19
 0
VERTEX
 8
TUBE_IN3
 10
0
 20
0
 30
0
 70
128
 71
3
 72
4
 73
12
 74
11
 0
VERTEX
 8
TUBE_IN3
 10
0
 20
0
 30
0
 70
128
 71
19
 72
20
 73
8
 74
7
 0
VERTEX
 8
TUBE_IN3
 10
0
 20
0
 30
0
 70
128
 71
7
 72
8
 73
17
 74
16
 0
VERTEX
 8
TUBE_IN3
 10
0
 20
0
 30
0
 70
128
 71
16
 72
17
 73
4
 74
3
 0
VERTEX
 8
TUBE_IN3
 10
0
 20
0
 30
0
 70
128
 71
3
 72
11
 73
7
 74
16
 0
VERTEX
 8
TUBE_IN3
 10
0
 20
0
 30
0
 70
128
 71
11
 72
19
 73
7
 74
7
 0
SEQEND
 0
POLYLINE
 8
TUBE_I22
 66
1
 10
0.0
 20
0.0
 30
0.0
 70
64
 71
20
 72
7
 0
VERTEX
 8
TUBE_I22
 10
5.1366
 20
-8.0664
 30
15.6473
 70
192
 0
VERTEX
 8
TUBE_I22
 10
5.4079
 20
-8.1546
 30
14.9207
 70
192
 0
VERTEX
 8
TUBE_I22
 10
5.4079
 20
-8.1546
 30
14.9207
 70
192
 0
VERTEX
 8
TUBE_I22
 10
5.4079
 20
-8.1546
 30
15.6473
 70
192
 0
VERTEX
 8
TUBE_I22
 10
5.4079
 20
-8.1546
 30
15.6473
 70
192
 0
VERTEX
 8
TUBE_I22
 10
5.1366
 20
-8.2427
 30
14.9207
 70
192
 0
VERTEX
 8
TUBE_I22
 10
5.1366
 20
-8.2427
 30
14.9207
 70
192
 0
VERTEX
 8
TUBE_I22
 10
5.1366
 20
-8.2427
 30
15.6473
 70
192
 0
VERTEX
 8
TUBE_I22
 10
5.1366
 20
-8.2427
 30
15.6473
 70
192
 0
VERTEX
 8
TUBE_I22
 10
5.3043
 20
-8.0119
 30
14.9207
 70
192
 0
VERTEX
 8
TUBE_I22
 10
5.3043
 20
-8.0119
 30
14.9207
 70
192
 0
VERTEX
 8
TUBE_I22
 10
5.3043
 20
-8.0119
 30
15.6473
 70
192
 0
VERTEX
 8
TUBE_I22
 10
5.3043
 20
-8.0119
 30
15.6473
 70
192
 0
VERTEX
 8
TUBE_I22
 10
5.3043
 20
-8.2972
 30
15.6473
 70
192
 0
VERTEX
 8
TUBE_I22
 10
5.3043
 20
-8.2972
 30
14.9207
 70
192
 0
VERTEX
 8
TUBE_I22
 10
5.3043
 20
-8.2972
 30
14.9207
 70
192
 0
VERTEX
 8
TUBE_I22
 10
5.3043
 20
-8.2972
 30
15.6473
 70
192
 0
VERTEX
 8
TUBE_I22
 10
5.1366
 20
-8.0664
 30
14.9207
 70
192
 0
VERTEX
 8
TUBE_I22
 10
5.1366
 20
-8.0664
 30
14.9207
 70
192
 0
VERTEX
 8
TUBE_I22
 10
5.1366
 20
-8.0664
 30
15.6473
 70
192
 0
VERTEX
 8
TUBE_I22
 10
0
 20
0
 30
0
 70
128
 71
11
 72
12
 73
20
 74
19
 0
VERTEX
 8
TUBE_I22
 10
0
 20
0
 30
0
 70
128
 71
3
 72
4
 73
12
 74
11
 0
VERTEX
 8
TUBE_I22
 10
0
 20
0
 30
0
 70
128
 71
19
 72
20
 73
8
 74
7
 0
VERTEX
 8
TUBE_I22
 10
0
 20
0
 30
0
 70
128
 71
7
 72
8
 73
17
 74
16
 0
VERTEX
 8
TUBE_I22
 10
0
 20
0
 30
0
 70
128
 71
16
 72
17
 73
4
 74
3
 0
VERTEX
 8
TUBE_I22
 10
0
 20
0
 30
0
 70
128
 71
3
 72
11
 73
7
 74
16
 0
VERTEX
 8
TUBE_I22
 10
0
 20
0
 30
0
 70
128
 71
11
 72
19
 73
7
 74
7
 0
SEQEND
 0
POLYLINE
 8
TUBE_I1
 66
1
 10
0.0
 20
0.0
 30
0.0
 70
64
 71
20
 72
7
 0
VERTEX
 8
TUBE_I1
 10
5.1366
 20
-9.8024
 30
15.6473
 70
192
 0
VERTEX
 8
TUBE_I1
 10
5.4079
 20
-9.8906
 30
14.9207
 70
192
 0
VERTEX
 8
TUBE_I1
 10
5.4079
 20
-9.8906
 30
14.9207
 70
192
 0
VERTEX
 8
TUBE_I1
 10
5.4079
 20
-9.8906
 30
15.6473
 70
192
 0
VERTEX
 8
TUBE_I1
 10
5.4079
 20
-9.8906
 30
15.6473
 70
192
 0
VERTEX
 8
TUBE_I1
 10
5.1366
 20
-9.9788
 30
14.9207
 70
192
 0
VERTEX
 8
TUBE_I1
 10
5.1366
 20
-9.9788
 30
14.9207
 70
192
 0
VERTEX
 8
TUBE_I1
 10
5.1366
 20
-9.9788
 30
15.6473
 70
192
 0
VERTEX
 8
TUBE_I1
 10
5.1366
 20
-9.9788
 30
15.6473
 70
192
 0
VERTEX
 8
TUBE_I1
 10
5.3043
 20
-9.7479
 30
14.9207
 70
192
 0
VERTEX
 8
TUBE_I1
 10
5.3043
 20
-9.7479
 30
14.9207
 70
192
 0
VERTEX
 8
TUBE_I1
 10
5.3043
 20
-9.7479
 30
15.6473
 70
192
 0
VERTEX
 8
TUBE_I1
 10
5.3043
 20
-9.7479
 30
15.6473
 70
192
 0
VERTEX
 8
TUBE_I1
 10
5.3043
 20
-10.0332
 30
15.6473
 70
192
 0
VERTEX
 8
TUBE_I1
 10
5.3043
 20
-10.0332
 30
14.9207
 70
192
 0
VERTEX
 8
TUBE_I1
 10
5.3043
 20
-10.0332
 30
14.9207
 70
192
 0
VERTEX
 8
TUBE_I1
 10
5.3043
 20
-10.0332
 30
15.6473
 70
192
 0
VERTEX
 8
TUBE_I1
 10
5.1366
 20
-9.8024
 30
14.9207
 70
192
 0
VERTEX
 8
TUBE_I1
 10
5.1366
 20
-9.8024
 30
14.9207
 70
192
 0
VERTEX
 8
TUBE_I1
 10
5.1366
 20
-9.8024
 30
15.6473
 70
192
 0
VERTEX
 8
TUBE_I1
 10
0
 20
0
 30
0
 70
128
 71
11
 72
12
 73
20
 74
19
 0
VERTEX
 8
TUBE_I1
 10
0
 20
0
 30
0
 70
128
 71
3
 72
4
 73
12
 74
11
 0
VERTEX
 8
TUBE_I1
 10
0
 20
0
 30
0
 70
128
 71
19
 72
20
 73
8
 74
7
 0
VERTEX
 8
TUBE_I1
 10
0
 20
0
 30
0
 70
128
 71
7
 72
8
 73
17
 74
16
 0
VERTEX
 8
TUBE_I1
 10
0
 20
0
 30
0
 70
128
 71
16
 72
17
 73
4
 74
3
 0
VERTEX
 8
TUBE_I1
 10
0
 20
0
 30
0
 70
128
 71
3
 72
11
 73
7
 74
16
 0
VERTEX
 8
TUBE_I1
 10
0
 20
0
 30
0
 70
128
 71
11
 72
19
 73
7
 74
7
 0
SEQEND
 0
POLYLINE
 8
TUB123
 66
1
 10
0.0
 20
0.0
 30
0.0
 70
64
 71
20
 72
7
 0
VERTEX
 8
TUB123
 10
5.1366
 20
-11.5718
 30
15.6473
 70
192
 0
VERTEX
 8
TUB123
 10
5.4079
 20
-11.6599
 30
14.9207
 70
192
 0
VERTEX
 8
TUB123
 10
5.4079
 20
-11.6599
 30
14.9207
 70
192
 0
VERTEX
 8
TUB123
 10
5.4079
 20
-11.6599
 30
15.6473
 70
192
 0
VERTEX
 8
TUB123
 10
5.4079
 20
-11.6599
 30
15.6473
 70
192
 0
VERTEX
 8
TUB123
 10
5.1366
 20
-11.7481
 30
14.9207
 70
192
 0
VERTEX
 8
TUB123
 10
5.1366
 20
-11.7481
 30
14.9207
 70
192
 0
VERTEX
 8
TUB123
 10
5.1366
 20
-11.7481
 30
15.6473
 70
192
 0
VERTEX
 8
TUB123
 10
5.1366
 20
-11.7481
 30
15.6473
 70
192
 0
VERTEX
 8
TUB123
 10
5.3043
 20
-11.5173
 30
14.9207
 70
192
 0
VERTEX
 8
TUB123
 10
5.3043
 20
-11.5173
 30
14.9207
 70
192
 0
VERTEX
 8
TUB123
 10
5.3043
 20
-11.5173
 30
15.6473
 70
192
 0
VERTEX
 8
TUB123
 10
5.3043
 20
-11.5173
 30
15.6473
 70
192
 0
VERTEX
 8
TUB123
 10
5.3043
 20
-11.8026
 30
15.6473
 70
192
 0
VERTEX
 8
TUB123
 10
5.3043
 20
-11.8026
 30
14.9207
 70
192
 0
VERTEX
 8
TUB123
 10
5.3043
 20
-11.8026
 30
14.9207
 70
192
 0
VERTEX
 8
TUB123
 10
5.3043
 20
-11.8026
 30
15.6473
 70
192
 0
VERTEX
 8
TUB123
 10
5.1366
 20
-11.5718
 30
14.9207
 70
192
 0
VERTEX
 8
TUB123
 10
5.1366
 20
-11.5718
 30
14.9207
 70
192
 0
VERTEX
 8
TUB123
 10
5.1366
 20
-11.5718
 30
15.6473
 70
192
 0
VERTEX
 8
TUB123
 10
0
 20
0
 30
0
 70
128
 71
11
 72
12
 73
20
 74
19
 0
VERTEX
 8
TUB123
 10
0
 20
0
 30
0
 70
128
 71
3
 72
4
 73
12
 74
11
 0
VERTEX
 8
TUB123
 10
0
 20
0
 30
0
 70
128
 71
19
 72
20
 73
8
 74
7
 0
VERTEX
 8
TUB123
 10
0
 20
0
 30
0
 70
128
 71
7
 72
8
 73
17
 74
16
 0
VERTEX
 8
TUB123
 10
0
 20
0
 30
0
 70
128
 71
16
 72
17
 73
4
 74
3
 0
VERTEX
 8
TUB123
 10
0
 20
0
 30
0
 70
128
 71
3
 72
11
 73
7
 74
16
 0
VERTEX
 8
TUB123
 10
0
 20
0
 30
0
 70
128
 71
11
 72
19
 73
7
 74
7
 0
SEQEND
 0
POLYLINE
 8
TUBE_1
 66
1
 10
0.0
 20
0.0
 30
0.0
 70
64
 71
20
 72
7
 0
VERTEX
 8
TUBE_1
 10
5.1366
 20
-13.3609
 30
15.6473
 70
192
 0
VERTEX
 8
TUBE_1
 10
5.4079
 20
-13.4491
 30
14.9207
 70
192
 0
VERTEX
 8
TUBE_1
 10
5.4079
 20
-13.4491
 30
14.9207
 70
192
 0
VERTEX
 8
TUBE_1
 10
5.4079
 20
-13.4491
 30
15.6473
 70
192
 0
VERTEX
 8
TUBE_1
 10
5.4079
 20
-13.4491
 30
15.6473
 70
192
 0
VERTEX
 8
TUBE_1
 10
5.1366
 20
-13.5373
 30
14.9207
 70
192
 0
VERTEX
 8
TUBE_1
 10
5.1366
 20
-13.5373
 30
14.9207
 70
192
 0
VERTEX
 8
TUBE_1
 10
5.1366
 20
-13.5373
 30
15.6473
 70
192
 0
VERTEX
 8
TUBE_1
 10
5.1366
 20
-13.5373
 30
15.6473
 70
192
 0
VERTEX
 8
TUBE_1
 10
5.3043
 20
-13.3064
 30
14.9207
 70
192
 0
VERTEX
 8
TUBE_1
 10
5.3043
 20
-13.3064
 30
14.9207
 70
192
 0
VERTEX
 8
TUBE_1
 10
5.3043
 20
-13.3064
 30
15.6473
 70
192
 0
VERTEX
 8
TUBE_1
 10
5.3043
 20
-13.3064
 30
15.6473
 70
192
 0
VERTEX
 8
TUBE_1
 10
5.3043
 20
-13.5918
 30
15.6473
 70
192
 0
VERTEX
 8
TUBE_1
 10
5.3043
 20
-13.5918
 30
14.9207
 70
192
 0
VERTEX
 8
TUBE_1
 10
5.3043
 20
-13.5918
 30
14.9207
 70
192
 0
VERTEX
 8
TUBE_1
 10
5.3043
 20
-13.5918
 30
15.6473
 70
192
 0
VERTEX
 8
TUBE_1
 10
5.1366
 20
-13.3609
 30
14.9207
 70
192
 0
VERTEX
 8
TUBE_1
 10
5.1366
 20
-13.3609
 30
14.9207
 70
192
 0
VERTEX
 8
TUBE_1
 10
5.1366
 20
-13.3609
 30
15.6473
 70
192
 0
VERTEX
 8
TUBE_1
 10
0
 20
0
 30
0
 70
128
 71
11
 72
12
 73
20
 74
19
 0
VERTEX
 8
TUBE_1
 10
0
 20
0
 30
0
 70
128
 71
3
 72
4
 73
12
 74
11
 0
VERTEX
 8
TUBE_1
 10
0
 20
0
 30
0
 70
128
 71
19
 72
20
 73
8
 74
7
 0
VERTEX
 8
TUBE_1
 10
0
 20
0
 30
0
 70
128
 71
7
 72
8
 73
17
 74
16
 0
VERTEX
 8
TUBE_1
 10
0
 20
0
 30
0
 70
128
 71
16
 72
17
 73
4
 74
3
 0
VERTEX
 8
TUBE_1
 10
0
 20
0
 30
0
 70
128
 71
3
 72
11
 73
7
 74
16
 0
VERTEX
 8
TUBE_1
 10
0
 20
0
 30
0
 70
128
 71
11
 72
19
 73
7
 74
7
 0
SEQEND
 0
POLYLINE
 8
TUBE_INSTANCE_14
 66
1
 10
0.0
 20
0.0
 30
0.0
 70
64
 71
20
 72
7
 0
VERTEX
 8
TUBE_INSTANCE_14
 10
6.9789
 20
13.575
 30
15.6473
 70
192
 0
VERTEX
 8
TUBE_INSTANCE_14
 10
7.2503
 20
13.4868
 30
14.9207
 70
192
 0
VERTEX
 8
TUBE_INSTANCE_14
 10
7.2503
 20
13.4868
 30
14.9207
 70
192
 0
VERTEX
 8
TUBE_INSTANCE_14
 10
7.2503
 20
13.4868
 30
15.6473
 70
192
 0
VERTEX
 8
TUBE_INSTANCE_14
 10
7.2503
 20
13.4868
 30
15.6473
 70
192
 0
VERTEX
 8
TUBE_INSTANCE_14
 10
6.9789
 20
13.3987
 30
14.9207
 70
192
 0
VERTEX
 8
TUBE_INSTANCE_14
 10
6.9789
 20
13.3987
 30
14.9207
 70
192
 0
VERTEX
 8
TUBE_INSTANCE_14
 10
6.9789
 20
13.3987
 30
15.6473
 70
192
 0
VERTEX
 8
TUBE_INSTANCE_14
 10
6.9789
 20
13.3987
 30
15.6473
 70
192
 0
VERTEX
 8
TUBE_INSTANCE_14
 10
7.1466
 20
13.6295
 30
14.9207
 70
192
 0
VERTEX
 8
TUBE_INSTANCE_14
 10
7.1466
 20
13.6295
 30
14.9207
 70
192
 0
VERTEX
 8
TUBE_INSTANCE_14
 10
7.1466
 20
13.6295
 30
15.6473
 70
192
 0
VERTEX
 8
TUBE_INSTANCE_14
 10
7.1466
 20
13.6295
 30
15.6473
 70
192
 0
VERTEX
 8
TUBE_INSTANCE_14
 10
7.1466
 20
13.3442
 30
15.6473
 70
192
 0
VERTEX
 8
TUBE_INSTANCE_14
 10
7.1466
 20
13.3442
 30
14.9207
 70
192
 0
VERTEX
 8
TUBE_INSTANCE_14
 10
7.1466
 20
13.3442
 30
14.9207
 70
192
 0
VERTEX
 8
TUBE_INSTANCE_14
 10
7.1466
 20
13.3442
 30
15.6473
 70
192
 0
VERTEX
 8
TUBE_INSTANCE_14
 10
6.9789
 20
13.575
 30
14.9207
 70
192
 0
VERTEX
 8
TUBE_INSTANCE_14
 10
6.9789
 20
13.575
 30
14.9207
 70
192
 0
VERTEX
 8
TUBE_INSTANCE_14
 10
6.9789
 20
13.575
 30
15.6473
 70
192
 0
VERTEX
 8
TUBE_INSTANCE_14
 10
0
 20
0
 30
0
 70
128
 71
11
 72
12
 73
20
 74
19
 0
VERTEX
 8
TUBE_INSTANCE_14
 10
0
 20
0
 30
0
 70
128
 71
3
 72
4
 73
12
 74
11
 0
VERTEX
 8
TUBE_INSTANCE_14
 10
0
 20
0
 30
0
 70
128
 71
19
 72
20
 73
8
 74
7
 0
VERTEX
 8
TUBE_INSTANCE_14
 10
0
 20
0
 30
0
 70
128
 71
7
 72
8
 73
17
 74
16
 0
VERTEX
 8
TUBE_INSTANCE_14
 10
0
 20
0
 30
0
 70
128
 71
16
 72
17
 73
4
 74
3
 0
VERTEX
 8
TUBE_INSTANCE_14
 10
0
 20
0
 30
0
 70
128
 71
3
 72
11
 73
7
 74
16
 0
VERTEX
 8
TUBE_INSTANCE_14
 10
0
 20
0
 30
0
 70
128
 71
11
 72
19
 73
7
 74
7
 0
SEQEND
 0
POLYLINE
 8
TUBE_INSTANCE_13
 66
1
 10
0.0
 20
0.0
 30
0.0
 70
64
 71
20
 72
7
 0
VERTEX
 8
TUBE_INSTANCE_13
 10
6.9789
 20
11.7503
 30
15.6473
 70
192
 0
VERTEX
 8
TUBE_INSTANCE_13
 10
7.2503
 20
11.6621
 30
14.9207
 70
192
 0
VERTEX
 8
TUBE_INSTANCE_13
 10
7.2503
 20
11.6621
 30
14.9207
 70
192
 0
VERTEX
 8
TUBE_INSTANCE_13
 10
7.2503
 20
11.6621
 30
15.6473
 70
192
 0
VERTEX
 8
TUBE_INSTANCE_13
 10
7.2503
 20
11.6621
 30
15.6473
 70
192
 0
VERTEX
 8
TUBE_INSTANCE_13
 10
6.9789
 20
11.574
 30
14.9207
 70
192
 0
VERTEX
 8
TUBE_INSTANCE_13
 10
6.9789
 20
11.574
 30
14.9207
 70
192
 0
VERTEX
 8
TUBE_INSTANCE_13
 10
6.9789
 20
11.574
 30
15.6473
 70
192
 0
VERTEX
 8
TUBE_INSTANCE_13
 10
6.9789
 20
11.574
 30
15.6473
 70
192
 0
VERTEX
 8
TUBE_INSTANCE_13
 10
7.1466
 20
11.8048
 30
14.9207
 70
192
 0
VERTEX
 8
TUBE_INSTANCE_13
 10
7.1466
 20
11.8048
 30
14.9207
 70
192
 0
VERTEX
 8
TUBE_INSTANCE_13
 10
7.1466
 20
11.8048
 30
15.6473
 70
192
 0
VERTEX
 8
TUBE_INSTANCE_13
 10
7.1466
 20
11.8048
 30
15.6473
 70
192
 0
VERTEX
 8
TUBE_INSTANCE_13
 10
7.1466
 20
11.5195
 30
15.6473
 70
192
 0
VERTEX
 8
TUBE_INSTANCE_13
 10
7.1466
 20
11.5195
 30
14.9207
 70
192
 0
VERTEX
 8
TUBE_INSTANCE_13
 10
7.1466
 20
11.5195
 30
14.9207
 70
192
 0
VERTEX
 8
TUBE_INSTANCE_13
 10
7.1466
 20
11.5195
 30
15.6473
 70
192
 0
VERTEX
 8
TUBE_INSTANCE_13
 10
6.9789
 20
11.7503
 30
14.9207
 70
192
 0
VERTEX
 8
TUBE_INSTANCE_13
 10
6.9789
 20
11.7503
 30
14.9207
 70
192
 0
VERTEX
 8
TUBE_INSTANCE_13
 10
6.9789
 20
11.7503
 30
15.6473
 70
192
 0
VERTEX
 8
TUBE_INSTANCE_13
 10
0
 20
0
 30
0
 70
128
 71
11
 72
12
 73
20
 74
19
 0
VERTEX
 8
TUBE_INSTANCE_13
 10
0
 20
0
 30
0
 70
128
 71
3
 72
4
 73
12
 74
11
 0
VERTEX
 8
TUBE_INSTANCE_13
 10
0
 20
0
 30
0
 70
128
 71
19
 72
20
 73
8
 74
7
 0
VERTEX
 8
TUBE_INSTANCE_13
 10
0
 20
0
 30
0
 70
128
 71
7
 72
8
 73
17
 74
16
 0
VERTEX
 8
TUBE_INSTANCE_13
 10
0
 20
0
 30
0
 70
128
 71
16
 72
17
 73
4
 74
3
 0
VERTEX
 8
TUBE_INSTANCE_13
 10
0
 20
0
 30
0
 70
128
 71
3
 72
11
 73
7
 74
16
 0
VERTEX
 8
TUBE_INSTANCE_13
 10
0
 20
0
 30
0
 70
128
 71
11
 72
19
 73
7
 74
7
 0
SEQEND
 0
POLYLINE
 8
TUBE_INSTANCE_12
 66
1
 10
0.0
 20
0.0
 30
0.0
 70
64
 71
20
 72
7
 0
VERTEX
 8
TUBE_INSTANCE_12
 10
6.9789
 20
9.9231
 30
15.6473
 70
192
 0
VERTEX
 8
TUBE_INSTANCE_12
 10
7.2503
 20
9.8349
 30
14.9207
 70
192
 0
VERTEX
 8
TUBE_INSTANCE_12
 10
7.2503
 20
9.8349
 30
14.9207
 70
192
 0
VERTEX
 8
TUBE_INSTANCE_12
 10
7.2503
 20
9.8349
 30
15.6473
 70
192
 0
VERTEX
 8
TUBE_INSTANCE_12
 10
7.2503
 20
9.8349
 30
15.6473
 70
192
 0
VERTEX
 8
TUBE_INSTANCE_12
 10
6.9789
 20
9.7467
 30
14.9207
 70
192
 0
VERTEX
 8
TUBE_INSTANCE_12
 10
6.9789
 20
9.7467
 30
14.9207
 70
192
 0
VERTEX
 8
TUBE_INSTANCE_12
 10
6.9789
 20
9.7467
 30
15.6473
 70
192
 0
VERTEX
 8
TUBE_INSTANCE_12
 10
6.9789
 20
9.7467
 30
15.6473
 70
192
 0
VERTEX
 8
TUBE_INSTANCE_12
 10
7.1466
 20
9.9775
 30
14.9207
 70
192
 0
VERTEX
 8
TUBE_INSTANCE_12
 10
7.1466
 20
9.9775
 30
14.9207
 70
192
 0
VERTEX
 8
TUBE_INSTANCE_12
 10
7.1466
 20
9.9775
 30
15.6473
 70
192
 0
VERTEX
 8
TUBE_INSTANCE_12
 10
7.1466
 20
9.9775
 30
15.6473
 70
192
 0
VERTEX
 8
TUBE_INSTANCE_12
 10
7.1466
 20
9.6922
 30
15.6473
 70
192
 0
VERTEX
 8
TUBE_INSTANCE_12
 10
7.1466
 20
9.6922
 30
14.9207
 70
192
 0
VERTEX
 8
TUBE_INSTANCE_12
 10
7.1466
 20
9.6922
 30
14.9207
 70
192
 0
VERTEX
 8
TUBE_INSTANCE_12
 10
7.1466
 20
9.6922
 30
15.6473
 70
192
 0
VERTEX
 8
TUBE_INSTANCE_12
 10
6.9789
 20
9.9231
 30
14.9207
 70
192
 0
VERTEX
 8
TUBE_INSTANCE_12
 10
6.9789
 20
9.9231
 30
14.9207
 70
192
 0
VERTEX
 8
TUBE_INSTANCE_12
 10
6.9789
 20
9.9231
 30
15.6473
 70
192
 0
VERTEX
 8
TUBE_INSTANCE_12
 10
0
 20
0
 30
0
 70
128
 71
11
 72
12
 73
20
 74
19
 0
VERTEX
 8
TUBE_INSTANCE_12
 10
0
 20
0
 30
0
 70
128
 71
3
 72
4
 73
12
 74
11
 0
VERTEX
 8
TUBE_INSTANCE_12
 10
0
 20
0
 30
0
 70
128
 71
19
 72
20
 73
8
 74
7
 0
VERTEX
 8
TUBE_INSTANCE_12
 10
0
 20
0
 30
0
 70
128
 71
7
 72
8
 73
17
 74
16
 0
VERTEX
 8
TUBE_INSTANCE_12
 10
0
 20
0
 30
0
 70
128
 71
16
 72
17
 73
4
 74
3
 0
VERTEX
 8
TUBE_INSTANCE_12
 10
0
 20
0
 30
0
 70
128
 71
3
 72
11
 73
7
 74
16
 0
VERTEX
 8
TUBE_INSTANCE_12
 10
0
 20
0
 30
0
 70
128
 71
11
 72
19
 73
7
 74
7
 0
SEQEND
 0
POLYLINE
 8
TUBE_INSTANCE_11
 66
1
 10
0.0
 20
0.0
 30
0.0
 70
64
 71
20
 72
7
 0
VERTEX
 8
TUBE_INSTANCE_11
 10
6.9789
 20
8.1242
 30
15.6473
 70
192
 0
VERTEX
 8
TUBE_INSTANCE_11
 10
7.2503
 20
8.036
 30
14.9207
 70
192
 0
VERTEX
 8
TUBE_INSTANCE_11
 10
7.2503
 20
8.036
 30
14.9207
 70
192
 0
VERTEX
 8
TUBE_INSTANCE_11
 10
7.2503
 20
8.036
 30
15.6473
 70
192
 0
VERTEX
 8
TUBE_INSTANCE_11
 10
7.2503
 20
8.036
 30
15.6473
 70
192
 0
VERTEX
 8
TUBE_INSTANCE_11
 10
6.9789
 20
7.9479
 30
14.9207
 70
192
 0
VERTEX
 8
TUBE_INSTANCE_11
 10
6.9789
 20
7.9479
 30
14.9207
 70
192
 0
VERTEX
 8
TUBE_INSTANCE_11
 10
6.9789
 20
7.9479
 30
15.6473
 70
192
 0
VERTEX
 8
TUBE_INSTANCE_11
 10
6.9789
 20
7.9479
 30
15.6473
 70
192
 0
VERTEX
 8
TUBE_INSTANCE_11
 10
7.1466
 20
8.1787
 30
14.9207
 70
192
 0
VERTEX
 8
TUBE_INSTANCE_11
 10
7.1466
 20
8.1787
 30
14.9207
 70
192
 0
VERTEX
 8
TUBE_INSTANCE_11
 10
7.1466
 20
8.1787
 30
15.6473
 70
192
 0
VERTEX
 8
TUBE_INSTANCE_11
 10
7.1466
 20
8.1787
 30
15.6473
 70
192
 0
VERTEX
 8
TUBE_INSTANCE_11
 10
7.1466
 20
7.8934
 30
15.6473
 70
192
 0
VERTEX
 8
TUBE_INSTANCE_11
 10
7.1466
 20
7.8934
 30
14.9207
 70
192
 0
VERTEX
 8
TUBE_INSTANCE_11
 10
7.1466
 20
7.8934
 30
14.9207
 70
192
 0
VERTEX
 8
TUBE_INSTANCE_11
 10
7.1466
 20
7.8934
 30
15.6473
 70
192
 0
VERTEX
 8
TUBE_INSTANCE_11
 10
6.9789
 20
8.1242
 30
14.9207
 70
192
 0
VERTEX
 8
TUBE_INSTANCE_11
 10
6.9789
 20
8.1242
 30
14.9207
 70
192
 0
VERTEX
 8
TUBE_INSTANCE_11
 10
6.9789
 20
8.1242
 30
15.6473
 70
192
 0
VERTEX
 8
TUBE_INSTANCE_11
 10
0
 20
0
 30
0
 70
128
 71
11
 72
12
 73
20
 74
19
 0
VERTEX
 8
TUBE_INSTANCE_11
 10
0
 20
0
 30
0
 70
128
 71
3
 72
4
 73
12
 74
11
 0
VERTEX
 8
TUBE_INSTANCE_11
 10
0
 20
0
 30
0
 70
128
 71
19
 72
20
 73
8
 74
7
 0
VERTEX
 8
TUBE_INSTANCE_11
 10
0
 20
0
 30
0
 70
128
 71
7
 72
8
 73
17
 74
16
 0
VERTEX
 8
TUBE_INSTANCE_11
 10
0
 20
0
 30
0
 70
128
 71
16
 72
17
 73
4
 74
3
 0
VERTEX
 8
TUBE_INSTANCE_11
 10
0
 20
0
 30
0
 70
128
 71
3
 72
11
 73
7
 74
16
 0
VERTEX
 8
TUBE_INSTANCE_11
 10
0
 20
0
 30
0
 70
128
 71
11
 72
19
 73
7
 74
7
 0
SEQEND
 0
POLYLINE
 8
TUBE_INSTANCE_10
 66
1
 10
0.0
 20
0.0
 30
0.0
 70
64
 71
20
 72
7
 0
VERTEX
 8
TUBE_INSTANCE_10
 10
6.9789
 20
6.2861
 30
15.6473
 70
192
 0
VERTEX
 8
TUBE_INSTANCE_10
 10
7.2503
 20
6.198
 30
14.9207
 70
192
 0
VERTEX
 8
TUBE_INSTANCE_10
 10
7.2503
 20
6.198
 30
14.9207
 70
192
 0
VERTEX
 8
TUBE_INSTANCE_10
 10
7.2503
 20
6.198
 30
15.6473
 70
192
 0
VERTEX
 8
TUBE_INSTANCE_10
 10
7.2503
 20
6.198
 30
15.6473
 70
192
 0
VERTEX
 8
TUBE_INSTANCE_10
 10
6.9789
 20
6.1098
 30
14.9207
 70
192
 0
VERTEX
 8
TUBE_INSTANCE_10
 10
6.9789
 20
6.1098
 30
14.9207
 70
192
 0
VERTEX
 8
TUBE_INSTANCE_10
 10
6.9789
 20
6.1098
 30
15.6473
 70
192
 0
VERTEX
 8
TUBE_INSTANCE_10
 10
6.9789
 20
6.1098
 30
15.6473
 70
192
 0
VERTEX
 8
TUBE_INSTANCE_10
 10
7.1466
 20
6.3406
 30
14.9207
 70
192
 0
VERTEX
 8
TUBE_INSTANCE_10
 10
7.1466
 20
6.3406
 30
14.9207
 70
192
 0
VERTEX
 8
TUBE_INSTANCE_10
 10
7.1466
 20
6.3406
 30
15.6473
 70
192
 0
VERTEX
 8
TUBE_INSTANCE_10
 10
7.1466
 20
6.3406
 30
15.6473
 70
192
 0
VERTEX
 8
TUBE_INSTANCE_10
 10
7.1466
 20
6.0553
 30
15.6473
 70
192
 0
VERTEX
 8
TUBE_INSTANCE_10
 10
7.1466
 20
6.0553
 30
14.9207
 70
192
 0
VERTEX
 8
TUBE_INSTANCE_10
 10
7.1466
 20
6.0553
 30
14.9207
 70
192
 0
VERTEX
 8
TUBE_INSTANCE_10
 10
7.1466
 20
6.0553
 30
15.6473
 70
192
 0
VERTEX
 8
TUBE_INSTANCE_10
 10
6.9789
 20
6.2861
 30
14.9207
 70
192
 0
VERTEX
 8
TUBE_INSTANCE_10
 10
6.9789
 20
6.2861
 30
14.9207
 70
192
 0
VERTEX
 8
TUBE_INSTANCE_10
 10
6.9789
 20
6.2861
 30
15.6473
 70
192
 0
VERTEX
 8
TUBE_INSTANCE_10
 10
0
 20
0
 30
0
 70
128
 71
11
 72
12
 73
20
 74
19
 0
VERTEX
 8
TUBE_INSTANCE_10
 10
0
 20
0
 30
0
 70
128
 71
3
 72
4
 73
12
 74
11
 0
VERTEX
 8
TUBE_INSTANCE_10
 10
0
 20
0
 30
0
 70
128
 71
19
 72
20
 73
8
 74
7
 0
VERTEX
 8
TUBE_INSTANCE_10
 10
0
 20
0
 30
0
 70
128
 71
7
 72
8
 73
17
 74
16
 0
VERTEX
 8
TUBE_INSTANCE_10
 10
0
 20
0
 30
0
 70
128
 71
16
 72
17
 73
4
 74
3
 0
VERTEX
 8
TUBE_INSTANCE_10
 10
0
 20
0
 30
0
 70
128
 71
3
 72
11
 73
7
 74
16
 0
VERTEX
 8
TUBE_INSTANCE_10
 10
0
 20
0
 30
0
 70
128
 71
11
 72
19
 73
7
 74
7
 0
SEQEND
 0
POLYLINE
 8
TUBE_INSTANCE_9
 66
1
 10
0.0
 20
0.0
 30
0.0
 70
64
 71
20
 72
7
 0
VERTEX
 8
TUBE_INSTANCE_9
 10
6.9789
 20
4.4401
 30
15.6473
 70
192
 0
VERTEX
 8
TUBE_INSTANCE_9
 10
7.2503
 20
4.3519
 30
14.9207
 70
192
 0
VERTEX
 8
TUBE_INSTANCE_9
 10
7.2503
 20
4.3519
 30
14.9207
 70
192
 0
VERTEX
 8
TUBE_INSTANCE_9
 10
7.2503
 20
4.3519
 30
15.6473
 70
192
 0
VERTEX
 8
TUBE_INSTANCE_9
 10
7.2503
 20
4.3519
 30
15.6473
 70
192
 0
VERTEX
 8
TUBE_INSTANCE_9
 10
6.9789
 20
4.2637
 30
14.9207
 70
192
 0
VERTEX
 8
TUBE_INSTANCE_9
 10
6.9789
 20
4.2637
 30
14.9207
 70
192
 0
VERTEX
 8
TUBE_INSTANCE_9
 10
6.9789
 20
4.2637
 30
15.6473
 70
192
 0
VERTEX
 8
TUBE_INSTANCE_9
 10
6.9789
 20
4.2637
 30
15.6473
 70
192
 0
VERTEX
 8
TUBE_INSTANCE_9
 10
7.1466
 20
4.4946
 30
14.9207
 70
192
 0
VERTEX
 8
TUBE_INSTANCE_9
 10
7.1466
 20
4.4946
 30
14.9207
 70
192
 0
VERTEX
 8
TUBE_INSTANCE_9
 10
7.1466
 20
4.4946
 30
15.6473
 70
192
 0
VERTEX
 8
TUBE_INSTANCE_9
 10
7.1466
 20
4.4946
 30
15.6473
 70
192
 0
VERTEX
 8
TUBE_INSTANCE_9
 10
7.1466
 20
4.2092
 30
15.6473
 70
192
 0
VERTEX
 8
TUBE_INSTANCE_9
 10
7.1466
 20
4.2092
 30
14.9207
 70
192
 0
VERTEX
 8
TUBE_INSTANCE_9
 10
7.1466
 20
4.2092
 30
14.9207
 70
192
 0
VERTEX
 8
TUBE_INSTANCE_9
 10
7.1466
 20
4.2092
 30
15.6473
 70
192
 0
VERTEX
 8
TUBE_INSTANCE_9
 10
6.9789
 20
4.4401
 30
14.9207
 70
192
 0
VERTEX
 8
TUBE_INSTANCE_9
 10
6.9789
 20
4.4401
 30
14.9207
 70
192
 0
VERTEX
 8
TUBE_INSTANCE_9
 10
6.9789
 20
4.4401
 30
15.6473
 70
192
 0
VERTEX
 8
TUBE_INSTANCE_9
 10
0
 20
0
 30
0
 70
128
 71
11
 72
12
 73
20
 74
19
 0
VERTEX
 8
TUBE_INSTANCE_9
 10
0
 20
0
 30
0
 70
128
 71
3
 72
4
 73
12
 74
11
 0
VERTEX
 8
TUBE_INSTANCE_9
 10
0
 20
0
 30
0
 70
128
 71
19
 72
20
 73
8
 74
7
 0
VERTEX
 8
TUBE_INSTANCE_9
 10
0
 20
0
 30
0
 70
128
 71
7
 72
8
 73
17
 74
16
 0
VERTEX
 8
TUBE_INSTANCE_9
 10
0
 20
0
 30
0
 70
128
 71
16
 72
17
 73
4
 74
3
 0
VERTEX
 8
TUBE_INSTANCE_9
 10
0
 20
0
 30
0
 70
128
 71
3
 72
11
 73
7
 74
16
 0
VERTEX
 8
TUBE_INSTANCE_9
 10
0
 20
0
 30
0
 70
128
 71
11
 72
19
 73
7
 74
7
 0
SEQEND
 0
POLYLINE
 8
TUBE_INSTANCE_8_1
 66
1
 10
0.0
 20
0.0
 30
0.0
 70
64
 71
20
 72
7
 0
VERTEX
 8
TUBE_INSTANCE_8_1
 10
6.9789
 20
2.6774
 30
15.6473
 70
192
 0
VERTEX
 8
TUBE_INSTANCE_8_1
 10
7.2503
 20
2.5892
 30
14.9207
 70
192
 0
VERTEX
 8
TUBE_INSTANCE_8_1
 10
7.2503
 20
2.5892
 30
14.9207
 70
192
 0
VERTEX
 8
TUBE_INSTANCE_8_1
 10
7.2503
 20
2.5892
 30
15.6473
 70
192
 0
VERTEX
 8
TUBE_INSTANCE_8_1
 10
7.2503
 20
2.5892
 30
15.6473
 70
192
 0
VERTEX
 8
TUBE_INSTANCE_8_1
 10
6.9789
 20
2.501
 30
14.9207
 70
192
 0
VERTEX
 8
TUBE_INSTANCE_8_1
 10
6.9789
 20
2.501
 30
14.9207
 70
192
 0
VERTEX
 8
TUBE_INSTANCE_8_1
 10
6.9789
 20
2.501
 30
15.6473
 70
192
 0
VERTEX
 8
TUBE_INSTANCE_8_1
 10
6.9789
 20
2.501
 30
15.6473
 70
192
 0
VERTEX
 8
TUBE_INSTANCE_8_1
 10
7.1466
 20
2.7319
 30
14.9207
 70
192
 0
VERTEX
 8
TUBE_INSTANCE_8_1
 10
7.1466
 20
2.7319
 30
14.9207
 70
192
 0
VERTEX
 8
TUBE_INSTANCE_8_1
 10
7.1466
 20
2.7319
 30
15.6473
 70
192
 0
VERTEX
 8
TUBE_INSTANCE_8_1
 10
7.1466
 20
2.7319
 30
15.6473
 70
192
 0
VERTEX
 8
TUBE_INSTANCE_8_1
 10
7.1466
 20
2.4465
 30
15.6473
 70
192
 0
VERTEX
 8
TUBE_INSTANCE_8_1
 10
7.1466
 20
2.4465
 30
14.9207
 70
192
 0
VERTEX
 8
TUBE_INSTANCE_8_1
 10
7.1466
 20
2.4465
 30
14.9207
 70
192
 0
VERTEX
 8
TUBE_INSTANCE_8_1
 10
7.1466
 20
2.4465
 30
15.6473
 70
192
 0
VERTEX
 8
TUBE_INSTANCE_8_1
 10
6.9789
 20
2.6774
 30
14.9207
 70
192
 0
VERTEX
 8
TUBE_INSTANCE_8_1
 10
6.9789
 20
2.6774
 30
14.9207
 70
192
 0
VERTEX
 8
TUBE_INSTANCE_8_1
 10
6.9789
 20
2.6774
 30
15.6473
 70
192
 0
VERTEX
 8
TUBE_INSTANCE_8_1
 10
0
 20
0
 30
0
 70
128
 71
11
 72
12
 73
20
 74
19
 0
VERTEX
 8
TUBE_INSTANCE_8_1
 10
0
 20
0
 30
0
 70
128
 71
3
 72
4
 73
12
 74
11
 0
VERTEX
 8
TUBE_INSTANCE_8_1
 10
0
 20
0
 30
0
 70
128
 71
19
 72
20
 73
8
 74
7
 0
VERTEX
 8
TUBE_INSTANCE_8_1
 10
0
 20
0
 30
0
 70
128
 71
7
 72
8
 73
17
 74
16
 0
VERTEX
 8
TUBE_INSTANCE_8_1
 10
0
 20
0
 30
0
 70
128
 71
16
 72
17
 73
4
 74
3
 0
VERTEX
 8
TUBE_INSTANCE_8_1
 10
0
 20
0
 30
0
 70
128
 71
3
 72
11
 73
7
 74
16
 0
VERTEX
 8
TUBE_INSTANCE_8_1
 10
0
 20
0
 30
0
 70
128
 71
11
 72
19
 73
7
 74
7
 0
SEQEND
 0
POLYLINE
 8
TUBE_INSTANCE_7_1
 66
1
 10
0.0
 20
0.0
 30
0.0
 70
64
 71
20
 72
7
 0
VERTEX
 8
TUBE_INSTANCE_7_1
 10
6.9789
 20
0.9035
 30
15.6473
 70
192
 0
VERTEX
 8
TUBE_INSTANCE_7_1
 10
7.2503
 20
0.8153
 30
14.9207
 70
192
 0
VERTEX
 8
TUBE_INSTANCE_7_1
 10
7.2503
 20
0.8153
 30
14.9207
 70
192
 0
VERTEX
 8
TUBE_INSTANCE_7_1
 10
7.2503
 20
0.8153
 30
15.6473
 70
192
 0
VERTEX
 8
TUBE_INSTANCE_7_1
 10
7.2503
 20
0.8153
 30
15.6473
 70
192
 0
VERTEX
 8
TUBE_INSTANCE_7_1
 10
6.9789
 20
0.7272
 30
14.9207
 70
192
 0
VERTEX
 8
TUBE_INSTANCE_7_1
 10
6.9789
 20
0.7272
 30
14.9207
 70
192
 0
VERTEX
 8
TUBE_INSTANCE_7_1
 10
6.9789
 20
0.7272
 30
15.6473
 70
192
 0
VERTEX
 8
TUBE_INSTANCE_7_1
 10
6.9789
 20
0.7272
 30
15.6473
 70
192
 0
VERTEX
 8
TUBE_INSTANCE_7_1
 10
7.1466
 20
0.958
 30
14.9207
 70
192
 0
VERTEX
 8
TUBE_INSTANCE_7_1
 10
7.1466
 20
0.958
 30
14.9207
 70
192
 0
VERTEX
 8
TUBE_INSTANCE_7_1
 10
7.1466
 20
0.958
 30
15.6473
 70
192
 0
VERTEX
 8
TUBE_INSTANCE_7_1
 10
7.1466
 20
0.958
 30
15.6473
 70
192
 0
VERTEX
 8
TUBE_INSTANCE_7_1
 10
7.1466
 20
0.6727
 30
15.6473
 70
192
 0
VERTEX
 8
TUBE_INSTANCE_7_1
 10
7.1466
 20
0.6727
 30
14.9207
 70
192
 0
VERTEX
 8
TUBE_INSTANCE_7_1
 10
7.1466
 20
0.6727
 30
14.9207
 70
192
 0
VERTEX
 8
TUBE_INSTANCE_7_1
 10
7.1466
 20
0.6727
 30
15.6473
 70
192
 0
VERTEX
 8
TUBE_INSTANCE_7_1
 10
6.9789
 20
0.9035
 30
14.9207
 70
192
 0
VERTEX
 8
TUBE_INSTANCE_7_1
 10
6.9789
 20
0.9035
 30
14.9207
 70
192
 0
VERTEX
 8
TUBE_INSTANCE_7_1
 10
6.9789
 20
0.9035
 30
15.6473
 70
192
 0
VERTEX
 8
TUBE_INSTANCE_7_1
 10
0
 20
0
 30
0
 70
128
 71
11
 72
12
 73
20
 74
19
 0
VERTEX
 8
TUBE_INSTANCE_7_1
 10
0
 20
0
 30
0
 70
128
 71
3
 72
4
 73
12
 74
11
 0
VERTEX
 8
TUBE_INSTANCE_7_1
 10
0
 20
0
 30
0
 70
128
 71
19
 72
20
 73
8
 74
7
 0
VERTEX
 8
TUBE_INSTANCE_7_1
 10
0
 20
0
 30
0
 70
128
 71
7
 72
8
 73
17
 74
16
 0
VERTEX
 8
TUBE_INSTANCE_7_1
 10
0
 20
0
 30
0
 70
128
 71
16
 72
17
 73
4
 74
3
 0
VERTEX
 8
TUBE_INSTANCE_7_1
 10
0
 20
0
 30
0
 70
128
 71
3
 72
11
 73
7
 74
16
 0
VERTEX
 8
TUBE_INSTANCE_7_1
 10
0
 20
0
 30
0
 70
128
 71
11
 72
19
 73
7
 74
7
 0
SEQEND
 0
POLYLINE
 8
TUBE_INSTANCE_6_1
 66
1
 10
0.0
 20
0.0
 30
0.0
 70
64
 71
20
 72
7
 0
VERTEX
 8
TUBE_INSTANCE_6_1
 10
6.9789
 20
-0.9033
 30
15.6473
 70
192
 0
VERTEX
 8
TUBE_INSTANCE_6_1
 10
7.2503
 20
-0.9915
 30
14.9207
 70
192
 0
VERTEX
 8
TUBE_INSTANCE_6_1
 10
7.2503
 20
-0.9915
 30
14.9207
 70
192
 0
VERTEX
 8
TUBE_INSTANCE_6_1
 10
7.2503
 20
-0.9915
 30
15.6473
 70
192
 0
VERTEX
 8
TUBE_INSTANCE_6_1
 10
7.2503
 20
-0.9915
 30
15.6473
 70
192
 0
VERTEX
 8
TUBE_INSTANCE_6_1
 10
6.9789
 20
-1.0796
 30
14.9207
 70
192
 0
VERTEX
 8
TUBE_INSTANCE_6_1
 10
6.9789
 20
-1.0796
 30
14.9207
 70
192
 0
VERTEX
 8
TUBE_INSTANCE_6_1
 10
6.9789
 20
-1.0796
 30
15.6473
 70
192
 0
VERTEX
 8
TUBE_INSTANCE_6_1
 10
6.9789
 20
-1.0796
 30
15.6473
 70
192
 0
VERTEX
 8
TUBE_INSTANCE_6_1
 10
7.1466
 20
-0.8488
 30
14.9207
 70
192
 0
VERTEX
 8
TUBE_INSTANCE_6_1
 10
7.1466
 20
-0.8488
 30
14.9207
 70
192
 0
VERTEX
 8
TUBE_INSTANCE_6_1
 10
7.1466
 20
-0.8488
 30
15.6473
 70
192
 0
VERTEX
 8
TUBE_INSTANCE_6_1
 10
7.1466
 20
-0.8488
 30
15.6473
 70
192
 0
VERTEX
 8
TUBE_INSTANCE_6_1
 10
7.1466
 20
-1.1341
 30
15.6473
 70
192
 0
VERTEX
 8
TUBE_INSTANCE_6_1
 10
7.1466
 20
-1.1341
 30
14.9207
 70
192
 0
VERTEX
 8
TUBE_INSTANCE_6_1
 10
7.1466
 20
-1.1341
 30
14.9207
 70
192
 0
VERTEX
 8
TUBE_INSTANCE_6_1
 10
7.1466
 20
-1.1341
 30
15.6473
 70
192
 0
VERTEX
 8
TUBE_INSTANCE_6_1
 10
6.9789
 20
-0.9033
 30
14.9207
 70
192
 0
VERTEX
 8
TUBE_INSTANCE_6_1
 10
6.9789
 20
-0.9033
 30
14.9207
 70
192
 0
VERTEX
 8
TUBE_INSTANCE_6_1
 10
6.9789
 20
-0.9033
 30
15.6473
 70
192
 0
VERTEX
 8
TUBE_INSTANCE_6_1
 10
0
 20
0
 30
0
 70
128
 71
11
 72
12
 73
20
 74
19
 0
VERTEX
 8
TUBE_INSTANCE_6_1
 10
0
 20
0
 30
0
 70
128
 71
3
 72
4
 73
12
 74
11
 0
VERTEX
 8
TUBE_INSTANCE_6_1
 10
0
 20
0
 30
0
 70
128
 71
19
 72
20
 73
8
 74
7
 0
VERTEX
 8
TUBE_INSTANCE_6_1
 10
0
 20
0
 30
0
 70
128
 71
7
 72
8
 73
17
 74
16
 0
VERTEX
 8
TUBE_INSTANCE_6_1
 10
0
 20
0
 30
0
 70
128
 71
16
 72
17
 73
4
 74
3
 0
VERTEX
 8
TUBE_INSTANCE_6_1
 10
0
 20
0
 30
0
 70
128
 71
3
 72
11
 73
7
 74
16
 0
VERTEX
 8
TUBE_INSTANCE_6_1
 10
0
 20
0
 30
0
 70
128
 71
11
 72
19
 73
7
 74
7
 0
SEQEND
 0
POLYLINE
 8
TUBE_INSTANCE_5_1
 66
1
 10
0.0
 20
0.0
 30
0.0
 70
64
 71
20
 72
7
 0
VERTEX
 8
TUBE_INSTANCE_5_1
 10
6.9789
 20
-2.6809
 30
15.6473
 70
192
 0
VERTEX
 8
TUBE_INSTANCE_5_1
 10
7.2503
 20
-2.7691
 30
14.9207
 70
192
 0
VERTEX
 8
TUBE_INSTANCE_5_1
 10
7.2503
 20
-2.7691
 30
14.9207
 70
192
 0
VERTEX
 8
TUBE_INSTANCE_5_1
 10
7.2503
 20
-2.7691
 30
15.6473
 70
192
 0
VERTEX
 8
TUBE_INSTANCE_5_1
 10
7.2503
 20
-2.7691
 30
15.6473
 70
192
 0
VERTEX
 8
TUBE_INSTANCE_5_1
 10
6.9789
 20
-2.8573
 30
14.9207
 70
192
 0
VERTEX
 8
TUBE_INSTANCE_5_1
 10
6.9789
 20
-2.8573
 30
14.9207
 70
192
 0
VERTEX
 8
TUBE_INSTANCE_5_1
 10
6.9789
 20
-2.8573
 30
15.6473
 70
192
 0
VERTEX
 8
TUBE_INSTANCE_5_1
 10
6.9789
 20
-2.8573
 30
15.6473
 70
192
 0
VERTEX
 8
TUBE_INSTANCE_5_1
 10
7.1466
 20
-2.6264
 30
14.9207
 70
192
 0
VERTEX
 8
TUBE_INSTANCE_5_1
 10
7.1466
 20
-2.6264
 30
14.9207
 70
192
 0
VERTEX
 8
TUBE_INSTANCE_5_1
 10
7.1466
 20
-2.6264
 30
15.6473
 70
192
 0
VERTEX
 8
TUBE_INSTANCE_5_1
 10
7.1466
 20
-2.6264
 30
15.6473
 70
192
 0
VERTEX
 8
TUBE_INSTANCE_5_1
 10
7.1466
 20
-2.9118
 30
15.6473
 70
192
 0
VERTEX
 8
TUBE_INSTANCE_5_1
 10
7.1466
 20
-2.9118
 30
14.9207
 70
192
 0
VERTEX
 8
TUBE_INSTANCE_5_1
 10
7.1466
 20
-2.9118
 30
14.9207
 70
192
 0
VERTEX
 8
TUBE_INSTANCE_5_1
 10
7.1466
 20
-2.9118
 30
15.6473
 70
192
 0
VERTEX
 8
TUBE_INSTANCE_5_1
 10
6.9789
 20
-2.6809
 30
14.9207
 70
192
 0
VERTEX
 8
TUBE_INSTANCE_5_1
 10
6.9789
 20
-2.6809
 30
14.9207
 70
192
 0
VERTEX
 8
TUBE_INSTANCE_5_1
 10
6.9789
 20
-2.6809
 30
15.6473
 70
192
 0
VERTEX
 8
TUBE_INSTANCE_5_1
 10
0
 20
0
 30
0
 70
128
 71
11
 72
12
 73
20
 74
19
 0
VERTEX
 8
TUBE_INSTANCE_5_1
 10
0
 20
0
 30
0
 70
128
 71
3
 72
4
 73
12
 74
11
 0
VERTEX
 8
TUBE_INSTANCE_5_1
 10
0
 20
0
 30
0
 70
128
 71
19
 72
20
 73
8
 74
7
 0
VERTEX
 8
TUBE_INSTANCE_5_1
 10
0
 20
0
 30
0
 70
128
 71
7
 72
8
 73
17
 74
16
 0
VERTEX
 8
TUBE_INSTANCE_5_1
 10
0
 20
0
 30
0
 70
128
 71
16
 72
17
 73
4
 74
3
 0
VERTEX
 8
TUBE_INSTANCE_5_1
 10
0
 20
0
 30
0
 70
128
 71
3
 72
11
 73
7
 74
16
 0
VERTEX
 8
TUBE_INSTANCE_5_1
 10
0
 20
0
 30
0
 70
128
 71
11
 72
19
 73
7
 74
7
 0
SEQEND
 0
POLYLINE
 8
TUBE_INSTANCE_4_1
 66
1
 10
0.0
 20
0.0
 30
0.0
 70
64
 71
20
 72
7
 0
VERTEX
 8
TUBE_INSTANCE_4_1
 10
6.9789
 20
-4.4707
 30
15.6473
 70
192
 0
VERTEX
 8
TUBE_INSTANCE_4_1
 10
7.2503
 20
-4.5589
 30
14.9207
 70
192
 0
VERTEX
 8
TUBE_INSTANCE_4_1
 10
7.2503
 20
-4.5589
 30
14.9207
 70
192
 0
VERTEX
 8
TUBE_INSTANCE_4_1
 10
7.2503
 20
-4.5589
 30
15.6473
 70
192
 0
VERTEX
 8
TUBE_INSTANCE_4_1
 10
7.2503
 20
-4.5589
 30
15.6473
 70
192
 0
VERTEX
 8
TUBE_INSTANCE_4_1
 10
6.9789
 20
-4.647
 30
14.9207
 70
192
 0
VERTEX
 8
TUBE_INSTANCE_4_1
 10
6.9789
 20
-4.647
 30
14.9207
 70
192
 0
VERTEX
 8
TUBE_INSTANCE_4_1
 10
6.9789
 20
-4.647
 30
15.6473
 70
192
 0
VERTEX
 8
TUBE_INSTANCE_4_1
 10
6.9789
 20
-4.647
 30
15.6473
 70
192
 0
VERTEX
 8
TUBE_INSTANCE_4_1
 10
7.1466
 20
-4.4162
 30
14.9207
 70
192
 0
VERTEX
 8
TUBE_INSTANCE_4_1
 10
7.1466
 20
-4.4162
 30
14.9207
 70
192
 0
VERTEX
 8
TUBE_INSTANCE_4_1
 10
7.1466
 20
-4.4162
 30
15.6473
 70
192
 0
VERTEX
 8
TUBE_INSTANCE_4_1
 10
7.1466
 20
-4.4162
 30
15.6473
 70
192
 0
VERTEX
 8
TUBE_INSTANCE_4_1
 10
7.1466
 20
-4.7015
 30
15.6473
 70
192
 0
VERTEX
 8
TUBE_INSTANCE_4_1
 10
7.1466
 20
-4.7015
 30
14.9207
 70
192
 0
VERTEX
 8
TUBE_INSTANCE_4_1
 10
7.1466
 20
-4.7015
 30
14.9207
 70
192
 0
VERTEX
 8
TUBE_INSTANCE_4_1
 10
7.1466
 20
-4.7015
 30
15.6473
 70
192
 0
VERTEX
 8
TUBE_INSTANCE_4_1
 10
6.9789
 20
-4.4707
 30
14.9207
 70
192
 0
VERTEX
 8
TUBE_INSTANCE_4_1
 10
6.9789
 20
-4.4707
 30
14.9207
 70
192
 0
VERTEX
 8
TUBE_INSTANCE_4_1
 10
6.9789
 20
-4.4707
 30
15.6473
 70
192
 0
VERTEX
 8
TUBE_INSTANCE_4_1
 10
0
 20
0
 30
0
 70
128
 71
11
 72
12
 73
20
 74
19
 0
VERTEX
 8
TUBE_INSTANCE_4_1
 10
0
 20
0
 30
0
 70
128
 71
3
 72
4
 73
12
 74
11
 0
VERTEX
 8
TUBE_INSTANCE_4_1
 10
0
 20
0
 30
0
 70
128
 71
19
 72
20
 73
8
 74
7
 0
VERTEX
 8
TUBE_INSTANCE_4_1
 10
0
 20
0
 30
0
 70
128
 71
7
 72
8
 73
17
 74
16
 0
VERTEX
 8
TUBE_INSTANCE_4_1
 10
0
 20
0
 30
0
 70
128
 71
16
 72
17
 73
4
 74
3
 0
VERTEX
 8
TUBE_INSTANCE_4_1
 10
0
 20
0
 30
0
 70
128
 71
3
 72
11
 73
7
 74
16
 0
VERTEX
 8
TUBE_INSTANCE_4_1
 10
0
 20
0
 30
0
 70
128
 71
11
 72
19
 73
7
 74
7
 0
SEQEND
 0
POLYLINE
 8
TUBE_INSTANCE_3_1
 66
1
 10
0.0
 20
0.0
 30
0.0
 70
64
 71
20
 72
7
 0
VERTEX
 8
TUBE_INSTANCE_3_1
 10
6.9789
 20
-6.2569
 30
15.6473
 70
192
 0
VERTEX
 8
TUBE_INSTANCE_3_1
 10
7.2503
 20
-6.3451
 30
14.9207
 70
192
 0
VERTEX
 8
TUBE_INSTANCE_3_1
 10
7.2503
 20
-6.3451
 30
14.9207
 70
192
 0
VERTEX
 8
TUBE_INSTANCE_3_1
 10
7.2503
 20
-6.3451
 30
15.6473
 70
192
 0
VERTEX
 8
TUBE_INSTANCE_3_1
 10
7.2503
 20
-6.3451
 30
15.6473
 70
192
 0
VERTEX
 8
TUBE_INSTANCE_3_1
 10
6.9789
 20
-6.4333
 30
14.9207
 70
192
 0
VERTEX
 8
TUBE_INSTANCE_3_1
 10
6.9789
 20
-6.4333
 30
14.9207
 70
192
 0
VERTEX
 8
TUBE_INSTANCE_3_1
 10
6.9789
 20
-6.4333
 30
15.6473
 70
192
 0
VERTEX
 8
TUBE_INSTANCE_3_1
 10
6.9789
 20
-6.4333
 30
15.6473
 70
192
 0
VERTEX
 8
TUBE_INSTANCE_3_1
 10
7.1466
 20
-6.2024
 30
14.9207
 70
192
 0
VERTEX
 8
TUBE_INSTANCE_3_1
 10
7.1466
 20
-6.2024
 30
14.9207
 70
192
 0
VERTEX
 8
TUBE_INSTANCE_3_1
 10
7.1466
 20
-6.2024
 30
15.6473
 70
192
 0
VERTEX
 8
TUBE_INSTANCE_3_1
 10
7.1466
 20
-6.2024
 30
15.6473
 70
192
 0
VERTEX
 8
TUBE_INSTANCE_3_1
 10
7.1466
 20
-6.4878
 30
15.6473
 70
192
 0
VERTEX
 8
TUBE_INSTANCE_3_1
 10
7.1466
 20
-6.4878
 30
14.9207
 70
192
 0
VERTEX
 8
TUBE_INSTANCE_3_1
 10
7.1466
 20
-6.4878
 30
14.9207
 70
192
 0
VERTEX
 8
TUBE_INSTANCE_3_1
 10
7.1466
 20
-6.4878
 30
15.6473
 70
192
 0
VERTEX
 8
TUBE_INSTANCE_3_1
 10
6.9789
 20
-6.2569
 30
14.9207
 70
192
 0
VERTEX
 8
TUBE_INSTANCE_3_1
 10
6.9789
 20
-6.2569
 30
14.9207
 70
192
 0
VERTEX
 8
TUBE_INSTANCE_3_1
 10
6.9789
 20
-6.2569
 30
15.6473
 70
192
 0
VERTEX
 8
TUBE_INSTANCE_3_1
 10
0
 20
0
 30
0
 70
128
 71
11
 72
12
 73
20
 74
19
 0
VERTEX
 8
TUBE_INSTANCE_3_1
 10
0
 20
0
 30
0
 70
128
 71
3
 72
4
 73
12
 74
11
 0
VERTEX
 8
TUBE_INSTANCE_3_1
 10
0
 20
0
 30
0
 70
128
 71
19
 72
20
 73
8
 74
7
 0
VERTEX
 8
TUBE_INSTANCE_3_1
 10
0
 20
0
 30
0
 70
128
 71
7
 72
8
 73
17
 74
16
 0
VERTEX
 8
TUBE_INSTANCE_3_1
 10
0
 20
0
 30
0
 70
128
 71
16
 72
17
 73
4
 74
3
 0
VERTEX
 8
TUBE_INSTANCE_3_1
 10
0
 20
0
 30
0
 70
128
 71
3
 72
11
 73
7
 74
16
 0
VERTEX
 8
TUBE_INSTANCE_3_1
 10
0
 20
0
 30
0
 70
128
 71
11
 72
19
 73
7
 74
7
 0
SEQEND
 0
POLYLINE
 8
TUBE_INSTANCE_2_1
 66
1
 10
0.0
 20
0.0
 30
0.0
 70
64
 71
20
 72
7
 0
VERTEX
 8
TUBE_INSTANCE_2_1
 10
6.9789
 20
-8.0664
 30
15.6473
 70
192
 0
VERTEX
 8
TUBE_INSTANCE_2_1
 10
7.2503
 20
-8.1546
 30
14.9207
 70
192
 0
VERTEX
 8
TUBE_INSTANCE_2_1
 10
7.2503
 20
-8.1546
 30
14.9207
 70
192
 0
VERTEX
 8
TUBE_INSTANCE_2_1
 10
7.2503
 20
-8.1546
 30
15.6473
 70
192
 0
VERTEX
 8
TUBE_INSTANCE_2_1
 10
7.2503
 20
-8.1546
 30
15.6473
 70
192
 0
VERTEX
 8
TUBE_INSTANCE_2_1
 10
6.9789
 20
-8.2427
 30
14.9207
 70
192
 0
VERTEX
 8
TUBE_INSTANCE_2_1
 10
6.9789
 20
-8.2427
 30
14.9207
 70
192
 0
VERTEX
 8
TUBE_INSTANCE_2_1
 10
6.9789
 20
-8.2427
 30
15.6473
 70
192
 0
VERTEX
 8
TUBE_INSTANCE_2_1
 10
6.9789
 20
-8.2427
 30
15.6473
 70
192
 0
VERTEX
 8
TUBE_INSTANCE_2_1
 10
7.1466
 20
-8.0119
 30
14.9207
 70
192
 0
VERTEX
 8
TUBE_INSTANCE_2_1
 10
7.1466
 20
-8.0119
 30
14.9207
 70
192
 0
VERTEX
 8
TUBE_INSTANCE_2_1
 10
7.1466
 20
-8.0119
 30
15.6473
 70
192
 0
VERTEX
 8
TUBE_INSTANCE_2_1
 10
7.1466
 20
-8.0119
 30
15.6473
 70
192
 0
VERTEX
 8
TUBE_INSTANCE_2_1
 10
7.1466
 20
-8.2972
 30
15.6473
 70
192
 0
VERTEX
 8
TUBE_INSTANCE_2_1
 10
7.1466
 20
-8.2972
 30
14.9207
 70
192
 0
VERTEX
 8
TUBE_INSTANCE_2_1
 10
7.1466
 20
-8.2972
 30
14.9207
 70
192
 0
VERTEX
 8
TUBE_INSTANCE_2_1
 10
7.1466
 20
-8.2972
 30
15.6473
 70
192
 0
VERTEX
 8
TUBE_INSTANCE_2_1
 10
6.9789
 20
-8.0664
 30
14.9207
 70
192
 0
VERTEX
 8
TUBE_INSTANCE_2_1
 10
6.9789
 20
-8.0664
 30
14.9207
 70
192
 0
VERTEX
 8
TUBE_INSTANCE_2_1
 10
6.9789
 20
-8.0664
 30
15.6473
 70
192
 0
VERTEX
 8
TUBE_INSTANCE_2_1
 10
0
 20
0
 30
0
 70
128
 71
11
 72
12
 73
20
 74
19
 0
VERTEX
 8
TUBE_INSTANCE_2_1
 10
0
 20
0
 30
0
 70
128
 71
3
 72
4
 73
12
 74
11
 0
VERTEX
 8
TUBE_INSTANCE_2_1
 10
0
 20
0
 30
0
 70
128
 71
19
 72
20
 73
8
 74
7
 0
VERTEX
 8
TUBE_INSTANCE_2_1
 10
0
 20
0
 30
0
 70
128
 71
7
 72
8
 73
17
 74
16
 0
VERTEX
 8
TUBE_INSTANCE_2_1
 10
0
 20
0
 30
0
 70
128
 71
16
 72
17
 73
4
 74
3
 0
VERTEX
 8
TUBE_INSTANCE_2_1
 10
0
 20
0
 30
0
 70
128
 71
3
 72
11
 73
7
 74
16
 0
VERTEX
 8
TUBE_INSTANCE_2_1
 10
0
 20
0
 30
0
 70
128
 71
11
 72
19
 73
7
 74
7
 0
SEQEND
 0
POLYLINE
 8
TUBE_INSTANCE_1_1
 66
1
 10
0.0
 20
0.0
 30
0.0
 70
64
 71
20
 72
7
 0
VERTEX
 8
TUBE_INSTANCE_1_1
 10
6.9789
 20
-9.8024
 30
15.6473
 70
192
 0
VERTEX
 8
TUBE_INSTANCE_1_1
 10
7.2503
 20
-9.8906
 30
14.9207
 70
192
 0
VERTEX
 8
TUBE_INSTANCE_1_1
 10
7.2503
 20
-9.8906
 30
14.9207
 70
192
 0
VERTEX
 8
TUBE_INSTANCE_1_1
 10
7.2503
 20
-9.8906
 30
15.6473
 70
192
 0
VERTEX
 8
TUBE_INSTANCE_1_1
 10
7.2503
 20
-9.8906
 30
15.6473
 70
192
 0
VERTEX
 8
TUBE_INSTANCE_1_1
 10
6.9789
 20
-9.9788
 30
14.9207
 70
192
 0
VERTEX
 8
TUBE_INSTANCE_1_1
 10
6.9789
 20
-9.9788
 30
14.9207
 70
192
 0
VERTEX
 8
TUBE_INSTANCE_1_1
 10
6.9789
 20
-9.9788
 30
15.6473
 70
192
 0
VERTEX
 8
TUBE_INSTANCE_1_1
 10
6.9789
 20
-9.9788
 30
15.6473
 70
192
 0
VERTEX
 8
TUBE_INSTANCE_1_1
 10
7.1467
 20
-9.7479
 30
14.9207
 70
192
 0
VERTEX
 8
TUBE_INSTANCE_1_1
 10
7.1467
 20
-9.7479
 30
14.9207
 70
192
 0
VERTEX
 8
TUBE_INSTANCE_1_1
 10
7.1467
 20
-9.7479
 30
15.6473
 70
192
 0
VERTEX
 8
TUBE_INSTANCE_1_1
 10
7.1467
 20
-9.7479
 30
15.6473
 70
192
 0
VERTEX
 8
TUBE_INSTANCE_1_1
 10
7.1467
 20
-10.0332
 30
15.6473
 70
192
 0
VERTEX
 8
TUBE_INSTANCE_1_1
 10
7.1467
 20
-10.0332
 30
14.9207
 70
192
 0
VERTEX
 8
TUBE_INSTANCE_1_1
 10
7.1467
 20
-10.0332
 30
14.9207
 70
192
 0
VERTEX
 8
TUBE_INSTANCE_1_1
 10
7.1467
 20
-10.0332
 30
15.6473
 70
192
 0
VERTEX
 8
TUBE_INSTANCE_1_1
 10
6.9789
 20
-9.8024
 30
14.9207
 70
192
 0
VERTEX
 8
TUBE_INSTANCE_1_1
 10
6.9789
 20
-9.8024
 30
14.9207
 70
192
 0
VERTEX
 8
TUBE_INSTANCE_1_1
 10
6.9789
 20
-9.8024
 30
15.6473
 70
192
 0
VERTEX
 8
TUBE_INSTANCE_1_1
 10
0
 20
0
 30
0
 70
128
 71
11
 72
12
 73
20
 74
19
 0
VERTEX
 8
TUBE_INSTANCE_1_1
 10
0
 20
0
 30
0
 70
128
 71
3
 72
4
 73
12
 74
11
 0
VERTEX
 8
TUBE_INSTANCE_1_1
 10
0
 20
0
 30
0
 70
128
 71
19
 72
20
 73
8
 74
7
 0
VERTEX
 8
TUBE_INSTANCE_1_1
 10
0
 20
0
 30
0
 70
128
 71
7
 72
8
 73
17
 74
16
 0
VERTEX
 8
TUBE_INSTANCE_1_1
 10
0
 20
0
 30
0
 70
128
 71
16
 72
17
 73
4
 74
3
 0
VERTEX
 8
TUBE_INSTANCE_1_1
 10
0
 20
0
 30
0
 70
128
 71
3
 72
11
 73
7
 74
16
 0
VERTEX
 8
TUBE_INSTANCE_1_1
 10
0
 20
0
 30
0
 70
128
 71
11
 72
19
 73
7
 74
7
 0
SEQEND
 0
POLYLINE
 8
TUBE_INSTANCE
 66
1
 10
0.0
 20
0.0
 30
0.0
 70
64
 71
20
 72
7
 0
VERTEX
 8
TUBE_INSTANCE
 10
6.9789
 20
-11.5718
 30
15.6473
 70
192
 0
VERTEX
 8
TUBE_INSTANCE
 10
7.2503
 20
-11.6599
 30
14.9207
 70
192
 0
VERTEX
 8
TUBE_INSTANCE
 10
7.2503
 20
-11.6599
 30
14.9207
 70
192
 0
VERTEX
 8
TUBE_INSTANCE
 10
7.2503
 20
-11.6599
 30
15.6473
 70
192
 0
VERTEX
 8
TUBE_INSTANCE
 10
7.2503
 20
-11.6599
 30
15.6473
 70
192
 0
VERTEX
 8
TUBE_INSTANCE
 10
6.9789
 20
-11.7481
 30
14.9207
 70
192
 0
VERTEX
 8
TUBE_INSTANCE
 10
6.9789
 20
-11.7481
 30
14.9207
 70
192
 0
VERTEX
 8
TUBE_INSTANCE
 10
6.9789
 20
-11.7481
 30
15.6473
 70
192
 0
VERTEX
 8
TUBE_INSTANCE
 10
6.9789
 20
-11.7481
 30
15.6473
 70
192
 0
VERTEX
 8
TUBE_INSTANCE
 10
7.1467
 20
-11.5173
 30
14.9207
 70
192
 0
VERTEX
 8
TUBE_INSTANCE
 10
7.1467
 20
-11.5173
 30
14.9207
 70
192
 0
VERTEX
 8
TUBE_INSTANCE
 10
7.1467
 20
-11.5173
 30
15.6473
 70
192
 0
VERTEX
 8
TUBE_INSTANCE
 10
7.1467
 20
-11.5173
 30
15.6473
 70
192
 0
VERTEX
 8
TUBE_INSTANCE
 10
7.1467
 20
-11.8026
 30
15.6473
 70
192
 0
VERTEX
 8
TUBE_INSTANCE
 10
7.1467
 20
-11.8026
 30
14.9207
 70
192
 0
VERTEX
 8
TUBE_INSTANCE
 10
7.1467
 20
-11.8026
 30
14.9207
 70
192
 0
VERTEX
 8
TUBE_INSTANCE
 10
7.1467
 20
-11.8026
 30
15.6473
 70
192
 0
VERTEX
 8
TUBE_INSTANCE
 10
6.9789
 20
-11.5718
 30
14.9207
 70
192
 0
VERTEX
 8
TUBE_INSTANCE
 10
6.9789
 20
-11.5718
 30
14.9207
 70
192
 0
VERTEX
 8
TUBE_INSTANCE
 10
6.9789
 20
-11.5718
 30
15.6473
 70
192
 0
VERTEX
 8
TUBE_INSTANCE
 10
0
 20
0
 30
0
 70
128
 71
11
 72
12
 73
20
 74
19
 0
VERTEX
 8
TUBE_INSTANCE
 10
0
 20
0
 30
0
 70
128
 71
3
 72
4
 73
12
 74
11
 0
VERTEX
 8
TUBE_INSTANCE
 10
0
 20
0
 30
0
 70
128
 71
19
 72
20
 73
8
 74
7
 0
VERTEX
 8
TUBE_INSTANCE
 10
0
 20
0
 30
0
 70
128
 71
7
 72
8
 73
17
 74
16
 0
VERTEX
 8
TUBE_INSTANCE
 10
0
 20
0
 30
0
 70
128
 71
16
 72
17
 73
4
 74
3
 0
VERTEX
 8
TUBE_INSTANCE
 10
0
 20
0
 30
0
 70
128
 71
3
 72
11
 73
7
 74
16
 0
VERTEX
 8
TUBE_INSTANCE
 10
0
 20
0
 30
0
 70
128
 71
11
 72
19
 73
7
 74
7
 0
SEQEND
 0
POLYLINE
 8
TUBE
 66
1
 10
0.0
 20
0.0
 30
0.0
 70
64
 71
20
 72
7
 0
VERTEX
 8
TUBE
 10
6.9789
 20
-13.3609
 30
15.6473
 70
192
 0
VERTEX
 8
TUBE
 10
7.2503
 20
-13.4491
 30
14.9207
 70
192
 0
VERTEX
 8
TUBE
 10
7.2503
 20
-13.4491
 30
14.9207
 70
192
 0
VERTEX
 8
TUBE
 10
7.2503
 20
-13.4491
 30
15.6473
 70
192
 0
VERTEX
 8
TUBE
 10
7.2503
 20
-13.4491
 30
15.6473
 70
192
 0
VERTEX
 8
TUBE
 10
6.9789
 20
-13.5373
 30
14.9207
 70
192
 0
VERTEX
 8
TUBE
 10
6.9789
 20
-13.5373
 30
14.9207
 70
192
 0
VERTEX
 8
TUBE
 10
6.9789
 20
-13.5373
 30
15.6473
 70
192
 0
VERTEX
 8
TUBE
 10
6.9789
 20
-13.5373
 30
15.6473
 70
192
 0
VERTEX
 8
TUBE
 10
7.1467
 20
-13.3064
 30
14.9207
 70
192
 0
VERTEX
 8
TUBE
 10
7.1467
 20
-13.3064
 30
14.9207
 70
192
 0
VERTEX
 8
TUBE
 10
7.1467
 20
-13.3064
 30
15.6473
 70
192
 0
VERTEX
 8
TUBE
 10
7.1467
 20
-13.3064
 30
15.6473
 70
192
 0
VERTEX
 8
TUBE
 10
7.1467
 20
-13.5918
 30
15.6473
 70
192
 0
VERTEX
 8
TUBE
 10
7.1467
 20
-13.5918
 30
14.9207
 70
192
 0
VERTEX
 8
TUBE
 10
7.1467
 20
-13.5918
 30
14.9207
 70
192
 0
VERTEX
 8
TUBE
 10
7.1467
 20
-13.5918
 30
15.6473
 70
192
 0
VERTEX
 8
TUBE
 10
6.9789
 20
-13.3609
 30
14.9207
 70
192
 0
VERTEX
 8
TUBE
 10
6.9789
 20
-13.3609
 30
14.9207
 70
192
 0
VERTEX
 8
TUBE
 10
6.9789
 20
-13.3609
 30
15.6473
 70
192
 0
VERTEX
 8
TUBE
 10
0
 20
0
 30
0
 70
128
 71
11
 72
12
 73
20
 74
19
 0
VERTEX
 8
TUBE
 10
0
 20
0
 30
0
 70
128
 71
3
 72
4
 73
12
 74
11
 0
VERTEX
 8
TUBE
 10
0
 20
0
 30
0
 70
128
 71
19
 72
20
 73
8
 74
7
 0
VERTEX
 8
TUBE
 10
0
 20
0
 30
0
 70
128
 71
7
 72
8
 73
17
 74
16
 0
VERTEX
 8
TUBE
 10
0
 20
0
 30
0
 70
128
 71
16
 72
17
 73
4
 74
3
 0
VERTEX
 8
TUBE
 10
0
 20
0
 30
0
 70
128
 71
3
 72
11
 73
7
 74
16
 0
VERTEX
 8
TUBE
 10
0
 20
0
 30
0
 70
128
 71
11
 72
19
 73
7
 74
7
 0
SEQEND
 0
ENDSEC
 0
EOF
