 0
SECTION
 2
HEADER
 9
$ACADVER
 1
AC1009
 0
ENDSEC
 0
SECTION
 2
TABLES
 0
TABLE
 2
LTYPE
 70
1
 0
LTYPE
 2
CONTINUOUS
 70
64
 3
solid line
 72
65
 73
0
 40
0.0
 0
ENDTAB
 0
TABLE
 2
LAYER
 70
6
 0
LAYER
 2
0
 70
0
 62
7
 6
CONTINUOUS
 0
LAYER
 2
120_2760_M
 70
64
 62
7
 6
CONTINUOUS
 0
LAYER
 2
K_RPER_6
 70
64
 62
250
 6
CONTINUOUS
 0
LAYER
 2
K_RPER_5
 70
64
 62
250
 6
CONTINUOUS
 0
LAYER
 2
K_RPER_4
 70
64
 62
250
 6
CONTINUOUS
 0
LAYER
 2
ZYLINDER_7
 70
64
 62
250
 6
CONTINUOUS
 0
LAYER
 2
KAPSEL
 70
64
 62
250
 6
CONTINUOUS
 0
LAYER
 2
GRIFF_1
 70
64
 62
250
 6
CONTINUOUS
 0
LAYER
 2
AUSLAUF
 70
64
 62
250
 6
CONTINUOUS
 0
LAYER
 2
ZYLINDER_6
 70
64
 62
250
 6
CONTINUOUS
 0
LAYER
 2
K_RPER_3
 70
64
 62
250
 6
CONTINUOUS
 0
LAYER
 2
ROSEETENK_RPER_1
 70
64
 62
250
 6
CONTINUOUS
 0
LAYER
 2
ROSETTE
 70
64
 62
250
 6
CONTINUOUS
 0
LAYER
 2
ROSEETENK_RPER
 70
64
 62
250
 6
CONTINUOUS
 0
LAYER
 2
ROSETT2
 70
64
 62
250
 6
CONTINUOUS
 0
LAYER
 2
ZYLINDER_5
 70
64
 62
250
 6
CONTINUOUS
 0
LAYER
 2
R_HRE
 70
64
 62
250
 6
CONTINUOUS
 0
LAYER
 2
K_RPER_2
 70
64
 62
250
 6
CONTINUOUS
 0
LAYER
 2
ZYLINDER_4
 70
64
 62
250
 6
CONTINUOUS
 0
LAYER
 2
SCHLAUCH_1
 70
64
 62
250
 6
CONTINUOUS
 0
LAYER
 2
HALTER
 70
64
 62
250
 6
CONTINUOUS
 0
LAYER
 2
K_RPER_1
 70
64
 62
250
 6
CONTINUOUS
 0
LAYER
 2
ZYLINDER_3
 70
64
 62
250
 6
CONTINUOUS
 0
LAYER
 2
ZYLINDER_2
 70
64
 62
250
 6
CONTINUOUS
 0
LAYER
 2
ZYLINDER_1
 70
64
 62
250
 6
CONTINUOUS
 0
LAYER
 2
K_RPER
 70
64
 62
250
 6
CONTINUOUS
 0
LAYER
 2
ZYLINDER
 70
64
 62
250
 6
CONTINUOUS
 0
LAYER
 2
D_SEN_127
 70
64
 62
18
 6
CONTINUOUS
 0
LAYER
 2
D_SEN_126
 70
64
 62
18
 6
CONTINUOUS
 0
LAYER
 2
D_SEN_125
 70
64
 62
18
 6
CONTINUOUS
 0
LAYER
 2
D_SEN_124
 70
64
 62
18
 6
CONTINUOUS
 0
LAYER
 2
D_SEN_123
 70
64
 62
18
 6
CONTINUOUS
 0
LAYER
 2
D_SEN_122
 70
64
 62
18
 6
CONTINUOUS
 0
LAYER
 2
D_SEN_121
 70
64
 62
18
 6
CONTINUOUS
 0
LAYER
 2
D_SEN_120
 70
64
 62
18
 6
CONTINUOUS
 0
LAYER
 2
D_SEN_119
 70
64
 62
18
 6
CONTINUOUS
 0
LAYER
 2
D_SEN_118
 70
64
 62
18
 6
CONTINUOUS
 0
LAYER
 2
D_SEN_117
 70
64
 62
18
 6
CONTINUOUS
 0
LAYER
 2
D_SEN_116
 70
64
 62
18
 6
CONTINUOUS
 0
LAYER
 2
D_SEN_115
 70
64
 62
18
 6
CONTINUOUS
 0
LAYER
 2
D_SEN_114
 70
64
 62
18
 6
CONTINUOUS
 0
LAYER
 2
D_SEN_113
 70
64
 62
18
 6
CONTINUOUS
 0
LAYER
 2
D_SEN_112
 70
64
 62
18
 6
CONTINUOUS
 0
LAYER
 2
D_SEN_111
 70
64
 62
18
 6
CONTINUOUS
 0
LAYER
 2
D_SEN_110
 70
64
 62
18
 6
CONTINUOUS
 0
LAYER
 2
D_SEN_109
 70
64
 62
18
 6
CONTINUOUS
 0
LAYER
 2
D_SEN_108
 70
64
 62
18
 6
CONTINUOUS
 0
LAYER
 2
D_SEN_107
 70
64
 62
18
 6
CONTINUOUS
 0
LAYER
 2
D_SEN_106
 70
64
 62
18
 6
CONTINUOUS
 0
LAYER
 2
D_SEN_105
 70
64
 62
18
 6
CONTINUOUS
 0
LAYER
 2
D_SEN_104
 70
64
 62
18
 6
CONTINUOUS
 0
LAYER
 2
D_SEN_103
 70
64
 62
18
 6
CONTINUOUS
 0
LAYER
 2
D_SEN_102
 70
64
 62
18
 6
CONTINUOUS
 0
LAYER
 2
D_SEN_101
 70
64
 62
18
 6
CONTINUOUS
 0
LAYER
 2
D_SEN_100
 70
64
 62
18
 6
CONTINUOUS
 0
LAYER
 2
D_SEN_99
 70
64
 62
18
 6
CONTINUOUS
 0
LAYER
 2
D_SEN_98
 70
64
 62
18
 6
CONTINUOUS
 0
LAYER
 2
D_SEN_97
 70
64
 62
18
 6
CONTINUOUS
 0
LAYER
 2
D_SEN_96
 70
64
 62
18
 6
CONTINUOUS
 0
LAYER
 2
D_SEN_95
 70
64
 62
18
 6
CONTINUOUS
 0
LAYER
 2
D_SEN_94
 70
64
 62
18
 6
CONTINUOUS
 0
LAYER
 2
D_SEN_93
 70
64
 62
18
 6
CONTINUOUS
 0
LAYER
 2
D_SEN_92
 70
64
 62
18
 6
CONTINUOUS
 0
LAYER
 2
D_SEN_91
 70
64
 62
18
 6
CONTINUOUS
 0
LAYER
 2
D_SEN_90
 70
64
 62
18
 6
CONTINUOUS
 0
LAYER
 2
D_SEN_89
 70
64
 62
18
 6
CONTINUOUS
 0
LAYER
 2
D_SEN_88
 70
64
 62
18
 6
CONTINUOUS
 0
LAYER
 2
D_SEN_87
 70
64
 62
18
 6
CONTINUOUS
 0
LAYER
 2
D_SEN_86
 70
64
 62
18
 6
CONTINUOUS
 0
LAYER
 2
D_SEN_85
 70
64
 62
18
 6
CONTINUOUS
 0
LAYER
 2
D_SEN_84
 70
64
 62
18
 6
CONTINUOUS
 0
LAYER
 2
D_SEN_83
 70
64
 62
18
 6
CONTINUOUS
 0
LAYER
 2
D_SEN_82
 70
64
 62
18
 6
CONTINUOUS
 0
LAYER
 2
D_SEN_81
 70
64
 62
18
 6
CONTINUOUS
 0
LAYER
 2
D_SEN_80
 70
64
 62
18
 6
CONTINUOUS
 0
LAYER
 2
D_SEN_79
 70
64
 62
18
 6
CONTINUOUS
 0
LAYER
 2
D_SEN_78
 70
64
 62
18
 6
CONTINUOUS
 0
LAYER
 2
D_SEN_77
 70
64
 62
18
 6
CONTINUOUS
 0
LAYER
 2
D_SEN_76
 70
64
 62
18
 6
CONTINUOUS
 0
LAYER
 2
D_SEN_75
 70
64
 62
18
 6
CONTINUOUS
 0
LAYER
 2
D_SEN_74
 70
64
 62
18
 6
CONTINUOUS
 0
LAYER
 2
D_SEN_73
 70
64
 62
18
 6
CONTINUOUS
 0
LAYER
 2
D_SEN_72
 70
64
 62
18
 6
CONTINUOUS
 0
LAYER
 2
D_SEN_71
 70
64
 62
18
 6
CONTINUOUS
 0
LAYER
 2
D_SEN_70
 70
64
 62
18
 6
CONTINUOUS
 0
LAYER
 2
D_SEN_69
 70
64
 62
18
 6
CONTINUOUS
 0
LAYER
 2
D_SEN_68
 70
64
 62
18
 6
CONTINUOUS
 0
LAYER
 2
D_SEN_67
 70
64
 62
18
 6
CONTINUOUS
 0
LAYER
 2
D_SEN_66
 70
64
 62
18
 6
CONTINUOUS
 0
LAYER
 2
D_SEN_65
 70
64
 62
18
 6
CONTINUOUS
 0
LAYER
 2
D_SEN_64
 70
64
 62
18
 6
CONTINUOUS
 0
LAYER
 2
D_SEN_63
 70
64
 62
18
 6
CONTINUOUS
 0
LAYER
 2
D_SEN_62
 70
64
 62
18
 6
CONTINUOUS
 0
LAYER
 2
D_SEN_61
 70
64
 62
18
 6
CONTINUOUS
 0
LAYER
 2
D_SEN_60
 70
64
 62
18
 6
CONTINUOUS
 0
LAYER
 2
D_SEN_59
 70
64
 62
18
 6
CONTINUOUS
 0
LAYER
 2
D_SEN_58
 70
64
 62
18
 6
CONTINUOUS
 0
LAYER
 2
D_SEN_57
 70
64
 62
18
 6
CONTINUOUS
 0
LAYER
 2
D_SEN_56
 70
64
 62
18
 6
CONTINUOUS
 0
LAYER
 2
D_SEN_55
 70
64
 62
18
 6
CONTINUOUS
 0
LAYER
 2
D_SEN_54
 70
64
 62
18
 6
CONTINUOUS
 0
LAYER
 2
D_SEN_53
 70
64
 62
18
 6
CONTINUOUS
 0
LAYER
 2
D_SEN_52
 70
64
 62
18
 6
CONTINUOUS
 0
LAYER
 2
D_SEN_51
 70
64
 62
18
 6
CONTINUOUS
 0
LAYER
 2
HANDBRAUSE_1
 70
64
 62
250
 6
CONTINUOUS
 0
LAYER
 2
KEGEL
 70
64
 62
250
 6
CONTINUOUS
 0
LAYER
 2
D_SEN_49
 70
64
 62
250
 6
CONTINUOUS
 0
LAYER
 2
D_SEN_48
 70
64
 62
250
 6
CONTINUOUS
 0
LAYER
 2
D_SEN_47
 70
64
 62
250
 6
CONTINUOUS
 0
LAYER
 2
D_SEN_46
 70
64
 62
250
 6
CONTINUOUS
 0
LAYER
 2
D_SEN_45
 70
64
 62
250
 6
CONTINUOUS
 0
LAYER
 2
D_SEN_44
 70
64
 62
250
 6
CONTINUOUS
 0
LAYER
 2
D_SEN_43
 70
64
 62
250
 6
CONTINUOUS
 0
LAYER
 2
D_SEN_42
 70
64
 62
250
 6
CONTINUOUS
 0
LAYER
 2
D_SEN_41
 70
64
 62
250
 6
CONTINUOUS
 0
LAYER
 2
D_SEN_40
 70
64
 62
250
 6
CONTINUOUS
 0
LAYER
 2
D_SEN_39
 70
64
 62
250
 6
CONTINUOUS
 0
LAYER
 2
D_SEN_38
 70
64
 62
250
 6
CONTINUOUS
 0
LAYER
 2
D_SEN_37
 70
64
 62
250
 6
CONTINUOUS
 0
LAYER
 2
D_SEN_36
 70
64
 62
250
 6
CONTINUOUS
 0
LAYER
 2
D_SEN_35
 70
64
 62
250
 6
CONTINUOUS
 0
LAYER
 2
D_SEN_34
 70
64
 62
250
 6
CONTINUOUS
 0
LAYER
 2
D_SEN_33
 70
64
 62
250
 6
CONTINUOUS
 0
LAYER
 2
D_SEN_32
 70
64
 62
250
 6
CONTINUOUS
 0
LAYER
 2
D_SEN_31
 70
64
 62
250
 6
CONTINUOUS
 0
LAYER
 2
D_SEN_30
 70
64
 62
250
 6
CONTINUOUS
 0
LAYER
 2
D_SEN_29
 70
64
 62
250
 6
CONTINUOUS
 0
LAYER
 2
D_SEN_28
 70
64
 62
250
 6
CONTINUOUS
 0
LAYER
 2
D_SEN_27
 70
64
 62
250
 6
CONTINUOUS
 0
LAYER
 2
D_SEN_26
 70
64
 62
250
 6
CONTINUOUS
 0
LAYER
 2
D_SEN_25
 70
64
 62
250
 6
CONTINUOUS
 0
LAYER
 2
D_SEN_24
 70
64
 62
250
 6
CONTINUOUS
 0
LAYER
 2
D_SEN_23
 70
64
 62
250
 6
CONTINUOUS
 0
LAYER
 2
D_SEN_22
 70
64
 62
250
 6
CONTINUOUS
 0
LAYER
 2
D_SEN_21
 70
64
 62
250
 6
CONTINUOUS
 0
LAYER
 2
D_SEN_20
 70
64
 62
250
 6
CONTINUOUS
 0
LAYER
 2
D_SEN_19
 70
64
 62
250
 6
CONTINUOUS
 0
LAYER
 2
D_SEN_18
 70
64
 62
250
 6
CONTINUOUS
 0
LAYER
 2
D_SEN_17
 70
64
 62
250
 6
CONTINUOUS
 0
LAYER
 2
D_SEN_16
 70
64
 62
250
 6
CONTINUOUS
 0
LAYER
 2
D_SEN_15
 70
64
 62
250
 6
CONTINUOUS
 0
LAYER
 2
D_SEN_14
 70
64
 62
250
 6
CONTINUOUS
 0
LAYER
 2
D_SEN_13
 70
64
 62
250
 6
CONTINUOUS
 0
LAYER
 2
D_SEN_12
 70
64
 62
250
 6
CONTINUOUS
 0
LAYER
 2
D_SEN_11
 70
64
 62
250
 6
CONTINUOUS
 0
LAYER
 2
D_SEN_10
 70
64
 62
250
 6
CONTINUOUS
 0
LAYER
 2
D_SEN_9
 70
64
 62
250
 6
CONTINUOUS
 0
LAYER
 2
D_SEN_8
 70
64
 62
250
 6
CONTINUOUS
 0
LAYER
 2
D_SEN_7
 70
64
 62
250
 6
CONTINUOUS
 0
LAYER
 2
D_SEN_6
 70
64
 62
250
 6
CONTINUOUS
 0
LAYER
 2
D_SEN_5
 70
64
 62
250
 6
CONTINUOUS
 0
LAYER
 2
D_SEN_4
 70
64
 62
250
 6
CONTINUOUS
 0
LAYER
 2
D_SEN_3
 70
64
 62
250
 6
CONTINUOUS
 0
LAYER
 2
D_SEN_2
 70
64
 62
250
 6
CONTINUOUS
 0
LAYER
 2
D_SEN_1
 70
64
 62
250
 6
CONTINUOUS
 0
LAYER
 2
D_SEN
 70
64
 62
250
 6
CONTINUOUS
 0
ENDTAB
 0
ENDSEC
 0
SECTION
 2
BLOCKS
 0
ENDSEC
 0
SECTION
 2
ENTITIES
 0
POLYLINE
 8
K_RPER_6
 66
1
 10
0.0
 20
0.0
 30
0.0
 70
64
 71
8
 72
6
 0
VERTEX
 8
K_RPER_6
 10
-2.635
 20
0.6644
 30
-4.5999
 70
192
 0
VERTEX
 8
K_RPER_6
 10
-2.635
 20
0.6644
 30
25.4001
 70
192
 0
VERTEX
 8
K_RPER_6
 10
-2.635
 20
-0.1356
 30
-4.5999
 70
192
 0
VERTEX
 8
K_RPER_6
 10
-2.635
 20
-0.1356
 30
25.4001
 70
192
 0
VERTEX
 8
K_RPER_6
 10
-1.235
 20
-0.1356
 30
-4.5999
 70
192
 0
VERTEX
 8
K_RPER_6
 10
-1.235
 20
-0.1356
 30
25.4001
 70
192
 0
VERTEX
 8
K_RPER_6
 10
-1.235
 20
0.6644
 30
-4.5999
 70
192
 0
VERTEX
 8
K_RPER_6
 10
-1.235
 20
0.6644
 30
25.4001
 70
192
 0
VERTEX
 8
K_RPER_6
 10
0
 20
0
 30
0
 70
128
 71
1
 72
2
 73
4
 74
3
 0
VERTEX
 8
K_RPER_6
 10
0
 20
0
 30
0
 70
128
 71
3
 72
4
 73
6
 74
5
 0
VERTEX
 8
K_RPER_6
 10
0
 20
0
 30
0
 70
128
 71
5
 72
6
 73
8
 74
7
 0
VERTEX
 8
K_RPER_6
 10
0
 20
0
 30
0
 70
128
 71
7
 72
8
 73
2
 74
1
 0
VERTEX
 8
K_RPER_6
 10
0
 20
0
 30
0
 70
128
 71
2
 72
8
 73
6
 74
4
 0
VERTEX
 8
K_RPER_6
 10
0
 20
0
 30
0
 70
128
 71
7
 72
1
 73
3
 74
5
 0
SEQEND
 0
POLYLINE
 8
K_RPER_5
 66
1
 10
0.0
 20
0.0
 30
0.0
 70
64
 71
32
 72
29
 0
VERTEX
 8
K_RPER_5
 10
-1.435
 20
-0.2515
 30
41.9125
 70
192
 0
VERTEX
 8
K_RPER_5
 10
-2.435
 20
0.5644
 30
24.219
 70
192
 0
VERTEX
 8
K_RPER_5
 10
-2.435
 20
0.5644
 30
40.7704
 70
192
 0
VERTEX
 8
K_RPER_5
 10
-2.435
 20
0.5554
 30
41.328
 70
192
 0
VERTEX
 8
K_RPER_5
 10
-2.435
 20
0.2628
 30
42.2214
 70
192
 0
VERTEX
 8
K_RPER_5
 10
-2.435
 20
-0.3885
 30
42.8995
 70
192
 0
VERTEX
 8
K_RPER_5
 10
-2.435
 20
-1.2694
 30
43.2278
 70
192
 0
VERTEX
 8
K_RPER_5
 10
-2.435
 20
-1.8705
 30
43.2462
 70
192
 0
VERTEX
 8
K_RPER_5
 10
-1.435
 20
-13.2991
 30
42.6462
 70
192
 0
VERTEX
 8
K_RPER_5
 10
-2.435
 20
-13.2991
 30
43.2462
 70
192
 0
VERTEX
 8
K_RPER_5
 10
-1.435
 20
-0.7178
 30
42.398
 70
192
 0
VERTEX
 8
K_RPER_5
 10
-2.435
 20
-0.0356
 30
24.219
 70
192
 0
VERTEX
 8
K_RPER_5
 10
-2.435
 20
-0.0356
 30
40.7704
 70
192
 0
VERTEX
 8
K_RPER_5
 10
-2.435
 20
-0.0421
 30
41.2728
 70
192
 0
VERTEX
 8
K_RPER_5
 10
-2.435
 20
-0.2515
 30
41.9125
 70
192
 0
VERTEX
 8
K_RPER_5
 10
-2.435
 20
-0.7178
 30
42.398
 70
192
 0
VERTEX
 8
K_RPER_5
 10
-2.435
 20
-1.3486
 30
42.633
 70
192
 0
VERTEX
 8
K_RPER_5
 10
-2.435
 20
-1.8705
 30
42.6462
 70
192
 0
VERTEX
 8
K_RPER_5
 10
-1.435
 20
-1.8705
 30
42.6462
 70
192
 0
VERTEX
 8
K_RPER_5
 10
-1.435
 20
-0.0356
 30
24.219
 70
192
 0
VERTEX
 8
K_RPER_5
 10
-1.435
 20
-0.0356
 30
40.7704
 70
192
 0
VERTEX
 8
K_RPER_5
 10
-1.435
 20
-0.0421
 30
41.2728
 70
192
 0
VERTEX
 8
K_RPER_5
 10
-1.435
 20
-1.3486
 30
42.633
 70
192
 0
VERTEX
 8
K_RPER_5
 10
-1.435
 20
0.5644
 30
24.219
 70
192
 0
VERTEX
 8
K_RPER_5
 10
-1.435
 20
0.5644
 30
40.7704
 70
192
 0
VERTEX
 8
K_RPER_5
 10
-1.435
 20
0.5554
 30
41.328
 70
192
 0
VERTEX
 8
K_RPER_5
 10
-1.435
 20
0.2628
 30
42.2214
 70
192
 0
VERTEX
 8
K_RPER_5
 10
-1.435
 20
-0.3885
 30
42.8995
 70
192
 0
VERTEX
 8
K_RPER_5
 10
-1.435
 20
-1.2694
 30
43.2278
 70
192
 0
VERTEX
 8
K_RPER_5
 10
-1.435
 20
-1.8705
 30
43.2462
 70
192
 0
VERTEX
 8
K_RPER_5
 10
-1.435
 20
-13.2991
 30
43.2462
 70
192
 0
VERTEX
 8
K_RPER_5
 10
-2.435
 20
-13.2991
 30
42.6462
 70
192
 0
VERTEX
 8
K_RPER_5
 10
0
 20
0
 30
0
 70
128
 71
10
 72
31
 73
9
 74
32
 0
VERTEX
 8
K_RPER_5
 10
0
 20
0
 30
0
 70
128
 71
20
 72
21
 73
25
 74
24
 0
VERTEX
 8
K_RPER_5
 10
0
 20
0
 30
0
 70
128
 71
21
 72
22
 73
26
 74
25
 0
VERTEX
 8
K_RPER_5
 10
0
 20
0
 30
0
 70
128
 71
2
 72
3
 73
13
 74
12
 0
VERTEX
 8
K_RPER_5
 10
0
 20
0
 30
0
 70
128
 71
3
 72
4
 73
14
 74
13
 0
VERTEX
 8
K_RPER_5
 10
0
 20
0
 30
0
 70
128
 71
4
 72
5
 73
15
 74
14
 0
VERTEX
 8
K_RPER_5
 10
0
 20
0
 30
0
 70
128
 71
5
 72
6
 73
16
 74
15
 0
VERTEX
 8
K_RPER_5
 10
0
 20
0
 30
0
 70
128
 71
6
 72
7
 73
17
 74
16
 0
VERTEX
 8
K_RPER_5
 10
0
 20
0
 30
0
 70
128
 71
7
 72
8
 73
18
 74
17
 0
VERTEX
 8
K_RPER_5
 10
0
 20
0
 30
0
 70
128
 71
1
 72
11
 73
28
 74
27
 0
VERTEX
 8
K_RPER_5
 10
0
 20
0
 30
0
 70
128
 71
11
 72
23
 73
29
 74
28
 0
VERTEX
 8
K_RPER_5
 10
0
 20
0
 30
0
 70
128
 71
23
 72
19
 73
30
 74
29
 0
VERTEX
 8
K_RPER_5
 10
0
 20
0
 30
0
 70
128
 71
22
 72
1
 73
27
 74
26
 0
VERTEX
 8
K_RPER_5
 10
0
 20
0
 30
0
 70
128
 71
10
 72
32
 73
18
 74
8
 0
VERTEX
 8
K_RPER_5
 10
0
 20
0
 30
0
 70
128
 71
12
 72
13
 73
21
 74
20
 0
VERTEX
 8
K_RPER_5
 10
0
 20
0
 30
0
 70
128
 71
13
 72
14
 73
22
 74
21
 0
VERTEX
 8
K_RPER_5
 10
0
 20
0
 30
0
 70
128
 71
14
 72
15
 73
1
 74
22
 0
VERTEX
 8
K_RPER_5
 10
0
 20
0
 30
0
 70
128
 71
15
 72
16
 73
11
 74
1
 0
VERTEX
 8
K_RPER_5
 10
0
 20
0
 30
0
 70
128
 71
16
 72
17
 73
23
 74
11
 0
VERTEX
 8
K_RPER_5
 10
0
 20
0
 30
0
 70
128
 71
17
 72
18
 73
19
 74
23
 0
VERTEX
 8
K_RPER_5
 10
0
 20
0
 30
0
 70
128
 71
19
 72
9
 73
31
 74
30
 0
VERTEX
 8
K_RPER_5
 10
0
 20
0
 30
0
 70
128
 71
8
 72
30
 73
31
 74
10
 0
VERTEX
 8
K_RPER_5
 10
0
 20
0
 30
0
 70
128
 71
32
 72
9
 73
19
 74
18
 0
VERTEX
 8
K_RPER_5
 10
0
 20
0
 30
0
 70
128
 71
24
 72
25
 73
3
 74
2
 0
VERTEX
 8
K_RPER_5
 10
0
 20
0
 30
0
 70
128
 71
25
 72
26
 73
4
 74
3
 0
VERTEX
 8
K_RPER_5
 10
0
 20
0
 30
0
 70
128
 71
26
 72
27
 73
5
 74
4
 0
VERTEX
 8
K_RPER_5
 10
0
 20
0
 30
0
 70
128
 71
27
 72
28
 73
6
 74
5
 0
VERTEX
 8
K_RPER_5
 10
0
 20
0
 30
0
 70
128
 71
28
 72
29
 73
7
 74
6
 0
VERTEX
 8
K_RPER_5
 10
0
 20
0
 30
0
 70
128
 71
29
 72
30
 73
8
 74
7
 0
SEQEND
 0
POLYLINE
 8
K_RPER_4
 66
1
 10
0.0
 20
0.0
 30
0.0
 70
64
 71
8
 72
6
 0
VERTEX
 8
K_RPER_4
 10
-2.635
 20
0.4602
 30
-4.5993
 70
192
 0
VERTEX
 8
K_RPER_4
 10
-2.635
 20
0.4602
 30
-3.9993
 70
192
 0
VERTEX
 8
K_RPER_4
 10
-2.635
 20
-1.9398
 30
-4.5993
 70
192
 0
VERTEX
 8
K_RPER_4
 10
-2.635
 20
-1.9398
 30
-3.9993
 70
192
 0
VERTEX
 8
K_RPER_4
 10
-1.235
 20
-1.9398
 30
-4.5993
 70
192
 0
VERTEX
 8
K_RPER_4
 10
-1.235
 20
-1.9398
 30
-3.9993
 70
192
 0
VERTEX
 8
K_RPER_4
 10
-1.235
 20
0.4602
 30
-4.5993
 70
192
 0
VERTEX
 8
K_RPER_4
 10
-1.235
 20
0.4602
 30
-3.9993
 70
192
 0
VERTEX
 8
K_RPER_4
 10
0
 20
0
 30
0
 70
128
 71
1
 72
2
 73
4
 74
3
 0
VERTEX
 8
K_RPER_4
 10
0
 20
0
 30
0
 70
128
 71
3
 72
4
 73
6
 74
5
 0
VERTEX
 8
K_RPER_4
 10
0
 20
0
 30
0
 70
128
 71
5
 72
6
 73
8
 74
7
 0
VERTEX
 8
K_RPER_4
 10
0
 20
0
 30
0
 70
128
 71
7
 72
8
 73
2
 74
1
 0
VERTEX
 8
K_RPER_4
 10
0
 20
0
 30
0
 70
128
 71
2
 72
8
 73
6
 74
4
 0
VERTEX
 8
K_RPER_4
 10
0
 20
0
 30
0
 70
128
 71
7
 72
1
 73
3
 74
5
 0
SEQEND
 0
POLYLINE
 8
ZYLINDER_7
 66
1
 10
0.0
 20
0.0
 30
0.0
 70
64
 71
24
 72
12
 0
VERTEX
 8
ZYLINDER_7
 10
-1.9312
 20
-1.8499
 30
-4.1095
 70
192
 0
VERTEX
 8
ZYLINDER_7
 10
-1.9312
 20
-1.8499
 30
-3.3095
 70
192
 0
VERTEX
 8
ZYLINDER_7
 10
-1.6312
 20
-1.7695
 30
-4.1095
 70
192
 0
VERTEX
 8
ZYLINDER_7
 10
-1.6312
 20
-1.7695
 30
-3.3095
 70
192
 0
VERTEX
 8
ZYLINDER_7
 10
-1.4116
 20
-1.5499
 30
-4.1095
 70
192
 0
VERTEX
 8
ZYLINDER_7
 10
-1.4116
 20
-1.5499
 30
-3.3095
 70
192
 0
VERTEX
 8
ZYLINDER_7
 10
-1.3312
 20
-1.2499
 30
-4.1095
 70
192
 0
VERTEX
 8
ZYLINDER_7
 10
-1.3312
 20
-1.2499
 30
-3.3095
 70
192
 0
VERTEX
 8
ZYLINDER_7
 10
-1.4116
 20
-0.9499
 30
-4.1095
 70
192
 0
VERTEX
 8
ZYLINDER_7
 10
-1.4116
 20
-0.9499
 30
-3.3095
 70
192
 0
VERTEX
 8
ZYLINDER_7
 10
-1.6312
 20
-0.7303
 30
-4.1095
 70
192
 0
VERTEX
 8
ZYLINDER_7
 10
-1.6312
 20
-0.7303
 30
-3.3095
 70
192
 0
VERTEX
 8
ZYLINDER_7
 10
-1.9312
 20
-0.6499
 30
-4.1095
 70
192
 0
VERTEX
 8
ZYLINDER_7
 10
-1.9312
 20
-0.6499
 30
-3.3095
 70
192
 0
VERTEX
 8
ZYLINDER_7
 10
-2.2312
 20
-0.7303
 30
-4.1095
 70
192
 0
VERTEX
 8
ZYLINDER_7
 10
-2.2312
 20
-0.7303
 30
-3.3095
 70
192
 0
VERTEX
 8
ZYLINDER_7
 10
-2.4508
 20
-0.9499
 30
-4.1095
 70
192
 0
VERTEX
 8
ZYLINDER_7
 10
-2.4508
 20
-0.9499
 30
-3.3095
 70
192
 0
VERTEX
 8
ZYLINDER_7
 10
-2.5312
 20
-1.2499
 30
-4.1095
 70
192
 0
VERTEX
 8
ZYLINDER_7
 10
-2.5312
 20
-1.2499
 30
-3.3095
 70
192
 0
VERTEX
 8
ZYLINDER_7
 10
-2.4508
 20
-1.5499
 30
-4.1095
 70
192
 0
VERTEX
 8
ZYLINDER_7
 10
-2.4508
 20
-1.5499
 30
-3.3095
 70
192
 0
VERTEX
 8
ZYLINDER_7
 10
-2.2312
 20
-1.7695
 30
-4.1095
 70
192
 0
VERTEX
 8
ZYLINDER_7
 10
-2.2312
 20
-1.7695
 30
-3.3095
 70
192
 0
VERTEX
 8
ZYLINDER_7
 10
0
 20
0
 30
0
 70
128
 71
1
 72
2
 73
4
 74
3
 0
VERTEX
 8
ZYLINDER_7
 10
0
 20
0
 30
0
 70
128
 71
3
 72
4
 73
6
 74
5
 0
VERTEX
 8
ZYLINDER_7
 10
0
 20
0
 30
0
 70
128
 71
5
 72
6
 73
8
 74
7
 0
VERTEX
 8
ZYLINDER_7
 10
0
 20
0
 30
0
 70
128
 71
7
 72
8
 73
10
 74
9
 0
VERTEX
 8
ZYLINDER_7
 10
0
 20
0
 30
0
 70
128
 71
9
 72
10
 73
12
 74
11
 0
VERTEX
 8
ZYLINDER_7
 10
0
 20
0
 30
0
 70
128
 71
11
 72
12
 73
14
 74
13
 0
VERTEX
 8
ZYLINDER_7
 10
0
 20
0
 30
0
 70
128
 71
13
 72
14
 73
16
 74
15
 0
VERTEX
 8
ZYLINDER_7
 10
0
 20
0
 30
0
 70
128
 71
15
 72
16
 73
18
 74
17
 0
VERTEX
 8
ZYLINDER_7
 10
0
 20
0
 30
0
 70
128
 71
17
 72
18
 73
20
 74
19
 0
VERTEX
 8
ZYLINDER_7
 10
0
 20
0
 30
0
 70
128
 71
19
 72
20
 73
22
 74
21
 0
VERTEX
 8
ZYLINDER_7
 10
0
 20
0
 30
0
 70
128
 71
21
 72
22
 73
24
 74
23
 0
VERTEX
 8
ZYLINDER_7
 10
0
 20
0
 30
0
 70
128
 71
23
 72
24
 73
2
 74
1
 0
SEQEND
 0
POLYLINE
 8
KAPSEL
 66
1
 10
0.0
 20
0.0
 30
0.0
 70
64
 71
36
 72
24
 0
VERTEX
 8
KAPSEL
 10
3.2108
 20
-1.6244
 30
-3.1705
 70
192
 0
VERTEX
 8
KAPSEL
 10
2.4708
 20
-0.8407
 30
-1.813
 70
192
 0
VERTEX
 8
KAPSEL
 10
2.4708
 20
-0.5332
 30
-2.9605
 70
192
 0
VERTEX
 8
KAPSEL
 10
2.7908
 20
-0.5332
 30
-2.9605
 70
192
 0
VERTEX
 8
KAPSEL
 10
2.4708
 20
-1.2607
 30
-1.7005
 70
192
 0
VERTEX
 8
KAPSEL
 10
2.7908
 20
-1.2607
 30
-1.7005
 70
192
 0
VERTEX
 8
KAPSEL
 10
3.2108
 20
-1.2607
 30
-1.813
 70
192
 0
VERTEX
 8
KAPSEL
 10
2.7908
 20
-0.8407
 30
-1.813
 70
192
 0
VERTEX
 8
KAPSEL
 10
3.2108
 20
-0.6307
 30
-2.9042
 70
192
 0
VERTEX
 8
KAPSEL
 10
2.4708
 20
-1.2607
 30
-3.3805
 70
192
 0
VERTEX
 8
KAPSEL
 10
2.4708
 20
-1.6807
 30
-1.813
 70
192
 0
VERTEX
 8
KAPSEL
 10
2.7908
 20
-1.6807
 30
-1.813
 70
192
 0
VERTEX
 8
KAPSEL
 10
3.2108
 20
-1.6244
 30
-1.9105
 70
192
 0
VERTEX
 8
KAPSEL
 10
2.7908
 20
-1.2607
 30
-3.3805
 70
192
 0
VERTEX
 8
KAPSEL
 10
2.4708
 20
-0.4207
 30
-2.5405
 70
192
 0
VERTEX
 8
KAPSEL
 10
2.7908
 20
-0.4207
 30
-2.5405
 70
192
 0
VERTEX
 8
KAPSEL
 10
2.4708
 20
-1.9881
 30
-2.1205
 70
192
 0
VERTEX
 8
KAPSEL
 10
2.7908
 20
-1.9881
 30
-2.1205
 70
192
 0
VERTEX
 8
KAPSEL
 10
3.2108
 20
-1.8907
 30
-2.1767
 70
192
 0
VERTEX
 8
KAPSEL
 10
3.2108
 20
-1.2607
 30
-3.2679
 70
192
 0
VERTEX
 8
KAPSEL
 10
3.2108
 20
-0.5332
 30
-2.5405
 70
192
 0
VERTEX
 8
KAPSEL
 10
3.2108
 20
-0.8969
 30
-1.9105
 70
192
 0
VERTEX
 8
KAPSEL
 10
2.4708
 20
-2.1007
 30
-2.5405
 70
192
 0
VERTEX
 8
KAPSEL
 10
2.7908
 20
-2.1007
 30
-2.5405
 70
192
 0
VERTEX
 8
KAPSEL
 10
3.2108
 20
-1.9881
 30
-2.5405
 70
192
 0
VERTEX
 8
KAPSEL
 10
2.4708
 20
-0.8407
 30
-3.2679
 70
192
 0
VERTEX
 8
KAPSEL
 10
2.4708
 20
-0.5332
 30
-2.1205
 70
192
 0
VERTEX
 8
KAPSEL
 10
2.7908
 20
-0.5332
 30
-2.1205
 70
192
 0
VERTEX
 8
KAPSEL
 10
2.4708
 20
-1.9881
 30
-2.9605
 70
192
 0
VERTEX
 8
KAPSEL
 10
2.7908
 20
-1.9881
 30
-2.9605
 70
192
 0
VERTEX
 8
KAPSEL
 10
3.2108
 20
-1.8907
 30
-2.9042
 70
192
 0
VERTEX
 8
KAPSEL
 10
2.7908
 20
-0.8407
 30
-3.2679
 70
192
 0
VERTEX
 8
KAPSEL
 10
3.2108
 20
-0.6307
 30
-2.1767
 70
192
 0
VERTEX
 8
KAPSEL
 10
3.2108
 20
-0.8969
 30
-3.1705
 70
192
 0
VERTEX
 8
KAPSEL
 10
2.4708
 20
-1.6807
 30
-3.2679
 70
192
 0
VERTEX
 8
KAPSEL
 10
2.7908
 20
-1.6807
 30
-3.2679
 70
192
 0
VERTEX
 8
KAPSEL
 10
0
 20
0
 30
0
 70
128
 71
23
 72
24
 73
30
 74
29
 0
VERTEX
 8
KAPSEL
 10
0
 20
0
 30
0
 70
128
 71
26
 72
32
 73
4
 74
3
 0
VERTEX
 8
KAPSEL
 10
0
 20
0
 30
0
 70
128
 71
32
 72
34
 73
9
 74
4
 0
VERTEX
 8
KAPSEL
 10
0
 20
0
 30
0
 70
128
 71
5
 72
6
 73
12
 74
11
 0
VERTEX
 8
KAPSEL
 10
0
 20
0
 30
0
 70
128
 71
6
 72
7
 73
13
 74
12
 0
VERTEX
 8
KAPSEL
 10
0
 20
0
 30
0
 70
128
 71
24
 72
25
 73
31
 74
30
 0
VERTEX
 8
KAPSEL
 10
0
 20
0
 30
0
 70
128
 71
27
 72
28
 73
8
 74
2
 0
VERTEX
 8
KAPSEL
 10
0
 20
0
 30
0
 70
128
 71
28
 72
33
 73
22
 74
8
 0
VERTEX
 8
KAPSEL
 10
0
 20
0
 30
0
 70
128
 71
29
 72
30
 73
36
 74
35
 0
VERTEX
 8
KAPSEL
 10
0
 20
0
 30
0
 70
128
 71
3
 72
4
 73
16
 74
15
 0
VERTEX
 8
KAPSEL
 10
0
 20
0
 30
0
 70
128
 71
11
 72
12
 73
18
 74
17
 0
VERTEX
 8
KAPSEL
 10
0
 20
0
 30
0
 70
128
 71
12
 72
13
 73
19
 74
18
 0
VERTEX
 8
KAPSEL
 10
0
 20
0
 30
0
 70
128
 71
30
 72
31
 73
1
 74
36
 0
VERTEX
 8
KAPSEL
 10
0
 20
0
 30
0
 70
128
 71
2
 72
8
 73
6
 74
5
 0
VERTEX
 8
KAPSEL
 10
0
 20
0
 30
0
 70
128
 71
4
 72
9
 73
21
 74
16
 0
VERTEX
 8
KAPSEL
 10
0
 20
0
 30
0
 70
128
 71
35
 72
36
 73
14
 74
10
 0
VERTEX
 8
KAPSEL
 10
0
 20
0
 30
0
 70
128
 71
36
 72
1
 73
20
 74
14
 0
VERTEX
 8
KAPSEL
 10
0
 20
0
 30
0
 70
128
 71
17
 72
18
 73
24
 74
23
 0
VERTEX
 8
KAPSEL
 10
0
 20
0
 30
0
 70
128
 71
18
 72
19
 73
25
 74
24
 0
VERTEX
 8
KAPSEL
 10
0
 20
0
 30
0
 70
128
 71
8
 72
22
 73
7
 74
6
 0
VERTEX
 8
KAPSEL
 10
0
 20
0
 30
0
 70
128
 71
10
 72
14
 73
32
 74
26
 0
VERTEX
 8
KAPSEL
 10
0
 20
0
 30
0
 70
128
 71
15
 72
16
 73
28
 74
27
 0
VERTEX
 8
KAPSEL
 10
0
 20
0
 30
0
 70
128
 71
16
 72
21
 73
33
 74
28
 0
VERTEX
 8
KAPSEL
 10
0
 20
0
 30
0
 70
128
 71
14
 72
20
 73
34
 74
32
 0
SEQEND
 0
POLYLINE
 8
GRIFF_1
 66
1
 10
0.0
 20
0.0
 30
0.0
 70
64
 71
20
 72
17
 0
VERTEX
 8
GRIFF_1
 10
3.6339
 20
-0.9323
 30
0.6344
 70
192
 0
VERTEX
 8
GRIFF_1
 10
3.7739
 20
-0.9323
 30
0.6344
 70
192
 0
VERTEX
 8
GRIFF_1
 10
3.7739
 20
-1.5923
 30
0.6344
 70
192
 0
VERTEX
 8
GRIFF_1
 10
3.6339
 20
-1.5923
 30
0.6344
 70
192
 0
VERTEX
 8
GRIFF_1
 10
3.6339
 20
-0.9023
 30
0.6044
 70
192
 0
VERTEX
 8
GRIFF_1
 10
3.7739
 20
-0.9023
 30
0.6044
 70
192
 0
VERTEX
 8
GRIFF_1
 10
3.8039
 20
-0.9323
 30
0.6044
 70
192
 0
VERTEX
 8
GRIFF_1
 10
3.8039
 20
-1.5923
 30
0.6044
 70
192
 0
VERTEX
 8
GRIFF_1
 10
3.7739
 20
-1.6223
 30
0.6044
 70
192
 0
VERTEX
 8
GRIFF_1
 10
3.6339
 20
-1.6223
 30
0.6044
 70
192
 0
VERTEX
 8
GRIFF_1
 10
3.6039
 20
-1.5923
 30
0.6044
 70
192
 0
VERTEX
 8
GRIFF_1
 10
3.6039
 20
-0.9323
 30
0.6044
 70
192
 0
VERTEX
 8
GRIFF_1
 10
3.6339
 20
-0.9023
 30
-1.7356
 70
192
 0
VERTEX
 8
GRIFF_1
 10
3.7739
 20
-0.9023
 30
-1.7356
 70
192
 0
VERTEX
 8
GRIFF_1
 10
3.8039
 20
-0.9323
 30
-1.7356
 70
192
 0
VERTEX
 8
GRIFF_1
 10
3.8039
 20
-1.5923
 30
-1.7356
 70
192
 0
VERTEX
 8
GRIFF_1
 10
3.7739
 20
-1.6223
 30
-1.7356
 70
192
 0
VERTEX
 8
GRIFF_1
 10
3.6339
 20
-1.6223
 30
-1.7356
 70
192
 0
VERTEX
 8
GRIFF_1
 10
3.6039
 20
-1.5923
 30
-1.7356
 70
192
 0
VERTEX
 8
GRIFF_1
 10
3.6039
 20
-0.9323
 30
-1.7356
 70
192
 0
VERTEX
 8
GRIFF_1
 10
0
 20
0
 30
0
 70
128
 71
1
 72
5
 73
6
 74
2
 0
VERTEX
 8
GRIFF_1
 10
0
 20
0
 30
0
 70
128
 71
5
 72
13
 73
14
 74
6
 0
VERTEX
 8
GRIFF_1
 10
0
 20
0
 30
0
 70
128
 71
4
 72
11
 73
12
 74
1
 0
VERTEX
 8
GRIFF_1
 10
0
 20
0
 30
0
 70
128
 71
2
 72
6
 73
7
 74
7
 0
VERTEX
 8
GRIFF_1
 10
0
 20
0
 30
0
 70
128
 71
6
 72
14
 73
15
 74
7
 0
VERTEX
 8
GRIFF_1
 10
0
 20
0
 30
0
 70
128
 71
11
 72
19
 73
20
 74
12
 0
VERTEX
 8
GRIFF_1
 10
0
 20
0
 30
0
 70
128
 71
2
 72
7
 73
8
 74
3
 0
VERTEX
 8
GRIFF_1
 10
0
 20
0
 30
0
 70
128
 71
7
 72
15
 73
16
 74
8
 0
VERTEX
 8
GRIFF_1
 10
0
 20
0
 30
0
 70
128
 71
1
 72
12
 73
5
 74
5
 0
VERTEX
 8
GRIFF_1
 10
0
 20
0
 30
0
 70
128
 71
3
 72
8
 73
9
 74
9
 0
VERTEX
 8
GRIFF_1
 10
0
 20
0
 30
0
 70
128
 71
8
 72
16
 73
17
 74
9
 0
VERTEX
 8
GRIFF_1
 10
0
 20
0
 30
0
 70
128
 71
12
 72
20
 73
13
 74
5
 0
VERTEX
 8
GRIFF_1
 10
0
 20
0
 30
0
 70
128
 71
3
 72
9
 73
10
 74
4
 0
VERTEX
 8
GRIFF_1
 10
0
 20
0
 30
0
 70
128
 71
9
 72
17
 73
18
 74
10
 0
VERTEX
 8
GRIFF_1
 10
0
 20
0
 30
0
 70
128
 71
1
 72
2
 73
3
 74
4
 0
VERTEX
 8
GRIFF_1
 10
0
 20
0
 30
0
 70
128
 71
4
 72
10
 73
11
 74
11
 0
VERTEX
 8
GRIFF_1
 10
0
 20
0
 30
0
 70
128
 71
10
 72
18
 73
19
 74
11
 0
SEQEND
 0
POLYLINE
 8
AUSLAUF
 66
1
 10
0.0
 20
0.0
 30
0.0
 70
64
 71
17
 72
8
 0
VERTEX
 8
AUSLAUF
 10
2.8455
 20
-1.2604
 30
-2.4744
 70
192
 0
VERTEX
 8
AUSLAUF
 10
2.8455
 20
-1.2895
 30
-2.4744
 70
192
 0
VERTEX
 8
AUSLAUF
 10
2.8455
 20
-1.333
 30
-2.4744
 70
192
 0
VERTEX
 8
AUSLAUF
 10
2.8455
 20
-1.4615
 30
-2.4744
 70
192
 0
VERTEX
 8
AUSLAUF
 10
2.8455
 20
-2.1387
 30
-2.4744
 70
192
 0
VERTEX
 8
AUSLAUF
 10
2.9035
 20
-2.1554
 30
-2.6339
 70
192
 0
VERTEX
 8
AUSLAUF
 10
3.0331
 20
-2.0398
 30
-2.9898
 70
192
 0
VERTEX
 8
AUSLAUF
 10
3.1343
 20
-1.7894
 30
-3.2679
 70
192
 0
VERTEX
 8
AUSLAUF
 10
3.1897
 20
-1.4475
 30
-3.4201
 70
192
 0
VERTEX
 8
AUSLAUF
 10
3.1897
 20
-1.0732
 30
-3.4201
 70
192
 0
VERTEX
 8
AUSLAUF
 10
3.1343
 20
-0.7313
 30
-3.2679
 70
192
 0
VERTEX
 8
AUSLAUF
 10
3.0331
 20
-0.4809
 30
-2.9898
 70
192
 0
VERTEX
 8
AUSLAUF
 10
2.9035
 20
-0.3653
 30
-2.6339
 70
192
 0
VERTEX
 8
AUSLAUF
 10
2.8455
 20
-0.382
 30
-2.4744
 70
192
 0
VERTEX
 8
AUSLAUF
 10
2.8455
 20
-1.0592
 30
-2.4744
 70
192
 0
VERTEX
 8
AUSLAUF
 10
2.8455
 20
-1.1878
 30
-2.4744
 70
192
 0
VERTEX
 8
AUSLAUF
 10
2.8455
 20
-1.2313
 30
-2.4744
 70
192
 0
VERTEX
 8
AUSLAUF
 10
0
 20
0
 30
0
 70
128
 71
5
 72
6
 73
7
 74
4
 0
VERTEX
 8
AUSLAUF
 10
0
 20
0
 30
0
 70
128
 71
14
 72
15
 73
12
 74
13
 0
VERTEX
 8
AUSLAUF
 10
0
 20
0
 30
0
 70
128
 71
9
 72
10
 73
11
 74
12
 0
VERTEX
 8
AUSLAUF
 10
0
 20
0
 30
0
 70
128
 71
3
 72
4
 73
7
 74
8
 0
VERTEX
 8
AUSLAUF
 10
0
 20
0
 30
0
 70
128
 71
9
 72
12
 73
15
 74
16
 0
VERTEX
 8
AUSLAUF
 10
0
 20
0
 30
0
 70
128
 71
17
 72
2
 73
8
 74
8
 0
VERTEX
 8
AUSLAUF
 10
0
 20
0
 30
0
 70
128
 71
3
 72
8
 73
2
 74
2
 0
VERTEX
 8
AUSLAUF
 10
0
 20
0
 30
0
 70
128
 71
17
 72
8
 73
9
 74
16
 0
SEQEND
 0
POLYLINE
 8
ZYLINDER_6
 66
1
 10
0.0
 20
0.0
 30
0.0
 70
64
 71
40
 72
40
 0
VERTEX
 8
ZYLINDER_6
 10
4.0455
 20
-1.2604
 30
-2.5398
 70
192
 0
VERTEX
 8
ZYLINDER_6
 10
2.8455
 20
-1.2604
 30
-1.6398
 70
192
 0
VERTEX
 8
ZYLINDER_6
 10
4.0455
 20
-1.2604
 30
-1.6398
 70
192
 0
VERTEX
 8
ZYLINDER_6
 10
2.8455
 20
-1.6264
 30
-1.7176
 70
192
 0
VERTEX
 8
ZYLINDER_6
 10
4.0455
 20
-1.6264
 30
-1.7176
 70
192
 0
VERTEX
 8
ZYLINDER_6
 10
2.8455
 20
-1.9292
 30
-1.9376
 70
192
 0
VERTEX
 8
ZYLINDER_6
 10
4.0455
 20
-1.9292
 30
-1.9376
 70
192
 0
VERTEX
 8
ZYLINDER_6
 10
2.8455
 20
-2.1163
 30
-2.2617
 70
192
 0
VERTEX
 8
ZYLINDER_6
 10
4.0455
 20
-2.1163
 30
-2.2617
 70
192
 0
VERTEX
 8
ZYLINDER_6
 10
4.0455
 20
-2.1554
 30
-2.6339
 70
192
 0
VERTEX
 8
ZYLINDER_6
 10
4.0455
 20
-2.0398
 30
-2.9898
 70
192
 0
VERTEX
 8
ZYLINDER_6
 10
4.0455
 20
-1.7894
 30
-3.2679
 70
192
 0
VERTEX
 8
ZYLINDER_6
 10
4.0455
 20
-1.4475
 30
-3.4201
 70
192
 0
VERTEX
 8
ZYLINDER_6
 10
4.0455
 20
-1.0732
 30
-3.4201
 70
192
 0
VERTEX
 8
ZYLINDER_6
 10
4.0455
 20
-0.7313
 30
-3.2679
 70
192
 0
VERTEX
 8
ZYLINDER_6
 10
4.0455
 20
-0.4809
 30
-2.9898
 70
192
 0
VERTEX
 8
ZYLINDER_6
 10
4.0455
 20
-0.3653
 30
-2.6339
 70
192
 0
VERTEX
 8
ZYLINDER_6
 10
2.8455
 20
-0.4044
 30
-2.2617
 70
192
 0
VERTEX
 8
ZYLINDER_6
 10
4.0455
 20
-0.4044
 30
-2.2617
 70
192
 0
VERTEX
 8
ZYLINDER_6
 10
2.8455
 20
-0.5915
 30
-1.9376
 70
192
 0
VERTEX
 8
ZYLINDER_6
 10
4.0455
 20
-0.5915
 30
-1.9376
 70
192
 0
VERTEX
 8
ZYLINDER_6
 10
2.8455
 20
-0.8943
 30
-1.7176
 70
192
 0
VERTEX
 8
ZYLINDER_6
 10
4.0455
 20
-0.8943
 30
-1.7176
 70
192
 0
VERTEX
 8
ZYLINDER_6
 10
2.8455
 20
-1.2604
 30
-2.4744
 70
192
 0
VERTEX
 8
ZYLINDER_6
 10
2.8455
 20
-1.2895
 30
-2.4744
 70
192
 0
VERTEX
 8
ZYLINDER_6
 10
2.8455
 20
-1.333
 30
-2.4744
 70
192
 0
VERTEX
 8
ZYLINDER_6
 10
2.8455
 20
-1.4615
 30
-2.4744
 70
192
 0
VERTEX
 8
ZYLINDER_6
 10
2.8455
 20
-2.1387
 30
-2.4744
 70
192
 0
VERTEX
 8
ZYLINDER_6
 10
2.9035
 20
-2.1554
 30
-2.6339
 70
192
 0
VERTEX
 8
ZYLINDER_6
 10
3.0331
 20
-2.0398
 30
-2.9898
 70
192
 0
VERTEX
 8
ZYLINDER_6
 10
3.1343
 20
-1.7894
 30
-3.2679
 70
192
 0
VERTEX
 8
ZYLINDER_6
 10
3.1897
 20
-1.4475
 30
-3.4201
 70
192
 0
VERTEX
 8
ZYLINDER_6
 10
3.1897
 20
-1.0732
 30
-3.4201
 70
192
 0
VERTEX
 8
ZYLINDER_6
 10
3.1343
 20
-0.7313
 30
-3.2679
 70
192
 0
VERTEX
 8
ZYLINDER_6
 10
3.0331
 20
-0.4809
 30
-2.9898
 70
192
 0
VERTEX
 8
ZYLINDER_6
 10
2.9035
 20
-0.3653
 30
-2.6339
 70
192
 0
VERTEX
 8
ZYLINDER_6
 10
2.8455
 20
-0.382
 30
-2.4744
 70
192
 0
VERTEX
 8
ZYLINDER_6
 10
2.8455
 20
-1.0592
 30
-2.4744
 70
192
 0
VERTEX
 8
ZYLINDER_6
 10
2.8455
 20
-1.1878
 30
-2.4744
 70
192
 0
VERTEX
 8
ZYLINDER_6
 10
2.8455
 20
-1.2313
 30
-2.4744
 70
192
 0
VERTEX
 8
ZYLINDER_6
 10
0
 20
0
 30
0
 70
128
 71
25
 72
24
 73
2
 74
4
 0
VERTEX
 8
ZYLINDER_6
 10
0
 20
0
 30
0
 70
128
 71
2
 72
3
 73
5
 74
4
 0
VERTEX
 8
ZYLINDER_6
 10
0
 20
0
 30
0
 70
128
 71
3
 72
1
 73
5
 74
5
 0
VERTEX
 8
ZYLINDER_6
 10
0
 20
0
 30
0
 70
128
 71
25
 72
4
 73
6
 74
26
 0
VERTEX
 8
ZYLINDER_6
 10
0
 20
0
 30
0
 70
128
 71
4
 72
5
 73
7
 74
6
 0
VERTEX
 8
ZYLINDER_6
 10
0
 20
0
 30
0
 70
128
 71
5
 72
1
 73
7
 74
7
 0
VERTEX
 8
ZYLINDER_6
 10
0
 20
0
 30
0
 70
128
 71
26
 72
6
 73
8
 74
27
 0
VERTEX
 8
ZYLINDER_6
 10
0
 20
0
 30
0
 70
128
 71
6
 72
7
 73
9
 74
8
 0
VERTEX
 8
ZYLINDER_6
 10
0
 20
0
 30
0
 70
128
 71
7
 72
1
 73
9
 74
9
 0
VERTEX
 8
ZYLINDER_6
 10
0
 20
0
 30
0
 70
128
 71
27
 72
8
 73
28
 74
28
 0
VERTEX
 8
ZYLINDER_6
 10
0
 20
0
 30
0
 70
128
 71
28
 72
8
 73
9
 74
9
 0
VERTEX
 8
ZYLINDER_6
 10
0
 20
0
 30
0
 70
128
 71
9
 72
10
 73
29
 74
28
 0
VERTEX
 8
ZYLINDER_6
 10
0
 20
0
 30
0
 70
128
 71
9
 72
1
 73
10
 74
10
 0
VERTEX
 8
ZYLINDER_6
 10
0
 20
0
 30
0
 70
128
 71
29
 72
10
 73
11
 74
30
 0
VERTEX
 8
ZYLINDER_6
 10
0
 20
0
 30
0
 70
128
 71
10
 72
1
 73
11
 74
11
 0
VERTEX
 8
ZYLINDER_6
 10
0
 20
0
 30
0
 70
128
 71
30
 72
11
 73
12
 74
31
 0
VERTEX
 8
ZYLINDER_6
 10
0
 20
0
 30
0
 70
128
 71
11
 72
1
 73
12
 74
12
 0
VERTEX
 8
ZYLINDER_6
 10
0
 20
0
 30
0
 70
128
 71
31
 72
12
 73
13
 74
32
 0
VERTEX
 8
ZYLINDER_6
 10
0
 20
0
 30
0
 70
128
 71
12
 72
1
 73
13
 74
13
 0
VERTEX
 8
ZYLINDER_6
 10
0
 20
0
 30
0
 70
128
 71
32
 72
13
 73
14
 74
33
 0
VERTEX
 8
ZYLINDER_6
 10
0
 20
0
 30
0
 70
128
 71
13
 72
1
 73
14
 74
14
 0
VERTEX
 8
ZYLINDER_6
 10
0
 20
0
 30
0
 70
128
 71
33
 72
14
 73
15
 74
34
 0
VERTEX
 8
ZYLINDER_6
 10
0
 20
0
 30
0
 70
128
 71
14
 72
1
 73
15
 74
15
 0
VERTEX
 8
ZYLINDER_6
 10
0
 20
0
 30
0
 70
128
 71
34
 72
15
 73
16
 74
35
 0
VERTEX
 8
ZYLINDER_6
 10
0
 20
0
 30
0
 70
128
 71
15
 72
1
 73
16
 74
16
 0
VERTEX
 8
ZYLINDER_6
 10
0
 20
0
 30
0
 70
128
 71
35
 72
16
 73
17
 74
36
 0
VERTEX
 8
ZYLINDER_6
 10
0
 20
0
 30
0
 70
128
 71
16
 72
1
 73
17
 74
17
 0
VERTEX
 8
ZYLINDER_6
 10
0
 20
0
 30
0
 70
128
 71
37
 72
18
 73
38
 74
38
 0
VERTEX
 8
ZYLINDER_6
 10
0
 20
0
 30
0
 70
128
 71
36
 72
17
 73
19
 74
37
 0
VERTEX
 8
ZYLINDER_6
 10
0
 20
0
 30
0
 70
128
 71
19
 72
18
 73
37
 74
37
 0
VERTEX
 8
ZYLINDER_6
 10
0
 20
0
 30
0
 70
128
 71
17
 72
1
 73
19
 74
19
 0
VERTEX
 8
ZYLINDER_6
 10
0
 20
0
 30
0
 70
128
 71
38
 72
18
 73
20
 74
39
 0
VERTEX
 8
ZYLINDER_6
 10
0
 20
0
 30
0
 70
128
 71
18
 72
19
 73
21
 74
20
 0
VERTEX
 8
ZYLINDER_6
 10
0
 20
0
 30
0
 70
128
 71
19
 72
1
 73
21
 74
21
 0
VERTEX
 8
ZYLINDER_6
 10
0
 20
0
 30
0
 70
128
 71
39
 72
20
 73
22
 74
40
 0
VERTEX
 8
ZYLINDER_6
 10
0
 20
0
 30
0
 70
128
 71
20
 72
21
 73
23
 74
22
 0
VERTEX
 8
ZYLINDER_6
 10
0
 20
0
 30
0
 70
128
 71
21
 72
1
 73
23
 74
23
 0
VERTEX
 8
ZYLINDER_6
 10
0
 20
0
 30
0
 70
128
 71
2
 72
24
 73
40
 74
22
 0
VERTEX
 8
ZYLINDER_6
 10
0
 20
0
 30
0
 70
128
 71
22
 72
23
 73
3
 74
2
 0
VERTEX
 8
ZYLINDER_6
 10
0
 20
0
 30
0
 70
128
 71
23
 72
1
 73
3
 74
3
 0
SEQEND
 0
POLYLINE
 8
K_RPER_3
 66
1
 10
0.0
 20
0.0
 30
0.0
 70
64
 71
24
 72
26
 0
VERTEX
 8
K_RPER_3
 10
-6.4009
 20
-0.4429
 30
-3.4381
 70
192
 0
VERTEX
 8
K_RPER_3
 10
-6.4009
 20
-2.0829
 30
-3.4381
 70
192
 0
VERTEX
 8
K_RPER_3
 10
2.6391
 20
-2.0829
 30
-3.4381
 70
192
 0
VERTEX
 8
K_RPER_3
 10
2.6391
 20
-0.4429
 30
-3.4381
 70
192
 0
VERTEX
 8
K_RPER_3
 10
-6.4809
 20
-0.4429
 30
-3.3581
 70
192
 0
VERTEX
 8
K_RPER_3
 10
-6.4809
 20
-2.0829
 30
-3.3581
 70
192
 0
VERTEX
 8
K_RPER_3
 10
-6.4009
 20
-2.1629
 30
-3.3581
 70
192
 0
VERTEX
 8
K_RPER_3
 10
2.6391
 20
-2.1629
 30
-3.3581
 70
192
 0
VERTEX
 8
K_RPER_3
 10
2.7191
 20
-2.0829
 30
-3.3581
 70
192
 0
VERTEX
 8
K_RPER_3
 10
2.7191
 20
-0.4429
 30
-3.3581
 70
192
 0
VERTEX
 8
K_RPER_3
 10
2.6391
 20
-0.3629
 30
-3.3581
 70
192
 0
VERTEX
 8
K_RPER_3
 10
-6.4009
 20
-0.3629
 30
-3.3581
 70
192
 0
VERTEX
 8
K_RPER_3
 10
-6.4809
 20
-0.4429
 30
-1.7181
 70
192
 0
VERTEX
 8
K_RPER_3
 10
-6.4809
 20
-2.0829
 30
-1.7181
 70
192
 0
VERTEX
 8
K_RPER_3
 10
-6.4009
 20
-2.1629
 30
-1.7181
 70
192
 0
VERTEX
 8
K_RPER_3
 10
2.6391
 20
-2.1629
 30
-1.7181
 70
192
 0
VERTEX
 8
K_RPER_3
 10
2.7191
 20
-2.0829
 30
-1.7181
 70
192
 0
VERTEX
 8
K_RPER_3
 10
2.7191
 20
-0.4429
 30
-1.7181
 70
192
 0
VERTEX
 8
K_RPER_3
 10
2.6391
 20
-0.3629
 30
-1.7181
 70
192
 0
VERTEX
 8
K_RPER_3
 10
-6.4009
 20
-0.3629
 30
-1.7181
 70
192
 0
VERTEX
 8
K_RPER_3
 10
-6.4009
 20
-0.4429
 30
-1.6381
 70
192
 0
VERTEX
 8
K_RPER_3
 10
-6.4009
 20
-2.0829
 30
-1.6381
 70
192
 0
VERTEX
 8
K_RPER_3
 10
2.6391
 20
-2.0829
 30
-1.6381
 70
192
 0
VERTEX
 8
K_RPER_3
 10
2.6391
 20
-0.4429
 30
-1.6381
 70
192
 0
VERTEX
 8
K_RPER_3
 10
0
 20
0
 30
0
 70
128
 71
1
 72
5
 73
6
 74
2
 0
VERTEX
 8
K_RPER_3
 10
0
 20
0
 30
0
 70
128
 71
5
 72
13
 73
14
 74
6
 0
VERTEX
 8
K_RPER_3
 10
0
 20
0
 30
0
 70
128
 71
13
 72
21
 73
22
 74
14
 0
VERTEX
 8
K_RPER_3
 10
0
 20
0
 30
0
 70
128
 71
2
 72
6
 73
7
 74
7
 0
VERTEX
 8
K_RPER_3
 10
0
 20
0
 30
0
 70
128
 71
6
 72
14
 73
15
 74
7
 0
VERTEX
 8
K_RPER_3
 10
0
 20
0
 30
0
 70
128
 71
14
 72
22
 73
15
 74
15
 0
VERTEX
 8
K_RPER_3
 10
0
 20
0
 30
0
 70
128
 71
2
 72
7
 73
8
 74
3
 0
VERTEX
 8
K_RPER_3
 10
0
 20
0
 30
0
 70
128
 71
7
 72
15
 73
16
 74
8
 0
VERTEX
 8
K_RPER_3
 10
0
 20
0
 30
0
 70
128
 71
15
 72
22
 73
23
 74
16
 0
VERTEX
 8
K_RPER_3
 10
0
 20
0
 30
0
 70
128
 71
3
 72
8
 73
9
 74
9
 0
VERTEX
 8
K_RPER_3
 10
0
 20
0
 30
0
 70
128
 71
8
 72
16
 73
17
 74
9
 0
VERTEX
 8
K_RPER_3
 10
0
 20
0
 30
0
 70
128
 71
16
 72
23
 73
17
 74
17
 0
VERTEX
 8
K_RPER_3
 10
0
 20
0
 30
0
 70
128
 71
3
 72
9
 73
10
 74
4
 0
VERTEX
 8
K_RPER_3
 10
0
 20
0
 30
0
 70
128
 71
9
 72
17
 73
18
 74
10
 0
VERTEX
 8
K_RPER_3
 10
0
 20
0
 30
0
 70
128
 71
17
 72
23
 73
24
 74
18
 0
VERTEX
 8
K_RPER_3
 10
0
 20
0
 30
0
 70
128
 71
4
 72
10
 73
11
 74
11
 0
VERTEX
 8
K_RPER_3
 10
0
 20
0
 30
0
 70
128
 71
10
 72
18
 73
19
 74
11
 0
VERTEX
 8
K_RPER_3
 10
0
 20
0
 30
0
 70
128
 71
18
 72
24
 73
19
 74
19
 0
VERTEX
 8
K_RPER_3
 10
0
 20
0
 30
0
 70
128
 71
4
 72
11
 73
12
 74
1
 0
VERTEX
 8
K_RPER_3
 10
0
 20
0
 30
0
 70
128
 71
11
 72
19
 73
20
 74
12
 0
VERTEX
 8
K_RPER_3
 10
0
 20
0
 30
0
 70
128
 71
19
 72
24
 73
21
 74
20
 0
VERTEX
 8
K_RPER_3
 10
0
 20
0
 30
0
 70
128
 71
1
 72
12
 73
5
 74
5
 0
VERTEX
 8
K_RPER_3
 10
0
 20
0
 30
0
 70
128
 71
12
 72
20
 73
13
 74
5
 0
VERTEX
 8
K_RPER_3
 10
0
 20
0
 30
0
 70
128
 71
20
 72
21
 73
13
 74
13
 0
VERTEX
 8
K_RPER_3
 10
0
 20
0
 30
0
 70
128
 71
21
 72
24
 73
23
 74
22
 0
VERTEX
 8
K_RPER_3
 10
0
 20
0
 30
0
 70
128
 71
1
 72
2
 73
3
 74
4
 0
SEQEND
 0
POLYLINE
 8
ROSEETENK_RPER_1
 66
1
 10
0.0
 20
0.0
 30
0.0
 70
64
 71
24
 72
12
 0
VERTEX
 8
ROSEETENK_RPER_1
 10
-4.4288
 20
0.7642
 30
-2.9727
 70
192
 0
VERTEX
 8
ROSEETENK_RPER_1
 10
-4.4288
 20
-1.6358
 30
-2.9727
 70
192
 0
VERTEX
 8
ROSEETENK_RPER_1
 10
-4.1888
 20
0.7642
 30
-2.9084
 70
192
 0
VERTEX
 8
ROSEETENK_RPER_1
 10
-4.1888
 20
-1.6358
 30
-2.9084
 70
192
 0
VERTEX
 8
ROSEETENK_RPER_1
 10
-4.0131
 20
0.7642
 30
-2.7327
 70
192
 0
VERTEX
 8
ROSEETENK_RPER_1
 10
-4.0131
 20
-1.6358
 30
-2.7327
 70
192
 0
VERTEX
 8
ROSEETENK_RPER_1
 10
-3.9488
 20
0.7642
 30
-2.4927
 70
192
 0
VERTEX
 8
ROSEETENK_RPER_1
 10
-3.9488
 20
-1.6358
 30
-2.4927
 70
192
 0
VERTEX
 8
ROSEETENK_RPER_1
 10
-4.0131
 20
0.7642
 30
-2.2527
 70
192
 0
VERTEX
 8
ROSEETENK_RPER_1
 10
-4.0131
 20
-1.6358
 30
-2.2527
 70
192
 0
VERTEX
 8
ROSEETENK_RPER_1
 10
-4.1888
 20
0.7642
 30
-2.077
 70
192
 0
VERTEX
 8
ROSEETENK_RPER_1
 10
-4.1888
 20
-1.6358
 30
-2.077
 70
192
 0
VERTEX
 8
ROSEETENK_RPER_1
 10
-4.4288
 20
0.7642
 30
-2.0127
 70
192
 0
VERTEX
 8
ROSEETENK_RPER_1
 10
-4.4288
 20
-1.6358
 30
-2.0127
 70
192
 0
VERTEX
 8
ROSEETENK_RPER_1
 10
-4.6688
 20
0.7642
 30
-2.077
 70
192
 0
VERTEX
 8
ROSEETENK_RPER_1
 10
-4.6688
 20
-1.6358
 30
-2.077
 70
192
 0
VERTEX
 8
ROSEETENK_RPER_1
 10
-4.8444
 20
0.7642
 30
-2.2527
 70
192
 0
VERTEX
 8
ROSEETENK_RPER_1
 10
-4.8444
 20
-1.6358
 30
-2.2527
 70
192
 0
VERTEX
 8
ROSEETENK_RPER_1
 10
-4.9088
 20
0.7642
 30
-2.4927
 70
192
 0
VERTEX
 8
ROSEETENK_RPER_1
 10
-4.9088
 20
-1.6358
 30
-2.4927
 70
192
 0
VERTEX
 8
ROSEETENK_RPER_1
 10
-4.8444
 20
0.7642
 30
-2.7327
 70
192
 0
VERTEX
 8
ROSEETENK_RPER_1
 10
-4.8444
 20
-1.6358
 30
-2.7327
 70
192
 0
VERTEX
 8
ROSEETENK_RPER_1
 10
-4.6688
 20
0.7642
 30
-2.9084
 70
192
 0
VERTEX
 8
ROSEETENK_RPER_1
 10
-4.6688
 20
-1.6358
 30
-2.9084
 70
192
 0
VERTEX
 8
ROSEETENK_RPER_1
 10
0
 20
0
 30
0
 70
128
 71
1
 72
2
 73
4
 74
3
 0
VERTEX
 8
ROSEETENK_RPER_1
 10
0
 20
0
 30
0
 70
128
 71
3
 72
4
 73
6
 74
5
 0
VERTEX
 8
ROSEETENK_RPER_1
 10
0
 20
0
 30
0
 70
128
 71
5
 72
6
 73
8
 74
7
 0
VERTEX
 8
ROSEETENK_RPER_1
 10
0
 20
0
 30
0
 70
128
 71
7
 72
8
 73
10
 74
9
 0
VERTEX
 8
ROSEETENK_RPER_1
 10
0
 20
0
 30
0
 70
128
 71
9
 72
10
 73
12
 74
11
 0
VERTEX
 8
ROSEETENK_RPER_1
 10
0
 20
0
 30
0
 70
128
 71
11
 72
12
 73
14
 74
13
 0
VERTEX
 8
ROSEETENK_RPER_1
 10
0
 20
0
 30
0
 70
128
 71
13
 72
14
 73
16
 74
15
 0
VERTEX
 8
ROSEETENK_RPER_1
 10
0
 20
0
 30
0
 70
128
 71
15
 72
16
 73
18
 74
17
 0
VERTEX
 8
ROSEETENK_RPER_1
 10
0
 20
0
 30
0
 70
128
 71
17
 72
18
 73
20
 74
19
 0
VERTEX
 8
ROSEETENK_RPER_1
 10
0
 20
0
 30
0
 70
128
 71
19
 72
20
 73
22
 74
21
 0
VERTEX
 8
ROSEETENK_RPER_1
 10
0
 20
0
 30
0
 70
128
 71
21
 72
22
 73
24
 74
23
 0
VERTEX
 8
ROSEETENK_RPER_1
 10
0
 20
0
 30
0
 70
128
 71
23
 72
24
 73
2
 74
1
 0
SEQEND
 0
POLYLINE
 8
ROSETTE
 66
1
 10
0.0
 20
0.0
 30
0.0
 70
64
 71
60
 72
15
 0
VERTEX
 8
ROSETTE
 10
-4.1462
 20
0.0864
 30
-1.1591
 70
192
 0
VERTEX
 8
ROSETTE
 10
-4.4289
 20
1.0864
 30
-3.8494
 70
192
 0
VERTEX
 8
ROSETTE
 10
-4.4289
 20
1.0864
 30
-3.8494
 70
192
 0
VERTEX
 8
ROSETTE
 10
-4.4289
 20
0.0864
 30
-3.8494
 70
192
 0
VERTEX
 8
ROSETTE
 10
-4.4289
 20
0.0864
 30
-3.8494
 70
192
 0
VERTEX
 8
ROSETTE
 10
-4.7117
 20
1.0864
 30
-1.1591
 70
192
 0
VERTEX
 8
ROSETTE
 10
-4.7117
 20
1.0864
 30
-1.1591
 70
192
 0
VERTEX
 8
ROSETTE
 10
-4.7117
 20
0.0864
 30
-1.1591
 70
192
 0
VERTEX
 8
ROSETTE
 10
-4.7117
 20
0.0864
 30
-1.1591
 70
192
 0
VERTEX
 8
ROSETTE
 10
-3.8758
 20
1.0864
 30
-3.7318
 70
192
 0
VERTEX
 8
ROSETTE
 10
-3.8758
 20
1.0864
 30
-3.7318
 70
192
 0
VERTEX
 8
ROSETTE
 10
-3.8758
 20
0.0864
 30
-3.7318
 70
192
 0
VERTEX
 8
ROSETTE
 10
-3.8758
 20
0.0864
 30
-3.7318
 70
192
 0
VERTEX
 8
ROSETTE
 10
-5.2283
 20
1.0864
 30
-1.3891
 70
192
 0
VERTEX
 8
ROSETTE
 10
-5.2283
 20
1.0864
 30
-1.3891
 70
192
 0
VERTEX
 8
ROSETTE
 10
-5.2283
 20
0.0864
 30
-1.3891
 70
192
 0
VERTEX
 8
ROSETTE
 10
-5.2283
 20
0.0864
 30
-1.3891
 70
192
 0
VERTEX
 8
ROSETTE
 10
-3.4182
 20
1.0864
 30
-3.3994
 70
192
 0
VERTEX
 8
ROSETTE
 10
-3.4182
 20
1.0864
 30
-3.3994
 70
192
 0
VERTEX
 8
ROSETTE
 10
-3.4182
 20
0.0864
 30
-3.3994
 70
192
 0
VERTEX
 8
ROSETTE
 10
-3.4182
 20
0.0864
 30
-3.3994
 70
192
 0
VERTEX
 8
ROSETTE
 10
-5.6067
 20
1.0864
 30
-1.8094
 70
192
 0
VERTEX
 8
ROSETTE
 10
-5.6067
 20
1.0864
 30
-1.8094
 70
192
 0
VERTEX
 8
ROSETTE
 10
-5.6067
 20
0.0864
 30
-1.8094
 70
192
 0
VERTEX
 8
ROSETTE
 10
-5.6067
 20
0.0864
 30
-1.8094
 70
192
 0
VERTEX
 8
ROSETTE
 10
-3.1355
 20
1.0864
 30
-2.9097
 70
192
 0
VERTEX
 8
ROSETTE
 10
-3.1355
 20
1.0864
 30
-2.9097
 70
192
 0
VERTEX
 8
ROSETTE
 10
-3.1355
 20
0.0864
 30
-2.9097
 70
192
 0
VERTEX
 8
ROSETTE
 10
-3.1355
 20
0.0864
 30
-2.9097
 70
192
 0
VERTEX
 8
ROSETTE
 10
-5.7815
 20
1.0864
 30
-2.3472
 70
192
 0
VERTEX
 8
ROSETTE
 10
-5.7815
 20
1.0864
 30
-2.3472
 70
192
 0
VERTEX
 8
ROSETTE
 10
-5.7815
 20
0.0864
 30
-2.3472
 70
192
 0
VERTEX
 8
ROSETTE
 10
-5.7815
 20
0.0864
 30
-2.3472
 70
192
 0
VERTEX
 8
ROSETTE
 10
-3.0764
 20
1.0864
 30
-2.3472
 70
192
 0
VERTEX
 8
ROSETTE
 10
-3.0764
 20
1.0864
 30
-2.3472
 70
192
 0
VERTEX
 8
ROSETTE
 10
-3.0764
 20
0.0864
 30
-2.3472
 70
192
 0
VERTEX
 8
ROSETTE
 10
-3.0764
 20
0.0864
 30
-2.3472
 70
192
 0
VERTEX
 8
ROSETTE
 10
-5.7224
 20
1.0864
 30
-2.9097
 70
192
 0
VERTEX
 8
ROSETTE
 10
-5.7224
 20
1.0864
 30
-2.9097
 70
192
 0
VERTEX
 8
ROSETTE
 10
-5.7224
 20
0.0864
 30
-2.9097
 70
192
 0
VERTEX
 8
ROSETTE
 10
-5.7224
 20
0.0864
 30
-2.9097
 70
192
 0
VERTEX
 8
ROSETTE
 10
-3.2511
 20
1.0864
 30
-1.8094
 70
192
 0
VERTEX
 8
ROSETTE
 10
-3.2511
 20
1.0864
 30
-1.8094
 70
192
 0
VERTEX
 8
ROSETTE
 10
-3.2511
 20
0.0864
 30
-1.8094
 70
192
 0
VERTEX
 8
ROSETTE
 10
-3.2511
 20
0.0864
 30
-1.8094
 70
192
 0
VERTEX
 8
ROSETTE
 10
-5.4396
 20
1.0864
 30
-3.3994
 70
192
 0
VERTEX
 8
ROSETTE
 10
-5.4396
 20
1.0864
 30
-3.3994
 70
192
 0
VERTEX
 8
ROSETTE
 10
-5.4396
 20
0.0864
 30
-3.3994
 70
192
 0
VERTEX
 8
ROSETTE
 10
-5.4396
 20
0.0864
 30
-3.3994
 70
192
 0
VERTEX
 8
ROSETTE
 10
-3.6295
 20
1.0864
 30
-1.3891
 70
192
 0
VERTEX
 8
ROSETTE
 10
-3.6295
 20
1.0864
 30
-1.3891
 70
192
 0
VERTEX
 8
ROSETTE
 10
-3.6295
 20
0.0864
 30
-1.3891
 70
192
 0
VERTEX
 8
ROSETTE
 10
-3.6295
 20
0.0864
 30
-1.3891
 70
192
 0
VERTEX
 8
ROSETTE
 10
-4.9821
 20
1.0864
 30
-3.7318
 70
192
 0
VERTEX
 8
ROSETTE
 10
-4.9821
 20
1.0864
 30
-3.7318
 70
192
 0
VERTEX
 8
ROSETTE
 10
-4.9821
 20
0.0864
 30
-3.7318
 70
192
 0
VERTEX
 8
ROSETTE
 10
-4.9821
 20
0.0864
 30
-3.7318
 70
192
 0
VERTEX
 8
ROSETTE
 10
-4.1462
 20
1.0864
 30
-1.1591
 70
192
 0
VERTEX
 8
ROSETTE
 10
-4.1462
 20
1.0864
 30
-1.1591
 70
192
 0
VERTEX
 8
ROSETTE
 10
-4.1462
 20
0.0864
 30
-1.1591
 70
192
 0
VERTEX
 8
ROSETTE
 10
0
 20
0
 30
0
 70
128
 71
35
 72
36
 73
44
 74
43
 0
VERTEX
 8
ROSETTE
 10
0
 20
0
 30
0
 70
128
 71
3
 72
4
 73
12
 74
11
 0
VERTEX
 8
ROSETTE
 10
0
 20
0
 30
0
 70
128
 71
43
 72
44
 73
52
 74
51
 0
VERTEX
 8
ROSETTE
 10
0
 20
0
 30
0
 70
128
 71
51
 72
52
 73
60
 74
59
 0
VERTEX
 8
ROSETTE
 10
0
 20
0
 30
0
 70
128
 71
59
 72
60
 73
8
 74
7
 0
VERTEX
 8
ROSETTE
 10
0
 20
0
 30
0
 70
128
 71
11
 72
12
 73
20
 74
19
 0
VERTEX
 8
ROSETTE
 10
0
 20
0
 30
0
 70
128
 71
7
 72
8
 73
16
 74
15
 0
VERTEX
 8
ROSETTE
 10
0
 20
0
 30
0
 70
128
 71
15
 72
16
 73
24
 74
23
 0
VERTEX
 8
ROSETTE
 10
0
 20
0
 30
0
 70
128
 71
23
 72
24
 73
32
 74
31
 0
VERTEX
 8
ROSETTE
 10
0
 20
0
 30
0
 70
128
 71
19
 72
20
 73
28
 74
27
 0
VERTEX
 8
ROSETTE
 10
0
 20
0
 30
0
 70
128
 71
31
 72
32
 73
40
 74
39
 0
VERTEX
 8
ROSETTE
 10
0
 20
0
 30
0
 70
128
 71
39
 72
40
 73
48
 74
47
 0
VERTEX
 8
ROSETTE
 10
0
 20
0
 30
0
 70
128
 71
47
 72
48
 73
56
 74
55
 0
VERTEX
 8
ROSETTE
 10
0
 20
0
 30
0
 70
128
 71
27
 72
28
 73
36
 74
35
 0
VERTEX
 8
ROSETTE
 10
0
 20
0
 30
0
 70
128
 71
55
 72
56
 73
4
 74
3
 0
SEQEND
 0
POLYLINE
 8
ROSEETENK_RPER
 66
1
 10
0.0
 20
0.0
 30
0.0
 70
64
 71
24
 72
12
 0
VERTEX
 8
ROSEETENK_RPER
 10
0.9339
 20
0.7642
 30
-2.9727
 70
192
 0
VERTEX
 8
ROSEETENK_RPER
 10
0.9339
 20
-1.6358
 30
-2.9727
 70
192
 0
VERTEX
 8
ROSEETENK_RPER
 10
1.1739
 20
0.7642
 30
-2.9084
 70
192
 0
VERTEX
 8
ROSEETENK_RPER
 10
1.1739
 20
-1.6358
 30
-2.9084
 70
192
 0
VERTEX
 8
ROSEETENK_RPER
 10
1.3496
 20
0.7642
 30
-2.7327
 70
192
 0
VERTEX
 8
ROSEETENK_RPER
 10
1.3496
 20
-1.6358
 30
-2.7327
 70
192
 0
VERTEX
 8
ROSEETENK_RPER
 10
1.4139
 20
0.7642
 30
-2.4927
 70
192
 0
VERTEX
 8
ROSEETENK_RPER
 10
1.4139
 20
-1.6358
 30
-2.4927
 70
192
 0
VERTEX
 8
ROSEETENK_RPER
 10
1.3496
 20
0.7642
 30
-2.2527
 70
192
 0
VERTEX
 8
ROSEETENK_RPER
 10
1.3496
 20
-1.6358
 30
-2.2527
 70
192
 0
VERTEX
 8
ROSEETENK_RPER
 10
1.1739
 20
0.7642
 30
-2.077
 70
192
 0
VERTEX
 8
ROSEETENK_RPER
 10
1.1739
 20
-1.6358
 30
-2.077
 70
192
 0
VERTEX
 8
ROSEETENK_RPER
 10
0.9339
 20
0.7642
 30
-2.0127
 70
192
 0
VERTEX
 8
ROSEETENK_RPER
 10
0.9339
 20
-1.6358
 30
-2.0127
 70
192
 0
VERTEX
 8
ROSEETENK_RPER
 10
0.6939
 20
0.7642
 30
-2.077
 70
192
 0
VERTEX
 8
ROSEETENK_RPER
 10
0.6939
 20
-1.6358
 30
-2.077
 70
192
 0
VERTEX
 8
ROSEETENK_RPER
 10
0.5182
 20
0.7642
 30
-2.2527
 70
192
 0
VERTEX
 8
ROSEETENK_RPER
 10
0.5182
 20
-1.6358
 30
-2.2527
 70
192
 0
VERTEX
 8
ROSEETENK_RPER
 10
0.4539
 20
0.7642
 30
-2.4927
 70
192
 0
VERTEX
 8
ROSEETENK_RPER
 10
0.4539
 20
-1.6358
 30
-2.4927
 70
192
 0
VERTEX
 8
ROSEETENK_RPER
 10
0.5182
 20
0.7642
 30
-2.7327
 70
192
 0
VERTEX
 8
ROSEETENK_RPER
 10
0.5182
 20
-1.6358
 30
-2.7327
 70
192
 0
VERTEX
 8
ROSEETENK_RPER
 10
0.6939
 20
0.7642
 30
-2.9084
 70
192
 0
VERTEX
 8
ROSEETENK_RPER
 10
0.6939
 20
-1.6358
 30
-2.9084
 70
192
 0
VERTEX
 8
ROSEETENK_RPER
 10
0
 20
0
 30
0
 70
128
 71
1
 72
2
 73
4
 74
3
 0
VERTEX
 8
ROSEETENK_RPER
 10
0
 20
0
 30
0
 70
128
 71
3
 72
4
 73
6
 74
5
 0
VERTEX
 8
ROSEETENK_RPER
 10
0
 20
0
 30
0
 70
128
 71
5
 72
6
 73
8
 74
7
 0
VERTEX
 8
ROSEETENK_RPER
 10
0
 20
0
 30
0
 70
128
 71
7
 72
8
 73
10
 74
9
 0
VERTEX
 8
ROSEETENK_RPER
 10
0
 20
0
 30
0
 70
128
 71
9
 72
10
 73
12
 74
11
 0
VERTEX
 8
ROSEETENK_RPER
 10
0
 20
0
 30
0
 70
128
 71
11
 72
12
 73
14
 74
13
 0
VERTEX
 8
ROSEETENK_RPER
 10
0
 20
0
 30
0
 70
128
 71
13
 72
14
 73
16
 74
15
 0
VERTEX
 8
ROSEETENK_RPER
 10
0
 20
0
 30
0
 70
128
 71
15
 72
16
 73
18
 74
17
 0
VERTEX
 8
ROSEETENK_RPER
 10
0
 20
0
 30
0
 70
128
 71
17
 72
18
 73
20
 74
19
 0
VERTEX
 8
ROSEETENK_RPER
 10
0
 20
0
 30
0
 70
128
 71
19
 72
20
 73
22
 74
21
 0
VERTEX
 8
ROSEETENK_RPER
 10
0
 20
0
 30
0
 70
128
 71
21
 72
22
 73
24
 74
23
 0
VERTEX
 8
ROSEETENK_RPER
 10
0
 20
0
 30
0
 70
128
 71
23
 72
24
 73
2
 74
1
 0
SEQEND
 0
POLYLINE
 8
ROSETT2
 66
1
 10
0.0
 20
0.0
 30
0.0
 70
64
 71
60
 72
15
 0
VERTEX
 8
ROSETT2
 10
1.2165
 20
0.0864
 30
-1.1591
 70
192
 0
VERTEX
 8
ROSETT2
 10
0.9337
 20
1.0864
 30
-3.8494
 70
192
 0
VERTEX
 8
ROSETT2
 10
0.9337
 20
1.0864
 30
-3.8494
 70
192
 0
VERTEX
 8
ROSETT2
 10
0.9337
 20
0.0864
 30
-3.8494
 70
192
 0
VERTEX
 8
ROSETT2
 10
0.9337
 20
0.0864
 30
-3.8494
 70
192
 0
VERTEX
 8
ROSETT2
 10
0.651
 20
1.0864
 30
-1.1591
 70
192
 0
VERTEX
 8
ROSETT2
 10
0.651
 20
1.0864
 30
-1.1591
 70
192
 0
VERTEX
 8
ROSETT2
 10
0.651
 20
0.0864
 30
-1.1591
 70
192
 0
VERTEX
 8
ROSETT2
 10
0.651
 20
0.0864
 30
-1.1591
 70
192
 0
VERTEX
 8
ROSETT2
 10
1.4869
 20
1.0864
 30
-3.7318
 70
192
 0
VERTEX
 8
ROSETT2
 10
1.4869
 20
1.0864
 30
-3.7318
 70
192
 0
VERTEX
 8
ROSETT2
 10
1.4869
 20
0.0864
 30
-3.7318
 70
192
 0
VERTEX
 8
ROSETT2
 10
1.4869
 20
0.0864
 30
-3.7318
 70
192
 0
VERTEX
 8
ROSETT2
 10
0.1343
 20
1.0864
 30
-1.3891
 70
192
 0
VERTEX
 8
ROSETT2
 10
0.1343
 20
1.0864
 30
-1.3891
 70
192
 0
VERTEX
 8
ROSETT2
 10
0.1343
 20
0.0864
 30
-1.3891
 70
192
 0
VERTEX
 8
ROSETT2
 10
0.1343
 20
0.0864
 30
-1.3891
 70
192
 0
VERTEX
 8
ROSETT2
 10
1.9444
 20
1.0864
 30
-3.3994
 70
192
 0
VERTEX
 8
ROSETT2
 10
1.9444
 20
1.0864
 30
-3.3994
 70
192
 0
VERTEX
 8
ROSETT2
 10
1.9444
 20
0.0864
 30
-3.3994
 70
192
 0
VERTEX
 8
ROSETT2
 10
1.9444
 20
0.0864
 30
-3.3994
 70
192
 0
VERTEX
 8
ROSETT2
 10
-0.2441
 20
1.0864
 30
-1.8094
 70
192
 0
VERTEX
 8
ROSETT2
 10
-0.2441
 20
1.0864
 30
-1.8094
 70
192
 0
VERTEX
 8
ROSETT2
 10
-0.2441
 20
0.0864
 30
-1.8094
 70
192
 0
VERTEX
 8
ROSETT2
 10
-0.2441
 20
0.0864
 30
-1.8094
 70
192
 0
VERTEX
 8
ROSETT2
 10
2.2272
 20
1.0864
 30
-2.9097
 70
192
 0
VERTEX
 8
ROSETT2
 10
2.2272
 20
1.0864
 30
-2.9097
 70
192
 0
VERTEX
 8
ROSETT2
 10
2.2272
 20
0.0864
 30
-2.9097
 70
192
 0
VERTEX
 8
ROSETT2
 10
2.2272
 20
0.0864
 30
-2.9097
 70
192
 0
VERTEX
 8
ROSETT2
 10
-0.4188
 20
1.0864
 30
-2.3472
 70
192
 0
VERTEX
 8
ROSETT2
 10
-0.4188
 20
1.0864
 30
-2.3472
 70
192
 0
VERTEX
 8
ROSETT2
 10
-0.4188
 20
0.0864
 30
-2.3472
 70
192
 0
VERTEX
 8
ROSETT2
 10
-0.4188
 20
0.0864
 30
-2.3472
 70
192
 0
VERTEX
 8
ROSETT2
 10
2.2863
 20
1.0864
 30
-2.3472
 70
192
 0
VERTEX
 8
ROSETT2
 10
2.2863
 20
1.0864
 30
-2.3472
 70
192
 0
VERTEX
 8
ROSETT2
 10
2.2863
 20
0.0864
 30
-2.3472
 70
192
 0
VERTEX
 8
ROSETT2
 10
2.2863
 20
0.0864
 30
-2.3472
 70
192
 0
VERTEX
 8
ROSETT2
 10
-0.3597
 20
1.0864
 30
-2.9097
 70
192
 0
VERTEX
 8
ROSETT2
 10
-0.3597
 20
1.0864
 30
-2.9097
 70
192
 0
VERTEX
 8
ROSETT2
 10
-0.3597
 20
0.0864
 30
-2.9097
 70
192
 0
VERTEX
 8
ROSETT2
 10
-0.3597
 20
0.0864
 30
-2.9097
 70
192
 0
VERTEX
 8
ROSETT2
 10
2.1115
 20
1.0864
 30
-1.8094
 70
192
 0
VERTEX
 8
ROSETT2
 10
2.1115
 20
1.0864
 30
-1.8094
 70
192
 0
VERTEX
 8
ROSETT2
 10
2.1115
 20
0.0864
 30
-1.8094
 70
192
 0
VERTEX
 8
ROSETT2
 10
2.1115
 20
0.0864
 30
-1.8094
 70
192
 0
VERTEX
 8
ROSETT2
 10
-0.077
 20
1.0864
 30
-3.3994
 70
192
 0
VERTEX
 8
ROSETT2
 10
-0.077
 20
1.0864
 30
-3.3994
 70
192
 0
VERTEX
 8
ROSETT2
 10
-0.077
 20
0.0864
 30
-3.3994
 70
192
 0
VERTEX
 8
ROSETT2
 10
-0.077
 20
0.0864
 30
-3.3994
 70
192
 0
VERTEX
 8
ROSETT2
 10
1.7331
 20
1.0864
 30
-1.3891
 70
192
 0
VERTEX
 8
ROSETT2
 10
1.7331
 20
1.0864
 30
-1.3891
 70
192
 0
VERTEX
 8
ROSETT2
 10
1.7331
 20
0.0864
 30
-1.3891
 70
192
 0
VERTEX
 8
ROSETT2
 10
1.7331
 20
0.0864
 30
-1.3891
 70
192
 0
VERTEX
 8
ROSETT2
 10
0.3806
 20
1.0864
 30
-3.7318
 70
192
 0
VERTEX
 8
ROSETT2
 10
0.3806
 20
1.0864
 30
-3.7318
 70
192
 0
VERTEX
 8
ROSETT2
 10
0.3806
 20
0.0864
 30
-3.7318
 70
192
 0
VERTEX
 8
ROSETT2
 10
0.3806
 20
0.0864
 30
-3.7318
 70
192
 0
VERTEX
 8
ROSETT2
 10
1.2165
 20
1.0864
 30
-1.1591
 70
192
 0
VERTEX
 8
ROSETT2
 10
1.2165
 20
1.0864
 30
-1.1591
 70
192
 0
VERTEX
 8
ROSETT2
 10
1.2165
 20
0.0864
 30
-1.1591
 70
192
 0
VERTEX
 8
ROSETT2
 10
0
 20
0
 30
0
 70
128
 71
35
 72
36
 73
44
 74
43
 0
VERTEX
 8
ROSETT2
 10
0
 20
0
 30
0
 70
128
 71
3
 72
4
 73
12
 74
11
 0
VERTEX
 8
ROSETT2
 10
0
 20
0
 30
0
 70
128
 71
43
 72
44
 73
52
 74
51
 0
VERTEX
 8
ROSETT2
 10
0
 20
0
 30
0
 70
128
 71
51
 72
52
 73
60
 74
59
 0
VERTEX
 8
ROSETT2
 10
0
 20
0
 30
0
 70
128
 71
59
 72
60
 73
8
 74
7
 0
VERTEX
 8
ROSETT2
 10
0
 20
0
 30
0
 70
128
 71
11
 72
12
 73
20
 74
19
 0
VERTEX
 8
ROSETT2
 10
0
 20
0
 30
0
 70
128
 71
7
 72
8
 73
16
 74
15
 0
VERTEX
 8
ROSETT2
 10
0
 20
0
 30
0
 70
128
 71
15
 72
16
 73
24
 74
23
 0
VERTEX
 8
ROSETT2
 10
0
 20
0
 30
0
 70
128
 71
23
 72
24
 73
32
 74
31
 0
VERTEX
 8
ROSETT2
 10
0
 20
0
 30
0
 70
128
 71
19
 72
20
 73
28
 74
27
 0
VERTEX
 8
ROSETT2
 10
0
 20
0
 30
0
 70
128
 71
31
 72
32
 73
40
 74
39
 0
VERTEX
 8
ROSETT2
 10
0
 20
0
 30
0
 70
128
 71
39
 72
40
 73
48
 74
47
 0
VERTEX
 8
ROSETT2
 10
0
 20
0
 30
0
 70
128
 71
47
 72
48
 73
56
 74
55
 0
VERTEX
 8
ROSETT2
 10
0
 20
0
 30
0
 70
128
 71
27
 72
28
 73
36
 74
35
 0
VERTEX
 8
ROSETT2
 10
0
 20
0
 30
0
 70
128
 71
55
 72
56
 73
4
 74
3
 0
SEQEND
 0
POLYLINE
 8
ZYLINDER_5
 66
1
 10
0.0
 20
0.0
 30
0.0
 70
64
 71
50
 72
36
 0
VERTEX
 8
ZYLINDER_5
 10
-1.9356
 20
1.1138
 30
25.5323
 70
192
 0
VERTEX
 8
ZYLINDER_5
 10
-1.9356
 20
0.7138
 30
25.5323
 70
192
 0
VERTEX
 8
ZYLINDER_5
 10
-1.9356
 20
1.1138
 30
24.6323
 70
192
 0
VERTEX
 8
ZYLINDER_5
 10
-1.9356
 20
1.1138
 30
24.6323
 70
192
 0
VERTEX
 8
ZYLINDER_5
 10
-1.9356
 20
0.7138
 30
24.6323
 70
192
 0
VERTEX
 8
ZYLINDER_5
 10
-1.9356
 20
0.7138
 30
24.6323
 70
192
 0
VERTEX
 8
ZYLINDER_5
 10
-1.4856
 20
1.1138
 30
24.7528
 70
192
 0
VERTEX
 8
ZYLINDER_5
 10
-1.4856
 20
1.1138
 30
24.7528
 70
192
 0
VERTEX
 8
ZYLINDER_5
 10
-1.4856
 20
0.7138
 30
24.7528
 70
192
 0
VERTEX
 8
ZYLINDER_5
 10
-1.4856
 20
0.7138
 30
24.7528
 70
192
 0
VERTEX
 8
ZYLINDER_5
 10
-1.1562
 20
1.1138
 30
25.0823
 70
192
 0
VERTEX
 8
ZYLINDER_5
 10
-1.1562
 20
1.1138
 30
25.0823
 70
192
 0
VERTEX
 8
ZYLINDER_5
 10
-1.1562
 20
0.7138
 30
25.0823
 70
192
 0
VERTEX
 8
ZYLINDER_5
 10
-1.1562
 20
0.7138
 30
25.0823
 70
192
 0
VERTEX
 8
ZYLINDER_5
 10
-1.0356
 20
1.1138
 30
25.5323
 70
192
 0
VERTEX
 8
ZYLINDER_5
 10
-1.0356
 20
1.1138
 30
25.5323
 70
192
 0
VERTEX
 8
ZYLINDER_5
 10
-1.0356
 20
0.7138
 30
25.5323
 70
192
 0
VERTEX
 8
ZYLINDER_5
 10
-1.0356
 20
0.7138
 30
25.5323
 70
192
 0
VERTEX
 8
ZYLINDER_5
 10
-1.1562
 20
1.1138
 30
25.9823
 70
192
 0
VERTEX
 8
ZYLINDER_5
 10
-1.1562
 20
1.1138
 30
25.9823
 70
192
 0
VERTEX
 8
ZYLINDER_5
 10
-1.1562
 20
0.7138
 30
25.9823
 70
192
 0
VERTEX
 8
ZYLINDER_5
 10
-1.1562
 20
0.7138
 30
25.9823
 70
192
 0
VERTEX
 8
ZYLINDER_5
 10
-1.4856
 20
1.1138
 30
26.3117
 70
192
 0
VERTEX
 8
ZYLINDER_5
 10
-1.4856
 20
1.1138
 30
26.3117
 70
192
 0
VERTEX
 8
ZYLINDER_5
 10
-1.4856
 20
0.7138
 30
26.3117
 70
192
 0
VERTEX
 8
ZYLINDER_5
 10
-1.4856
 20
0.7138
 30
26.3117
 70
192
 0
VERTEX
 8
ZYLINDER_5
 10
-1.9356
 20
1.1138
 30
26.4323
 70
192
 0
VERTEX
 8
ZYLINDER_5
 10
-1.9356
 20
1.1138
 30
26.4323
 70
192
 0
VERTEX
 8
ZYLINDER_5
 10
-1.9356
 20
0.7138
 30
26.4323
 70
192
 0
VERTEX
 8
ZYLINDER_5
 10
-1.9356
 20
0.7138
 30
26.4323
 70
192
 0
VERTEX
 8
ZYLINDER_5
 10
-2.3856
 20
1.1138
 30
26.3117
 70
192
 0
VERTEX
 8
ZYLINDER_5
 10
-2.3856
 20
1.1138
 30
26.3117
 70
192
 0
VERTEX
 8
ZYLINDER_5
 10
-2.3856
 20
0.7138
 30
26.3117
 70
192
 0
VERTEX
 8
ZYLINDER_5
 10
-2.3856
 20
0.7138
 30
26.3117
 70
192
 0
VERTEX
 8
ZYLINDER_5
 10
-2.715
 20
1.1138
 30
25.9823
 70
192
 0
VERTEX
 8
ZYLINDER_5
 10
-2.715
 20
1.1138
 30
25.9823
 70
192
 0
VERTEX
 8
ZYLINDER_5
 10
-2.715
 20
0.7138
 30
25.9823
 70
192
 0
VERTEX
 8
ZYLINDER_5
 10
-2.715
 20
0.7138
 30
25.9823
 70
192
 0
VERTEX
 8
ZYLINDER_5
 10
-2.8356
 20
1.1138
 30
25.5323
 70
192
 0
VERTEX
 8
ZYLINDER_5
 10
-2.8356
 20
1.1138
 30
25.5323
 70
192
 0
VERTEX
 8
ZYLINDER_5
 10
-2.8356
 20
0.7138
 30
25.5323
 70
192
 0
VERTEX
 8
ZYLINDER_5
 10
-2.8356
 20
0.7138
 30
25.5323
 70
192
 0
VERTEX
 8
ZYLINDER_5
 10
-2.715
 20
1.1138
 30
25.0823
 70
192
 0
VERTEX
 8
ZYLINDER_5
 10
-2.715
 20
1.1138
 30
25.0823
 70
192
 0
VERTEX
 8
ZYLINDER_5
 10
-2.715
 20
0.7138
 30
25.0823
 70
192
 0
VERTEX
 8
ZYLINDER_5
 10
-2.715
 20
0.7138
 30
25.0823
 70
192
 0
VERTEX
 8
ZYLINDER_5
 10
-2.3856
 20
1.1138
 30
24.7528
 70
192
 0
VERTEX
 8
ZYLINDER_5
 10
-2.3856
 20
1.1138
 30
24.7528
 70
192
 0
VERTEX
 8
ZYLINDER_5
 10
-2.3856
 20
0.7138
 30
24.7528
 70
192
 0
VERTEX
 8
ZYLINDER_5
 10
-2.3856
 20
0.7138
 30
24.7528
 70
192
 0
VERTEX
 8
ZYLINDER_5
 10
0
 20
0
 30
0
 70
128
 71
1
 72
3
 73
7
 74
7
 0
VERTEX
 8
ZYLINDER_5
 10
0
 20
0
 30
0
 70
128
 71
4
 72
5
 73
9
 74
8
 0
VERTEX
 8
ZYLINDER_5
 10
0
 20
0
 30
0
 70
128
 71
6
 72
2
 73
10
 74
10
 0
VERTEX
 8
ZYLINDER_5
 10
0
 20
0
 30
0
 70
128
 71
1
 72
7
 73
11
 74
11
 0
VERTEX
 8
ZYLINDER_5
 10
0
 20
0
 30
0
 70
128
 71
8
 72
9
 73
13
 74
12
 0
VERTEX
 8
ZYLINDER_5
 10
0
 20
0
 30
0
 70
128
 71
10
 72
2
 73
14
 74
14
 0
VERTEX
 8
ZYLINDER_5
 10
0
 20
0
 30
0
 70
128
 71
1
 72
11
 73
15
 74
15
 0
VERTEX
 8
ZYLINDER_5
 10
0
 20
0
 30
0
 70
128
 71
12
 72
13
 73
17
 74
16
 0
VERTEX
 8
ZYLINDER_5
 10
0
 20
0
 30
0
 70
128
 71
14
 72
2
 73
18
 74
18
 0
VERTEX
 8
ZYLINDER_5
 10
0
 20
0
 30
0
 70
128
 71
1
 72
15
 73
19
 74
19
 0
VERTEX
 8
ZYLINDER_5
 10
0
 20
0
 30
0
 70
128
 71
16
 72
17
 73
21
 74
20
 0
VERTEX
 8
ZYLINDER_5
 10
0
 20
0
 30
0
 70
128
 71
18
 72
2
 73
22
 74
22
 0
VERTEX
 8
ZYLINDER_5
 10
0
 20
0
 30
0
 70
128
 71
1
 72
19
 73
23
 74
23
 0
VERTEX
 8
ZYLINDER_5
 10
0
 20
0
 30
0
 70
128
 71
20
 72
21
 73
25
 74
24
 0
VERTEX
 8
ZYLINDER_5
 10
0
 20
0
 30
0
 70
128
 71
22
 72
2
 73
26
 74
26
 0
VERTEX
 8
ZYLINDER_5
 10
0
 20
0
 30
0
 70
128
 71
1
 72
23
 73
27
 74
27
 0
VERTEX
 8
ZYLINDER_5
 10
0
 20
0
 30
0
 70
128
 71
24
 72
25
 73
29
 74
28
 0
VERTEX
 8
ZYLINDER_5
 10
0
 20
0
 30
0
 70
128
 71
26
 72
2
 73
30
 74
30
 0
VERTEX
 8
ZYLINDER_5
 10
0
 20
0
 30
0
 70
128
 71
1
 72
27
 73
31
 74
31
 0
VERTEX
 8
ZYLINDER_5
 10
0
 20
0
 30
0
 70
128
 71
28
 72
29
 73
33
 74
32
 0
VERTEX
 8
ZYLINDER_5
 10
0
 20
0
 30
0
 70
128
 71
30
 72
2
 73
34
 74
34
 0
VERTEX
 8
ZYLINDER_5
 10
0
 20
0
 30
0
 70
128
 71
1
 72
31
 73
35
 74
35
 0
VERTEX
 8
ZYLINDER_5
 10
0
 20
0
 30
0
 70
128
 71
32
 72
33
 73
37
 74
36
 0
VERTEX
 8
ZYLINDER_5
 10
0
 20
0
 30
0
 70
128
 71
34
 72
2
 73
38
 74
38
 0
VERTEX
 8
ZYLINDER_5
 10
0
 20
0
 30
0
 70
128
 71
1
 72
35
 73
39
 74
39
 0
VERTEX
 8
ZYLINDER_5
 10
0
 20
0
 30
0
 70
128
 71
36
 72
37
 73
41
 74
40
 0
VERTEX
 8
ZYLINDER_5
 10
0
 20
0
 30
0
 70
128
 71
38
 72
2
 73
42
 74
42
 0
VERTEX
 8
ZYLINDER_5
 10
0
 20
0
 30
0
 70
128
 71
1
 72
39
 73
43
 74
43
 0
VERTEX
 8
ZYLINDER_5
 10
0
 20
0
 30
0
 70
128
 71
40
 72
41
 73
45
 74
44
 0
VERTEX
 8
ZYLINDER_5
 10
0
 20
0
 30
0
 70
128
 71
42
 72
2
 73
46
 74
46
 0
VERTEX
 8
ZYLINDER_5
 10
0
 20
0
 30
0
 70
128
 71
1
 72
43
 73
47
 74
47
 0
VERTEX
 8
ZYLINDER_5
 10
0
 20
0
 30
0
 70
128
 71
44
 72
45
 73
49
 74
48
 0
VERTEX
 8
ZYLINDER_5
 10
0
 20
0
 30
0
 70
128
 71
46
 72
2
 73
50
 74
50
 0
VERTEX
 8
ZYLINDER_5
 10
0
 20
0
 30
0
 70
128
 71
1
 72
47
 73
3
 74
3
 0
VERTEX
 8
ZYLINDER_5
 10
0
 20
0
 30
0
 70
128
 71
48
 72
49
 73
5
 74
4
 0
VERTEX
 8
ZYLINDER_5
 10
0
 20
0
 30
0
 70
128
 71
50
 72
2
 73
6
 74
6
 0
SEQEND
 0
POLYLINE
 8
R_HRE
 66
1
 10
0.0
 20
0.0
 30
0.0
 70
64
 71
20
 72
7
 0
VERTEX
 8
R_HRE
 10
-2.7612
 20
0.5925
 30
2.1628
 70
192
 0
VERTEX
 8
R_HRE
 10
-3.1612
 20
-0.1311
 30
2.398
 70
192
 0
VERTEX
 8
R_HRE
 10
-3.1612
 20
-0.1311
 30
2.398
 70
192
 0
VERTEX
 8
R_HRE
 10
-2.7612
 20
-0.1311
 30
2.398
 70
192
 0
VERTEX
 8
R_HRE
 10
-2.7612
 20
-0.1311
 30
2.398
 70
192
 0
VERTEX
 8
R_HRE
 10
-3.1612
 20
0.5925
 30
2.6331
 70
192
 0
VERTEX
 8
R_HRE
 10
-3.1612
 20
0.5925
 30
2.6331
 70
192
 0
VERTEX
 8
R_HRE
 10
-2.7612
 20
0.5925
 30
2.6331
 70
192
 0
VERTEX
 8
R_HRE
 10
-2.7612
 20
0.5925
 30
2.6331
 70
192
 0
VERTEX
 8
R_HRE
 10
-3.1612
 20
0.1453
 30
2.0175
 70
192
 0
VERTEX
 8
R_HRE
 10
-3.1612
 20
0.1453
 30
2.0175
 70
192
 0
VERTEX
 8
R_HRE
 10
-2.7612
 20
0.1453
 30
2.0175
 70
192
 0
VERTEX
 8
R_HRE
 10
-2.7612
 20
0.1453
 30
2.0175
 70
192
 0
VERTEX
 8
R_HRE
 10
-3.1612
 20
0.1453
 30
2.7784
 70
192
 0
VERTEX
 8
R_HRE
 10
-3.1612
 20
0.1453
 30
2.7784
 70
192
 0
VERTEX
 8
R_HRE
 10
-2.7612
 20
0.1453
 30
2.7784
 70
192
 0
VERTEX
 8
R_HRE
 10
-2.7612
 20
0.1453
 30
2.7784
 70
192
 0
VERTEX
 8
R_HRE
 10
-3.1612
 20
0.5925
 30
2.1628
 70
192
 0
VERTEX
 8
R_HRE
 10
-3.1612
 20
0.5925
 30
2.1628
 70
192
 0
VERTEX
 8
R_HRE
 10
-2.7612
 20
0.5925
 30
2.1628
 70
192
 0
VERTEX
 8
R_HRE
 10
0
 20
0
 30
0
 70
128
 71
11
 72
12
 73
20
 74
19
 0
VERTEX
 8
R_HRE
 10
0
 20
0
 30
0
 70
128
 71
3
 72
4
 73
12
 74
11
 0
VERTEX
 8
R_HRE
 10
0
 20
0
 30
0
 70
128
 71
19
 72
20
 73
8
 74
7
 0
VERTEX
 8
R_HRE
 10
0
 20
0
 30
0
 70
128
 71
7
 72
8
 73
16
 74
15
 0
VERTEX
 8
R_HRE
 10
0
 20
0
 30
0
 70
128
 71
15
 72
16
 73
4
 74
3
 0
VERTEX
 8
R_HRE
 10
0
 20
0
 30
0
 70
128
 71
7
 72
15
 73
19
 74
19
 0
VERTEX
 8
R_HRE
 10
0
 20
0
 30
0
 70
128
 71
15
 72
3
 73
11
 74
19
 0
SEQEND
 0
POLYLINE
 8
K_RPER_2
 66
1
 10
0.0
 20
0.0
 30
0.0
 70
64
 71
8
 72
6
 0
VERTEX
 8
K_RPER_2
 10
-2.735
 20
0.7644
 30
1.6911
 70
192
 0
VERTEX
 8
K_RPER_2
 10
-2.735
 20
0.7644
 30
3.6911
 70
192
 0
VERTEX
 8
K_RPER_2
 10
-2.735
 20
-0.2356
 30
1.6911
 70
192
 0
VERTEX
 8
K_RPER_2
 10
-2.735
 20
-0.2356
 30
3.6911
 70
192
 0
VERTEX
 8
K_RPER_2
 10
-1.135
 20
-0.2356
 30
1.6911
 70
192
 0
VERTEX
 8
K_RPER_2
 10
-1.135
 20
-0.2356
 30
3.6911
 70
192
 0
VERTEX
 8
K_RPER_2
 10
-1.135
 20
0.7644
 30
1.6911
 70
192
 0
VERTEX
 8
K_RPER_2
 10
-1.135
 20
0.7644
 30
3.6911
 70
192
 0
VERTEX
 8
K_RPER_2
 10
0
 20
0
 30
0
 70
128
 71
1
 72
2
 73
4
 74
3
 0
VERTEX
 8
K_RPER_2
 10
0
 20
0
 30
0
 70
128
 71
3
 72
4
 73
6
 74
5
 0
VERTEX
 8
K_RPER_2
 10
0
 20
0
 30
0
 70
128
 71
5
 72
6
 73
8
 74
7
 0
VERTEX
 8
K_RPER_2
 10
0
 20
0
 30
0
 70
128
 71
7
 72
8
 73
2
 74
1
 0
VERTEX
 8
K_RPER_2
 10
0
 20
0
 30
0
 70
128
 71
2
 72
8
 73
6
 74
4
 0
VERTEX
 8
K_RPER_2
 10
0
 20
0
 30
0
 70
128
 71
7
 72
1
 73
3
 74
5
 0
SEQEND
 0
POLYLINE
 8
ZYLINDER_4
 66
1
 10
0.0
 20
0.0
 30
0.0
 70
64
 71
33
 72
16
 0
VERTEX
 8
ZYLINDER_4
 10
0.0013
 20
0.2674
 30
2.3955
 70
192
 0
VERTEX
 8
ZYLINDER_4
 10
-1.5304
 20
0.0129
 30
2.141
 70
192
 0
VERTEX
 8
ZYLINDER_4
 10
0.0013
 20
-0.0926
 30
2.3955
 70
192
 0
VERTEX
 8
ZYLINDER_4
 10
0.0013
 20
-0.0926
 30
2.3955
 70
192
 0
VERTEX
 8
ZYLINDER_4
 10
-1.5304
 20
-0.0926
 30
2.3955
 70
192
 0
VERTEX
 8
ZYLINDER_4
 10
-1.5304
 20
-0.0926
 30
2.3955
 70
192
 0
VERTEX
 8
ZYLINDER_4
 10
0.0013
 20
0.0129
 30
2.6501
 70
192
 0
VERTEX
 8
ZYLINDER_4
 10
0.0013
 20
0.0129
 30
2.6501
 70
192
 0
VERTEX
 8
ZYLINDER_4
 10
-1.5304
 20
0.0129
 30
2.6501
 70
192
 0
VERTEX
 8
ZYLINDER_4
 10
-1.5304
 20
0.0129
 30
2.6501
 70
192
 0
VERTEX
 8
ZYLINDER_4
 10
0.0013
 20
0.2674
 30
2.7555
 70
192
 0
VERTEX
 8
ZYLINDER_4
 10
0.0013
 20
0.2674
 30
2.7555
 70
192
 0
VERTEX
 8
ZYLINDER_4
 10
-1.5304
 20
0.2674
 30
2.7555
 70
192
 0
VERTEX
 8
ZYLINDER_4
 10
-1.5304
 20
0.2674
 30
2.7555
 70
192
 0
VERTEX
 8
ZYLINDER_4
 10
0.0013
 20
0.522
 30
2.6501
 70
192
 0
VERTEX
 8
ZYLINDER_4
 10
0.0013
 20
0.522
 30
2.6501
 70
192
 0
VERTEX
 8
ZYLINDER_4
 10
-1.5304
 20
0.522
 30
2.6501
 70
192
 0
VERTEX
 8
ZYLINDER_4
 10
-1.5304
 20
0.522
 30
2.6501
 70
192
 0
VERTEX
 8
ZYLINDER_4
 10
0.0013
 20
0.6274
 30
2.3955
 70
192
 0
VERTEX
 8
ZYLINDER_4
 10
0.0013
 20
0.6274
 30
2.3955
 70
192
 0
VERTEX
 8
ZYLINDER_4
 10
-1.5304
 20
0.6274
 30
2.3955
 70
192
 0
VERTEX
 8
ZYLINDER_4
 10
-1.5304
 20
0.6274
 30
2.3955
 70
192
 0
VERTEX
 8
ZYLINDER_4
 10
0.0013
 20
0.522
 30
2.141
 70
192
 0
VERTEX
 8
ZYLINDER_4
 10
0.0013
 20
0.522
 30
2.141
 70
192
 0
VERTEX
 8
ZYLINDER_4
 10
-1.5304
 20
0.522
 30
2.141
 70
192
 0
VERTEX
 8
ZYLINDER_4
 10
-1.5304
 20
0.522
 30
2.141
 70
192
 0
VERTEX
 8
ZYLINDER_4
 10
0.0013
 20
0.2674
 30
2.0355
 70
192
 0
VERTEX
 8
ZYLINDER_4
 10
0.0013
 20
0.2674
 30
2.0355
 70
192
 0
VERTEX
 8
ZYLINDER_4
 10
-1.5304
 20
0.2674
 30
2.0355
 70
192
 0
VERTEX
 8
ZYLINDER_4
 10
-1.5304
 20
0.2674
 30
2.0355
 70
192
 0
VERTEX
 8
ZYLINDER_4
 10
0.0013
 20
0.0129
 30
2.141
 70
192
 0
VERTEX
 8
ZYLINDER_4
 10
0.0013
 20
0.0129
 30
2.141
 70
192
 0
VERTEX
 8
ZYLINDER_4
 10
-1.5304
 20
0.0129
 30
2.141
 70
192
 0
VERTEX
 8
ZYLINDER_4
 10
0
 20
0
 30
0
 70
128
 71
1
 72
3
 73
7
 74
7
 0
VERTEX
 8
ZYLINDER_4
 10
0
 20
0
 30
0
 70
128
 71
4
 72
5
 73
9
 74
8
 0
VERTEX
 8
ZYLINDER_4
 10
0
 20
0
 30
0
 70
128
 71
24
 72
25
 73
29
 74
28
 0
VERTEX
 8
ZYLINDER_4
 10
0
 20
0
 30
0
 70
128
 71
1
 72
7
 73
11
 74
11
 0
VERTEX
 8
ZYLINDER_4
 10
0
 20
0
 30
0
 70
128
 71
8
 72
9
 73
13
 74
12
 0
VERTEX
 8
ZYLINDER_4
 10
0
 20
0
 30
0
 70
128
 71
1
 72
27
 73
31
 74
31
 0
VERTEX
 8
ZYLINDER_4
 10
0
 20
0
 30
0
 70
128
 71
1
 72
11
 73
15
 74
15
 0
VERTEX
 8
ZYLINDER_4
 10
0
 20
0
 30
0
 70
128
 71
12
 72
13
 73
17
 74
16
 0
VERTEX
 8
ZYLINDER_4
 10
0
 20
0
 30
0
 70
128
 71
28
 72
29
 73
33
 74
32
 0
VERTEX
 8
ZYLINDER_4
 10
0
 20
0
 30
0
 70
128
 71
1
 72
15
 73
19
 74
19
 0
VERTEX
 8
ZYLINDER_4
 10
0
 20
0
 30
0
 70
128
 71
16
 72
17
 73
21
 74
20
 0
VERTEX
 8
ZYLINDER_4
 10
0
 20
0
 30
0
 70
128
 71
1
 72
31
 73
3
 74
3
 0
VERTEX
 8
ZYLINDER_4
 10
0
 20
0
 30
0
 70
128
 71
1
 72
19
 73
23
 74
23
 0
VERTEX
 8
ZYLINDER_4
 10
0
 20
0
 30
0
 70
128
 71
20
 72
21
 73
25
 74
24
 0
VERTEX
 8
ZYLINDER_4
 10
0
 20
0
 30
0
 70
128
 71
32
 72
33
 73
5
 74
4
 0
VERTEX
 8
ZYLINDER_4
 10
0
 20
0
 30
0
 70
128
 71
1
 72
23
 73
27
 74
27
 0
SEQEND
 0
POLYLINE
 8
SCHLAUCH_1
 66
1
 10
0.0
 20
0.0
 30
0.0
 70
64
 71
96
 72
88
 0
VERTEX
 8
SCHLAUCH_1
 10
-2.9827
 20
0.2858
 30
2.6963
 70
192
 0
VERTEX
 8
SCHLAUCH_1
 10
-2.9742
 20
0.059
 30
2.5999
 70
192
 0
VERTEX
 8
SCHLAUCH_1
 10
-2.9701
 20
-0.0202
 30
2.4026
 70
192
 0
VERTEX
 8
SCHLAUCH_1
 10
-2.972
 20
0.0763
 30
2.1757
 70
192
 0
VERTEX
 8
SCHLAUCH_1
 10
-2.9783
 20
0.2734
 30
2.0964
 70
192
 0
VERTEX
 8
SCHLAUCH_1
 10
-2.9868
 20
0.5002
 30
2.1929
 70
192
 0
VERTEX
 8
SCHLAUCH_1
 10
-2.9909
 20
0.5793
 30
2.3901
 70
192
 0
VERTEX
 8
SCHLAUCH_1
 10
-2.989
 20
0.4829
 30
2.617
 70
192
 0
VERTEX
 8
SCHLAUCH_1
 10
-5.4661
 20
0.201
 30
2.6795
 70
192
 0
VERTEX
 8
SCHLAUCH_1
 10
-5.4183
 20
-0.0248
 30
2.5844
 70
192
 0
VERTEX
 8
SCHLAUCH_1
 10
-5.3483
 20
-0.1026
 30
2.388
 70
192
 0
VERTEX
 8
SCHLAUCH_1
 10
-5.2811
 20
-0.0049
 30
2.1611
 70
192
 0
VERTEX
 8
SCHLAUCH_1
 10
-5.2694
 20
0.1925
 30
2.081
 70
192
 0
VERTEX
 8
SCHLAUCH_1
 10
-5.3171
 20
0.4183
 30
2.1761
 70
192
 0
VERTEX
 8
SCHLAUCH_1
 10
-5.3872
 20
0.4962
 30
2.3725
 70
192
 0
VERTEX
 8
SCHLAUCH_1
 10
-5.4544
 20
0.3984
 30
2.5994
 70
192
 0
VERTEX
 8
SCHLAUCH_1
 10
-7.2382
 20
-0.0095
 30
1.3931
 70
192
 0
VERTEX
 8
SCHLAUCH_1
 10
-7.126
 20
-0.229
 30
1.3497
 70
192
 0
VERTEX
 8
SCHLAUCH_1
 10
-6.9358
 20
-0.2957
 30
1.2421
 70
192
 0
VERTEX
 8
SCHLAUCH_1
 10
-6.7362
 20
-0.1859
 30
1.1091
 70
192
 0
VERTEX
 8
SCHLAUCH_1
 10
-6.6832
 20
0.0149
 30
1.0546
 70
192
 0
VERTEX
 8
SCHLAUCH_1
 10
-6.7955
 20
0.2345
 30
1.098
 70
192
 0
VERTEX
 8
SCHLAUCH_1
 10
-6.9856
 20
0.3011
 30
1.2056
 70
192
 0
VERTEX
 8
SCHLAUCH_1
 10
-7.1852
 20
0.1914
 30
1.3386
 70
192
 0
VERTEX
 8
SCHLAUCH_1
 10
-7.9783
 20
-0.4029
 30
-3.6362
 70
192
 0
VERTEX
 8
SCHLAUCH_1
 10
-7.857
 20
-0.6177
 30
-3.6186
 70
192
 0
VERTEX
 8
SCHLAUCH_1
 10
-7.6483
 20
-0.6744
 30
-3.6004
 70
192
 0
VERTEX
 8
SCHLAUCH_1
 10
-7.4274
 20
-0.5531
 30
-3.5883
 70
192
 0
VERTEX
 8
SCHLAUCH_1
 10
-7.367
 20
-0.3483
 30
-3.5916
 70
192
 0
VERTEX
 8
SCHLAUCH_1
 10
-7.4883
 20
-0.1335
 30
-3.6092
 70
192
 0
VERTEX
 8
SCHLAUCH_1
 10
-7.697
 20
-0.0768
 30
-3.6274
 70
192
 0
VERTEX
 8
SCHLAUCH_1
 10
-7.9179
 20
-0.1981
 30
-3.6396
 70
192
 0
VERTEX
 8
SCHLAUCH_1
 10
-6.9924
 20
-0.3992
 30
-6.845
 70
192
 0
VERTEX
 8
SCHLAUCH_1
 10
-6.8823
 20
-0.6132
 30
-6.7862
 70
192
 0
VERTEX
 8
SCHLAUCH_1
 10
-6.6996
 20
-0.6688
 30
-6.682
 70
192
 0
VERTEX
 8
SCHLAUCH_1
 10
-6.5102
 20
-0.5464
 30
-6.57
 70
192
 0
VERTEX
 8
SCHLAUCH_1
 10
-6.4621
 20
-0.3412
 30
-6.5377
 70
192
 0
VERTEX
 8
SCHLAUCH_1
 10
-6.5722
 20
-0.1272
 30
-6.5965
 70
192
 0
VERTEX
 8
SCHLAUCH_1
 10
-6.7548
 20
-0.0716
 30
-6.7007
 70
192
 0
VERTEX
 8
SCHLAUCH_1
 10
-6.9443
 20
-0.1941
 30
-6.8127
 70
192
 0
VERTEX
 8
SCHLAUCH_1
 10
-4.8953
 20
-0.2886
 30
-9.1016
 70
192
 0
VERTEX
 8
SCHLAUCH_1
 10
-4.8235
 20
-0.5049
 30
-9.0024
 70
192
 0
VERTEX
 8
SCHLAUCH_1
 10
-4.7123
 20
-0.5648
 30
-8.8216
 70
192
 0
VERTEX
 8
SCHLAUCH_1
 10
-4.6016
 20
-0.4472
 30
-8.6244
 70
192
 0
VERTEX
 8
SCHLAUCH_1
 10
-4.578
 20
-0.2435
 30
-8.5649
 70
192
 0
VERTEX
 8
SCHLAUCH_1
 10
-4.6497
 20
-0.0271
 30
-8.6641
 70
192
 0
VERTEX
 8
SCHLAUCH_1
 10
-4.7609
 20
0.0328
 30
-8.8448
 70
192
 0
VERTEX
 8
SCHLAUCH_1
 10
-4.8716
 20
-0.0849
 30
-9.0421
 70
192
 0
VERTEX
 8
SCHLAUCH_1
 10
-1.6577
 20
-0.086
 30
-9.9377
 70
192
 0
VERTEX
 8
SCHLAUCH_1
 10
-1.6385
 20
-0.306
 30
-9.8257
 70
192
 0
VERTEX
 8
SCHLAUCH_1
 10
-1.6267
 20
-0.3727
 30
-9.6194
 70
192
 0
VERTEX
 8
SCHLAUCH_1
 10
-1.6265
 20
-0.2626
 30
-9.3933
 70
192
 0
VERTEX
 8
SCHLAUCH_1
 10
-1.6381
 20
-0.0614
 30
-9.324
 70
192
 0
VERTEX
 8
SCHLAUCH_1
 10
-1.6573
 20
0.1586
 30
-9.436
 70
192
 0
VERTEX
 8
SCHLAUCH_1
 10
-1.6691
 20
0.2253
 30
-9.6423
 70
192
 0
VERTEX
 8
SCHLAUCH_1
 10
-1.6693
 20
0.1152
 30
-9.8684
 70
192
 0
VERTEX
 8
SCHLAUCH_1
 10
1.4924
 20
0.156
 30
-9.3539
 70
192
 0
VERTEX
 8
SCHLAUCH_1
 10
1.4564
 20
-0.0681
 30
-9.252
 70
192
 0
VERTEX
 8
SCHLAUCH_1
 10
1.3581
 20
-0.1432
 30
-9.0661
 70
192
 0
VERTEX
 8
SCHLAUCH_1
 10
1.233
 20
-0.0427
 30
-8.8633
 70
192
 0
VERTEX
 8
SCHLAUCH_1
 10
1.1788
 20
0.1553
 30
-8.802
 70
192
 0
VERTEX
 8
SCHLAUCH_1
 10
1.2148
 20
0.3795
 30
-8.9039
 70
192
 0
VERTEX
 8
SCHLAUCH_1
 10
1.3131
 20
0.4546
 30
-9.0897
 70
192
 0
VERTEX
 8
SCHLAUCH_1
 10
1.4383
 20
0.3541
 30
-9.2926
 70
192
 0
VERTEX
 8
SCHLAUCH_1
 10
3.2951
 20
0.3872
 30
-7.2987
 70
192
 0
VERTEX
 8
SCHLAUCH_1
 10
3.2161
 20
0.1577
 30
-7.2451
 70
192
 0
VERTEX
 8
SCHLAUCH_1
 10
3.0332
 20
0.0722
 30
-7.1554
 70
192
 0
VERTEX
 8
SCHLAUCH_1
 10
2.8124
 20
0.1609
 30
-7.0619
 70
192
 0
VERTEX
 8
SCHLAUCH_1
 10
2.7262
 20
0.3549
 30
-7.0377
 70
192
 0
VERTEX
 8
SCHLAUCH_1
 10
2.8052
 20
0.5844
 30
-7.0913
 70
192
 0
VERTEX
 8
SCHLAUCH_1
 10
2.9881
 20
0.6699
 30
-7.181
 70
192
 0
VERTEX
 8
SCHLAUCH_1
 10
3.2089
 20
0.5813
 30
-7.2745
 70
192
 0
VERTEX
 8
SCHLAUCH_1
 10
3.7465
 20
0.557
 30
-3.9356
 70
192
 0
VERTEX
 8
SCHLAUCH_1
 10
3.6609
 20
0.3246
 30
-3.9353
 70
192
 0
VERTEX
 8
SCHLAUCH_1
 10
3.4655
 20
0.2337
 30
-3.9411
 70
192
 0
VERTEX
 8
SCHLAUCH_1
 10
3.2306
 20
0.3166
 30
-3.9508
 70
192
 0
VERTEX
 8
SCHLAUCH_1
 10
3.1398
 20
0.5089
 30
-3.957
 70
192
 0
VERTEX
 8
SCHLAUCH_1
 10
3.2253
 20
0.7413
 30
-3.9573
 70
192
 0
VERTEX
 8
SCHLAUCH_1
 10
3.4207
 20
0.8321
 30
-3.9515
 70
192
 0
VERTEX
 8
SCHLAUCH_1
 10
3.6556
 20
0.7493
 30
-3.9417
 70
192
 0
VERTEX
 8
SCHLAUCH_1
 10
1.6432
 20
0.3447
 30
6.123
 70
192
 0
VERTEX
 8
SCHLAUCH_1
 10
1.5607
 20
0.1126
 30
6.1092
 70
192
 0
VERTEX
 8
SCHLAUCH_1
 10
1.3697
 20
0.0221
 30
6.0825
 70
192
 0
VERTEX
 8
SCHLAUCH_1
 10
1.139
 20
0.1053
 30
6.0526
 70
192
 0
VERTEX
 8
SCHLAUCH_1
 10
1.0488
 20
0.2976
 30
6.0428
 70
192
 0
VERTEX
 8
SCHLAUCH_1
 10
1.1313
 20
0.5297
 30
6.0565
 70
192
 0
VERTEX
 8
SCHLAUCH_1
 10
1.3223
 20
0.6202
 30
6.0832
 70
192
 0
VERTEX
 8
SCHLAUCH_1
 10
1.5531
 20
0.537
 30
6.1132
 70
192
 0
VERTEX
 8
SCHLAUCH_1
 10
0.4873
 20
0.2945
 30
25.6348
 70
192
 0
VERTEX
 8
SCHLAUCH_1
 10
0.4044
 20
0.0623
 30
25.6291
 70
192
 0
VERTEX
 8
SCHLAUCH_1
 10
0.2124
 20
-0.0283
 30
25.6173
 70
192
 0
VERTEX
 8
SCHLAUCH_1
 10
-0.0193
 20
0.0549
 30
25.6035
 70
192
 0
VERTEX
 8
SCHLAUCH_1
 10
-0.1097
 20
0.2471
 30
25.5985
 70
192
 0
VERTEX
 8
SCHLAUCH_1
 10
-0.0268
 20
0.4793
 30
25.6041
 70
192
 0
VERTEX
 8
SCHLAUCH_1
 10
0.1651
 20
0.5699
 30
25.616
 70
192
 0
VERTEX
 8
SCHLAUCH_1
 10
0.3969
 20
0.4868
 30
25.6298
 70
192
 0
VERTEX
 8
SCHLAUCH_1
 10
0
 20
0
 30
0
 70
128
 71
1
 72
2
 73
10
 74
9
 0
VERTEX
 8
SCHLAUCH_1
 10
0
 20
0
 30
0
 70
128
 71
2
 72
3
 73
11
 74
10
 0
VERTEX
 8
SCHLAUCH_1
 10
0
 20
0
 30
0
 70
128
 71
3
 72
4
 73
12
 74
11
 0
VERTEX
 8
SCHLAUCH_1
 10
0
 20
0
 30
0
 70
128
 71
4
 72
5
 73
13
 74
12
 0
VERTEX
 8
SCHLAUCH_1
 10
0
 20
0
 30
0
 70
128
 71
5
 72
6
 73
14
 74
13
 0
VERTEX
 8
SCHLAUCH_1
 10
0
 20
0
 30
0
 70
128
 71
6
 72
7
 73
15
 74
14
 0
VERTEX
 8
SCHLAUCH_1
 10
0
 20
0
 30
0
 70
128
 71
7
 72
8
 73
16
 74
15
 0
VERTEX
 8
SCHLAUCH_1
 10
0
 20
0
 30
0
 70
128
 71
8
 72
1
 73
9
 74
16
 0
VERTEX
 8
SCHLAUCH_1
 10
0
 20
0
 30
0
 70
128
 71
9
 72
10
 73
18
 74
17
 0
VERTEX
 8
SCHLAUCH_1
 10
0
 20
0
 30
0
 70
128
 71
10
 72
11
 73
19
 74
18
 0
VERTEX
 8
SCHLAUCH_1
 10
0
 20
0
 30
0
 70
128
 71
11
 72
12
 73
20
 74
19
 0
VERTEX
 8
SCHLAUCH_1
 10
0
 20
0
 30
0
 70
128
 71
12
 72
13
 73
21
 74
20
 0
VERTEX
 8
SCHLAUCH_1
 10
0
 20
0
 30
0
 70
128
 71
13
 72
14
 73
22
 74
21
 0
VERTEX
 8
SCHLAUCH_1
 10
0
 20
0
 30
0
 70
128
 71
14
 72
15
 73
23
 74
22
 0
VERTEX
 8
SCHLAUCH_1
 10
0
 20
0
 30
0
 70
128
 71
15
 72
16
 73
24
 74
23
 0
VERTEX
 8
SCHLAUCH_1
 10
0
 20
0
 30
0
 70
128
 71
16
 72
9
 73
17
 74
24
 0
VERTEX
 8
SCHLAUCH_1
 10
0
 20
0
 30
0
 70
128
 71
17
 72
18
 73
26
 74
25
 0
VERTEX
 8
SCHLAUCH_1
 10
0
 20
0
 30
0
 70
128
 71
18
 72
19
 73
27
 74
26
 0
VERTEX
 8
SCHLAUCH_1
 10
0
 20
0
 30
0
 70
128
 71
19
 72
20
 73
28
 74
27
 0
VERTEX
 8
SCHLAUCH_1
 10
0
 20
0
 30
0
 70
128
 71
20
 72
21
 73
29
 74
28
 0
VERTEX
 8
SCHLAUCH_1
 10
0
 20
0
 30
0
 70
128
 71
21
 72
22
 73
30
 74
29
 0
VERTEX
 8
SCHLAUCH_1
 10
0
 20
0
 30
0
 70
128
 71
22
 72
23
 73
31
 74
30
 0
VERTEX
 8
SCHLAUCH_1
 10
0
 20
0
 30
0
 70
128
 71
23
 72
24
 73
32
 74
31
 0
VERTEX
 8
SCHLAUCH_1
 10
0
 20
0
 30
0
 70
128
 71
24
 72
17
 73
25
 74
32
 0
VERTEX
 8
SCHLAUCH_1
 10
0
 20
0
 30
0
 70
128
 71
25
 72
26
 73
34
 74
33
 0
VERTEX
 8
SCHLAUCH_1
 10
0
 20
0
 30
0
 70
128
 71
26
 72
27
 73
35
 74
34
 0
VERTEX
 8
SCHLAUCH_1
 10
0
 20
0
 30
0
 70
128
 71
27
 72
28
 73
36
 74
35
 0
VERTEX
 8
SCHLAUCH_1
 10
0
 20
0
 30
0
 70
128
 71
28
 72
29
 73
37
 74
36
 0
VERTEX
 8
SCHLAUCH_1
 10
0
 20
0
 30
0
 70
128
 71
29
 72
30
 73
38
 74
37
 0
VERTEX
 8
SCHLAUCH_1
 10
0
 20
0
 30
0
 70
128
 71
30
 72
31
 73
39
 74
38
 0
VERTEX
 8
SCHLAUCH_1
 10
0
 20
0
 30
0
 70
128
 71
31
 72
32
 73
40
 74
39
 0
VERTEX
 8
SCHLAUCH_1
 10
0
 20
0
 30
0
 70
128
 71
32
 72
25
 73
33
 74
40
 0
VERTEX
 8
SCHLAUCH_1
 10
0
 20
0
 30
0
 70
128
 71
33
 72
34
 73
42
 74
41
 0
VERTEX
 8
SCHLAUCH_1
 10
0
 20
0
 30
0
 70
128
 71
34
 72
35
 73
43
 74
42
 0
VERTEX
 8
SCHLAUCH_1
 10
0
 20
0
 30
0
 70
128
 71
35
 72
36
 73
44
 74
43
 0
VERTEX
 8
SCHLAUCH_1
 10
0
 20
0
 30
0
 70
128
 71
36
 72
37
 73
45
 74
44
 0
VERTEX
 8
SCHLAUCH_1
 10
0
 20
0
 30
0
 70
128
 71
37
 72
38
 73
46
 74
45
 0
VERTEX
 8
SCHLAUCH_1
 10
0
 20
0
 30
0
 70
128
 71
38
 72
39
 73
47
 74
46
 0
VERTEX
 8
SCHLAUCH_1
 10
0
 20
0
 30
0
 70
128
 71
39
 72
40
 73
48
 74
47
 0
VERTEX
 8
SCHLAUCH_1
 10
0
 20
0
 30
0
 70
128
 71
40
 72
33
 73
41
 74
48
 0
VERTEX
 8
SCHLAUCH_1
 10
0
 20
0
 30
0
 70
128
 71
41
 72
42
 73
50
 74
49
 0
VERTEX
 8
SCHLAUCH_1
 10
0
 20
0
 30
0
 70
128
 71
42
 72
43
 73
51
 74
50
 0
VERTEX
 8
SCHLAUCH_1
 10
0
 20
0
 30
0
 70
128
 71
43
 72
44
 73
52
 74
51
 0
VERTEX
 8
SCHLAUCH_1
 10
0
 20
0
 30
0
 70
128
 71
44
 72
45
 73
53
 74
52
 0
VERTEX
 8
SCHLAUCH_1
 10
0
 20
0
 30
0
 70
128
 71
45
 72
46
 73
54
 74
53
 0
VERTEX
 8
SCHLAUCH_1
 10
0
 20
0
 30
0
 70
128
 71
46
 72
47
 73
55
 74
54
 0
VERTEX
 8
SCHLAUCH_1
 10
0
 20
0
 30
0
 70
128
 71
47
 72
48
 73
56
 74
55
 0
VERTEX
 8
SCHLAUCH_1
 10
0
 20
0
 30
0
 70
128
 71
48
 72
41
 73
49
 74
56
 0
VERTEX
 8
SCHLAUCH_1
 10
0
 20
0
 30
0
 70
128
 71
49
 72
50
 73
58
 74
57
 0
VERTEX
 8
SCHLAUCH_1
 10
0
 20
0
 30
0
 70
128
 71
50
 72
51
 73
59
 74
58
 0
VERTEX
 8
SCHLAUCH_1
 10
0
 20
0
 30
0
 70
128
 71
51
 72
52
 73
60
 74
59
 0
VERTEX
 8
SCHLAUCH_1
 10
0
 20
0
 30
0
 70
128
 71
52
 72
53
 73
61
 74
60
 0
VERTEX
 8
SCHLAUCH_1
 10
0
 20
0
 30
0
 70
128
 71
53
 72
54
 73
62
 74
61
 0
VERTEX
 8
SCHLAUCH_1
 10
0
 20
0
 30
0
 70
128
 71
54
 72
55
 73
63
 74
62
 0
VERTEX
 8
SCHLAUCH_1
 10
0
 20
0
 30
0
 70
128
 71
55
 72
56
 73
64
 74
63
 0
VERTEX
 8
SCHLAUCH_1
 10
0
 20
0
 30
0
 70
128
 71
56
 72
49
 73
57
 74
64
 0
VERTEX
 8
SCHLAUCH_1
 10
0
 20
0
 30
0
 70
128
 71
57
 72
58
 73
66
 74
65
 0
VERTEX
 8
SCHLAUCH_1
 10
0
 20
0
 30
0
 70
128
 71
58
 72
59
 73
67
 74
66
 0
VERTEX
 8
SCHLAUCH_1
 10
0
 20
0
 30
0
 70
128
 71
59
 72
60
 73
68
 74
67
 0
VERTEX
 8
SCHLAUCH_1
 10
0
 20
0
 30
0
 70
128
 71
60
 72
61
 73
69
 74
68
 0
VERTEX
 8
SCHLAUCH_1
 10
0
 20
0
 30
0
 70
128
 71
61
 72
62
 73
70
 74
69
 0
VERTEX
 8
SCHLAUCH_1
 10
0
 20
0
 30
0
 70
128
 71
62
 72
63
 73
71
 74
70
 0
VERTEX
 8
SCHLAUCH_1
 10
0
 20
0
 30
0
 70
128
 71
63
 72
64
 73
72
 74
71
 0
VERTEX
 8
SCHLAUCH_1
 10
0
 20
0
 30
0
 70
128
 71
64
 72
57
 73
65
 74
72
 0
VERTEX
 8
SCHLAUCH_1
 10
0
 20
0
 30
0
 70
128
 71
65
 72
66
 73
74
 74
73
 0
VERTEX
 8
SCHLAUCH_1
 10
0
 20
0
 30
0
 70
128
 71
66
 72
67
 73
75
 74
74
 0
VERTEX
 8
SCHLAUCH_1
 10
0
 20
0
 30
0
 70
128
 71
67
 72
68
 73
76
 74
75
 0
VERTEX
 8
SCHLAUCH_1
 10
0
 20
0
 30
0
 70
128
 71
68
 72
69
 73
77
 74
76
 0
VERTEX
 8
SCHLAUCH_1
 10
0
 20
0
 30
0
 70
128
 71
69
 72
70
 73
78
 74
77
 0
VERTEX
 8
SCHLAUCH_1
 10
0
 20
0
 30
0
 70
128
 71
70
 72
71
 73
79
 74
78
 0
VERTEX
 8
SCHLAUCH_1
 10
0
 20
0
 30
0
 70
128
 71
71
 72
72
 73
80
 74
79
 0
VERTEX
 8
SCHLAUCH_1
 10
0
 20
0
 30
0
 70
128
 71
72
 72
65
 73
73
 74
80
 0
VERTEX
 8
SCHLAUCH_1
 10
0
 20
0
 30
0
 70
128
 71
73
 72
74
 73
82
 74
81
 0
VERTEX
 8
SCHLAUCH_1
 10
0
 20
0
 30
0
 70
128
 71
74
 72
75
 73
83
 74
82
 0
VERTEX
 8
SCHLAUCH_1
 10
0
 20
0
 30
0
 70
128
 71
75
 72
76
 73
84
 74
83
 0
VERTEX
 8
SCHLAUCH_1
 10
0
 20
0
 30
0
 70
128
 71
76
 72
77
 73
85
 74
84
 0
VERTEX
 8
SCHLAUCH_1
 10
0
 20
0
 30
0
 70
128
 71
77
 72
78
 73
86
 74
85
 0
VERTEX
 8
SCHLAUCH_1
 10
0
 20
0
 30
0
 70
128
 71
78
 72
79
 73
87
 74
86
 0
VERTEX
 8
SCHLAUCH_1
 10
0
 20
0
 30
0
 70
128
 71
79
 72
80
 73
88
 74
87
 0
VERTEX
 8
SCHLAUCH_1
 10
0
 20
0
 30
0
 70
128
 71
80
 72
73
 73
81
 74
88
 0
VERTEX
 8
SCHLAUCH_1
 10
0
 20
0
 30
0
 70
128
 71
81
 72
82
 73
90
 74
89
 0
VERTEX
 8
SCHLAUCH_1
 10
0
 20
0
 30
0
 70
128
 71
82
 72
83
 73
91
 74
90
 0
VERTEX
 8
SCHLAUCH_1
 10
0
 20
0
 30
0
 70
128
 71
83
 72
84
 73
92
 74
91
 0
VERTEX
 8
SCHLAUCH_1
 10
0
 20
0
 30
0
 70
128
 71
84
 72
85
 73
93
 74
92
 0
VERTEX
 8
SCHLAUCH_1
 10
0
 20
0
 30
0
 70
128
 71
85
 72
86
 73
94
 74
93
 0
VERTEX
 8
SCHLAUCH_1
 10
0
 20
0
 30
0
 70
128
 71
86
 72
87
 73
95
 74
94
 0
VERTEX
 8
SCHLAUCH_1
 10
0
 20
0
 30
0
 70
128
 71
87
 72
88
 73
96
 74
95
 0
VERTEX
 8
SCHLAUCH_1
 10
0
 20
0
 30
0
 70
128
 71
88
 72
81
 73
89
 74
96
 0
SEQEND
 0
POLYLINE
 8
HALTER
 66
1
 10
0.0
 20
0.0
 30
0.0
 70
64
 71
36
 72
34
 0
VERTEX
 8
HALTER
 10
0.525
 20
0.5427
 30
25.1356
 70
192
 0
VERTEX
 8
HALTER
 10
0.525
 20
0.5427
 30
25.9356
 70
192
 0
VERTEX
 8
HALTER
 10
0.3174
 20
0.6593
 30
25.1356
 70
192
 0
VERTEX
 8
HALTER
 10
0.3174
 20
0.6593
 30
25.9356
 70
192
 0
VERTEX
 8
HALTER
 10
0.0803
 20
0.6383
 30
25.1356
 70
192
 0
VERTEX
 8
HALTER
 10
0.0803
 20
0.6383
 30
25.9356
 70
192
 0
VERTEX
 8
HALTER
 10
-0.1036
 20
0.4871
 30
25.1356
 70
192
 0
VERTEX
 8
HALTER
 10
-0.1036
 20
0.4871
 30
25.9356
 70
192
 0
VERTEX
 8
HALTER
 10
-0.17
 20
0.2585
 30
25.1356
 70
192
 0
VERTEX
 8
HALTER
 10
-0.17
 20
0.2585
 30
25.9356
 70
192
 0
VERTEX
 8
HALTER
 10
-0.0957
 20
0.0323
 30
25.1356
 70
192
 0
VERTEX
 8
HALTER
 10
-0.0957
 20
0.0323
 30
25.9356
 70
192
 0
VERTEX
 8
HALTER
 10
0.0933
 20
-0.1124
 30
25.1356
 70
192
 0
VERTEX
 8
HALTER
 10
0.0933
 20
-0.1124
 30
25.9356
 70
192
 0
VERTEX
 8
HALTER
 10
0.331
 20
-0.1252
 30
25.1356
 70
192
 0
VERTEX
 8
HALTER
 10
0.331
 20
-0.1252
 30
25.9356
 70
192
 0
VERTEX
 8
HALTER
 10
0.5344
 20
-0.0015
 30
25.1356
 70
192
 0
VERTEX
 8
HALTER
 10
0.5344
 20
-0.0015
 30
25.9356
 70
192
 0
VERTEX
 8
HALTER
 10
0.4745
 20
0.0516
 30
25.1356
 70
192
 0
VERTEX
 8
HALTER
 10
0.4745
 20
0.0516
 30
25.9356
 70
192
 0
VERTEX
 8
HALTER
 10
0.3115
 20
-0.0476
 30
25.1356
 70
192
 0
VERTEX
 8
HALTER
 10
0.3115
 20
-0.0476
 30
25.9356
 70
192
 0
VERTEX
 8
HALTER
 10
0.121
 20
-0.0374
 30
25.1356
 70
192
 0
VERTEX
 8
HALTER
 10
0.121
 20
-0.0374
 30
25.9356
 70
192
 0
VERTEX
 8
HALTER
 10
-0.0305
 20
0.0786
 30
25.1356
 70
192
 0
VERTEX
 8
HALTER
 10
-0.0305
 20
0.0786
 30
25.9356
 70
192
 0
VERTEX
 8
HALTER
 10
-0.09
 20
0.2599
 30
25.1356
 70
192
 0
VERTEX
 8
HALTER
 10
-0.09
 20
0.2599
 30
25.9356
 70
192
 0
VERTEX
 8
HALTER
 10
-0.0368
 20
0.4431
 30
25.1356
 70
192
 0
VERTEX
 8
HALTER
 10
-0.0368
 20
0.4431
 30
25.9356
 70
192
 0
VERTEX
 8
HALTER
 10
0.1106
 20
0.5643
 30
25.1356
 70
192
 0
VERTEX
 8
HALTER
 10
0.1106
 20
0.5643
 30
25.9356
 70
192
 0
VERTEX
 8
HALTER
 10
0.3006
 20
0.5811
 30
25.1356
 70
192
 0
VERTEX
 8
HALTER
 10
0.3006
 20
0.5811
 30
25.9356
 70
192
 0
VERTEX
 8
HALTER
 10
0.4669
 20
0.4877
 30
25.1356
 70
192
 0
VERTEX
 8
HALTER
 10
0.4669
 20
0.4877
 30
25.9356
 70
192
 0
VERTEX
 8
HALTER
 10
0
 20
0
 30
0
 70
128
 71
1
 72
2
 73
4
 74
3
 0
VERTEX
 8
HALTER
 10
0
 20
0
 30
0
 70
128
 71
3
 72
4
 73
6
 74
5
 0
VERTEX
 8
HALTER
 10
0
 20
0
 30
0
 70
128
 71
5
 72
6
 73
8
 74
7
 0
VERTEX
 8
HALTER
 10
0
 20
0
 30
0
 70
128
 71
7
 72
8
 73
10
 74
9
 0
VERTEX
 8
HALTER
 10
0
 20
0
 30
0
 70
128
 71
9
 72
10
 73
12
 74
11
 0
VERTEX
 8
HALTER
 10
0
 20
0
 30
0
 70
128
 71
11
 72
12
 73
14
 74
13
 0
VERTEX
 8
HALTER
 10
0
 20
0
 30
0
 70
128
 71
13
 72
14
 73
16
 74
15
 0
VERTEX
 8
HALTER
 10
0
 20
0
 30
0
 70
128
 71
15
 72
16
 73
18
 74
17
 0
VERTEX
 8
HALTER
 10
0
 20
0
 30
0
 70
128
 71
17
 72
18
 73
20
 74
19
 0
VERTEX
 8
HALTER
 10
0
 20
0
 30
0
 70
128
 71
19
 72
20
 73
22
 74
21
 0
VERTEX
 8
HALTER
 10
0
 20
0
 30
0
 70
128
 71
21
 72
22
 73
24
 74
23
 0
VERTEX
 8
HALTER
 10
0
 20
0
 30
0
 70
128
 71
23
 72
24
 73
26
 74
25
 0
VERTEX
 8
HALTER
 10
0
 20
0
 30
0
 70
128
 71
25
 72
26
 73
28
 74
27
 0
VERTEX
 8
HALTER
 10
0
 20
0
 30
0
 70
128
 71
27
 72
28
 73
30
 74
29
 0
VERTEX
 8
HALTER
 10
0
 20
0
 30
0
 70
128
 71
29
 72
30
 73
32
 74
31
 0
VERTEX
 8
HALTER
 10
0
 20
0
 30
0
 70
128
 71
31
 72
32
 73
34
 74
33
 0
VERTEX
 8
HALTER
 10
0
 20
0
 30
0
 70
128
 71
33
 72
34
 73
36
 74
35
 0
VERTEX
 8
HALTER
 10
0
 20
0
 30
0
 70
128
 71
35
 72
36
 73
2
 74
1
 0
VERTEX
 8
HALTER
 10
0
 20
0
 30
0
 70
128
 71
2
 72
36
 73
34
 74
4
 0
VERTEX
 8
HALTER
 10
0
 20
0
 30
0
 70
128
 71
4
 72
34
 73
32
 74
6
 0
VERTEX
 8
HALTER
 10
0
 20
0
 30
0
 70
128
 71
6
 72
32
 73
30
 74
8
 0
VERTEX
 8
HALTER
 10
0
 20
0
 30
0
 70
128
 71
8
 72
30
 73
28
 74
10
 0
VERTEX
 8
HALTER
 10
0
 20
0
 30
0
 70
128
 71
10
 72
28
 73
26
 74
12
 0
VERTEX
 8
HALTER
 10
0
 20
0
 30
0
 70
128
 71
12
 72
26
 73
24
 74
14
 0
VERTEX
 8
HALTER
 10
0
 20
0
 30
0
 70
128
 71
14
 72
24
 73
22
 74
16
 0
VERTEX
 8
HALTER
 10
0
 20
0
 30
0
 70
128
 71
16
 72
22
 73
20
 74
18
 0
VERTEX
 8
HALTER
 10
0
 20
0
 30
0
 70
128
 71
35
 72
1
 73
3
 74
33
 0
VERTEX
 8
HALTER
 10
0
 20
0
 30
0
 70
128
 71
33
 72
3
 73
5
 74
31
 0
VERTEX
 8
HALTER
 10
0
 20
0
 30
0
 70
128
 71
31
 72
5
 73
7
 74
29
 0
VERTEX
 8
HALTER
 10
0
 20
0
 30
0
 70
128
 71
29
 72
7
 73
9
 74
27
 0
VERTEX
 8
HALTER
 10
0
 20
0
 30
0
 70
128
 71
27
 72
9
 73
11
 74
25
 0
VERTEX
 8
HALTER
 10
0
 20
0
 30
0
 70
128
 71
25
 72
11
 73
13
 74
23
 0
VERTEX
 8
HALTER
 10
0
 20
0
 30
0
 70
128
 71
23
 72
13
 73
15
 74
21
 0
VERTEX
 8
HALTER
 10
0
 20
0
 30
0
 70
128
 71
21
 72
15
 73
17
 74
19
 0
SEQEND
 0
POLYLINE
 8
K_RPER_1
 66
1
 10
0.0
 20
0.0
 30
0.0
 70
64
 71
8
 72
6
 0
VERTEX
 8
K_RPER_1
 10
-2.735
 20
0.7044
 30
25.0356
 70
192
 0
VERTEX
 8
K_RPER_1
 10
-2.735
 20
0.7044
 30
26.0356
 70
192
 0
VERTEX
 8
K_RPER_1
 10
-2.735
 20
-0.1756
 30
25.0356
 70
192
 0
VERTEX
 8
K_RPER_1
 10
-2.735
 20
-0.1756
 30
26.0356
 70
192
 0
VERTEX
 8
K_RPER_1
 10
-1.135
 20
-0.1756
 30
25.0356
 70
192
 0
VERTEX
 8
K_RPER_1
 10
-1.135
 20
-0.1756
 30
26.0356
 70
192
 0
VERTEX
 8
K_RPER_1
 10
-1.135
 20
0.7044
 30
25.0356
 70
192
 0
VERTEX
 8
K_RPER_1
 10
-1.135
 20
0.7044
 30
26.0356
 70
192
 0
VERTEX
 8
K_RPER_1
 10
0
 20
0
 30
0
 70
128
 71
1
 72
2
 73
4
 74
3
 0
VERTEX
 8
K_RPER_1
 10
0
 20
0
 30
0
 70
128
 71
3
 72
4
 73
6
 74
5
 0
VERTEX
 8
K_RPER_1
 10
0
 20
0
 30
0
 70
128
 71
5
 72
6
 73
8
 74
7
 0
VERTEX
 8
K_RPER_1
 10
0
 20
0
 30
0
 70
128
 71
7
 72
8
 73
2
 74
1
 0
VERTEX
 8
K_RPER_1
 10
0
 20
0
 30
0
 70
128
 71
2
 72
8
 73
6
 74
4
 0
VERTEX
 8
K_RPER_1
 10
0
 20
0
 30
0
 70
128
 71
7
 72
1
 73
3
 74
5
 0
SEQEND
 0
POLYLINE
 8
ZYLINDER_3
 66
1
 10
0.0
 20
0.0
 30
0.0
 70
64
 71
20
 72
10
 0
VERTEX
 8
ZYLINDER_3
 10
-0.0821
 20
0.0274
 30
25.5323
 70
192
 0
VERTEX
 8
ZYLINDER_3
 10
-1.2821
 20
0.0274
 30
25.5323
 70
192
 0
VERTEX
 8
ZYLINDER_3
 10
-0.0821
 20
0.0733
 30
25.6733
 70
192
 0
VERTEX
 8
ZYLINDER_3
 10
-1.2821
 20
0.0733
 30
25.6733
 70
192
 0
VERTEX
 8
ZYLINDER_3
 10
-0.0821
 20
0.1933
 30
25.7605
 70
192
 0
VERTEX
 8
ZYLINDER_3
 10
-1.2821
 20
0.1933
 30
25.7605
 70
192
 0
VERTEX
 8
ZYLINDER_3
 10
-0.0821
 20
0.3416
 30
25.7605
 70
192
 0
VERTEX
 8
ZYLINDER_3
 10
-1.2821
 20
0.3416
 30
25.7605
 70
192
 0
VERTEX
 8
ZYLINDER_3
 10
-0.0821
 20
0.4616
 30
25.6733
 70
192
 0
VERTEX
 8
ZYLINDER_3
 10
-1.2821
 20
0.4616
 30
25.6733
 70
192
 0
VERTEX
 8
ZYLINDER_3
 10
-0.0821
 20
0.5074
 30
25.5323
 70
192
 0
VERTEX
 8
ZYLINDER_3
 10
-1.2821
 20
0.5074
 30
25.5323
 70
192
 0
VERTEX
 8
ZYLINDER_3
 10
-0.0821
 20
0.4616
 30
25.3912
 70
192
 0
VERTEX
 8
ZYLINDER_3
 10
-1.2821
 20
0.4616
 30
25.3912
 70
192
 0
VERTEX
 8
ZYLINDER_3
 10
-0.0821
 20
0.3416
 30
25.304
 70
192
 0
VERTEX
 8
ZYLINDER_3
 10
-1.2821
 20
0.3416
 30
25.304
 70
192
 0
VERTEX
 8
ZYLINDER_3
 10
-0.0821
 20
0.1933
 30
25.304
 70
192
 0
VERTEX
 8
ZYLINDER_3
 10
-1.2821
 20
0.1933
 30
25.304
 70
192
 0
VERTEX
 8
ZYLINDER_3
 10
-0.0821
 20
0.0733
 30
25.3912
 70
192
 0
VERTEX
 8
ZYLINDER_3
 10
-1.2821
 20
0.0733
 30
25.3912
 70
192
 0
VERTEX
 8
ZYLINDER_3
 10
0
 20
0
 30
0
 70
128
 71
1
 72
2
 73
4
 74
3
 0
VERTEX
 8
ZYLINDER_3
 10
0
 20
0
 30
0
 70
128
 71
3
 72
4
 73
6
 74
5
 0
VERTEX
 8
ZYLINDER_3
 10
0
 20
0
 30
0
 70
128
 71
5
 72
6
 73
8
 74
7
 0
VERTEX
 8
ZYLINDER_3
 10
0
 20
0
 30
0
 70
128
 71
7
 72
8
 73
10
 74
9
 0
VERTEX
 8
ZYLINDER_3
 10
0
 20
0
 30
0
 70
128
 71
9
 72
10
 73
12
 74
11
 0
VERTEX
 8
ZYLINDER_3
 10
0
 20
0
 30
0
 70
128
 71
11
 72
12
 73
14
 74
13
 0
VERTEX
 8
ZYLINDER_3
 10
0
 20
0
 30
0
 70
128
 71
13
 72
14
 73
16
 74
15
 0
VERTEX
 8
ZYLINDER_3
 10
0
 20
0
 30
0
 70
128
 71
15
 72
16
 73
18
 74
17
 0
VERTEX
 8
ZYLINDER_3
 10
0
 20
0
 30
0
 70
128
 71
17
 72
18
 73
20
 74
19
 0
VERTEX
 8
ZYLINDER_3
 10
0
 20
0
 30
0
 70
128
 71
19
 72
20
 73
2
 74
1
 0
SEQEND
 0
POLYLINE
 8
ZYLINDER_2
 66
1
 10
0.0
 20
0.0
 30
0.0
 70
64
 71
41
 72
20
 0
VERTEX
 8
ZYLINDER_2
 10
-1.9312
 20
-12.5199
 30
41.867
 70
192
 0
VERTEX
 8
ZYLINDER_2
 10
-2.1663
 20
-12.8435
 30
42.7055
 70
192
 0
VERTEX
 8
ZYLINDER_2
 10
-1.9312
 20
-12.9199
 30
41.867
 70
192
 0
VERTEX
 8
ZYLINDER_2
 10
-1.9312
 20
-12.9199
 30
41.867
 70
192
 0
VERTEX
 8
ZYLINDER_2
 10
-1.9312
 20
-12.9199
 30
42.7055
 70
192
 0
VERTEX
 8
ZYLINDER_2
 10
-1.9312
 20
-12.9199
 30
42.7055
 70
192
 0
VERTEX
 8
ZYLINDER_2
 10
-1.6961
 20
-12.8435
 30
41.867
 70
192
 0
VERTEX
 8
ZYLINDER_2
 10
-1.6961
 20
-12.8435
 30
41.867
 70
192
 0
VERTEX
 8
ZYLINDER_2
 10
-1.6961
 20
-12.8435
 30
42.7055
 70
192
 0
VERTEX
 8
ZYLINDER_2
 10
-1.6961
 20
-12.8435
 30
42.7055
 70
192
 0
VERTEX
 8
ZYLINDER_2
 10
-1.5508
 20
-12.6435
 30
41.867
 70
192
 0
VERTEX
 8
ZYLINDER_2
 10
-1.5508
 20
-12.6435
 30
41.867
 70
192
 0
VERTEX
 8
ZYLINDER_2
 10
-1.5508
 20
-12.6435
 30
42.7055
 70
192
 0
VERTEX
 8
ZYLINDER_2
 10
-1.5508
 20
-12.6435
 30
42.7055
 70
192
 0
VERTEX
 8
ZYLINDER_2
 10
-1.5508
 20
-12.3963
 30
41.867
 70
192
 0
VERTEX
 8
ZYLINDER_2
 10
-1.5508
 20
-12.3963
 30
41.867
 70
192
 0
VERTEX
 8
ZYLINDER_2
 10
-1.5508
 20
-12.3963
 30
42.7055
 70
192
 0
VERTEX
 8
ZYLINDER_2
 10
-1.5508
 20
-12.3963
 30
42.7055
 70
192
 0
VERTEX
 8
ZYLINDER_2
 10
-1.6961
 20
-12.1963
 30
41.867
 70
192
 0
VERTEX
 8
ZYLINDER_2
 10
-1.6961
 20
-12.1963
 30
41.867
 70
192
 0
VERTEX
 8
ZYLINDER_2
 10
-1.6961
 20
-12.1963
 30
42.7055
 70
192
 0
VERTEX
 8
ZYLINDER_2
 10
-1.6961
 20
-12.1963
 30
42.7055
 70
192
 0
VERTEX
 8
ZYLINDER_2
 10
-1.9312
 20
-12.1199
 30
41.867
 70
192
 0
VERTEX
 8
ZYLINDER_2
 10
-1.9312
 20
-12.1199
 30
41.867
 70
192
 0
VERTEX
 8
ZYLINDER_2
 10
-1.9312
 20
-12.1199
 30
42.7055
 70
192
 0
VERTEX
 8
ZYLINDER_2
 10
-1.9312
 20
-12.1199
 30
42.7055
 70
192
 0
VERTEX
 8
ZYLINDER_2
 10
-2.1663
 20
-12.1963
 30
41.867
 70
192
 0
VERTEX
 8
ZYLINDER_2
 10
-2.1663
 20
-12.1963
 30
41.867
 70
192
 0
VERTEX
 8
ZYLINDER_2
 10
-2.1663
 20
-12.1963
 30
42.7055
 70
192
 0
VERTEX
 8
ZYLINDER_2
 10
-2.1663
 20
-12.1963
 30
42.7055
 70
192
 0
VERTEX
 8
ZYLINDER_2
 10
-2.3116
 20
-12.3963
 30
41.867
 70
192
 0
VERTEX
 8
ZYLINDER_2
 10
-2.3116
 20
-12.3963
 30
41.867
 70
192
 0
VERTEX
 8
ZYLINDER_2
 10
-2.3116
 20
-12.3963
 30
42.7055
 70
192
 0
VERTEX
 8
ZYLINDER_2
 10
-2.3116
 20
-12.3963
 30
42.7055
 70
192
 0
VERTEX
 8
ZYLINDER_2
 10
-2.3116
 20
-12.6435
 30
41.867
 70
192
 0
VERTEX
 8
ZYLINDER_2
 10
-2.3116
 20
-12.6435
 30
41.867
 70
192
 0
VERTEX
 8
ZYLINDER_2
 10
-2.3116
 20
-12.6435
 30
42.7055
 70
192
 0
VERTEX
 8
ZYLINDER_2
 10
-2.3116
 20
-12.6435
 30
42.7055
 70
192
 0
VERTEX
 8
ZYLINDER_2
 10
-2.1663
 20
-12.8435
 30
41.867
 70
192
 0
VERTEX
 8
ZYLINDER_2
 10
-2.1663
 20
-12.8435
 30
41.867
 70
192
 0
VERTEX
 8
ZYLINDER_2
 10
-2.1663
 20
-12.8435
 30
42.7055
 70
192
 0
VERTEX
 8
ZYLINDER_2
 10
0
 20
0
 30
0
 70
128
 71
1
 72
3
 73
7
 74
7
 0
VERTEX
 8
ZYLINDER_2
 10
0
 20
0
 30
0
 70
128
 71
4
 72
5
 73
9
 74
8
 0
VERTEX
 8
ZYLINDER_2
 10
0
 20
0
 30
0
 70
128
 71
1
 72
31
 73
35
 74
35
 0
VERTEX
 8
ZYLINDER_2
 10
0
 20
0
 30
0
 70
128
 71
1
 72
7
 73
11
 74
11
 0
VERTEX
 8
ZYLINDER_2
 10
0
 20
0
 30
0
 70
128
 71
8
 72
9
 73
13
 74
12
 0
VERTEX
 8
ZYLINDER_2
 10
0
 20
0
 30
0
 70
128
 71
32
 72
33
 73
37
 74
36
 0
VERTEX
 8
ZYLINDER_2
 10
0
 20
0
 30
0
 70
128
 71
1
 72
11
 73
15
 74
15
 0
VERTEX
 8
ZYLINDER_2
 10
0
 20
0
 30
0
 70
128
 71
12
 72
13
 73
17
 74
16
 0
VERTEX
 8
ZYLINDER_2
 10
0
 20
0
 30
0
 70
128
 71
1
 72
35
 73
39
 74
39
 0
VERTEX
 8
ZYLINDER_2
 10
0
 20
0
 30
0
 70
128
 71
1
 72
15
 73
19
 74
19
 0
VERTEX
 8
ZYLINDER_2
 10
0
 20
0
 30
0
 70
128
 71
16
 72
17
 73
21
 74
20
 0
VERTEX
 8
ZYLINDER_2
 10
0
 20
0
 30
0
 70
128
 71
36
 72
37
 73
41
 74
40
 0
VERTEX
 8
ZYLINDER_2
 10
0
 20
0
 30
0
 70
128
 71
1
 72
19
 73
23
 74
23
 0
VERTEX
 8
ZYLINDER_2
 10
0
 20
0
 30
0
 70
128
 71
20
 72
21
 73
25
 74
24
 0
VERTEX
 8
ZYLINDER_2
 10
0
 20
0
 30
0
 70
128
 71
1
 72
39
 73
3
 74
3
 0
VERTEX
 8
ZYLINDER_2
 10
0
 20
0
 30
0
 70
128
 71
1
 72
23
 73
27
 74
27
 0
VERTEX
 8
ZYLINDER_2
 10
0
 20
0
 30
0
 70
128
 71
24
 72
25
 73
29
 74
28
 0
VERTEX
 8
ZYLINDER_2
 10
0
 20
0
 30
0
 70
128
 71
40
 72
41
 73
5
 74
4
 0
VERTEX
 8
ZYLINDER_2
 10
0
 20
0
 30
0
 70
128
 71
1
 72
27
 73
31
 74
31
 0
VERTEX
 8
ZYLINDER_2
 10
0
 20
0
 30
0
 70
128
 71
28
 72
29
 73
33
 74
32
 0
SEQEND
 0
POLYLINE
 8
ZYLINDER_1
 66
1
 10
0.0
 20
0.0
 30
0.0
 70
64
 71
49
 72
24
 0
VERTEX
 8
ZYLINDER_1
 10
-2.3312
 20
-13.2128
 30
41.6527
 70
192
 0
VERTEX
 8
ZYLINDER_1
 10
-1.9312
 20
-12.5199
 30
41.6527
 70
192
 0
VERTEX
 8
ZYLINDER_1
 10
-1.9312
 20
-13.3199
 30
41.1423
 70
192
 0
VERTEX
 8
ZYLINDER_1
 10
-1.9312
 20
-13.3199
 30
41.1423
 70
192
 0
VERTEX
 8
ZYLINDER_1
 10
-1.9312
 20
-13.3199
 30
41.6527
 70
192
 0
VERTEX
 8
ZYLINDER_1
 10
-1.9312
 20
-13.3199
 30
41.6527
 70
192
 0
VERTEX
 8
ZYLINDER_1
 10
-1.5312
 20
-13.2128
 30
41.1423
 70
192
 0
VERTEX
 8
ZYLINDER_1
 10
-1.5312
 20
-13.2128
 30
41.1423
 70
192
 0
VERTEX
 8
ZYLINDER_1
 10
-1.5312
 20
-13.2128
 30
41.6527
 70
192
 0
VERTEX
 8
ZYLINDER_1
 10
-1.5312
 20
-13.2128
 30
41.6527
 70
192
 0
VERTEX
 8
ZYLINDER_1
 10
-1.2384
 20
-12.9199
 30
41.1423
 70
192
 0
VERTEX
 8
ZYLINDER_1
 10
-1.2384
 20
-12.9199
 30
41.1423
 70
192
 0
VERTEX
 8
ZYLINDER_1
 10
-1.2384
 20
-12.9199
 30
41.6527
 70
192
 0
VERTEX
 8
ZYLINDER_1
 10
-1.2384
 20
-12.9199
 30
41.6527
 70
192
 0
VERTEX
 8
ZYLINDER_1
 10
-1.1312
 20
-12.5199
 30
41.1423
 70
192
 0
VERTEX
 8
ZYLINDER_1
 10
-1.1312
 20
-12.5199
 30
41.1423
 70
192
 0
VERTEX
 8
ZYLINDER_1
 10
-1.1312
 20
-12.5199
 30
41.6527
 70
192
 0
VERTEX
 8
ZYLINDER_1
 10
-1.1312
 20
-12.5199
 30
41.6527
 70
192
 0
VERTEX
 8
ZYLINDER_1
 10
-1.2384
 20
-12.1199
 30
41.1423
 70
192
 0
VERTEX
 8
ZYLINDER_1
 10
-1.2384
 20
-12.1199
 30
41.1423
 70
192
 0
VERTEX
 8
ZYLINDER_1
 10
-1.2384
 20
-12.1199
 30
41.6527
 70
192
 0
VERTEX
 8
ZYLINDER_1
 10
-1.2384
 20
-12.1199
 30
41.6527
 70
192
 0
VERTEX
 8
ZYLINDER_1
 10
-1.5312
 20
-11.8271
 30
41.1423
 70
192
 0
VERTEX
 8
ZYLINDER_1
 10
-1.5312
 20
-11.8271
 30
41.1423
 70
192
 0
VERTEX
 8
ZYLINDER_1
 10
-1.5312
 20
-11.8271
 30
41.6527
 70
192
 0
VERTEX
 8
ZYLINDER_1
 10
-1.5312
 20
-11.8271
 30
41.6527
 70
192
 0
VERTEX
 8
ZYLINDER_1
 10
-1.9312
 20
-11.7199
 30
41.1423
 70
192
 0
VERTEX
 8
ZYLINDER_1
 10
-1.9312
 20
-11.7199
 30
41.1423
 70
192
 0
VERTEX
 8
ZYLINDER_1
 10
-1.9312
 20
-11.7199
 30
41.6527
 70
192
 0
VERTEX
 8
ZYLINDER_1
 10
-1.9312
 20
-11.7199
 30
41.6527
 70
192
 0
VERTEX
 8
ZYLINDER_1
 10
-2.3312
 20
-11.8271
 30
41.1423
 70
192
 0
VERTEX
 8
ZYLINDER_1
 10
-2.3312
 20
-11.8271
 30
41.1423
 70
192
 0
VERTEX
 8
ZYLINDER_1
 10
-2.3312
 20
-11.8271
 30
41.6527
 70
192
 0
VERTEX
 8
ZYLINDER_1
 10
-2.3312
 20
-11.8271
 30
41.6527
 70
192
 0
VERTEX
 8
ZYLINDER_1
 10
-2.624
 20
-12.1199
 30
41.1423
 70
192
 0
VERTEX
 8
ZYLINDER_1
 10
-2.624
 20
-12.1199
 30
41.1423
 70
192
 0
VERTEX
 8
ZYLINDER_1
 10
-2.624
 20
-12.1199
 30
41.6527
 70
192
 0
VERTEX
 8
ZYLINDER_1
 10
-2.624
 20
-12.1199
 30
41.6527
 70
192
 0
VERTEX
 8
ZYLINDER_1
 10
-2.7312
 20
-12.5199
 30
41.1423
 70
192
 0
VERTEX
 8
ZYLINDER_1
 10
-2.7312
 20
-12.5199
 30
41.1423
 70
192
 0
VERTEX
 8
ZYLINDER_1
 10
-2.7312
 20
-12.5199
 30
41.6527
 70
192
 0
VERTEX
 8
ZYLINDER_1
 10
-2.7312
 20
-12.5199
 30
41.6527
 70
192
 0
VERTEX
 8
ZYLINDER_1
 10
-2.624
 20
-12.9199
 30
41.1423
 70
192
 0
VERTEX
 8
ZYLINDER_1
 10
-2.624
 20
-12.9199
 30
41.1423
 70
192
 0
VERTEX
 8
ZYLINDER_1
 10
-2.624
 20
-12.9199
 30
41.6527
 70
192
 0
VERTEX
 8
ZYLINDER_1
 10
-2.624
 20
-12.9199
 30
41.6527
 70
192
 0
VERTEX
 8
ZYLINDER_1
 10
-2.3312
 20
-13.2128
 30
41.1423
 70
192
 0
VERTEX
 8
ZYLINDER_1
 10
-2.3312
 20
-13.2128
 30
41.1423
 70
192
 0
VERTEX
 8
ZYLINDER_1
 10
-2.3312
 20
-13.2128
 30
41.6527
 70
192
 0
VERTEX
 8
ZYLINDER_1
 10
0
 20
0
 30
0
 70
128
 71
36
 72
37
 73
41
 74
40
 0
VERTEX
 8
ZYLINDER_1
 10
0
 20
0
 30
0
 70
128
 71
4
 72
5
 73
9
 74
8
 0
VERTEX
 8
ZYLINDER_1
 10
0
 20
0
 30
0
 70
128
 71
6
 72
2
 73
10
 74
10
 0
VERTEX
 8
ZYLINDER_1
 10
0
 20
0
 30
0
 70
128
 71
38
 72
2
 73
42
 74
42
 0
VERTEX
 8
ZYLINDER_1
 10
0
 20
0
 30
0
 70
128
 71
8
 72
9
 73
13
 74
12
 0
VERTEX
 8
ZYLINDER_1
 10
0
 20
0
 30
0
 70
128
 71
10
 72
2
 73
14
 74
14
 0
VERTEX
 8
ZYLINDER_1
 10
0
 20
0
 30
0
 70
128
 71
40
 72
41
 73
45
 74
44
 0
VERTEX
 8
ZYLINDER_1
 10
0
 20
0
 30
0
 70
128
 71
12
 72
13
 73
17
 74
16
 0
VERTEX
 8
ZYLINDER_1
 10
0
 20
0
 30
0
 70
128
 71
14
 72
2
 73
18
 74
18
 0
VERTEX
 8
ZYLINDER_1
 10
0
 20
0
 30
0
 70
128
 71
42
 72
2
 73
46
 74
46
 0
VERTEX
 8
ZYLINDER_1
 10
0
 20
0
 30
0
 70
128
 71
16
 72
17
 73
21
 74
20
 0
VERTEX
 8
ZYLINDER_1
 10
0
 20
0
 30
0
 70
128
 71
18
 72
2
 73
22
 74
22
 0
VERTEX
 8
ZYLINDER_1
 10
0
 20
0
 30
0
 70
128
 71
44
 72
45
 73
49
 74
48
 0
VERTEX
 8
ZYLINDER_1
 10
0
 20
0
 30
0
 70
128
 71
20
 72
21
 73
25
 74
24
 0
VERTEX
 8
ZYLINDER_1
 10
0
 20
0
 30
0
 70
128
 71
22
 72
2
 73
26
 74
26
 0
VERTEX
 8
ZYLINDER_1
 10
0
 20
0
 30
0
 70
128
 71
46
 72
2
 73
1
 74
1
 0
VERTEX
 8
ZYLINDER_1
 10
0
 20
0
 30
0
 70
128
 71
24
 72
25
 73
29
 74
28
 0
VERTEX
 8
ZYLINDER_1
 10
0
 20
0
 30
0
 70
128
 71
26
 72
2
 73
30
 74
30
 0
VERTEX
 8
ZYLINDER_1
 10
0
 20
0
 30
0
 70
128
 71
48
 72
49
 73
5
 74
4
 0
VERTEX
 8
ZYLINDER_1
 10
0
 20
0
 30
0
 70
128
 71
28
 72
29
 73
33
 74
32
 0
VERTEX
 8
ZYLINDER_1
 10
0
 20
0
 30
0
 70
128
 71
30
 72
2
 73
34
 74
34
 0
VERTEX
 8
ZYLINDER_1
 10
0
 20
0
 30
0
 70
128
 71
1
 72
2
 73
6
 74
6
 0
VERTEX
 8
ZYLINDER_1
 10
0
 20
0
 30
0
 70
128
 71
32
 72
33
 73
37
 74
36
 0
VERTEX
 8
ZYLINDER_1
 10
0
 20
0
 30
0
 70
128
 71
34
 72
2
 73
38
 74
38
 0
SEQEND
 0
POLYLINE
 8
K_RPER
 66
1
 10
0.0
 20
0.0
 30
0.0
 70
64
 71
8
 72
6
 0
VERTEX
 8
K_RPER
 10
-5.935
 20
-9.7176
 30
40.8625
 70
192
 0
VERTEX
 8
K_RPER
 10
-5.935
 20
-9.7176
 30
41.2625
 70
192
 0
VERTEX
 8
K_RPER
 10
-5.935
 20
-15.3176
 30
40.8625
 70
192
 0
VERTEX
 8
K_RPER
 10
-5.935
 20
-15.3176
 30
41.2625
 70
192
 0
VERTEX
 8
K_RPER
 10
2.065
 20
-15.3176
 30
40.8625
 70
192
 0
VERTEX
 8
K_RPER
 10
2.065
 20
-15.3176
 30
41.2625
 70
192
 0
VERTEX
 8
K_RPER
 10
2.065
 20
-9.7176
 30
40.8625
 70
192
 0
VERTEX
 8
K_RPER
 10
2.065
 20
-9.7176
 30
41.2625
 70
192
 0
VERTEX
 8
K_RPER
 10
0
 20
0
 30
0
 70
128
 71
1
 72
2
 73
4
 74
3
 0
VERTEX
 8
K_RPER
 10
0
 20
0
 30
0
 70
128
 71
3
 72
4
 73
6
 74
5
 0
VERTEX
 8
K_RPER
 10
0
 20
0
 30
0
 70
128
 71
5
 72
6
 73
8
 74
7
 0
VERTEX
 8
K_RPER
 10
0
 20
0
 30
0
 70
128
 71
7
 72
8
 73
2
 74
1
 0
VERTEX
 8
K_RPER
 10
0
 20
0
 30
0
 70
128
 71
2
 72
8
 73
6
 74
4
 0
VERTEX
 8
K_RPER
 10
0
 20
0
 30
0
 70
128
 71
7
 72
1
 73
3
 74
5
 0
SEQEND
 0
POLYLINE
 8
ZYLINDER
 66
1
 10
0.0
 20
0.0
 30
0.0
 70
64
 71
12
 72
6
 0
VERTEX
 8
ZYLINDER
 10
-1.9312
 20
-12.7199
 30
41.5143
 70
192
 0
VERTEX
 8
ZYLINDER
 10
-1.9312
 20
-12.7199
 30
42.3143
 70
192
 0
VERTEX
 8
ZYLINDER
 10
-1.758
 20
-12.6199
 30
41.5143
 70
192
 0
VERTEX
 8
ZYLINDER
 10
-1.758
 20
-12.6199
 30
42.3143
 70
192
 0
VERTEX
 8
ZYLINDER
 10
-1.758
 20
-12.4199
 30
41.5143
 70
192
 0
VERTEX
 8
ZYLINDER
 10
-1.758
 20
-12.4199
 30
42.3143
 70
192
 0
VERTEX
 8
ZYLINDER
 10
-1.9312
 20
-12.3199
 30
41.5143
 70
192
 0
VERTEX
 8
ZYLINDER
 10
-1.9312
 20
-12.3199
 30
42.3143
 70
192
 0
VERTEX
 8
ZYLINDER
 10
-2.1044
 20
-12.4199
 30
41.5143
 70
192
 0
VERTEX
 8
ZYLINDER
 10
-2.1044
 20
-12.4199
 30
42.3143
 70
192
 0
VERTEX
 8
ZYLINDER
 10
-2.1044
 20
-12.6199
 30
41.5143
 70
192
 0
VERTEX
 8
ZYLINDER
 10
-2.1044
 20
-12.6199
 30
42.3143
 70
192
 0
VERTEX
 8
ZYLINDER
 10
0
 20
0
 30
0
 70
128
 71
1
 72
2
 73
4
 74
3
 0
VERTEX
 8
ZYLINDER
 10
0
 20
0
 30
0
 70
128
 71
3
 72
4
 73
6
 74
5
 0
VERTEX
 8
ZYLINDER
 10
0
 20
0
 30
0
 70
128
 71
5
 72
6
 73
8
 74
7
 0
VERTEX
 8
ZYLINDER
 10
0
 20
0
 30
0
 70
128
 71
7
 72
8
 73
10
 74
9
 0
VERTEX
 8
ZYLINDER
 10
0
 20
0
 30
0
 70
128
 71
9
 72
10
 73
12
 74
11
 0
VERTEX
 8
ZYLINDER
 10
0
 20
0
 30
0
 70
128
 71
11
 72
12
 73
2
 74
1
 0
SEQEND
 0
POLYLINE
 8
D_SEN_127
 66
1
 10
0.0
 20
0.0
 30
0.0
 70
64
 71
8
 72
5
 0
VERTEX
 8
D_SEN_127
 10
-5.3183
 20
-14.6213
 30
40.8368
 70
192
 0
VERTEX
 8
D_SEN_127
 10
-5.3183
 20
-14.7173
 30
40.8368
 70
192
 0
VERTEX
 8
D_SEN_127
 10
-5.2303
 20
-14.7173
 30
40.8368
 70
192
 0
VERTEX
 8
D_SEN_127
 10
-5.2303
 20
-14.6213
 30
40.8368
 70
192
 0
VERTEX
 8
D_SEN_127
 10
-5.3183
 20
-14.6213
 30
40.8625
 70
192
 0
VERTEX
 8
D_SEN_127
 10
-5.3183
 20
-14.7173
 30
40.8625
 70
192
 0
VERTEX
 8
D_SEN_127
 10
-5.2303
 20
-14.7173
 30
40.8625
 70
192
 0
VERTEX
 8
D_SEN_127
 10
-5.2303
 20
-14.6213
 30
40.8625
 70
192
 0
VERTEX
 8
D_SEN_127
 10
0
 20
0
 30
0
 70
128
 71
6
 72
2
 73
1
 74
5
 0
VERTEX
 8
D_SEN_127
 10
0
 20
0
 30
0
 70
128
 71
7
 72
3
 73
2
 74
6
 0
VERTEX
 8
D_SEN_127
 10
0
 20
0
 30
0
 70
128
 71
8
 72
4
 73
3
 74
7
 0
VERTEX
 8
D_SEN_127
 10
0
 20
0
 30
0
 70
128
 71
5
 72
1
 73
4
 74
8
 0
VERTEX
 8
D_SEN_127
 10
0
 20
0
 30
0
 70
128
 71
4
 72
1
 73
2
 74
3
 0
SEQEND
 0
POLYLINE
 8
D_SEN_126
 66
1
 10
0.0
 20
0.0
 30
0.0
 70
64
 71
8
 72
5
 0
VERTEX
 8
D_SEN_126
 10
-5.3183
 20
-13.8993
 30
40.8368
 70
192
 0
VERTEX
 8
D_SEN_126
 10
-5.3183
 20
-13.9953
 30
40.8368
 70
192
 0
VERTEX
 8
D_SEN_126
 10
-5.2303
 20
-13.9953
 30
40.8368
 70
192
 0
VERTEX
 8
D_SEN_126
 10
-5.2303
 20
-13.8993
 30
40.8368
 70
192
 0
VERTEX
 8
D_SEN_126
 10
-5.3183
 20
-13.8993
 30
40.8625
 70
192
 0
VERTEX
 8
D_SEN_126
 10
-5.3183
 20
-13.9953
 30
40.8625
 70
192
 0
VERTEX
 8
D_SEN_126
 10
-5.2303
 20
-13.9953
 30
40.8625
 70
192
 0
VERTEX
 8
D_SEN_126
 10
-5.2303
 20
-13.8993
 30
40.8625
 70
192
 0
VERTEX
 8
D_SEN_126
 10
0
 20
0
 30
0
 70
128
 71
6
 72
2
 73
1
 74
5
 0
VERTEX
 8
D_SEN_126
 10
0
 20
0
 30
0
 70
128
 71
7
 72
3
 73
2
 74
6
 0
VERTEX
 8
D_SEN_126
 10
0
 20
0
 30
0
 70
128
 71
8
 72
4
 73
3
 74
7
 0
VERTEX
 8
D_SEN_126
 10
0
 20
0
 30
0
 70
128
 71
5
 72
1
 73
4
 74
8
 0
VERTEX
 8
D_SEN_126
 10
0
 20
0
 30
0
 70
128
 71
4
 72
1
 73
2
 74
3
 0
SEQEND
 0
POLYLINE
 8
D_SEN_125
 66
1
 10
0.0
 20
0.0
 30
0.0
 70
64
 71
8
 72
5
 0
VERTEX
 8
D_SEN_125
 10
-5.3183
 20
-13.191
 30
40.8368
 70
192
 0
VERTEX
 8
D_SEN_125
 10
-5.3183
 20
-13.287
 30
40.8368
 70
192
 0
VERTEX
 8
D_SEN_125
 10
-5.2303
 20
-13.287
 30
40.8368
 70
192
 0
VERTEX
 8
D_SEN_125
 10
-5.2303
 20
-13.191
 30
40.8368
 70
192
 0
VERTEX
 8
D_SEN_125
 10
-5.3183
 20
-13.191
 30
40.8625
 70
192
 0
VERTEX
 8
D_SEN_125
 10
-5.3183
 20
-13.287
 30
40.8625
 70
192
 0
VERTEX
 8
D_SEN_125
 10
-5.2303
 20
-13.287
 30
40.8625
 70
192
 0
VERTEX
 8
D_SEN_125
 10
-5.2303
 20
-13.191
 30
40.8625
 70
192
 0
VERTEX
 8
D_SEN_125
 10
0
 20
0
 30
0
 70
128
 71
6
 72
2
 73
1
 74
5
 0
VERTEX
 8
D_SEN_125
 10
0
 20
0
 30
0
 70
128
 71
7
 72
3
 73
2
 74
6
 0
VERTEX
 8
D_SEN_125
 10
0
 20
0
 30
0
 70
128
 71
8
 72
4
 73
3
 74
7
 0
VERTEX
 8
D_SEN_125
 10
0
 20
0
 30
0
 70
128
 71
5
 72
1
 73
4
 74
8
 0
VERTEX
 8
D_SEN_125
 10
0
 20
0
 30
0
 70
128
 71
4
 72
1
 73
2
 74
3
 0
SEQEND
 0
POLYLINE
 8
D_SEN_124
 66
1
 10
0.0
 20
0.0
 30
0.0
 70
64
 71
8
 72
5
 0
VERTEX
 8
D_SEN_124
 10
-5.3183
 20
-12.4554
 30
40.8368
 70
192
 0
VERTEX
 8
D_SEN_124
 10
-5.3183
 20
-12.5514
 30
40.8368
 70
192
 0
VERTEX
 8
D_SEN_124
 10
-5.2303
 20
-12.5514
 30
40.8368
 70
192
 0
VERTEX
 8
D_SEN_124
 10
-5.2303
 20
-12.4554
 30
40.8368
 70
192
 0
VERTEX
 8
D_SEN_124
 10
-5.3183
 20
-12.4554
 30
40.8625
 70
192
 0
VERTEX
 8
D_SEN_124
 10
-5.3183
 20
-12.5514
 30
40.8625
 70
192
 0
VERTEX
 8
D_SEN_124
 10
-5.2303
 20
-12.5514
 30
40.8625
 70
192
 0
VERTEX
 8
D_SEN_124
 10
-5.2303
 20
-12.4554
 30
40.8625
 70
192
 0
VERTEX
 8
D_SEN_124
 10
0
 20
0
 30
0
 70
128
 71
6
 72
2
 73
1
 74
5
 0
VERTEX
 8
D_SEN_124
 10
0
 20
0
 30
0
 70
128
 71
7
 72
3
 73
2
 74
6
 0
VERTEX
 8
D_SEN_124
 10
0
 20
0
 30
0
 70
128
 71
8
 72
4
 73
3
 74
7
 0
VERTEX
 8
D_SEN_124
 10
0
 20
0
 30
0
 70
128
 71
5
 72
1
 73
4
 74
8
 0
VERTEX
 8
D_SEN_124
 10
0
 20
0
 30
0
 70
128
 71
4
 72
1
 73
2
 74
3
 0
SEQEND
 0
POLYLINE
 8
D_SEN_123
 66
1
 10
0.0
 20
0.0
 30
0.0
 70
64
 71
8
 72
5
 0
VERTEX
 8
D_SEN_123
 10
-5.3183
 20
-11.7335
 30
40.8368
 70
192
 0
VERTEX
 8
D_SEN_123
 10
-5.3183
 20
-11.8295
 30
40.8368
 70
192
 0
VERTEX
 8
D_SEN_123
 10
-5.2303
 20
-11.8295
 30
40.8368
 70
192
 0
VERTEX
 8
D_SEN_123
 10
-5.2303
 20
-11.7335
 30
40.8368
 70
192
 0
VERTEX
 8
D_SEN_123
 10
-5.3183
 20
-11.7335
 30
40.8625
 70
192
 0
VERTEX
 8
D_SEN_123
 10
-5.3183
 20
-11.8295
 30
40.8625
 70
192
 0
VERTEX
 8
D_SEN_123
 10
-5.2303
 20
-11.8295
 30
40.8625
 70
192
 0
VERTEX
 8
D_SEN_123
 10
-5.2303
 20
-11.7335
 30
40.8625
 70
192
 0
VERTEX
 8
D_SEN_123
 10
0
 20
0
 30
0
 70
128
 71
6
 72
2
 73
1
 74
5
 0
VERTEX
 8
D_SEN_123
 10
0
 20
0
 30
0
 70
128
 71
7
 72
3
 73
2
 74
6
 0
VERTEX
 8
D_SEN_123
 10
0
 20
0
 30
0
 70
128
 71
8
 72
4
 73
3
 74
7
 0
VERTEX
 8
D_SEN_123
 10
0
 20
0
 30
0
 70
128
 71
5
 72
1
 73
4
 74
8
 0
VERTEX
 8
D_SEN_123
 10
0
 20
0
 30
0
 70
128
 71
4
 72
1
 73
2
 74
3
 0
SEQEND
 0
POLYLINE
 8
D_SEN_122
 66
1
 10
0.0
 20
0.0
 30
0.0
 70
64
 71
8
 72
5
 0
VERTEX
 8
D_SEN_122
 10
-5.3183
 20
-10.9979
 30
40.8368
 70
192
 0
VERTEX
 8
D_SEN_122
 10
-5.3183
 20
-11.0939
 30
40.8368
 70
192
 0
VERTEX
 8
D_SEN_122
 10
-5.2303
 20
-11.0939
 30
40.8368
 70
192
 0
VERTEX
 8
D_SEN_122
 10
-5.2303
 20
-10.9979
 30
40.8368
 70
192
 0
VERTEX
 8
D_SEN_122
 10
-5.3183
 20
-10.9979
 30
40.8625
 70
192
 0
VERTEX
 8
D_SEN_122
 10
-5.3183
 20
-11.0939
 30
40.8625
 70
192
 0
VERTEX
 8
D_SEN_122
 10
-5.2303
 20
-11.0939
 30
40.8625
 70
192
 0
VERTEX
 8
D_SEN_122
 10
-5.2303
 20
-10.9979
 30
40.8625
 70
192
 0
VERTEX
 8
D_SEN_122
 10
0
 20
0
 30
0
 70
128
 71
6
 72
2
 73
1
 74
5
 0
VERTEX
 8
D_SEN_122
 10
0
 20
0
 30
0
 70
128
 71
7
 72
3
 73
2
 74
6
 0
VERTEX
 8
D_SEN_122
 10
0
 20
0
 30
0
 70
128
 71
8
 72
4
 73
3
 74
7
 0
VERTEX
 8
D_SEN_122
 10
0
 20
0
 30
0
 70
128
 71
5
 72
1
 73
4
 74
8
 0
VERTEX
 8
D_SEN_122
 10
0
 20
0
 30
0
 70
128
 71
4
 72
1
 73
2
 74
3
 0
SEQEND
 0
POLYLINE
 8
D_SEN_121
 66
1
 10
0.0
 20
0.0
 30
0.0
 70
64
 71
8
 72
5
 0
VERTEX
 8
D_SEN_121
 10
-5.3183
 20
-10.2896
 30
40.8368
 70
192
 0
VERTEX
 8
D_SEN_121
 10
-5.3183
 20
-10.3856
 30
40.8368
 70
192
 0
VERTEX
 8
D_SEN_121
 10
-5.2303
 20
-10.3856
 30
40.8368
 70
192
 0
VERTEX
 8
D_SEN_121
 10
-5.2303
 20
-10.2896
 30
40.8368
 70
192
 0
VERTEX
 8
D_SEN_121
 10
-5.3183
 20
-10.2896
 30
40.8625
 70
192
 0
VERTEX
 8
D_SEN_121
 10
-5.3183
 20
-10.3856
 30
40.8625
 70
192
 0
VERTEX
 8
D_SEN_121
 10
-5.2303
 20
-10.3856
 30
40.8625
 70
192
 0
VERTEX
 8
D_SEN_121
 10
-5.2303
 20
-10.2896
 30
40.8625
 70
192
 0
VERTEX
 8
D_SEN_121
 10
0
 20
0
 30
0
 70
128
 71
6
 72
2
 73
1
 74
5
 0
VERTEX
 8
D_SEN_121
 10
0
 20
0
 30
0
 70
128
 71
7
 72
3
 73
2
 74
6
 0
VERTEX
 8
D_SEN_121
 10
0
 20
0
 30
0
 70
128
 71
8
 72
4
 73
3
 74
7
 0
VERTEX
 8
D_SEN_121
 10
0
 20
0
 30
0
 70
128
 71
5
 72
1
 73
4
 74
8
 0
VERTEX
 8
D_SEN_121
 10
0
 20
0
 30
0
 70
128
 71
4
 72
1
 73
2
 74
3
 0
SEQEND
 0
POLYLINE
 8
D_SEN_120
 66
1
 10
0.0
 20
0.0
 30
0.0
 70
64
 71
8
 72
5
 0
VERTEX
 8
D_SEN_120
 10
-4.6549
 20
-14.6213
 30
40.8368
 70
192
 0
VERTEX
 8
D_SEN_120
 10
-4.6549
 20
-14.7173
 30
40.8368
 70
192
 0
VERTEX
 8
D_SEN_120
 10
-4.5669
 20
-14.7173
 30
40.8368
 70
192
 0
VERTEX
 8
D_SEN_120
 10
-4.5669
 20
-14.6213
 30
40.8368
 70
192
 0
VERTEX
 8
D_SEN_120
 10
-4.6549
 20
-14.6213
 30
40.8625
 70
192
 0
VERTEX
 8
D_SEN_120
 10
-4.6549
 20
-14.7173
 30
40.8625
 70
192
 0
VERTEX
 8
D_SEN_120
 10
-4.5669
 20
-14.7173
 30
40.8625
 70
192
 0
VERTEX
 8
D_SEN_120
 10
-4.5669
 20
-14.6213
 30
40.8625
 70
192
 0
VERTEX
 8
D_SEN_120
 10
0
 20
0
 30
0
 70
128
 71
6
 72
2
 73
1
 74
5
 0
VERTEX
 8
D_SEN_120
 10
0
 20
0
 30
0
 70
128
 71
7
 72
3
 73
2
 74
6
 0
VERTEX
 8
D_SEN_120
 10
0
 20
0
 30
0
 70
128
 71
8
 72
4
 73
3
 74
7
 0
VERTEX
 8
D_SEN_120
 10
0
 20
0
 30
0
 70
128
 71
5
 72
1
 73
4
 74
8
 0
VERTEX
 8
D_SEN_120
 10
0
 20
0
 30
0
 70
128
 71
4
 72
1
 73
2
 74
3
 0
SEQEND
 0
POLYLINE
 8
D_SEN_119
 66
1
 10
0.0
 20
0.0
 30
0.0
 70
64
 71
8
 72
5
 0
VERTEX
 8
D_SEN_119
 10
-4.6549
 20
-13.8993
 30
40.8368
 70
192
 0
VERTEX
 8
D_SEN_119
 10
-4.6549
 20
-13.9953
 30
40.8368
 70
192
 0
VERTEX
 8
D_SEN_119
 10
-4.5669
 20
-13.9953
 30
40.8368
 70
192
 0
VERTEX
 8
D_SEN_119
 10
-4.5669
 20
-13.8993
 30
40.8368
 70
192
 0
VERTEX
 8
D_SEN_119
 10
-4.6549
 20
-13.8993
 30
40.8625
 70
192
 0
VERTEX
 8
D_SEN_119
 10
-4.6549
 20
-13.9953
 30
40.8625
 70
192
 0
VERTEX
 8
D_SEN_119
 10
-4.5669
 20
-13.9953
 30
40.8625
 70
192
 0
VERTEX
 8
D_SEN_119
 10
-4.5669
 20
-13.8993
 30
40.8625
 70
192
 0
VERTEX
 8
D_SEN_119
 10
0
 20
0
 30
0
 70
128
 71
6
 72
2
 73
1
 74
5
 0
VERTEX
 8
D_SEN_119
 10
0
 20
0
 30
0
 70
128
 71
7
 72
3
 73
2
 74
6
 0
VERTEX
 8
D_SEN_119
 10
0
 20
0
 30
0
 70
128
 71
8
 72
4
 73
3
 74
7
 0
VERTEX
 8
D_SEN_119
 10
0
 20
0
 30
0
 70
128
 71
5
 72
1
 73
4
 74
8
 0
VERTEX
 8
D_SEN_119
 10
0
 20
0
 30
0
 70
128
 71
4
 72
1
 73
2
 74
3
 0
SEQEND
 0
POLYLINE
 8
D_SEN_118
 66
1
 10
0.0
 20
0.0
 30
0.0
 70
64
 71
8
 72
5
 0
VERTEX
 8
D_SEN_118
 10
-4.6549
 20
-13.191
 30
40.8368
 70
192
 0
VERTEX
 8
D_SEN_118
 10
-4.6549
 20
-13.287
 30
40.8368
 70
192
 0
VERTEX
 8
D_SEN_118
 10
-4.5669
 20
-13.287
 30
40.8368
 70
192
 0
VERTEX
 8
D_SEN_118
 10
-4.5669
 20
-13.191
 30
40.8368
 70
192
 0
VERTEX
 8
D_SEN_118
 10
-4.6549
 20
-13.191
 30
40.8625
 70
192
 0
VERTEX
 8
D_SEN_118
 10
-4.6549
 20
-13.287
 30
40.8625
 70
192
 0
VERTEX
 8
D_SEN_118
 10
-4.5669
 20
-13.287
 30
40.8625
 70
192
 0
VERTEX
 8
D_SEN_118
 10
-4.5669
 20
-13.191
 30
40.8625
 70
192
 0
VERTEX
 8
D_SEN_118
 10
0
 20
0
 30
0
 70
128
 71
6
 72
2
 73
1
 74
5
 0
VERTEX
 8
D_SEN_118
 10
0
 20
0
 30
0
 70
128
 71
7
 72
3
 73
2
 74
6
 0
VERTEX
 8
D_SEN_118
 10
0
 20
0
 30
0
 70
128
 71
8
 72
4
 73
3
 74
7
 0
VERTEX
 8
D_SEN_118
 10
0
 20
0
 30
0
 70
128
 71
5
 72
1
 73
4
 74
8
 0
VERTEX
 8
D_SEN_118
 10
0
 20
0
 30
0
 70
128
 71
4
 72
1
 73
2
 74
3
 0
SEQEND
 0
POLYLINE
 8
D_SEN_117
 66
1
 10
0.0
 20
0.0
 30
0.0
 70
64
 71
8
 72
5
 0
VERTEX
 8
D_SEN_117
 10
-4.6549
 20
-12.4554
 30
40.8368
 70
192
 0
VERTEX
 8
D_SEN_117
 10
-4.6549
 20
-12.5514
 30
40.8368
 70
192
 0
VERTEX
 8
D_SEN_117
 10
-4.5669
 20
-12.5514
 30
40.8368
 70
192
 0
VERTEX
 8
D_SEN_117
 10
-4.5669
 20
-12.4554
 30
40.8368
 70
192
 0
VERTEX
 8
D_SEN_117
 10
-4.6549
 20
-12.4554
 30
40.8625
 70
192
 0
VERTEX
 8
D_SEN_117
 10
-4.6549
 20
-12.5514
 30
40.8625
 70
192
 0
VERTEX
 8
D_SEN_117
 10
-4.5669
 20
-12.5514
 30
40.8625
 70
192
 0
VERTEX
 8
D_SEN_117
 10
-4.5669
 20
-12.4554
 30
40.8625
 70
192
 0
VERTEX
 8
D_SEN_117
 10
0
 20
0
 30
0
 70
128
 71
6
 72
2
 73
1
 74
5
 0
VERTEX
 8
D_SEN_117
 10
0
 20
0
 30
0
 70
128
 71
7
 72
3
 73
2
 74
6
 0
VERTEX
 8
D_SEN_117
 10
0
 20
0
 30
0
 70
128
 71
8
 72
4
 73
3
 74
7
 0
VERTEX
 8
D_SEN_117
 10
0
 20
0
 30
0
 70
128
 71
5
 72
1
 73
4
 74
8
 0
VERTEX
 8
D_SEN_117
 10
0
 20
0
 30
0
 70
128
 71
4
 72
1
 73
2
 74
3
 0
SEQEND
 0
POLYLINE
 8
D_SEN_116
 66
1
 10
0.0
 20
0.0
 30
0.0
 70
64
 71
8
 72
5
 0
VERTEX
 8
D_SEN_116
 10
-4.6549
 20
-11.7335
 30
40.8368
 70
192
 0
VERTEX
 8
D_SEN_116
 10
-4.6549
 20
-11.8295
 30
40.8368
 70
192
 0
VERTEX
 8
D_SEN_116
 10
-4.5669
 20
-11.8295
 30
40.8368
 70
192
 0
VERTEX
 8
D_SEN_116
 10
-4.5669
 20
-11.7335
 30
40.8368
 70
192
 0
VERTEX
 8
D_SEN_116
 10
-4.6549
 20
-11.7335
 30
40.8625
 70
192
 0
VERTEX
 8
D_SEN_116
 10
-4.6549
 20
-11.8295
 30
40.8625
 70
192
 0
VERTEX
 8
D_SEN_116
 10
-4.5669
 20
-11.8295
 30
40.8625
 70
192
 0
VERTEX
 8
D_SEN_116
 10
-4.5669
 20
-11.7335
 30
40.8625
 70
192
 0
VERTEX
 8
D_SEN_116
 10
0
 20
0
 30
0
 70
128
 71
6
 72
2
 73
1
 74
5
 0
VERTEX
 8
D_SEN_116
 10
0
 20
0
 30
0
 70
128
 71
7
 72
3
 73
2
 74
6
 0
VERTEX
 8
D_SEN_116
 10
0
 20
0
 30
0
 70
128
 71
8
 72
4
 73
3
 74
7
 0
VERTEX
 8
D_SEN_116
 10
0
 20
0
 30
0
 70
128
 71
5
 72
1
 73
4
 74
8
 0
VERTEX
 8
D_SEN_116
 10
0
 20
0
 30
0
 70
128
 71
4
 72
1
 73
2
 74
3
 0
SEQEND
 0
POLYLINE
 8
D_SEN_115
 66
1
 10
0.0
 20
0.0
 30
0.0
 70
64
 71
8
 72
5
 0
VERTEX
 8
D_SEN_115
 10
-4.6549
 20
-10.9979
 30
40.8368
 70
192
 0
VERTEX
 8
D_SEN_115
 10
-4.6549
 20
-11.0939
 30
40.8368
 70
192
 0
VERTEX
 8
D_SEN_115
 10
-4.5669
 20
-11.0939
 30
40.8368
 70
192
 0
VERTEX
 8
D_SEN_115
 10
-4.5669
 20
-10.9979
 30
40.8368
 70
192
 0
VERTEX
 8
D_SEN_115
 10
-4.6549
 20
-10.9979
 30
40.8625
 70
192
 0
VERTEX
 8
D_SEN_115
 10
-4.6549
 20
-11.0939
 30
40.8625
 70
192
 0
VERTEX
 8
D_SEN_115
 10
-4.5669
 20
-11.0939
 30
40.8625
 70
192
 0
VERTEX
 8
D_SEN_115
 10
-4.5669
 20
-10.9979
 30
40.8625
 70
192
 0
VERTEX
 8
D_SEN_115
 10
0
 20
0
 30
0
 70
128
 71
6
 72
2
 73
1
 74
5
 0
VERTEX
 8
D_SEN_115
 10
0
 20
0
 30
0
 70
128
 71
7
 72
3
 73
2
 74
6
 0
VERTEX
 8
D_SEN_115
 10
0
 20
0
 30
0
 70
128
 71
8
 72
4
 73
3
 74
7
 0
VERTEX
 8
D_SEN_115
 10
0
 20
0
 30
0
 70
128
 71
5
 72
1
 73
4
 74
8
 0
VERTEX
 8
D_SEN_115
 10
0
 20
0
 30
0
 70
128
 71
4
 72
1
 73
2
 74
3
 0
SEQEND
 0
POLYLINE
 8
D_SEN_114
 66
1
 10
0.0
 20
0.0
 30
0.0
 70
64
 71
8
 72
5
 0
VERTEX
 8
D_SEN_114
 10
-4.6549
 20
-10.2896
 30
40.8368
 70
192
 0
VERTEX
 8
D_SEN_114
 10
-4.6549
 20
-10.3856
 30
40.8368
 70
192
 0
VERTEX
 8
D_SEN_114
 10
-4.5669
 20
-10.3856
 30
40.8368
 70
192
 0
VERTEX
 8
D_SEN_114
 10
-4.5669
 20
-10.2896
 30
40.8368
 70
192
 0
VERTEX
 8
D_SEN_114
 10
-4.6549
 20
-10.2896
 30
40.8625
 70
192
 0
VERTEX
 8
D_SEN_114
 10
-4.6549
 20
-10.3856
 30
40.8625
 70
192
 0
VERTEX
 8
D_SEN_114
 10
-4.5669
 20
-10.3856
 30
40.8625
 70
192
 0
VERTEX
 8
D_SEN_114
 10
-4.5669
 20
-10.2896
 30
40.8625
 70
192
 0
VERTEX
 8
D_SEN_114
 10
0
 20
0
 30
0
 70
128
 71
6
 72
2
 73
1
 74
5
 0
VERTEX
 8
D_SEN_114
 10
0
 20
0
 30
0
 70
128
 71
7
 72
3
 73
2
 74
6
 0
VERTEX
 8
D_SEN_114
 10
0
 20
0
 30
0
 70
128
 71
8
 72
4
 73
3
 74
7
 0
VERTEX
 8
D_SEN_114
 10
0
 20
0
 30
0
 70
128
 71
5
 72
1
 73
4
 74
8
 0
VERTEX
 8
D_SEN_114
 10
0
 20
0
 30
0
 70
128
 71
4
 72
1
 73
2
 74
3
 0
SEQEND
 0
POLYLINE
 8
D_SEN_113
 66
1
 10
0.0
 20
0.0
 30
0.0
 70
64
 71
8
 72
5
 0
VERTEX
 8
D_SEN_113
 10
-3.9916
 20
-14.6213
 30
40.8368
 70
192
 0
VERTEX
 8
D_SEN_113
 10
-3.9916
 20
-14.7173
 30
40.8368
 70
192
 0
VERTEX
 8
D_SEN_113
 10
-3.9036
 20
-14.7173
 30
40.8368
 70
192
 0
VERTEX
 8
D_SEN_113
 10
-3.9036
 20
-14.6213
 30
40.8368
 70
192
 0
VERTEX
 8
D_SEN_113
 10
-3.9916
 20
-14.6213
 30
40.8625
 70
192
 0
VERTEX
 8
D_SEN_113
 10
-3.9916
 20
-14.7173
 30
40.8625
 70
192
 0
VERTEX
 8
D_SEN_113
 10
-3.9036
 20
-14.7173
 30
40.8625
 70
192
 0
VERTEX
 8
D_SEN_113
 10
-3.9036
 20
-14.6213
 30
40.8625
 70
192
 0
VERTEX
 8
D_SEN_113
 10
0
 20
0
 30
0
 70
128
 71
6
 72
2
 73
1
 74
5
 0
VERTEX
 8
D_SEN_113
 10
0
 20
0
 30
0
 70
128
 71
7
 72
3
 73
2
 74
6
 0
VERTEX
 8
D_SEN_113
 10
0
 20
0
 30
0
 70
128
 71
8
 72
4
 73
3
 74
7
 0
VERTEX
 8
D_SEN_113
 10
0
 20
0
 30
0
 70
128
 71
5
 72
1
 73
4
 74
8
 0
VERTEX
 8
D_SEN_113
 10
0
 20
0
 30
0
 70
128
 71
4
 72
1
 73
2
 74
3
 0
SEQEND
 0
POLYLINE
 8
D_SEN_112
 66
1
 10
0.0
 20
0.0
 30
0.0
 70
64
 71
8
 72
5
 0
VERTEX
 8
D_SEN_112
 10
-3.9916
 20
-13.8993
 30
40.8368
 70
192
 0
VERTEX
 8
D_SEN_112
 10
-3.9916
 20
-13.9953
 30
40.8368
 70
192
 0
VERTEX
 8
D_SEN_112
 10
-3.9036
 20
-13.9953
 30
40.8368
 70
192
 0
VERTEX
 8
D_SEN_112
 10
-3.9036
 20
-13.8993
 30
40.8368
 70
192
 0
VERTEX
 8
D_SEN_112
 10
-3.9916
 20
-13.8993
 30
40.8625
 70
192
 0
VERTEX
 8
D_SEN_112
 10
-3.9916
 20
-13.9953
 30
40.8625
 70
192
 0
VERTEX
 8
D_SEN_112
 10
-3.9036
 20
-13.9953
 30
40.8625
 70
192
 0
VERTEX
 8
D_SEN_112
 10
-3.9036
 20
-13.8993
 30
40.8625
 70
192
 0
VERTEX
 8
D_SEN_112
 10
0
 20
0
 30
0
 70
128
 71
6
 72
2
 73
1
 74
5
 0
VERTEX
 8
D_SEN_112
 10
0
 20
0
 30
0
 70
128
 71
7
 72
3
 73
2
 74
6
 0
VERTEX
 8
D_SEN_112
 10
0
 20
0
 30
0
 70
128
 71
8
 72
4
 73
3
 74
7
 0
VERTEX
 8
D_SEN_112
 10
0
 20
0
 30
0
 70
128
 71
5
 72
1
 73
4
 74
8
 0
VERTEX
 8
D_SEN_112
 10
0
 20
0
 30
0
 70
128
 71
4
 72
1
 73
2
 74
3
 0
SEQEND
 0
POLYLINE
 8
D_SEN_111
 66
1
 10
0.0
 20
0.0
 30
0.0
 70
64
 71
8
 72
5
 0
VERTEX
 8
D_SEN_111
 10
-3.9916
 20
-13.191
 30
40.8368
 70
192
 0
VERTEX
 8
D_SEN_111
 10
-3.9916
 20
-13.287
 30
40.8368
 70
192
 0
VERTEX
 8
D_SEN_111
 10
-3.9036
 20
-13.287
 30
40.8368
 70
192
 0
VERTEX
 8
D_SEN_111
 10
-3.9036
 20
-13.191
 30
40.8368
 70
192
 0
VERTEX
 8
D_SEN_111
 10
-3.9916
 20
-13.191
 30
40.8625
 70
192
 0
VERTEX
 8
D_SEN_111
 10
-3.9916
 20
-13.287
 30
40.8625
 70
192
 0
VERTEX
 8
D_SEN_111
 10
-3.9036
 20
-13.287
 30
40.8625
 70
192
 0
VERTEX
 8
D_SEN_111
 10
-3.9036
 20
-13.191
 30
40.8625
 70
192
 0
VERTEX
 8
D_SEN_111
 10
0
 20
0
 30
0
 70
128
 71
6
 72
2
 73
1
 74
5
 0
VERTEX
 8
D_SEN_111
 10
0
 20
0
 30
0
 70
128
 71
7
 72
3
 73
2
 74
6
 0
VERTEX
 8
D_SEN_111
 10
0
 20
0
 30
0
 70
128
 71
8
 72
4
 73
3
 74
7
 0
VERTEX
 8
D_SEN_111
 10
0
 20
0
 30
0
 70
128
 71
5
 72
1
 73
4
 74
8
 0
VERTEX
 8
D_SEN_111
 10
0
 20
0
 30
0
 70
128
 71
4
 72
1
 73
2
 74
3
 0
SEQEND
 0
POLYLINE
 8
D_SEN_110
 66
1
 10
0.0
 20
0.0
 30
0.0
 70
64
 71
8
 72
5
 0
VERTEX
 8
D_SEN_110
 10
-3.9916
 20
-12.4554
 30
40.8368
 70
192
 0
VERTEX
 8
D_SEN_110
 10
-3.9916
 20
-12.5514
 30
40.8368
 70
192
 0
VERTEX
 8
D_SEN_110
 10
-3.9036
 20
-12.5514
 30
40.8368
 70
192
 0
VERTEX
 8
D_SEN_110
 10
-3.9036
 20
-12.4554
 30
40.8368
 70
192
 0
VERTEX
 8
D_SEN_110
 10
-3.9916
 20
-12.4554
 30
40.8625
 70
192
 0
VERTEX
 8
D_SEN_110
 10
-3.9916
 20
-12.5514
 30
40.8625
 70
192
 0
VERTEX
 8
D_SEN_110
 10
-3.9036
 20
-12.5514
 30
40.8625
 70
192
 0
VERTEX
 8
D_SEN_110
 10
-3.9036
 20
-12.4554
 30
40.8625
 70
192
 0
VERTEX
 8
D_SEN_110
 10
0
 20
0
 30
0
 70
128
 71
6
 72
2
 73
1
 74
5
 0
VERTEX
 8
D_SEN_110
 10
0
 20
0
 30
0
 70
128
 71
7
 72
3
 73
2
 74
6
 0
VERTEX
 8
D_SEN_110
 10
0
 20
0
 30
0
 70
128
 71
8
 72
4
 73
3
 74
7
 0
VERTEX
 8
D_SEN_110
 10
0
 20
0
 30
0
 70
128
 71
5
 72
1
 73
4
 74
8
 0
VERTEX
 8
D_SEN_110
 10
0
 20
0
 30
0
 70
128
 71
4
 72
1
 73
2
 74
3
 0
SEQEND
 0
POLYLINE
 8
D_SEN_109
 66
1
 10
0.0
 20
0.0
 30
0.0
 70
64
 71
8
 72
5
 0
VERTEX
 8
D_SEN_109
 10
-3.9916
 20
-11.7335
 30
40.8368
 70
192
 0
VERTEX
 8
D_SEN_109
 10
-3.9916
 20
-11.8295
 30
40.8368
 70
192
 0
VERTEX
 8
D_SEN_109
 10
-3.9036
 20
-11.8295
 30
40.8368
 70
192
 0
VERTEX
 8
D_SEN_109
 10
-3.9036
 20
-11.7335
 30
40.8368
 70
192
 0
VERTEX
 8
D_SEN_109
 10
-3.9916
 20
-11.7335
 30
40.8625
 70
192
 0
VERTEX
 8
D_SEN_109
 10
-3.9916
 20
-11.8295
 30
40.8625
 70
192
 0
VERTEX
 8
D_SEN_109
 10
-3.9036
 20
-11.8295
 30
40.8625
 70
192
 0
VERTEX
 8
D_SEN_109
 10
-3.9036
 20
-11.7335
 30
40.8625
 70
192
 0
VERTEX
 8
D_SEN_109
 10
0
 20
0
 30
0
 70
128
 71
6
 72
2
 73
1
 74
5
 0
VERTEX
 8
D_SEN_109
 10
0
 20
0
 30
0
 70
128
 71
7
 72
3
 73
2
 74
6
 0
VERTEX
 8
D_SEN_109
 10
0
 20
0
 30
0
 70
128
 71
8
 72
4
 73
3
 74
7
 0
VERTEX
 8
D_SEN_109
 10
0
 20
0
 30
0
 70
128
 71
5
 72
1
 73
4
 74
8
 0
VERTEX
 8
D_SEN_109
 10
0
 20
0
 30
0
 70
128
 71
4
 72
1
 73
2
 74
3
 0
SEQEND
 0
POLYLINE
 8
D_SEN_108
 66
1
 10
0.0
 20
0.0
 30
0.0
 70
64
 71
8
 72
5
 0
VERTEX
 8
D_SEN_108
 10
-3.9916
 20
-10.9979
 30
40.8368
 70
192
 0
VERTEX
 8
D_SEN_108
 10
-3.9916
 20
-11.0939
 30
40.8368
 70
192
 0
VERTEX
 8
D_SEN_108
 10
-3.9036
 20
-11.0939
 30
40.8368
 70
192
 0
VERTEX
 8
D_SEN_108
 10
-3.9036
 20
-10.9979
 30
40.8368
 70
192
 0
VERTEX
 8
D_SEN_108
 10
-3.9916
 20
-10.9979
 30
40.8625
 70
192
 0
VERTEX
 8
D_SEN_108
 10
-3.9916
 20
-11.0939
 30
40.8625
 70
192
 0
VERTEX
 8
D_SEN_108
 10
-3.9036
 20
-11.0939
 30
40.8625
 70
192
 0
VERTEX
 8
D_SEN_108
 10
-3.9036
 20
-10.9979
 30
40.8625
 70
192
 0
VERTEX
 8
D_SEN_108
 10
0
 20
0
 30
0
 70
128
 71
6
 72
2
 73
1
 74
5
 0
VERTEX
 8
D_SEN_108
 10
0
 20
0
 30
0
 70
128
 71
7
 72
3
 73
2
 74
6
 0
VERTEX
 8
D_SEN_108
 10
0
 20
0
 30
0
 70
128
 71
8
 72
4
 73
3
 74
7
 0
VERTEX
 8
D_SEN_108
 10
0
 20
0
 30
0
 70
128
 71
5
 72
1
 73
4
 74
8
 0
VERTEX
 8
D_SEN_108
 10
0
 20
0
 30
0
 70
128
 71
4
 72
1
 73
2
 74
3
 0
SEQEND
 0
POLYLINE
 8
D_SEN_107
 66
1
 10
0.0
 20
0.0
 30
0.0
 70
64
 71
8
 72
5
 0
VERTEX
 8
D_SEN_107
 10
-3.9916
 20
-10.2896
 30
40.8368
 70
192
 0
VERTEX
 8
D_SEN_107
 10
-3.9916
 20
-10.3856
 30
40.8368
 70
192
 0
VERTEX
 8
D_SEN_107
 10
-3.9036
 20
-10.3856
 30
40.8368
 70
192
 0
VERTEX
 8
D_SEN_107
 10
-3.9036
 20
-10.2896
 30
40.8368
 70
192
 0
VERTEX
 8
D_SEN_107
 10
-3.9916
 20
-10.2896
 30
40.8625
 70
192
 0
VERTEX
 8
D_SEN_107
 10
-3.9916
 20
-10.3856
 30
40.8625
 70
192
 0
VERTEX
 8
D_SEN_107
 10
-3.9036
 20
-10.3856
 30
40.8625
 70
192
 0
VERTEX
 8
D_SEN_107
 10
-3.9036
 20
-10.2896
 30
40.8625
 70
192
 0
VERTEX
 8
D_SEN_107
 10
0
 20
0
 30
0
 70
128
 71
6
 72
2
 73
1
 74
5
 0
VERTEX
 8
D_SEN_107
 10
0
 20
0
 30
0
 70
128
 71
7
 72
3
 73
2
 74
6
 0
VERTEX
 8
D_SEN_107
 10
0
 20
0
 30
0
 70
128
 71
8
 72
4
 73
3
 74
7
 0
VERTEX
 8
D_SEN_107
 10
0
 20
0
 30
0
 70
128
 71
5
 72
1
 73
4
 74
8
 0
VERTEX
 8
D_SEN_107
 10
0
 20
0
 30
0
 70
128
 71
4
 72
1
 73
2
 74
3
 0
SEQEND
 0
POLYLINE
 8
D_SEN_106
 66
1
 10
0.0
 20
0.0
 30
0.0
 70
64
 71
8
 72
5
 0
VERTEX
 8
D_SEN_106
 10
-3.3477
 20
-14.6213
 30
40.8368
 70
192
 0
VERTEX
 8
D_SEN_106
 10
-3.3477
 20
-14.7173
 30
40.8368
 70
192
 0
VERTEX
 8
D_SEN_106
 10
-3.2597
 20
-14.7173
 30
40.8368
 70
192
 0
VERTEX
 8
D_SEN_106
 10
-3.2597
 20
-14.6213
 30
40.8368
 70
192
 0
VERTEX
 8
D_SEN_106
 10
-3.3477
 20
-14.6213
 30
40.8625
 70
192
 0
VERTEX
 8
D_SEN_106
 10
-3.3477
 20
-14.7173
 30
40.8625
 70
192
 0
VERTEX
 8
D_SEN_106
 10
-3.2597
 20
-14.7173
 30
40.8625
 70
192
 0
VERTEX
 8
D_SEN_106
 10
-3.2597
 20
-14.6213
 30
40.8625
 70
192
 0
VERTEX
 8
D_SEN_106
 10
0
 20
0
 30
0
 70
128
 71
6
 72
2
 73
1
 74
5
 0
VERTEX
 8
D_SEN_106
 10
0
 20
0
 30
0
 70
128
 71
7
 72
3
 73
2
 74
6
 0
VERTEX
 8
D_SEN_106
 10
0
 20
0
 30
0
 70
128
 71
8
 72
4
 73
3
 74
7
 0
VERTEX
 8
D_SEN_106
 10
0
 20
0
 30
0
 70
128
 71
5
 72
1
 73
4
 74
8
 0
VERTEX
 8
D_SEN_106
 10
0
 20
0
 30
0
 70
128
 71
4
 72
1
 73
2
 74
3
 0
SEQEND
 0
POLYLINE
 8
D_SEN_105
 66
1
 10
0.0
 20
0.0
 30
0.0
 70
64
 71
8
 72
5
 0
VERTEX
 8
D_SEN_105
 10
-3.3477
 20
-13.8993
 30
40.8368
 70
192
 0
VERTEX
 8
D_SEN_105
 10
-3.3477
 20
-13.9953
 30
40.8368
 70
192
 0
VERTEX
 8
D_SEN_105
 10
-3.2597
 20
-13.9953
 30
40.8368
 70
192
 0
VERTEX
 8
D_SEN_105
 10
-3.2597
 20
-13.8993
 30
40.8368
 70
192
 0
VERTEX
 8
D_SEN_105
 10
-3.3477
 20
-13.8993
 30
40.8625
 70
192
 0
VERTEX
 8
D_SEN_105
 10
-3.3477
 20
-13.9953
 30
40.8625
 70
192
 0
VERTEX
 8
D_SEN_105
 10
-3.2597
 20
-13.9953
 30
40.8625
 70
192
 0
VERTEX
 8
D_SEN_105
 10
-3.2597
 20
-13.8993
 30
40.8625
 70
192
 0
VERTEX
 8
D_SEN_105
 10
0
 20
0
 30
0
 70
128
 71
6
 72
2
 73
1
 74
5
 0
VERTEX
 8
D_SEN_105
 10
0
 20
0
 30
0
 70
128
 71
7
 72
3
 73
2
 74
6
 0
VERTEX
 8
D_SEN_105
 10
0
 20
0
 30
0
 70
128
 71
8
 72
4
 73
3
 74
7
 0
VERTEX
 8
D_SEN_105
 10
0
 20
0
 30
0
 70
128
 71
5
 72
1
 73
4
 74
8
 0
VERTEX
 8
D_SEN_105
 10
0
 20
0
 30
0
 70
128
 71
4
 72
1
 73
2
 74
3
 0
SEQEND
 0
POLYLINE
 8
D_SEN_104
 66
1
 10
0.0
 20
0.0
 30
0.0
 70
64
 71
8
 72
5
 0
VERTEX
 8
D_SEN_104
 10
-3.3477
 20
-13.191
 30
40.8368
 70
192
 0
VERTEX
 8
D_SEN_104
 10
-3.3477
 20
-13.287
 30
40.8368
 70
192
 0
VERTEX
 8
D_SEN_104
 10
-3.2597
 20
-13.287
 30
40.8368
 70
192
 0
VERTEX
 8
D_SEN_104
 10
-3.2597
 20
-13.191
 30
40.8368
 70
192
 0
VERTEX
 8
D_SEN_104
 10
-3.3477
 20
-13.191
 30
40.8625
 70
192
 0
VERTEX
 8
D_SEN_104
 10
-3.3477
 20
-13.287
 30
40.8625
 70
192
 0
VERTEX
 8
D_SEN_104
 10
-3.2597
 20
-13.287
 30
40.8625
 70
192
 0
VERTEX
 8
D_SEN_104
 10
-3.2597
 20
-13.191
 30
40.8625
 70
192
 0
VERTEX
 8
D_SEN_104
 10
0
 20
0
 30
0
 70
128
 71
6
 72
2
 73
1
 74
5
 0
VERTEX
 8
D_SEN_104
 10
0
 20
0
 30
0
 70
128
 71
7
 72
3
 73
2
 74
6
 0
VERTEX
 8
D_SEN_104
 10
0
 20
0
 30
0
 70
128
 71
8
 72
4
 73
3
 74
7
 0
VERTEX
 8
D_SEN_104
 10
0
 20
0
 30
0
 70
128
 71
5
 72
1
 73
4
 74
8
 0
VERTEX
 8
D_SEN_104
 10
0
 20
0
 30
0
 70
128
 71
4
 72
1
 73
2
 74
3
 0
SEQEND
 0
POLYLINE
 8
D_SEN_103
 66
1
 10
0.0
 20
0.0
 30
0.0
 70
64
 71
8
 72
5
 0
VERTEX
 8
D_SEN_103
 10
-3.3477
 20
-12.4554
 30
40.8368
 70
192
 0
VERTEX
 8
D_SEN_103
 10
-3.3477
 20
-12.5514
 30
40.8368
 70
192
 0
VERTEX
 8
D_SEN_103
 10
-3.2597
 20
-12.5514
 30
40.8368
 70
192
 0
VERTEX
 8
D_SEN_103
 10
-3.2597
 20
-12.4554
 30
40.8368
 70
192
 0
VERTEX
 8
D_SEN_103
 10
-3.3477
 20
-12.4554
 30
40.8625
 70
192
 0
VERTEX
 8
D_SEN_103
 10
-3.3477
 20
-12.5514
 30
40.8625
 70
192
 0
VERTEX
 8
D_SEN_103
 10
-3.2597
 20
-12.5514
 30
40.8625
 70
192
 0
VERTEX
 8
D_SEN_103
 10
-3.2597
 20
-12.4554
 30
40.8625
 70
192
 0
VERTEX
 8
D_SEN_103
 10
0
 20
0
 30
0
 70
128
 71
6
 72
2
 73
1
 74
5
 0
VERTEX
 8
D_SEN_103
 10
0
 20
0
 30
0
 70
128
 71
7
 72
3
 73
2
 74
6
 0
VERTEX
 8
D_SEN_103
 10
0
 20
0
 30
0
 70
128
 71
8
 72
4
 73
3
 74
7
 0
VERTEX
 8
D_SEN_103
 10
0
 20
0
 30
0
 70
128
 71
5
 72
1
 73
4
 74
8
 0
VERTEX
 8
D_SEN_103
 10
0
 20
0
 30
0
 70
128
 71
4
 72
1
 73
2
 74
3
 0
SEQEND
 0
POLYLINE
 8
D_SEN_102
 66
1
 10
0.0
 20
0.0
 30
0.0
 70
64
 71
8
 72
5
 0
VERTEX
 8
D_SEN_102
 10
-3.3477
 20
-11.7335
 30
40.8368
 70
192
 0
VERTEX
 8
D_SEN_102
 10
-3.3477
 20
-11.8295
 30
40.8368
 70
192
 0
VERTEX
 8
D_SEN_102
 10
-3.2597
 20
-11.8295
 30
40.8368
 70
192
 0
VERTEX
 8
D_SEN_102
 10
-3.2597
 20
-11.7335
 30
40.8368
 70
192
 0
VERTEX
 8
D_SEN_102
 10
-3.3477
 20
-11.7335
 30
40.8625
 70
192
 0
VERTEX
 8
D_SEN_102
 10
-3.3477
 20
-11.8295
 30
40.8625
 70
192
 0
VERTEX
 8
D_SEN_102
 10
-3.2597
 20
-11.8295
 30
40.8625
 70
192
 0
VERTEX
 8
D_SEN_102
 10
-3.2597
 20
-11.7335
 30
40.8625
 70
192
 0
VERTEX
 8
D_SEN_102
 10
0
 20
0
 30
0
 70
128
 71
6
 72
2
 73
1
 74
5
 0
VERTEX
 8
D_SEN_102
 10
0
 20
0
 30
0
 70
128
 71
7
 72
3
 73
2
 74
6
 0
VERTEX
 8
D_SEN_102
 10
0
 20
0
 30
0
 70
128
 71
8
 72
4
 73
3
 74
7
 0
VERTEX
 8
D_SEN_102
 10
0
 20
0
 30
0
 70
128
 71
5
 72
1
 73
4
 74
8
 0
VERTEX
 8
D_SEN_102
 10
0
 20
0
 30
0
 70
128
 71
4
 72
1
 73
2
 74
3
 0
SEQEND
 0
POLYLINE
 8
D_SEN_101
 66
1
 10
0.0
 20
0.0
 30
0.0
 70
64
 71
8
 72
5
 0
VERTEX
 8
D_SEN_101
 10
-3.3477
 20
-10.9979
 30
40.8368
 70
192
 0
VERTEX
 8
D_SEN_101
 10
-3.3477
 20
-11.0939
 30
40.8368
 70
192
 0
VERTEX
 8
D_SEN_101
 10
-3.2597
 20
-11.0939
 30
40.8368
 70
192
 0
VERTEX
 8
D_SEN_101
 10
-3.2597
 20
-10.9979
 30
40.8368
 70
192
 0
VERTEX
 8
D_SEN_101
 10
-3.3477
 20
-10.9979
 30
40.8625
 70
192
 0
VERTEX
 8
D_SEN_101
 10
-3.3477
 20
-11.0939
 30
40.8625
 70
192
 0
VERTEX
 8
D_SEN_101
 10
-3.2597
 20
-11.0939
 30
40.8625
 70
192
 0
VERTEX
 8
D_SEN_101
 10
-3.2597
 20
-10.9979
 30
40.8625
 70
192
 0
VERTEX
 8
D_SEN_101
 10
0
 20
0
 30
0
 70
128
 71
6
 72
2
 73
1
 74
5
 0
VERTEX
 8
D_SEN_101
 10
0
 20
0
 30
0
 70
128
 71
7
 72
3
 73
2
 74
6
 0
VERTEX
 8
D_SEN_101
 10
0
 20
0
 30
0
 70
128
 71
8
 72
4
 73
3
 74
7
 0
VERTEX
 8
D_SEN_101
 10
0
 20
0
 30
0
 70
128
 71
5
 72
1
 73
4
 74
8
 0
VERTEX
 8
D_SEN_101
 10
0
 20
0
 30
0
 70
128
 71
4
 72
1
 73
2
 74
3
 0
SEQEND
 0
POLYLINE
 8
D_SEN_100
 66
1
 10
0.0
 20
0.0
 30
0.0
 70
64
 71
8
 72
5
 0
VERTEX
 8
D_SEN_100
 10
-3.3477
 20
-10.2896
 30
40.8368
 70
192
 0
VERTEX
 8
D_SEN_100
 10
-3.3477
 20
-10.3856
 30
40.8368
 70
192
 0
VERTEX
 8
D_SEN_100
 10
-3.2597
 20
-10.3856
 30
40.8368
 70
192
 0
VERTEX
 8
D_SEN_100
 10
-3.2597
 20
-10.2896
 30
40.8368
 70
192
 0
VERTEX
 8
D_SEN_100
 10
-3.3477
 20
-10.2896
 30
40.8625
 70
192
 0
VERTEX
 8
D_SEN_100
 10
-3.3477
 20
-10.3856
 30
40.8625
 70
192
 0
VERTEX
 8
D_SEN_100
 10
-3.2597
 20
-10.3856
 30
40.8625
 70
192
 0
VERTEX
 8
D_SEN_100
 10
-3.2597
 20
-10.2896
 30
40.8625
 70
192
 0
VERTEX
 8
D_SEN_100
 10
0
 20
0
 30
0
 70
128
 71
6
 72
2
 73
1
 74
5
 0
VERTEX
 8
D_SEN_100
 10
0
 20
0
 30
0
 70
128
 71
7
 72
3
 73
2
 74
6
 0
VERTEX
 8
D_SEN_100
 10
0
 20
0
 30
0
 70
128
 71
8
 72
4
 73
3
 74
7
 0
VERTEX
 8
D_SEN_100
 10
0
 20
0
 30
0
 70
128
 71
5
 72
1
 73
4
 74
8
 0
VERTEX
 8
D_SEN_100
 10
0
 20
0
 30
0
 70
128
 71
4
 72
1
 73
2
 74
3
 0
SEQEND
 0
POLYLINE
 8
D_SEN_99
 66
1
 10
0.0
 20
0.0
 30
0.0
 70
64
 71
8
 72
5
 0
VERTEX
 8
D_SEN_99
 10
-2.6746
 20
-14.6213
 30
40.8368
 70
192
 0
VERTEX
 8
D_SEN_99
 10
-2.6746
 20
-14.7173
 30
40.8368
 70
192
 0
VERTEX
 8
D_SEN_99
 10
-2.5866
 20
-14.7173
 30
40.8368
 70
192
 0
VERTEX
 8
D_SEN_99
 10
-2.5866
 20
-14.6213
 30
40.8368
 70
192
 0
VERTEX
 8
D_SEN_99
 10
-2.6746
 20
-14.6213
 30
40.8625
 70
192
 0
VERTEX
 8
D_SEN_99
 10
-2.6746
 20
-14.7173
 30
40.8625
 70
192
 0
VERTEX
 8
D_SEN_99
 10
-2.5866
 20
-14.7173
 30
40.8625
 70
192
 0
VERTEX
 8
D_SEN_99
 10
-2.5866
 20
-14.6213
 30
40.8625
 70
192
 0
VERTEX
 8
D_SEN_99
 10
0
 20
0
 30
0
 70
128
 71
6
 72
2
 73
1
 74
5
 0
VERTEX
 8
D_SEN_99
 10
0
 20
0
 30
0
 70
128
 71
7
 72
3
 73
2
 74
6
 0
VERTEX
 8
D_SEN_99
 10
0
 20
0
 30
0
 70
128
 71
8
 72
4
 73
3
 74
7
 0
VERTEX
 8
D_SEN_99
 10
0
 20
0
 30
0
 70
128
 71
5
 72
1
 73
4
 74
8
 0
VERTEX
 8
D_SEN_99
 10
0
 20
0
 30
0
 70
128
 71
4
 72
1
 73
2
 74
3
 0
SEQEND
 0
POLYLINE
 8
D_SEN_98
 66
1
 10
0.0
 20
0.0
 30
0.0
 70
64
 71
8
 72
5
 0
VERTEX
 8
D_SEN_98
 10
-2.6746
 20
-13.8993
 30
40.8368
 70
192
 0
VERTEX
 8
D_SEN_98
 10
-2.6746
 20
-13.9953
 30
40.8368
 70
192
 0
VERTEX
 8
D_SEN_98
 10
-2.5866
 20
-13.9953
 30
40.8368
 70
192
 0
VERTEX
 8
D_SEN_98
 10
-2.5866
 20
-13.8993
 30
40.8368
 70
192
 0
VERTEX
 8
D_SEN_98
 10
-2.6746
 20
-13.8993
 30
40.8625
 70
192
 0
VERTEX
 8
D_SEN_98
 10
-2.6746
 20
-13.9953
 30
40.8625
 70
192
 0
VERTEX
 8
D_SEN_98
 10
-2.5866
 20
-13.9953
 30
40.8625
 70
192
 0
VERTEX
 8
D_SEN_98
 10
-2.5866
 20
-13.8993
 30
40.8625
 70
192
 0
VERTEX
 8
D_SEN_98
 10
0
 20
0
 30
0
 70
128
 71
6
 72
2
 73
1
 74
5
 0
VERTEX
 8
D_SEN_98
 10
0
 20
0
 30
0
 70
128
 71
7
 72
3
 73
2
 74
6
 0
VERTEX
 8
D_SEN_98
 10
0
 20
0
 30
0
 70
128
 71
8
 72
4
 73
3
 74
7
 0
VERTEX
 8
D_SEN_98
 10
0
 20
0
 30
0
 70
128
 71
5
 72
1
 73
4
 74
8
 0
VERTEX
 8
D_SEN_98
 10
0
 20
0
 30
0
 70
128
 71
4
 72
1
 73
2
 74
3
 0
SEQEND
 0
POLYLINE
 8
D_SEN_97
 66
1
 10
0.0
 20
0.0
 30
0.0
 70
64
 71
8
 72
5
 0
VERTEX
 8
D_SEN_97
 10
-2.6746
 20
-13.191
 30
40.8368
 70
192
 0
VERTEX
 8
D_SEN_97
 10
-2.6746
 20
-13.287
 30
40.8368
 70
192
 0
VERTEX
 8
D_SEN_97
 10
-2.5866
 20
-13.287
 30
40.8368
 70
192
 0
VERTEX
 8
D_SEN_97
 10
-2.5866
 20
-13.191
 30
40.8368
 70
192
 0
VERTEX
 8
D_SEN_97
 10
-2.6746
 20
-13.191
 30
40.8625
 70
192
 0
VERTEX
 8
D_SEN_97
 10
-2.6746
 20
-13.287
 30
40.8625
 70
192
 0
VERTEX
 8
D_SEN_97
 10
-2.5866
 20
-13.287
 30
40.8625
 70
192
 0
VERTEX
 8
D_SEN_97
 10
-2.5866
 20
-13.191
 30
40.8625
 70
192
 0
VERTEX
 8
D_SEN_97
 10
0
 20
0
 30
0
 70
128
 71
6
 72
2
 73
1
 74
5
 0
VERTEX
 8
D_SEN_97
 10
0
 20
0
 30
0
 70
128
 71
7
 72
3
 73
2
 74
6
 0
VERTEX
 8
D_SEN_97
 10
0
 20
0
 30
0
 70
128
 71
8
 72
4
 73
3
 74
7
 0
VERTEX
 8
D_SEN_97
 10
0
 20
0
 30
0
 70
128
 71
5
 72
1
 73
4
 74
8
 0
VERTEX
 8
D_SEN_97
 10
0
 20
0
 30
0
 70
128
 71
4
 72
1
 73
2
 74
3
 0
SEQEND
 0
POLYLINE
 8
D_SEN_96
 66
1
 10
0.0
 20
0.0
 30
0.0
 70
64
 71
8
 72
5
 0
VERTEX
 8
D_SEN_96
 10
-2.6746
 20
-12.4554
 30
40.8368
 70
192
 0
VERTEX
 8
D_SEN_96
 10
-2.6746
 20
-12.5514
 30
40.8368
 70
192
 0
VERTEX
 8
D_SEN_96
 10
-2.5866
 20
-12.5514
 30
40.8368
 70
192
 0
VERTEX
 8
D_SEN_96
 10
-2.5866
 20
-12.4554
 30
40.8368
 70
192
 0
VERTEX
 8
D_SEN_96
 10
-2.6746
 20
-12.4554
 30
40.8625
 70
192
 0
VERTEX
 8
D_SEN_96
 10
-2.6746
 20
-12.5514
 30
40.8625
 70
192
 0
VERTEX
 8
D_SEN_96
 10
-2.5866
 20
-12.5514
 30
40.8625
 70
192
 0
VERTEX
 8
D_SEN_96
 10
-2.5866
 20
-12.4554
 30
40.8625
 70
192
 0
VERTEX
 8
D_SEN_96
 10
0
 20
0
 30
0
 70
128
 71
6
 72
2
 73
1
 74
5
 0
VERTEX
 8
D_SEN_96
 10
0
 20
0
 30
0
 70
128
 71
7
 72
3
 73
2
 74
6
 0
VERTEX
 8
D_SEN_96
 10
0
 20
0
 30
0
 70
128
 71
8
 72
4
 73
3
 74
7
 0
VERTEX
 8
D_SEN_96
 10
0
 20
0
 30
0
 70
128
 71
5
 72
1
 73
4
 74
8
 0
VERTEX
 8
D_SEN_96
 10
0
 20
0
 30
0
 70
128
 71
4
 72
1
 73
2
 74
3
 0
SEQEND
 0
POLYLINE
 8
D_SEN_95
 66
1
 10
0.0
 20
0.0
 30
0.0
 70
64
 71
8
 72
5
 0
VERTEX
 8
D_SEN_95
 10
-2.6746
 20
-11.7335
 30
40.8368
 70
192
 0
VERTEX
 8
D_SEN_95
 10
-2.6746
 20
-11.8295
 30
40.8368
 70
192
 0
VERTEX
 8
D_SEN_95
 10
-2.5866
 20
-11.8295
 30
40.8368
 70
192
 0
VERTEX
 8
D_SEN_95
 10
-2.5866
 20
-11.7335
 30
40.8368
 70
192
 0
VERTEX
 8
D_SEN_95
 10
-2.6746
 20
-11.7335
 30
40.8625
 70
192
 0
VERTEX
 8
D_SEN_95
 10
-2.6746
 20
-11.8295
 30
40.8625
 70
192
 0
VERTEX
 8
D_SEN_95
 10
-2.5866
 20
-11.8295
 30
40.8625
 70
192
 0
VERTEX
 8
D_SEN_95
 10
-2.5866
 20
-11.7335
 30
40.8625
 70
192
 0
VERTEX
 8
D_SEN_95
 10
0
 20
0
 30
0
 70
128
 71
6
 72
2
 73
1
 74
5
 0
VERTEX
 8
D_SEN_95
 10
0
 20
0
 30
0
 70
128
 71
7
 72
3
 73
2
 74
6
 0
VERTEX
 8
D_SEN_95
 10
0
 20
0
 30
0
 70
128
 71
8
 72
4
 73
3
 74
7
 0
VERTEX
 8
D_SEN_95
 10
0
 20
0
 30
0
 70
128
 71
5
 72
1
 73
4
 74
8
 0
VERTEX
 8
D_SEN_95
 10
0
 20
0
 30
0
 70
128
 71
4
 72
1
 73
2
 74
3
 0
SEQEND
 0
POLYLINE
 8
D_SEN_94
 66
1
 10
0.0
 20
0.0
 30
0.0
 70
64
 71
8
 72
5
 0
VERTEX
 8
D_SEN_94
 10
-2.6746
 20
-10.9979
 30
40.8368
 70
192
 0
VERTEX
 8
D_SEN_94
 10
-2.6746
 20
-11.0939
 30
40.8368
 70
192
 0
VERTEX
 8
D_SEN_94
 10
-2.5866
 20
-11.0939
 30
40.8368
 70
192
 0
VERTEX
 8
D_SEN_94
 10
-2.5866
 20
-10.9979
 30
40.8368
 70
192
 0
VERTEX
 8
D_SEN_94
 10
-2.6746
 20
-10.9979
 30
40.8625
 70
192
 0
VERTEX
 8
D_SEN_94
 10
-2.6746
 20
-11.0939
 30
40.8625
 70
192
 0
VERTEX
 8
D_SEN_94
 10
-2.5866
 20
-11.0939
 30
40.8625
 70
192
 0
VERTEX
 8
D_SEN_94
 10
-2.5866
 20
-10.9979
 30
40.8625
 70
192
 0
VERTEX
 8
D_SEN_94
 10
0
 20
0
 30
0
 70
128
 71
6
 72
2
 73
1
 74
5
 0
VERTEX
 8
D_SEN_94
 10
0
 20
0
 30
0
 70
128
 71
7
 72
3
 73
2
 74
6
 0
VERTEX
 8
D_SEN_94
 10
0
 20
0
 30
0
 70
128
 71
8
 72
4
 73
3
 74
7
 0
VERTEX
 8
D_SEN_94
 10
0
 20
0
 30
0
 70
128
 71
5
 72
1
 73
4
 74
8
 0
VERTEX
 8
D_SEN_94
 10
0
 20
0
 30
0
 70
128
 71
4
 72
1
 73
2
 74
3
 0
SEQEND
 0
POLYLINE
 8
D_SEN_93
 66
1
 10
0.0
 20
0.0
 30
0.0
 70
64
 71
8
 72
5
 0
VERTEX
 8
D_SEN_93
 10
-2.6746
 20
-10.2896
 30
40.8368
 70
192
 0
VERTEX
 8
D_SEN_93
 10
-2.6746
 20
-10.3856
 30
40.8368
 70
192
 0
VERTEX
 8
D_SEN_93
 10
-2.5866
 20
-10.3856
 30
40.8368
 70
192
 0
VERTEX
 8
D_SEN_93
 10
-2.5866
 20
-10.2896
 30
40.8368
 70
192
 0
VERTEX
 8
D_SEN_93
 10
-2.6746
 20
-10.2896
 30
40.8625
 70
192
 0
VERTEX
 8
D_SEN_93
 10
-2.6746
 20
-10.3856
 30
40.8625
 70
192
 0
VERTEX
 8
D_SEN_93
 10
-2.5866
 20
-10.3856
 30
40.8625
 70
192
 0
VERTEX
 8
D_SEN_93
 10
-2.5866
 20
-10.2896
 30
40.8625
 70
192
 0
VERTEX
 8
D_SEN_93
 10
0
 20
0
 30
0
 70
128
 71
6
 72
2
 73
1
 74
5
 0
VERTEX
 8
D_SEN_93
 10
0
 20
0
 30
0
 70
128
 71
7
 72
3
 73
2
 74
6
 0
VERTEX
 8
D_SEN_93
 10
0
 20
0
 30
0
 70
128
 71
8
 72
4
 73
3
 74
7
 0
VERTEX
 8
D_SEN_93
 10
0
 20
0
 30
0
 70
128
 71
5
 72
1
 73
4
 74
8
 0
VERTEX
 8
D_SEN_93
 10
0
 20
0
 30
0
 70
128
 71
4
 72
1
 73
2
 74
3
 0
SEQEND
 0
POLYLINE
 8
D_SEN_92
 66
1
 10
0.0
 20
0.0
 30
0.0
 70
64
 71
8
 72
5
 0
VERTEX
 8
D_SEN_92
 10
-2.0015
 20
-14.6213
 30
40.8368
 70
192
 0
VERTEX
 8
D_SEN_92
 10
-2.0015
 20
-14.7173
 30
40.8368
 70
192
 0
VERTEX
 8
D_SEN_92
 10
-1.9135
 20
-14.7173
 30
40.8368
 70
192
 0
VERTEX
 8
D_SEN_92
 10
-1.9135
 20
-14.6213
 30
40.8368
 70
192
 0
VERTEX
 8
D_SEN_92
 10
-2.0015
 20
-14.6213
 30
40.8625
 70
192
 0
VERTEX
 8
D_SEN_92
 10
-2.0015
 20
-14.7173
 30
40.8625
 70
192
 0
VERTEX
 8
D_SEN_92
 10
-1.9135
 20
-14.7173
 30
40.8625
 70
192
 0
VERTEX
 8
D_SEN_92
 10
-1.9135
 20
-14.6213
 30
40.8625
 70
192
 0
VERTEX
 8
D_SEN_92
 10
0
 20
0
 30
0
 70
128
 71
6
 72
2
 73
1
 74
5
 0
VERTEX
 8
D_SEN_92
 10
0
 20
0
 30
0
 70
128
 71
7
 72
3
 73
2
 74
6
 0
VERTEX
 8
D_SEN_92
 10
0
 20
0
 30
0
 70
128
 71
8
 72
4
 73
3
 74
7
 0
VERTEX
 8
D_SEN_92
 10
0
 20
0
 30
0
 70
128
 71
5
 72
1
 73
4
 74
8
 0
VERTEX
 8
D_SEN_92
 10
0
 20
0
 30
0
 70
128
 71
4
 72
1
 73
2
 74
3
 0
SEQEND
 0
POLYLINE
 8
D_SEN_91
 66
1
 10
0.0
 20
0.0
 30
0.0
 70
64
 71
8
 72
5
 0
VERTEX
 8
D_SEN_91
 10
-2.0015
 20
-13.8993
 30
40.8368
 70
192
 0
VERTEX
 8
D_SEN_91
 10
-2.0015
 20
-13.9953
 30
40.8368
 70
192
 0
VERTEX
 8
D_SEN_91
 10
-1.9135
 20
-13.9953
 30
40.8368
 70
192
 0
VERTEX
 8
D_SEN_91
 10
-1.9135
 20
-13.8993
 30
40.8368
 70
192
 0
VERTEX
 8
D_SEN_91
 10
-2.0015
 20
-13.8993
 30
40.8625
 70
192
 0
VERTEX
 8
D_SEN_91
 10
-2.0015
 20
-13.9953
 30
40.8625
 70
192
 0
VERTEX
 8
D_SEN_91
 10
-1.9135
 20
-13.9953
 30
40.8625
 70
192
 0
VERTEX
 8
D_SEN_91
 10
-1.9135
 20
-13.8993
 30
40.8625
 70
192
 0
VERTEX
 8
D_SEN_91
 10
0
 20
0
 30
0
 70
128
 71
6
 72
2
 73
1
 74
5
 0
VERTEX
 8
D_SEN_91
 10
0
 20
0
 30
0
 70
128
 71
7
 72
3
 73
2
 74
6
 0
VERTEX
 8
D_SEN_91
 10
0
 20
0
 30
0
 70
128
 71
8
 72
4
 73
3
 74
7
 0
VERTEX
 8
D_SEN_91
 10
0
 20
0
 30
0
 70
128
 71
5
 72
1
 73
4
 74
8
 0
VERTEX
 8
D_SEN_91
 10
0
 20
0
 30
0
 70
128
 71
4
 72
1
 73
2
 74
3
 0
SEQEND
 0
POLYLINE
 8
D_SEN_90
 66
1
 10
0.0
 20
0.0
 30
0.0
 70
64
 71
8
 72
5
 0
VERTEX
 8
D_SEN_90
 10
-2.0015
 20
-13.191
 30
40.8368
 70
192
 0
VERTEX
 8
D_SEN_90
 10
-2.0015
 20
-13.287
 30
40.8368
 70
192
 0
VERTEX
 8
D_SEN_90
 10
-1.9135
 20
-13.287
 30
40.8368
 70
192
 0
VERTEX
 8
D_SEN_90
 10
-1.9135
 20
-13.191
 30
40.8368
 70
192
 0
VERTEX
 8
D_SEN_90
 10
-2.0015
 20
-13.191
 30
40.8625
 70
192
 0
VERTEX
 8
D_SEN_90
 10
-2.0015
 20
-13.287
 30
40.8625
 70
192
 0
VERTEX
 8
D_SEN_90
 10
-1.9135
 20
-13.287
 30
40.8625
 70
192
 0
VERTEX
 8
D_SEN_90
 10
-1.9135
 20
-13.191
 30
40.8625
 70
192
 0
VERTEX
 8
D_SEN_90
 10
0
 20
0
 30
0
 70
128
 71
6
 72
2
 73
1
 74
5
 0
VERTEX
 8
D_SEN_90
 10
0
 20
0
 30
0
 70
128
 71
7
 72
3
 73
2
 74
6
 0
VERTEX
 8
D_SEN_90
 10
0
 20
0
 30
0
 70
128
 71
8
 72
4
 73
3
 74
7
 0
VERTEX
 8
D_SEN_90
 10
0
 20
0
 30
0
 70
128
 71
5
 72
1
 73
4
 74
8
 0
VERTEX
 8
D_SEN_90
 10
0
 20
0
 30
0
 70
128
 71
4
 72
1
 73
2
 74
3
 0
SEQEND
 0
POLYLINE
 8
D_SEN_89
 66
1
 10
0.0
 20
0.0
 30
0.0
 70
64
 71
8
 72
5
 0
VERTEX
 8
D_SEN_89
 10
-2.0015
 20
-12.4554
 30
40.8368
 70
192
 0
VERTEX
 8
D_SEN_89
 10
-2.0015
 20
-12.5514
 30
40.8368
 70
192
 0
VERTEX
 8
D_SEN_89
 10
-1.9135
 20
-12.5514
 30
40.8368
 70
192
 0
VERTEX
 8
D_SEN_89
 10
-1.9135
 20
-12.4554
 30
40.8368
 70
192
 0
VERTEX
 8
D_SEN_89
 10
-2.0015
 20
-12.4554
 30
40.8625
 70
192
 0
VERTEX
 8
D_SEN_89
 10
-2.0015
 20
-12.5514
 30
40.8625
 70
192
 0
VERTEX
 8
D_SEN_89
 10
-1.9135
 20
-12.5514
 30
40.8625
 70
192
 0
VERTEX
 8
D_SEN_89
 10
-1.9135
 20
-12.4554
 30
40.8625
 70
192
 0
VERTEX
 8
D_SEN_89
 10
0
 20
0
 30
0
 70
128
 71
6
 72
2
 73
1
 74
5
 0
VERTEX
 8
D_SEN_89
 10
0
 20
0
 30
0
 70
128
 71
7
 72
3
 73
2
 74
6
 0
VERTEX
 8
D_SEN_89
 10
0
 20
0
 30
0
 70
128
 71
8
 72
4
 73
3
 74
7
 0
VERTEX
 8
D_SEN_89
 10
0
 20
0
 30
0
 70
128
 71
5
 72
1
 73
4
 74
8
 0
VERTEX
 8
D_SEN_89
 10
0
 20
0
 30
0
 70
128
 71
4
 72
1
 73
2
 74
3
 0
SEQEND
 0
POLYLINE
 8
D_SEN_88
 66
1
 10
0.0
 20
0.0
 30
0.0
 70
64
 71
8
 72
5
 0
VERTEX
 8
D_SEN_88
 10
-2.0015
 20
-11.7335
 30
40.8368
 70
192
 0
VERTEX
 8
D_SEN_88
 10
-2.0015
 20
-11.8295
 30
40.8368
 70
192
 0
VERTEX
 8
D_SEN_88
 10
-1.9135
 20
-11.8295
 30
40.8368
 70
192
 0
VERTEX
 8
D_SEN_88
 10
-1.9135
 20
-11.7335
 30
40.8368
 70
192
 0
VERTEX
 8
D_SEN_88
 10
-2.0015
 20
-11.7335
 30
40.8625
 70
192
 0
VERTEX
 8
D_SEN_88
 10
-2.0015
 20
-11.8295
 30
40.8625
 70
192
 0
VERTEX
 8
D_SEN_88
 10
-1.9135
 20
-11.8295
 30
40.8625
 70
192
 0
VERTEX
 8
D_SEN_88
 10
-1.9135
 20
-11.7335
 30
40.8625
 70
192
 0
VERTEX
 8
D_SEN_88
 10
0
 20
0
 30
0
 70
128
 71
6
 72
2
 73
1
 74
5
 0
VERTEX
 8
D_SEN_88
 10
0
 20
0
 30
0
 70
128
 71
7
 72
3
 73
2
 74
6
 0
VERTEX
 8
D_SEN_88
 10
0
 20
0
 30
0
 70
128
 71
8
 72
4
 73
3
 74
7
 0
VERTEX
 8
D_SEN_88
 10
0
 20
0
 30
0
 70
128
 71
5
 72
1
 73
4
 74
8
 0
VERTEX
 8
D_SEN_88
 10
0
 20
0
 30
0
 70
128
 71
4
 72
1
 73
2
 74
3
 0
SEQEND
 0
POLYLINE
 8
D_SEN_87
 66
1
 10
0.0
 20
0.0
 30
0.0
 70
64
 71
8
 72
5
 0
VERTEX
 8
D_SEN_87
 10
-2.0015
 20
-10.9979
 30
40.8368
 70
192
 0
VERTEX
 8
D_SEN_87
 10
-2.0015
 20
-11.0939
 30
40.8368
 70
192
 0
VERTEX
 8
D_SEN_87
 10
-1.9135
 20
-11.0939
 30
40.8368
 70
192
 0
VERTEX
 8
D_SEN_87
 10
-1.9135
 20
-10.9979
 30
40.8368
 70
192
 0
VERTEX
 8
D_SEN_87
 10
-2.0015
 20
-10.9979
 30
40.8625
 70
192
 0
VERTEX
 8
D_SEN_87
 10
-2.0015
 20
-11.0939
 30
40.8625
 70
192
 0
VERTEX
 8
D_SEN_87
 10
-1.9135
 20
-11.0939
 30
40.8625
 70
192
 0
VERTEX
 8
D_SEN_87
 10
-1.9135
 20
-10.9979
 30
40.8625
 70
192
 0
VERTEX
 8
D_SEN_87
 10
0
 20
0
 30
0
 70
128
 71
6
 72
2
 73
1
 74
5
 0
VERTEX
 8
D_SEN_87
 10
0
 20
0
 30
0
 70
128
 71
7
 72
3
 73
2
 74
6
 0
VERTEX
 8
D_SEN_87
 10
0
 20
0
 30
0
 70
128
 71
8
 72
4
 73
3
 74
7
 0
VERTEX
 8
D_SEN_87
 10
0
 20
0
 30
0
 70
128
 71
5
 72
1
 73
4
 74
8
 0
VERTEX
 8
D_SEN_87
 10
0
 20
0
 30
0
 70
128
 71
4
 72
1
 73
2
 74
3
 0
SEQEND
 0
POLYLINE
 8
D_SEN_86
 66
1
 10
0.0
 20
0.0
 30
0.0
 70
64
 71
8
 72
5
 0
VERTEX
 8
D_SEN_86
 10
-2.0015
 20
-10.2896
 30
40.8368
 70
192
 0
VERTEX
 8
D_SEN_86
 10
-2.0015
 20
-10.3856
 30
40.8368
 70
192
 0
VERTEX
 8
D_SEN_86
 10
-1.9135
 20
-10.3856
 30
40.8368
 70
192
 0
VERTEX
 8
D_SEN_86
 10
-1.9135
 20
-10.2896
 30
40.8368
 70
192
 0
VERTEX
 8
D_SEN_86
 10
-2.0015
 20
-10.2896
 30
40.8625
 70
192
 0
VERTEX
 8
D_SEN_86
 10
-2.0015
 20
-10.3856
 30
40.8625
 70
192
 0
VERTEX
 8
D_SEN_86
 10
-1.9135
 20
-10.3856
 30
40.8625
 70
192
 0
VERTEX
 8
D_SEN_86
 10
-1.9135
 20
-10.2896
 30
40.8625
 70
192
 0
VERTEX
 8
D_SEN_86
 10
0
 20
0
 30
0
 70
128
 71
6
 72
2
 73
1
 74
5
 0
VERTEX
 8
D_SEN_86
 10
0
 20
0
 30
0
 70
128
 71
7
 72
3
 73
2
 74
6
 0
VERTEX
 8
D_SEN_86
 10
0
 20
0
 30
0
 70
128
 71
8
 72
4
 73
3
 74
7
 0
VERTEX
 8
D_SEN_86
 10
0
 20
0
 30
0
 70
128
 71
5
 72
1
 73
4
 74
8
 0
VERTEX
 8
D_SEN_86
 10
0
 20
0
 30
0
 70
128
 71
4
 72
1
 73
2
 74
3
 0
SEQEND
 0
POLYLINE
 8
D_SEN_85
 66
1
 10
0.0
 20
0.0
 30
0.0
 70
64
 71
8
 72
5
 0
VERTEX
 8
D_SEN_85
 10
-1.3397
 20
-14.6213
 30
40.8368
 70
192
 0
VERTEX
 8
D_SEN_85
 10
-1.3397
 20
-14.7173
 30
40.8368
 70
192
 0
VERTEX
 8
D_SEN_85
 10
-1.2517
 20
-14.7173
 30
40.8368
 70
192
 0
VERTEX
 8
D_SEN_85
 10
-1.2517
 20
-14.6213
 30
40.8368
 70
192
 0
VERTEX
 8
D_SEN_85
 10
-1.3397
 20
-14.6213
 30
40.8625
 70
192
 0
VERTEX
 8
D_SEN_85
 10
-1.3397
 20
-14.7173
 30
40.8625
 70
192
 0
VERTEX
 8
D_SEN_85
 10
-1.2517
 20
-14.7173
 30
40.8625
 70
192
 0
VERTEX
 8
D_SEN_85
 10
-1.2517
 20
-14.6213
 30
40.8625
 70
192
 0
VERTEX
 8
D_SEN_85
 10
0
 20
0
 30
0
 70
128
 71
6
 72
2
 73
1
 74
5
 0
VERTEX
 8
D_SEN_85
 10
0
 20
0
 30
0
 70
128
 71
7
 72
3
 73
2
 74
6
 0
VERTEX
 8
D_SEN_85
 10
0
 20
0
 30
0
 70
128
 71
8
 72
4
 73
3
 74
7
 0
VERTEX
 8
D_SEN_85
 10
0
 20
0
 30
0
 70
128
 71
5
 72
1
 73
4
 74
8
 0
VERTEX
 8
D_SEN_85
 10
0
 20
0
 30
0
 70
128
 71
4
 72
1
 73
2
 74
3
 0
SEQEND
 0
POLYLINE
 8
D_SEN_84
 66
1
 10
0.0
 20
0.0
 30
0.0
 70
64
 71
8
 72
5
 0
VERTEX
 8
D_SEN_84
 10
-1.3397
 20
-13.8993
 30
40.8368
 70
192
 0
VERTEX
 8
D_SEN_84
 10
-1.3397
 20
-13.9953
 30
40.8368
 70
192
 0
VERTEX
 8
D_SEN_84
 10
-1.2517
 20
-13.9953
 30
40.8368
 70
192
 0
VERTEX
 8
D_SEN_84
 10
-1.2517
 20
-13.8993
 30
40.8368
 70
192
 0
VERTEX
 8
D_SEN_84
 10
-1.3397
 20
-13.8993
 30
40.8625
 70
192
 0
VERTEX
 8
D_SEN_84
 10
-1.3397
 20
-13.9953
 30
40.8625
 70
192
 0
VERTEX
 8
D_SEN_84
 10
-1.2517
 20
-13.9953
 30
40.8625
 70
192
 0
VERTEX
 8
D_SEN_84
 10
-1.2517
 20
-13.8993
 30
40.8625
 70
192
 0
VERTEX
 8
D_SEN_84
 10
0
 20
0
 30
0
 70
128
 71
6
 72
2
 73
1
 74
5
 0
VERTEX
 8
D_SEN_84
 10
0
 20
0
 30
0
 70
128
 71
7
 72
3
 73
2
 74
6
 0
VERTEX
 8
D_SEN_84
 10
0
 20
0
 30
0
 70
128
 71
8
 72
4
 73
3
 74
7
 0
VERTEX
 8
D_SEN_84
 10
0
 20
0
 30
0
 70
128
 71
5
 72
1
 73
4
 74
8
 0
VERTEX
 8
D_SEN_84
 10
0
 20
0
 30
0
 70
128
 71
4
 72
1
 73
2
 74
3
 0
SEQEND
 0
POLYLINE
 8
D_SEN_83
 66
1
 10
0.0
 20
0.0
 30
0.0
 70
64
 71
8
 72
5
 0
VERTEX
 8
D_SEN_83
 10
-1.3397
 20
-13.191
 30
40.8368
 70
192
 0
VERTEX
 8
D_SEN_83
 10
-1.3397
 20
-13.287
 30
40.8368
 70
192
 0
VERTEX
 8
D_SEN_83
 10
-1.2517
 20
-13.287
 30
40.8368
 70
192
 0
VERTEX
 8
D_SEN_83
 10
-1.2517
 20
-13.191
 30
40.8368
 70
192
 0
VERTEX
 8
D_SEN_83
 10
-1.3397
 20
-13.191
 30
40.8625
 70
192
 0
VERTEX
 8
D_SEN_83
 10
-1.3397
 20
-13.287
 30
40.8625
 70
192
 0
VERTEX
 8
D_SEN_83
 10
-1.2517
 20
-13.287
 30
40.8625
 70
192
 0
VERTEX
 8
D_SEN_83
 10
-1.2517
 20
-13.191
 30
40.8625
 70
192
 0
VERTEX
 8
D_SEN_83
 10
0
 20
0
 30
0
 70
128
 71
6
 72
2
 73
1
 74
5
 0
VERTEX
 8
D_SEN_83
 10
0
 20
0
 30
0
 70
128
 71
7
 72
3
 73
2
 74
6
 0
VERTEX
 8
D_SEN_83
 10
0
 20
0
 30
0
 70
128
 71
8
 72
4
 73
3
 74
7
 0
VERTEX
 8
D_SEN_83
 10
0
 20
0
 30
0
 70
128
 71
5
 72
1
 73
4
 74
8
 0
VERTEX
 8
D_SEN_83
 10
0
 20
0
 30
0
 70
128
 71
4
 72
1
 73
2
 74
3
 0
SEQEND
 0
POLYLINE
 8
D_SEN_82
 66
1
 10
0.0
 20
0.0
 30
0.0
 70
64
 71
8
 72
5
 0
VERTEX
 8
D_SEN_82
 10
-1.3397
 20
-12.4554
 30
40.8368
 70
192
 0
VERTEX
 8
D_SEN_82
 10
-1.3397
 20
-12.5514
 30
40.8368
 70
192
 0
VERTEX
 8
D_SEN_82
 10
-1.2517
 20
-12.5514
 30
40.8368
 70
192
 0
VERTEX
 8
D_SEN_82
 10
-1.2517
 20
-12.4554
 30
40.8368
 70
192
 0
VERTEX
 8
D_SEN_82
 10
-1.3397
 20
-12.4554
 30
40.8625
 70
192
 0
VERTEX
 8
D_SEN_82
 10
-1.3397
 20
-12.5514
 30
40.8625
 70
192
 0
VERTEX
 8
D_SEN_82
 10
-1.2517
 20
-12.5514
 30
40.8625
 70
192
 0
VERTEX
 8
D_SEN_82
 10
-1.2517
 20
-12.4554
 30
40.8625
 70
192
 0
VERTEX
 8
D_SEN_82
 10
0
 20
0
 30
0
 70
128
 71
6
 72
2
 73
1
 74
5
 0
VERTEX
 8
D_SEN_82
 10
0
 20
0
 30
0
 70
128
 71
7
 72
3
 73
2
 74
6
 0
VERTEX
 8
D_SEN_82
 10
0
 20
0
 30
0
 70
128
 71
8
 72
4
 73
3
 74
7
 0
VERTEX
 8
D_SEN_82
 10
0
 20
0
 30
0
 70
128
 71
5
 72
1
 73
4
 74
8
 0
VERTEX
 8
D_SEN_82
 10
0
 20
0
 30
0
 70
128
 71
4
 72
1
 73
2
 74
3
 0
SEQEND
 0
POLYLINE
 8
D_SEN_81
 66
1
 10
0.0
 20
0.0
 30
0.0
 70
64
 71
8
 72
5
 0
VERTEX
 8
D_SEN_81
 10
-1.3397
 20
-11.7335
 30
40.8368
 70
192
 0
VERTEX
 8
D_SEN_81
 10
-1.3397
 20
-11.8295
 30
40.8368
 70
192
 0
VERTEX
 8
D_SEN_81
 10
-1.2517
 20
-11.8295
 30
40.8368
 70
192
 0
VERTEX
 8
D_SEN_81
 10
-1.2517
 20
-11.7335
 30
40.8368
 70
192
 0
VERTEX
 8
D_SEN_81
 10
-1.3397
 20
-11.7335
 30
40.8625
 70
192
 0
VERTEX
 8
D_SEN_81
 10
-1.3397
 20
-11.8295
 30
40.8625
 70
192
 0
VERTEX
 8
D_SEN_81
 10
-1.2517
 20
-11.8295
 30
40.8625
 70
192
 0
VERTEX
 8
D_SEN_81
 10
-1.2517
 20
-11.7335
 30
40.8625
 70
192
 0
VERTEX
 8
D_SEN_81
 10
0
 20
0
 30
0
 70
128
 71
6
 72
2
 73
1
 74
5
 0
VERTEX
 8
D_SEN_81
 10
0
 20
0
 30
0
 70
128
 71
7
 72
3
 73
2
 74
6
 0
VERTEX
 8
D_SEN_81
 10
0
 20
0
 30
0
 70
128
 71
8
 72
4
 73
3
 74
7
 0
VERTEX
 8
D_SEN_81
 10
0
 20
0
 30
0
 70
128
 71
5
 72
1
 73
4
 74
8
 0
VERTEX
 8
D_SEN_81
 10
0
 20
0
 30
0
 70
128
 71
4
 72
1
 73
2
 74
3
 0
SEQEND
 0
POLYLINE
 8
D_SEN_80
 66
1
 10
0.0
 20
0.0
 30
0.0
 70
64
 71
8
 72
5
 0
VERTEX
 8
D_SEN_80
 10
-1.3397
 20
-10.9979
 30
40.8368
 70
192
 0
VERTEX
 8
D_SEN_80
 10
-1.3397
 20
-11.0939
 30
40.8368
 70
192
 0
VERTEX
 8
D_SEN_80
 10
-1.2517
 20
-11.0939
 30
40.8368
 70
192
 0
VERTEX
 8
D_SEN_80
 10
-1.2517
 20
-10.9979
 30
40.8368
 70
192
 0
VERTEX
 8
D_SEN_80
 10
-1.3397
 20
-10.9979
 30
40.8625
 70
192
 0
VERTEX
 8
D_SEN_80
 10
-1.3397
 20
-11.0939
 30
40.8625
 70
192
 0
VERTEX
 8
D_SEN_80
 10
-1.2517
 20
-11.0939
 30
40.8625
 70
192
 0
VERTEX
 8
D_SEN_80
 10
-1.2517
 20
-10.9979
 30
40.8625
 70
192
 0
VERTEX
 8
D_SEN_80
 10
0
 20
0
 30
0
 70
128
 71
6
 72
2
 73
1
 74
5
 0
VERTEX
 8
D_SEN_80
 10
0
 20
0
 30
0
 70
128
 71
7
 72
3
 73
2
 74
6
 0
VERTEX
 8
D_SEN_80
 10
0
 20
0
 30
0
 70
128
 71
8
 72
4
 73
3
 74
7
 0
VERTEX
 8
D_SEN_80
 10
0
 20
0
 30
0
 70
128
 71
5
 72
1
 73
4
 74
8
 0
VERTEX
 8
D_SEN_80
 10
0
 20
0
 30
0
 70
128
 71
4
 72
1
 73
2
 74
3
 0
SEQEND
 0
POLYLINE
 8
D_SEN_79
 66
1
 10
0.0
 20
0.0
 30
0.0
 70
64
 71
8
 72
5
 0
VERTEX
 8
D_SEN_79
 10
-1.3397
 20
-10.2896
 30
40.8368
 70
192
 0
VERTEX
 8
D_SEN_79
 10
-1.3397
 20
-10.3856
 30
40.8368
 70
192
 0
VERTEX
 8
D_SEN_79
 10
-1.2517
 20
-10.3856
 30
40.8368
 70
192
 0
VERTEX
 8
D_SEN_79
 10
-1.2517
 20
-10.2896
 30
40.8368
 70
192
 0
VERTEX
 8
D_SEN_79
 10
-1.3397
 20
-10.2896
 30
40.8625
 70
192
 0
VERTEX
 8
D_SEN_79
 10
-1.3397
 20
-10.3856
 30
40.8625
 70
192
 0
VERTEX
 8
D_SEN_79
 10
-1.2517
 20
-10.3856
 30
40.8625
 70
192
 0
VERTEX
 8
D_SEN_79
 10
-1.2517
 20
-10.2896
 30
40.8625
 70
192
 0
VERTEX
 8
D_SEN_79
 10
0
 20
0
 30
0
 70
128
 71
6
 72
2
 73
1
 74
5
 0
VERTEX
 8
D_SEN_79
 10
0
 20
0
 30
0
 70
128
 71
7
 72
3
 73
2
 74
6
 0
VERTEX
 8
D_SEN_79
 10
0
 20
0
 30
0
 70
128
 71
8
 72
4
 73
3
 74
7
 0
VERTEX
 8
D_SEN_79
 10
0
 20
0
 30
0
 70
128
 71
5
 72
1
 73
4
 74
8
 0
VERTEX
 8
D_SEN_79
 10
0
 20
0
 30
0
 70
128
 71
4
 72
1
 73
2
 74
3
 0
SEQEND
 0
POLYLINE
 8
D_SEN_78
 66
1
 10
0.0
 20
0.0
 30
0.0
 70
64
 71
8
 72
5
 0
VERTEX
 8
D_SEN_78
 10
-0.6578
 20
-14.6213
 30
40.8368
 70
192
 0
VERTEX
 8
D_SEN_78
 10
-0.6578
 20
-14.7173
 30
40.8368
 70
192
 0
VERTEX
 8
D_SEN_78
 10
-0.5698
 20
-14.7173
 30
40.8368
 70
192
 0
VERTEX
 8
D_SEN_78
 10
-0.5698
 20
-14.6213
 30
40.8368
 70
192
 0
VERTEX
 8
D_SEN_78
 10
-0.6578
 20
-14.6213
 30
40.8625
 70
192
 0
VERTEX
 8
D_SEN_78
 10
-0.6578
 20
-14.7173
 30
40.8625
 70
192
 0
VERTEX
 8
D_SEN_78
 10
-0.5698
 20
-14.7173
 30
40.8625
 70
192
 0
VERTEX
 8
D_SEN_78
 10
-0.5698
 20
-14.6213
 30
40.8625
 70
192
 0
VERTEX
 8
D_SEN_78
 10
0
 20
0
 30
0
 70
128
 71
6
 72
2
 73
1
 74
5
 0
VERTEX
 8
D_SEN_78
 10
0
 20
0
 30
0
 70
128
 71
7
 72
3
 73
2
 74
6
 0
VERTEX
 8
D_SEN_78
 10
0
 20
0
 30
0
 70
128
 71
8
 72
4
 73
3
 74
7
 0
VERTEX
 8
D_SEN_78
 10
0
 20
0
 30
0
 70
128
 71
5
 72
1
 73
4
 74
8
 0
VERTEX
 8
D_SEN_78
 10
0
 20
0
 30
0
 70
128
 71
4
 72
1
 73
2
 74
3
 0
SEQEND
 0
POLYLINE
 8
D_SEN_77
 66
1
 10
0.0
 20
0.0
 30
0.0
 70
64
 71
8
 72
5
 0
VERTEX
 8
D_SEN_77
 10
-0.6578
 20
-13.8993
 30
40.8368
 70
192
 0
VERTEX
 8
D_SEN_77
 10
-0.6578
 20
-13.9953
 30
40.8368
 70
192
 0
VERTEX
 8
D_SEN_77
 10
-0.5698
 20
-13.9953
 30
40.8368
 70
192
 0
VERTEX
 8
D_SEN_77
 10
-0.5698
 20
-13.8993
 30
40.8368
 70
192
 0
VERTEX
 8
D_SEN_77
 10
-0.6578
 20
-13.8993
 30
40.8625
 70
192
 0
VERTEX
 8
D_SEN_77
 10
-0.6578
 20
-13.9953
 30
40.8625
 70
192
 0
VERTEX
 8
D_SEN_77
 10
-0.5698
 20
-13.9953
 30
40.8625
 70
192
 0
VERTEX
 8
D_SEN_77
 10
-0.5698
 20
-13.8993
 30
40.8625
 70
192
 0
VERTEX
 8
D_SEN_77
 10
0
 20
0
 30
0
 70
128
 71
6
 72
2
 73
1
 74
5
 0
VERTEX
 8
D_SEN_77
 10
0
 20
0
 30
0
 70
128
 71
7
 72
3
 73
2
 74
6
 0
VERTEX
 8
D_SEN_77
 10
0
 20
0
 30
0
 70
128
 71
8
 72
4
 73
3
 74
7
 0
VERTEX
 8
D_SEN_77
 10
0
 20
0
 30
0
 70
128
 71
5
 72
1
 73
4
 74
8
 0
VERTEX
 8
D_SEN_77
 10
0
 20
0
 30
0
 70
128
 71
4
 72
1
 73
2
 74
3
 0
SEQEND
 0
POLYLINE
 8
D_SEN_76
 66
1
 10
0.0
 20
0.0
 30
0.0
 70
64
 71
8
 72
5
 0
VERTEX
 8
D_SEN_76
 10
-0.6578
 20
-13.191
 30
40.8368
 70
192
 0
VERTEX
 8
D_SEN_76
 10
-0.6578
 20
-13.287
 30
40.8368
 70
192
 0
VERTEX
 8
D_SEN_76
 10
-0.5698
 20
-13.287
 30
40.8368
 70
192
 0
VERTEX
 8
D_SEN_76
 10
-0.5698
 20
-13.191
 30
40.8368
 70
192
 0
VERTEX
 8
D_SEN_76
 10
-0.6578
 20
-13.191
 30
40.8625
 70
192
 0
VERTEX
 8
D_SEN_76
 10
-0.6578
 20
-13.287
 30
40.8625
 70
192
 0
VERTEX
 8
D_SEN_76
 10
-0.5698
 20
-13.287
 30
40.8625
 70
192
 0
VERTEX
 8
D_SEN_76
 10
-0.5698
 20
-13.191
 30
40.8625
 70
192
 0
VERTEX
 8
D_SEN_76
 10
0
 20
0
 30
0
 70
128
 71
6
 72
2
 73
1
 74
5
 0
VERTEX
 8
D_SEN_76
 10
0
 20
0
 30
0
 70
128
 71
7
 72
3
 73
2
 74
6
 0
VERTEX
 8
D_SEN_76
 10
0
 20
0
 30
0
 70
128
 71
8
 72
4
 73
3
 74
7
 0
VERTEX
 8
D_SEN_76
 10
0
 20
0
 30
0
 70
128
 71
5
 72
1
 73
4
 74
8
 0
VERTEX
 8
D_SEN_76
 10
0
 20
0
 30
0
 70
128
 71
4
 72
1
 73
2
 74
3
 0
SEQEND
 0
POLYLINE
 8
D_SEN_75
 66
1
 10
0.0
 20
0.0
 30
0.0
 70
64
 71
8
 72
5
 0
VERTEX
 8
D_SEN_75
 10
-0.6578
 20
-12.4554
 30
40.8368
 70
192
 0
VERTEX
 8
D_SEN_75
 10
-0.6578
 20
-12.5514
 30
40.8368
 70
192
 0
VERTEX
 8
D_SEN_75
 10
-0.5698
 20
-12.5514
 30
40.8368
 70
192
 0
VERTEX
 8
D_SEN_75
 10
-0.5698
 20
-12.4554
 30
40.8368
 70
192
 0
VERTEX
 8
D_SEN_75
 10
-0.6578
 20
-12.4554
 30
40.8625
 70
192
 0
VERTEX
 8
D_SEN_75
 10
-0.6578
 20
-12.5514
 30
40.8625
 70
192
 0
VERTEX
 8
D_SEN_75
 10
-0.5698
 20
-12.5514
 30
40.8625
 70
192
 0
VERTEX
 8
D_SEN_75
 10
-0.5698
 20
-12.4554
 30
40.8625
 70
192
 0
VERTEX
 8
D_SEN_75
 10
0
 20
0
 30
0
 70
128
 71
6
 72
2
 73
1
 74
5
 0
VERTEX
 8
D_SEN_75
 10
0
 20
0
 30
0
 70
128
 71
7
 72
3
 73
2
 74
6
 0
VERTEX
 8
D_SEN_75
 10
0
 20
0
 30
0
 70
128
 71
8
 72
4
 73
3
 74
7
 0
VERTEX
 8
D_SEN_75
 10
0
 20
0
 30
0
 70
128
 71
5
 72
1
 73
4
 74
8
 0
VERTEX
 8
D_SEN_75
 10
0
 20
0
 30
0
 70
128
 71
4
 72
1
 73
2
 74
3
 0
SEQEND
 0
POLYLINE
 8
D_SEN_74
 66
1
 10
0.0
 20
0.0
 30
0.0
 70
64
 71
8
 72
5
 0
VERTEX
 8
D_SEN_74
 10
-0.6578
 20
-11.7335
 30
40.8368
 70
192
 0
VERTEX
 8
D_SEN_74
 10
-0.6578
 20
-11.8295
 30
40.8368
 70
192
 0
VERTEX
 8
D_SEN_74
 10
-0.5698
 20
-11.8295
 30
40.8368
 70
192
 0
VERTEX
 8
D_SEN_74
 10
-0.5698
 20
-11.7335
 30
40.8368
 70
192
 0
VERTEX
 8
D_SEN_74
 10
-0.6578
 20
-11.7335
 30
40.8625
 70
192
 0
VERTEX
 8
D_SEN_74
 10
-0.6578
 20
-11.8295
 30
40.8625
 70
192
 0
VERTEX
 8
D_SEN_74
 10
-0.5698
 20
-11.8295
 30
40.8625
 70
192
 0
VERTEX
 8
D_SEN_74
 10
-0.5698
 20
-11.7335
 30
40.8625
 70
192
 0
VERTEX
 8
D_SEN_74
 10
0
 20
0
 30
0
 70
128
 71
6
 72
2
 73
1
 74
5
 0
VERTEX
 8
D_SEN_74
 10
0
 20
0
 30
0
 70
128
 71
7
 72
3
 73
2
 74
6
 0
VERTEX
 8
D_SEN_74
 10
0
 20
0
 30
0
 70
128
 71
8
 72
4
 73
3
 74
7
 0
VERTEX
 8
D_SEN_74
 10
0
 20
0
 30
0
 70
128
 71
5
 72
1
 73
4
 74
8
 0
VERTEX
 8
D_SEN_74
 10
0
 20
0
 30
0
 70
128
 71
4
 72
1
 73
2
 74
3
 0
SEQEND
 0
POLYLINE
 8
D_SEN_73
 66
1
 10
0.0
 20
0.0
 30
0.0
 70
64
 71
8
 72
5
 0
VERTEX
 8
D_SEN_73
 10
-0.6578
 20
-10.9979
 30
40.8368
 70
192
 0
VERTEX
 8
D_SEN_73
 10
-0.6578
 20
-11.0939
 30
40.8368
 70
192
 0
VERTEX
 8
D_SEN_73
 10
-0.5698
 20
-11.0939
 30
40.8368
 70
192
 0
VERTEX
 8
D_SEN_73
 10
-0.5698
 20
-10.9979
 30
40.8368
 70
192
 0
VERTEX
 8
D_SEN_73
 10
-0.6578
 20
-10.9979
 30
40.8625
 70
192
 0
VERTEX
 8
D_SEN_73
 10
-0.6578
 20
-11.0939
 30
40.8625
 70
192
 0
VERTEX
 8
D_SEN_73
 10
-0.5698
 20
-11.0939
 30
40.8625
 70
192
 0
VERTEX
 8
D_SEN_73
 10
-0.5698
 20
-10.9979
 30
40.8625
 70
192
 0
VERTEX
 8
D_SEN_73
 10
0
 20
0
 30
0
 70
128
 71
6
 72
2
 73
1
 74
5
 0
VERTEX
 8
D_SEN_73
 10
0
 20
0
 30
0
 70
128
 71
7
 72
3
 73
2
 74
6
 0
VERTEX
 8
D_SEN_73
 10
0
 20
0
 30
0
 70
128
 71
8
 72
4
 73
3
 74
7
 0
VERTEX
 8
D_SEN_73
 10
0
 20
0
 30
0
 70
128
 71
5
 72
1
 73
4
 74
8
 0
VERTEX
 8
D_SEN_73
 10
0
 20
0
 30
0
 70
128
 71
4
 72
1
 73
2
 74
3
 0
SEQEND
 0
POLYLINE
 8
D_SEN_72
 66
1
 10
0.0
 20
0.0
 30
0.0
 70
64
 71
8
 72
5
 0
VERTEX
 8
D_SEN_72
 10
-0.6578
 20
-10.2896
 30
40.8368
 70
192
 0
VERTEX
 8
D_SEN_72
 10
-0.6578
 20
-10.3856
 30
40.8368
 70
192
 0
VERTEX
 8
D_SEN_72
 10
-0.5698
 20
-10.3856
 30
40.8368
 70
192
 0
VERTEX
 8
D_SEN_72
 10
-0.5698
 20
-10.2896
 30
40.8368
 70
192
 0
VERTEX
 8
D_SEN_72
 10
-0.6578
 20
-10.2896
 30
40.8625
 70
192
 0
VERTEX
 8
D_SEN_72
 10
-0.6578
 20
-10.3856
 30
40.8625
 70
192
 0
VERTEX
 8
D_SEN_72
 10
-0.5698
 20
-10.3856
 30
40.8625
 70
192
 0
VERTEX
 8
D_SEN_72
 10
-0.5698
 20
-10.2896
 30
40.8625
 70
192
 0
VERTEX
 8
D_SEN_72
 10
0
 20
0
 30
0
 70
128
 71
6
 72
2
 73
1
 74
5
 0
VERTEX
 8
D_SEN_72
 10
0
 20
0
 30
0
 70
128
 71
7
 72
3
 73
2
 74
6
 0
VERTEX
 8
D_SEN_72
 10
0
 20
0
 30
0
 70
128
 71
8
 72
4
 73
3
 74
7
 0
VERTEX
 8
D_SEN_72
 10
0
 20
0
 30
0
 70
128
 71
5
 72
1
 73
4
 74
8
 0
VERTEX
 8
D_SEN_72
 10
0
 20
0
 30
0
 70
128
 71
4
 72
1
 73
2
 74
3
 0
SEQEND
 0
POLYLINE
 8
D_SEN_71
 66
1
 10
0.0
 20
0.0
 30
0.0
 70
64
 71
8
 72
5
 0
VERTEX
 8
D_SEN_71
 10
0.004
 20
-14.6213
 30
40.8368
 70
192
 0
VERTEX
 8
D_SEN_71
 10
0.004
 20
-14.7173
 30
40.8368
 70
192
 0
VERTEX
 8
D_SEN_71
 10
0.092
 20
-14.7173
 30
40.8368
 70
192
 0
VERTEX
 8
D_SEN_71
 10
0.092
 20
-14.6213
 30
40.8368
 70
192
 0
VERTEX
 8
D_SEN_71
 10
0.004
 20
-14.6213
 30
40.8625
 70
192
 0
VERTEX
 8
D_SEN_71
 10
0.004
 20
-14.7173
 30
40.8625
 70
192
 0
VERTEX
 8
D_SEN_71
 10
0.092
 20
-14.7173
 30
40.8625
 70
192
 0
VERTEX
 8
D_SEN_71
 10
0.092
 20
-14.6213
 30
40.8625
 70
192
 0
VERTEX
 8
D_SEN_71
 10
0
 20
0
 30
0
 70
128
 71
6
 72
2
 73
1
 74
5
 0
VERTEX
 8
D_SEN_71
 10
0
 20
0
 30
0
 70
128
 71
7
 72
3
 73
2
 74
6
 0
VERTEX
 8
D_SEN_71
 10
0
 20
0
 30
0
 70
128
 71
8
 72
4
 73
3
 74
7
 0
VERTEX
 8
D_SEN_71
 10
0
 20
0
 30
0
 70
128
 71
5
 72
1
 73
4
 74
8
 0
VERTEX
 8
D_SEN_71
 10
0
 20
0
 30
0
 70
128
 71
4
 72
1
 73
2
 74
3
 0
SEQEND
 0
POLYLINE
 8
D_SEN_70
 66
1
 10
0.0
 20
0.0
 30
0.0
 70
64
 71
8
 72
5
 0
VERTEX
 8
D_SEN_70
 10
0.004
 20
-13.8993
 30
40.8368
 70
192
 0
VERTEX
 8
D_SEN_70
 10
0.004
 20
-13.9953
 30
40.8368
 70
192
 0
VERTEX
 8
D_SEN_70
 10
0.092
 20
-13.9953
 30
40.8368
 70
192
 0
VERTEX
 8
D_SEN_70
 10
0.092
 20
-13.8993
 30
40.8368
 70
192
 0
VERTEX
 8
D_SEN_70
 10
0.004
 20
-13.8993
 30
40.8625
 70
192
 0
VERTEX
 8
D_SEN_70
 10
0.004
 20
-13.9953
 30
40.8625
 70
192
 0
VERTEX
 8
D_SEN_70
 10
0.092
 20
-13.9953
 30
40.8625
 70
192
 0
VERTEX
 8
D_SEN_70
 10
0.092
 20
-13.8993
 30
40.8625
 70
192
 0
VERTEX
 8
D_SEN_70
 10
0
 20
0
 30
0
 70
128
 71
6
 72
2
 73
1
 74
5
 0
VERTEX
 8
D_SEN_70
 10
0
 20
0
 30
0
 70
128
 71
7
 72
3
 73
2
 74
6
 0
VERTEX
 8
D_SEN_70
 10
0
 20
0
 30
0
 70
128
 71
8
 72
4
 73
3
 74
7
 0
VERTEX
 8
D_SEN_70
 10
0
 20
0
 30
0
 70
128
 71
5
 72
1
 73
4
 74
8
 0
VERTEX
 8
D_SEN_70
 10
0
 20
0
 30
0
 70
128
 71
4
 72
1
 73
2
 74
3
 0
SEQEND
 0
POLYLINE
 8
D_SEN_69
 66
1
 10
0.0
 20
0.0
 30
0.0
 70
64
 71
8
 72
5
 0
VERTEX
 8
D_SEN_69
 10
0.004
 20
-13.191
 30
40.8368
 70
192
 0
VERTEX
 8
D_SEN_69
 10
0.004
 20
-13.287
 30
40.8368
 70
192
 0
VERTEX
 8
D_SEN_69
 10
0.092
 20
-13.287
 30
40.8368
 70
192
 0
VERTEX
 8
D_SEN_69
 10
0.092
 20
-13.191
 30
40.8368
 70
192
 0
VERTEX
 8
D_SEN_69
 10
0.004
 20
-13.191
 30
40.8625
 70
192
 0
VERTEX
 8
D_SEN_69
 10
0.004
 20
-13.287
 30
40.8625
 70
192
 0
VERTEX
 8
D_SEN_69
 10
0.092
 20
-13.287
 30
40.8625
 70
192
 0
VERTEX
 8
D_SEN_69
 10
0.092
 20
-13.191
 30
40.8625
 70
192
 0
VERTEX
 8
D_SEN_69
 10
0
 20
0
 30
0
 70
128
 71
6
 72
2
 73
1
 74
5
 0
VERTEX
 8
D_SEN_69
 10
0
 20
0
 30
0
 70
128
 71
7
 72
3
 73
2
 74
6
 0
VERTEX
 8
D_SEN_69
 10
0
 20
0
 30
0
 70
128
 71
8
 72
4
 73
3
 74
7
 0
VERTEX
 8
D_SEN_69
 10
0
 20
0
 30
0
 70
128
 71
5
 72
1
 73
4
 74
8
 0
VERTEX
 8
D_SEN_69
 10
0
 20
0
 30
0
 70
128
 71
4
 72
1
 73
2
 74
3
 0
SEQEND
 0
POLYLINE
 8
D_SEN_68
 66
1
 10
0.0
 20
0.0
 30
0.0
 70
64
 71
8
 72
5
 0
VERTEX
 8
D_SEN_68
 10
0.004
 20
-12.4554
 30
40.8368
 70
192
 0
VERTEX
 8
D_SEN_68
 10
0.004
 20
-12.5514
 30
40.8368
 70
192
 0
VERTEX
 8
D_SEN_68
 10
0.092
 20
-12.5514
 30
40.8368
 70
192
 0
VERTEX
 8
D_SEN_68
 10
0.092
 20
-12.4554
 30
40.8368
 70
192
 0
VERTEX
 8
D_SEN_68
 10
0.004
 20
-12.4554
 30
40.8625
 70
192
 0
VERTEX
 8
D_SEN_68
 10
0.004
 20
-12.5514
 30
40.8625
 70
192
 0
VERTEX
 8
D_SEN_68
 10
0.092
 20
-12.5514
 30
40.8625
 70
192
 0
VERTEX
 8
D_SEN_68
 10
0.092
 20
-12.4554
 30
40.8625
 70
192
 0
VERTEX
 8
D_SEN_68
 10
0
 20
0
 30
0
 70
128
 71
6
 72
2
 73
1
 74
5
 0
VERTEX
 8
D_SEN_68
 10
0
 20
0
 30
0
 70
128
 71
7
 72
3
 73
2
 74
6
 0
VERTEX
 8
D_SEN_68
 10
0
 20
0
 30
0
 70
128
 71
8
 72
4
 73
3
 74
7
 0
VERTEX
 8
D_SEN_68
 10
0
 20
0
 30
0
 70
128
 71
5
 72
1
 73
4
 74
8
 0
VERTEX
 8
D_SEN_68
 10
0
 20
0
 30
0
 70
128
 71
4
 72
1
 73
2
 74
3
 0
SEQEND
 0
POLYLINE
 8
D_SEN_67
 66
1
 10
0.0
 20
0.0
 30
0.0
 70
64
 71
8
 72
5
 0
VERTEX
 8
D_SEN_67
 10
0.004
 20
-11.7335
 30
40.8368
 70
192
 0
VERTEX
 8
D_SEN_67
 10
0.004
 20
-11.8295
 30
40.8368
 70
192
 0
VERTEX
 8
D_SEN_67
 10
0.092
 20
-11.8295
 30
40.8368
 70
192
 0
VERTEX
 8
D_SEN_67
 10
0.092
 20
-11.7335
 30
40.8368
 70
192
 0
VERTEX
 8
D_SEN_67
 10
0.004
 20
-11.7335
 30
40.8625
 70
192
 0
VERTEX
 8
D_SEN_67
 10
0.004
 20
-11.8295
 30
40.8625
 70
192
 0
VERTEX
 8
D_SEN_67
 10
0.092
 20
-11.8295
 30
40.8625
 70
192
 0
VERTEX
 8
D_SEN_67
 10
0.092
 20
-11.7335
 30
40.8625
 70
192
 0
VERTEX
 8
D_SEN_67
 10
0
 20
0
 30
0
 70
128
 71
6
 72
2
 73
1
 74
5
 0
VERTEX
 8
D_SEN_67
 10
0
 20
0
 30
0
 70
128
 71
7
 72
3
 73
2
 74
6
 0
VERTEX
 8
D_SEN_67
 10
0
 20
0
 30
0
 70
128
 71
8
 72
4
 73
3
 74
7
 0
VERTEX
 8
D_SEN_67
 10
0
 20
0
 30
0
 70
128
 71
5
 72
1
 73
4
 74
8
 0
VERTEX
 8
D_SEN_67
 10
0
 20
0
 30
0
 70
128
 71
4
 72
1
 73
2
 74
3
 0
SEQEND
 0
POLYLINE
 8
D_SEN_66
 66
1
 10
0.0
 20
0.0
 30
0.0
 70
64
 71
8
 72
5
 0
VERTEX
 8
D_SEN_66
 10
0.004
 20
-10.9979
 30
40.8368
 70
192
 0
VERTEX
 8
D_SEN_66
 10
0.004
 20
-11.0939
 30
40.8368
 70
192
 0
VERTEX
 8
D_SEN_66
 10
0.092
 20
-11.0939
 30
40.8368
 70
192
 0
VERTEX
 8
D_SEN_66
 10
0.092
 20
-10.9979
 30
40.8368
 70
192
 0
VERTEX
 8
D_SEN_66
 10
0.004
 20
-10.9979
 30
40.8625
 70
192
 0
VERTEX
 8
D_SEN_66
 10
0.004
 20
-11.0939
 30
40.8625
 70
192
 0
VERTEX
 8
D_SEN_66
 10
0.092
 20
-11.0939
 30
40.8625
 70
192
 0
VERTEX
 8
D_SEN_66
 10
0.092
 20
-10.9979
 30
40.8625
 70
192
 0
VERTEX
 8
D_SEN_66
 10
0
 20
0
 30
0
 70
128
 71
6
 72
2
 73
1
 74
5
 0
VERTEX
 8
D_SEN_66
 10
0
 20
0
 30
0
 70
128
 71
7
 72
3
 73
2
 74
6
 0
VERTEX
 8
D_SEN_66
 10
0
 20
0
 30
0
 70
128
 71
8
 72
4
 73
3
 74
7
 0
VERTEX
 8
D_SEN_66
 10
0
 20
0
 30
0
 70
128
 71
5
 72
1
 73
4
 74
8
 0
VERTEX
 8
D_SEN_66
 10
0
 20
0
 30
0
 70
128
 71
4
 72
1
 73
2
 74
3
 0
SEQEND
 0
POLYLINE
 8
D_SEN_65
 66
1
 10
0.0
 20
0.0
 30
0.0
 70
64
 71
8
 72
5
 0
VERTEX
 8
D_SEN_65
 10
0.004
 20
-10.2896
 30
40.8368
 70
192
 0
VERTEX
 8
D_SEN_65
 10
0.004
 20
-10.3856
 30
40.8368
 70
192
 0
VERTEX
 8
D_SEN_65
 10
0.092
 20
-10.3856
 30
40.8368
 70
192
 0
VERTEX
 8
D_SEN_65
 10
0.092
 20
-10.2896
 30
40.8368
 70
192
 0
VERTEX
 8
D_SEN_65
 10
0.004
 20
-10.2896
 30
40.8625
 70
192
 0
VERTEX
 8
D_SEN_65
 10
0.004
 20
-10.3856
 30
40.8625
 70
192
 0
VERTEX
 8
D_SEN_65
 10
0.092
 20
-10.3856
 30
40.8625
 70
192
 0
VERTEX
 8
D_SEN_65
 10
0.092
 20
-10.2896
 30
40.8625
 70
192
 0
VERTEX
 8
D_SEN_65
 10
0
 20
0
 30
0
 70
128
 71
6
 72
2
 73
1
 74
5
 0
VERTEX
 8
D_SEN_65
 10
0
 20
0
 30
0
 70
128
 71
7
 72
3
 73
2
 74
6
 0
VERTEX
 8
D_SEN_65
 10
0
 20
0
 30
0
 70
128
 71
8
 72
4
 73
3
 74
7
 0
VERTEX
 8
D_SEN_65
 10
0
 20
0
 30
0
 70
128
 71
5
 72
1
 73
4
 74
8
 0
VERTEX
 8
D_SEN_65
 10
0
 20
0
 30
0
 70
128
 71
4
 72
1
 73
2
 74
3
 0
SEQEND
 0
POLYLINE
 8
D_SEN_64
 66
1
 10
0.0
 20
0.0
 30
0.0
 70
64
 71
8
 72
5
 0
VERTEX
 8
D_SEN_64
 10
0.6458
 20
-14.6213
 30
40.8368
 70
192
 0
VERTEX
 8
D_SEN_64
 10
0.6458
 20
-14.7173
 30
40.8368
 70
192
 0
VERTEX
 8
D_SEN_64
 10
0.7338
 20
-14.7173
 30
40.8368
 70
192
 0
VERTEX
 8
D_SEN_64
 10
0.7338
 20
-14.6213
 30
40.8368
 70
192
 0
VERTEX
 8
D_SEN_64
 10
0.6458
 20
-14.6213
 30
40.8625
 70
192
 0
VERTEX
 8
D_SEN_64
 10
0.6458
 20
-14.7173
 30
40.8625
 70
192
 0
VERTEX
 8
D_SEN_64
 10
0.7338
 20
-14.7173
 30
40.8625
 70
192
 0
VERTEX
 8
D_SEN_64
 10
0.7338
 20
-14.6213
 30
40.8625
 70
192
 0
VERTEX
 8
D_SEN_64
 10
0
 20
0
 30
0
 70
128
 71
6
 72
2
 73
1
 74
5
 0
VERTEX
 8
D_SEN_64
 10
0
 20
0
 30
0
 70
128
 71
7
 72
3
 73
2
 74
6
 0
VERTEX
 8
D_SEN_64
 10
0
 20
0
 30
0
 70
128
 71
8
 72
4
 73
3
 74
7
 0
VERTEX
 8
D_SEN_64
 10
0
 20
0
 30
0
 70
128
 71
5
 72
1
 73
4
 74
8
 0
VERTEX
 8
D_SEN_64
 10
0
 20
0
 30
0
 70
128
 71
4
 72
1
 73
2
 74
3
 0
SEQEND
 0
POLYLINE
 8
D_SEN_63
 66
1
 10
0.0
 20
0.0
 30
0.0
 70
64
 71
8
 72
5
 0
VERTEX
 8
D_SEN_63
 10
0.6458
 20
-13.8993
 30
40.8368
 70
192
 0
VERTEX
 8
D_SEN_63
 10
0.6458
 20
-13.9953
 30
40.8368
 70
192
 0
VERTEX
 8
D_SEN_63
 10
0.7338
 20
-13.9953
 30
40.8368
 70
192
 0
VERTEX
 8
D_SEN_63
 10
0.7338
 20
-13.8993
 30
40.8368
 70
192
 0
VERTEX
 8
D_SEN_63
 10
0.6458
 20
-13.8993
 30
40.8625
 70
192
 0
VERTEX
 8
D_SEN_63
 10
0.6458
 20
-13.9953
 30
40.8625
 70
192
 0
VERTEX
 8
D_SEN_63
 10
0.7338
 20
-13.9953
 30
40.8625
 70
192
 0
VERTEX
 8
D_SEN_63
 10
0.7338
 20
-13.8993
 30
40.8625
 70
192
 0
VERTEX
 8
D_SEN_63
 10
0
 20
0
 30
0
 70
128
 71
6
 72
2
 73
1
 74
5
 0
VERTEX
 8
D_SEN_63
 10
0
 20
0
 30
0
 70
128
 71
7
 72
3
 73
2
 74
6
 0
VERTEX
 8
D_SEN_63
 10
0
 20
0
 30
0
 70
128
 71
8
 72
4
 73
3
 74
7
 0
VERTEX
 8
D_SEN_63
 10
0
 20
0
 30
0
 70
128
 71
5
 72
1
 73
4
 74
8
 0
VERTEX
 8
D_SEN_63
 10
0
 20
0
 30
0
 70
128
 71
4
 72
1
 73
2
 74
3
 0
SEQEND
 0
POLYLINE
 8
D_SEN_62
 66
1
 10
0.0
 20
0.0
 30
0.0
 70
64
 71
8
 72
5
 0
VERTEX
 8
D_SEN_62
 10
0.6458
 20
-13.191
 30
40.8368
 70
192
 0
VERTEX
 8
D_SEN_62
 10
0.6458
 20
-13.287
 30
40.8368
 70
192
 0
VERTEX
 8
D_SEN_62
 10
0.7338
 20
-13.287
 30
40.8368
 70
192
 0
VERTEX
 8
D_SEN_62
 10
0.7338
 20
-13.191
 30
40.8368
 70
192
 0
VERTEX
 8
D_SEN_62
 10
0.6458
 20
-13.191
 30
40.8625
 70
192
 0
VERTEX
 8
D_SEN_62
 10
0.6458
 20
-13.287
 30
40.8625
 70
192
 0
VERTEX
 8
D_SEN_62
 10
0.7338
 20
-13.287
 30
40.8625
 70
192
 0
VERTEX
 8
D_SEN_62
 10
0.7338
 20
-13.191
 30
40.8625
 70
192
 0
VERTEX
 8
D_SEN_62
 10
0
 20
0
 30
0
 70
128
 71
6
 72
2
 73
1
 74
5
 0
VERTEX
 8
D_SEN_62
 10
0
 20
0
 30
0
 70
128
 71
7
 72
3
 73
2
 74
6
 0
VERTEX
 8
D_SEN_62
 10
0
 20
0
 30
0
 70
128
 71
8
 72
4
 73
3
 74
7
 0
VERTEX
 8
D_SEN_62
 10
0
 20
0
 30
0
 70
128
 71
5
 72
1
 73
4
 74
8
 0
VERTEX
 8
D_SEN_62
 10
0
 20
0
 30
0
 70
128
 71
4
 72
1
 73
2
 74
3
 0
SEQEND
 0
POLYLINE
 8
D_SEN_61
 66
1
 10
0.0
 20
0.0
 30
0.0
 70
64
 71
8
 72
5
 0
VERTEX
 8
D_SEN_61
 10
0.6458
 20
-12.4554
 30
40.8368
 70
192
 0
VERTEX
 8
D_SEN_61
 10
0.6458
 20
-12.5514
 30
40.8368
 70
192
 0
VERTEX
 8
D_SEN_61
 10
0.7338
 20
-12.5514
 30
40.8368
 70
192
 0
VERTEX
 8
D_SEN_61
 10
0.7338
 20
-12.4554
 30
40.8368
 70
192
 0
VERTEX
 8
D_SEN_61
 10
0.6458
 20
-12.4554
 30
40.8625
 70
192
 0
VERTEX
 8
D_SEN_61
 10
0.6458
 20
-12.5514
 30
40.8625
 70
192
 0
VERTEX
 8
D_SEN_61
 10
0.7338
 20
-12.5514
 30
40.8625
 70
192
 0
VERTEX
 8
D_SEN_61
 10
0.7338
 20
-12.4554
 30
40.8625
 70
192
 0
VERTEX
 8
D_SEN_61
 10
0
 20
0
 30
0
 70
128
 71
6
 72
2
 73
1
 74
5
 0
VERTEX
 8
D_SEN_61
 10
0
 20
0
 30
0
 70
128
 71
7
 72
3
 73
2
 74
6
 0
VERTEX
 8
D_SEN_61
 10
0
 20
0
 30
0
 70
128
 71
8
 72
4
 73
3
 74
7
 0
VERTEX
 8
D_SEN_61
 10
0
 20
0
 30
0
 70
128
 71
5
 72
1
 73
4
 74
8
 0
VERTEX
 8
D_SEN_61
 10
0
 20
0
 30
0
 70
128
 71
4
 72
1
 73
2
 74
3
 0
SEQEND
 0
POLYLINE
 8
D_SEN_60
 66
1
 10
0.0
 20
0.0
 30
0.0
 70
64
 71
8
 72
5
 0
VERTEX
 8
D_SEN_60
 10
0.6458
 20
-11.7335
 30
40.8368
 70
192
 0
VERTEX
 8
D_SEN_60
 10
0.6458
 20
-11.8295
 30
40.8368
 70
192
 0
VERTEX
 8
D_SEN_60
 10
0.7338
 20
-11.8295
 30
40.8368
 70
192
 0
VERTEX
 8
D_SEN_60
 10
0.7338
 20
-11.7335
 30
40.8368
 70
192
 0
VERTEX
 8
D_SEN_60
 10
0.6458
 20
-11.7335
 30
40.8625
 70
192
 0
VERTEX
 8
D_SEN_60
 10
0.6458
 20
-11.8295
 30
40.8625
 70
192
 0
VERTEX
 8
D_SEN_60
 10
0.7338
 20
-11.8295
 30
40.8625
 70
192
 0
VERTEX
 8
D_SEN_60
 10
0.7338
 20
-11.7335
 30
40.8625
 70
192
 0
VERTEX
 8
D_SEN_60
 10
0
 20
0
 30
0
 70
128
 71
6
 72
2
 73
1
 74
5
 0
VERTEX
 8
D_SEN_60
 10
0
 20
0
 30
0
 70
128
 71
7
 72
3
 73
2
 74
6
 0
VERTEX
 8
D_SEN_60
 10
0
 20
0
 30
0
 70
128
 71
8
 72
4
 73
3
 74
7
 0
VERTEX
 8
D_SEN_60
 10
0
 20
0
 30
0
 70
128
 71
5
 72
1
 73
4
 74
8
 0
VERTEX
 8
D_SEN_60
 10
0
 20
0
 30
0
 70
128
 71
4
 72
1
 73
2
 74
3
 0
SEQEND
 0
POLYLINE
 8
D_SEN_59
 66
1
 10
0.0
 20
0.0
 30
0.0
 70
64
 71
8
 72
5
 0
VERTEX
 8
D_SEN_59
 10
0.6458
 20
-10.9979
 30
40.8368
 70
192
 0
VERTEX
 8
D_SEN_59
 10
0.6458
 20
-11.0939
 30
40.8368
 70
192
 0
VERTEX
 8
D_SEN_59
 10
0.7338
 20
-11.0939
 30
40.8368
 70
192
 0
VERTEX
 8
D_SEN_59
 10
0.7338
 20
-10.9979
 30
40.8368
 70
192
 0
VERTEX
 8
D_SEN_59
 10
0.6458
 20
-10.9979
 30
40.8625
 70
192
 0
VERTEX
 8
D_SEN_59
 10
0.6458
 20
-11.0939
 30
40.8625
 70
192
 0
VERTEX
 8
D_SEN_59
 10
0.7338
 20
-11.0939
 30
40.8625
 70
192
 0
VERTEX
 8
D_SEN_59
 10
0.7338
 20
-10.9979
 30
40.8625
 70
192
 0
VERTEX
 8
D_SEN_59
 10
0
 20
0
 30
0
 70
128
 71
6
 72
2
 73
1
 74
5
 0
VERTEX
 8
D_SEN_59
 10
0
 20
0
 30
0
 70
128
 71
7
 72
3
 73
2
 74
6
 0
VERTEX
 8
D_SEN_59
 10
0
 20
0
 30
0
 70
128
 71
8
 72
4
 73
3
 74
7
 0
VERTEX
 8
D_SEN_59
 10
0
 20
0
 30
0
 70
128
 71
5
 72
1
 73
4
 74
8
 0
VERTEX
 8
D_SEN_59
 10
0
 20
0
 30
0
 70
128
 71
4
 72
1
 73
2
 74
3
 0
SEQEND
 0
POLYLINE
 8
D_SEN_58
 66
1
 10
0.0
 20
0.0
 30
0.0
 70
64
 71
8
 72
5
 0
VERTEX
 8
D_SEN_58
 10
0.6458
 20
-10.2896
 30
40.8368
 70
192
 0
VERTEX
 8
D_SEN_58
 10
0.6458
 20
-10.3856
 30
40.8368
 70
192
 0
VERTEX
 8
D_SEN_58
 10
0.7338
 20
-10.3856
 30
40.8368
 70
192
 0
VERTEX
 8
D_SEN_58
 10
0.7338
 20
-10.2896
 30
40.8368
 70
192
 0
VERTEX
 8
D_SEN_58
 10
0.6458
 20
-10.2896
 30
40.8625
 70
192
 0
VERTEX
 8
D_SEN_58
 10
0.6458
 20
-10.3856
 30
40.8625
 70
192
 0
VERTEX
 8
D_SEN_58
 10
0.7338
 20
-10.3856
 30
40.8625
 70
192
 0
VERTEX
 8
D_SEN_58
 10
0.7338
 20
-10.2896
 30
40.8625
 70
192
 0
VERTEX
 8
D_SEN_58
 10
0
 20
0
 30
0
 70
128
 71
6
 72
2
 73
1
 74
5
 0
VERTEX
 8
D_SEN_58
 10
0
 20
0
 30
0
 70
128
 71
7
 72
3
 73
2
 74
6
 0
VERTEX
 8
D_SEN_58
 10
0
 20
0
 30
0
 70
128
 71
8
 72
4
 73
3
 74
7
 0
VERTEX
 8
D_SEN_58
 10
0
 20
0
 30
0
 70
128
 71
5
 72
1
 73
4
 74
8
 0
VERTEX
 8
D_SEN_58
 10
0
 20
0
 30
0
 70
128
 71
4
 72
1
 73
2
 74
3
 0
SEQEND
 0
POLYLINE
 8
D_SEN_57
 66
1
 10
0.0
 20
0.0
 30
0.0
 70
64
 71
8
 72
5
 0
VERTEX
 8
D_SEN_57
 10
1.3076
 20
-14.6213
 30
40.8368
 70
192
 0
VERTEX
 8
D_SEN_57
 10
1.3076
 20
-14.7173
 30
40.8368
 70
192
 0
VERTEX
 8
D_SEN_57
 10
1.3956
 20
-14.7173
 30
40.8368
 70
192
 0
VERTEX
 8
D_SEN_57
 10
1.3956
 20
-14.6213
 30
40.8368
 70
192
 0
VERTEX
 8
D_SEN_57
 10
1.3076
 20
-14.6213
 30
40.8625
 70
192
 0
VERTEX
 8
D_SEN_57
 10
1.3076
 20
-14.7173
 30
40.8625
 70
192
 0
VERTEX
 8
D_SEN_57
 10
1.3956
 20
-14.7173
 30
40.8625
 70
192
 0
VERTEX
 8
D_SEN_57
 10
1.3956
 20
-14.6213
 30
40.8625
 70
192
 0
VERTEX
 8
D_SEN_57
 10
0
 20
0
 30
0
 70
128
 71
6
 72
2
 73
1
 74
5
 0
VERTEX
 8
D_SEN_57
 10
0
 20
0
 30
0
 70
128
 71
7
 72
3
 73
2
 74
6
 0
VERTEX
 8
D_SEN_57
 10
0
 20
0
 30
0
 70
128
 71
8
 72
4
 73
3
 74
7
 0
VERTEX
 8
D_SEN_57
 10
0
 20
0
 30
0
 70
128
 71
5
 72
1
 73
4
 74
8
 0
VERTEX
 8
D_SEN_57
 10
0
 20
0
 30
0
 70
128
 71
4
 72
1
 73
2
 74
3
 0
SEQEND
 0
POLYLINE
 8
D_SEN_56
 66
1
 10
0.0
 20
0.0
 30
0.0
 70
64
 71
8
 72
5
 0
VERTEX
 8
D_SEN_56
 10
1.3076
 20
-13.8993
 30
40.8368
 70
192
 0
VERTEX
 8
D_SEN_56
 10
1.3076
 20
-13.9953
 30
40.8368
 70
192
 0
VERTEX
 8
D_SEN_56
 10
1.3956
 20
-13.9953
 30
40.8368
 70
192
 0
VERTEX
 8
D_SEN_56
 10
1.3956
 20
-13.8993
 30
40.8368
 70
192
 0
VERTEX
 8
D_SEN_56
 10
1.3076
 20
-13.8993
 30
40.8625
 70
192
 0
VERTEX
 8
D_SEN_56
 10
1.3076
 20
-13.9953
 30
40.8625
 70
192
 0
VERTEX
 8
D_SEN_56
 10
1.3956
 20
-13.9953
 30
40.8625
 70
192
 0
VERTEX
 8
D_SEN_56
 10
1.3956
 20
-13.8993
 30
40.8625
 70
192
 0
VERTEX
 8
D_SEN_56
 10
0
 20
0
 30
0
 70
128
 71
6
 72
2
 73
1
 74
5
 0
VERTEX
 8
D_SEN_56
 10
0
 20
0
 30
0
 70
128
 71
7
 72
3
 73
2
 74
6
 0
VERTEX
 8
D_SEN_56
 10
0
 20
0
 30
0
 70
128
 71
8
 72
4
 73
3
 74
7
 0
VERTEX
 8
D_SEN_56
 10
0
 20
0
 30
0
 70
128
 71
5
 72
1
 73
4
 74
8
 0
VERTEX
 8
D_SEN_56
 10
0
 20
0
 30
0
 70
128
 71
4
 72
1
 73
2
 74
3
 0
SEQEND
 0
POLYLINE
 8
D_SEN_55
 66
1
 10
0.0
 20
0.0
 30
0.0
 70
64
 71
8
 72
5
 0
VERTEX
 8
D_SEN_55
 10
1.3076
 20
-13.191
 30
40.8368
 70
192
 0
VERTEX
 8
D_SEN_55
 10
1.3076
 20
-13.287
 30
40.8368
 70
192
 0
VERTEX
 8
D_SEN_55
 10
1.3956
 20
-13.287
 30
40.8368
 70
192
 0
VERTEX
 8
D_SEN_55
 10
1.3956
 20
-13.191
 30
40.8368
 70
192
 0
VERTEX
 8
D_SEN_55
 10
1.3076
 20
-13.191
 30
40.8625
 70
192
 0
VERTEX
 8
D_SEN_55
 10
1.3076
 20
-13.287
 30
40.8625
 70
192
 0
VERTEX
 8
D_SEN_55
 10
1.3956
 20
-13.287
 30
40.8625
 70
192
 0
VERTEX
 8
D_SEN_55
 10
1.3956
 20
-13.191
 30
40.8625
 70
192
 0
VERTEX
 8
D_SEN_55
 10
0
 20
0
 30
0
 70
128
 71
6
 72
2
 73
1
 74
5
 0
VERTEX
 8
D_SEN_55
 10
0
 20
0
 30
0
 70
128
 71
7
 72
3
 73
2
 74
6
 0
VERTEX
 8
D_SEN_55
 10
0
 20
0
 30
0
 70
128
 71
8
 72
4
 73
3
 74
7
 0
VERTEX
 8
D_SEN_55
 10
0
 20
0
 30
0
 70
128
 71
5
 72
1
 73
4
 74
8
 0
VERTEX
 8
D_SEN_55
 10
0
 20
0
 30
0
 70
128
 71
4
 72
1
 73
2
 74
3
 0
SEQEND
 0
POLYLINE
 8
D_SEN_54
 66
1
 10
0.0
 20
0.0
 30
0.0
 70
64
 71
8
 72
5
 0
VERTEX
 8
D_SEN_54
 10
1.3076
 20
-12.4554
 30
40.8368
 70
192
 0
VERTEX
 8
D_SEN_54
 10
1.3076
 20
-12.5514
 30
40.8368
 70
192
 0
VERTEX
 8
D_SEN_54
 10
1.3956
 20
-12.5514
 30
40.8368
 70
192
 0
VERTEX
 8
D_SEN_54
 10
1.3956
 20
-12.4554
 30
40.8368
 70
192
 0
VERTEX
 8
D_SEN_54
 10
1.3076
 20
-12.4554
 30
40.8625
 70
192
 0
VERTEX
 8
D_SEN_54
 10
1.3076
 20
-12.5514
 30
40.8625
 70
192
 0
VERTEX
 8
D_SEN_54
 10
1.3956
 20
-12.5514
 30
40.8625
 70
192
 0
VERTEX
 8
D_SEN_54
 10
1.3956
 20
-12.4554
 30
40.8625
 70
192
 0
VERTEX
 8
D_SEN_54
 10
0
 20
0
 30
0
 70
128
 71
6
 72
2
 73
1
 74
5
 0
VERTEX
 8
D_SEN_54
 10
0
 20
0
 30
0
 70
128
 71
7
 72
3
 73
2
 74
6
 0
VERTEX
 8
D_SEN_54
 10
0
 20
0
 30
0
 70
128
 71
8
 72
4
 73
3
 74
7
 0
VERTEX
 8
D_SEN_54
 10
0
 20
0
 30
0
 70
128
 71
5
 72
1
 73
4
 74
8
 0
VERTEX
 8
D_SEN_54
 10
0
 20
0
 30
0
 70
128
 71
4
 72
1
 73
2
 74
3
 0
SEQEND
 0
POLYLINE
 8
D_SEN_53
 66
1
 10
0.0
 20
0.0
 30
0.0
 70
64
 71
8
 72
5
 0
VERTEX
 8
D_SEN_53
 10
1.3076
 20
-11.7335
 30
40.8368
 70
192
 0
VERTEX
 8
D_SEN_53
 10
1.3076
 20
-11.8295
 30
40.8368
 70
192
 0
VERTEX
 8
D_SEN_53
 10
1.3956
 20
-11.8295
 30
40.8368
 70
192
 0
VERTEX
 8
D_SEN_53
 10
1.3956
 20
-11.7335
 30
40.8368
 70
192
 0
VERTEX
 8
D_SEN_53
 10
1.3076
 20
-11.7335
 30
40.8625
 70
192
 0
VERTEX
 8
D_SEN_53
 10
1.3076
 20
-11.8295
 30
40.8625
 70
192
 0
VERTEX
 8
D_SEN_53
 10
1.3956
 20
-11.8295
 30
40.8625
 70
192
 0
VERTEX
 8
D_SEN_53
 10
1.3956
 20
-11.7335
 30
40.8625
 70
192
 0
VERTEX
 8
D_SEN_53
 10
0
 20
0
 30
0
 70
128
 71
6
 72
2
 73
1
 74
5
 0
VERTEX
 8
D_SEN_53
 10
0
 20
0
 30
0
 70
128
 71
7
 72
3
 73
2
 74
6
 0
VERTEX
 8
D_SEN_53
 10
0
 20
0
 30
0
 70
128
 71
8
 72
4
 73
3
 74
7
 0
VERTEX
 8
D_SEN_53
 10
0
 20
0
 30
0
 70
128
 71
5
 72
1
 73
4
 74
8
 0
VERTEX
 8
D_SEN_53
 10
0
 20
0
 30
0
 70
128
 71
4
 72
1
 73
2
 74
3
 0
SEQEND
 0
POLYLINE
 8
D_SEN_52
 66
1
 10
0.0
 20
0.0
 30
0.0
 70
64
 71
8
 72
5
 0
VERTEX
 8
D_SEN_52
 10
1.3076
 20
-10.9979
 30
40.8368
 70
192
 0
VERTEX
 8
D_SEN_52
 10
1.3076
 20
-11.0939
 30
40.8368
 70
192
 0
VERTEX
 8
D_SEN_52
 10
1.3956
 20
-11.0939
 30
40.8368
 70
192
 0
VERTEX
 8
D_SEN_52
 10
1.3956
 20
-10.9979
 30
40.8368
 70
192
 0
VERTEX
 8
D_SEN_52
 10
1.3076
 20
-10.9979
 30
40.8625
 70
192
 0
VERTEX
 8
D_SEN_52
 10
1.3076
 20
-11.0939
 30
40.8625
 70
192
 0
VERTEX
 8
D_SEN_52
 10
1.3956
 20
-11.0939
 30
40.8625
 70
192
 0
VERTEX
 8
D_SEN_52
 10
1.3956
 20
-10.9979
 30
40.8625
 70
192
 0
VERTEX
 8
D_SEN_52
 10
0
 20
0
 30
0
 70
128
 71
6
 72
2
 73
1
 74
5
 0
VERTEX
 8
D_SEN_52
 10
0
 20
0
 30
0
 70
128
 71
7
 72
3
 73
2
 74
6
 0
VERTEX
 8
D_SEN_52
 10
0
 20
0
 30
0
 70
128
 71
8
 72
4
 73
3
 74
7
 0
VERTEX
 8
D_SEN_52
 10
0
 20
0
 30
0
 70
128
 71
5
 72
1
 73
4
 74
8
 0
VERTEX
 8
D_SEN_52
 10
0
 20
0
 30
0
 70
128
 71
4
 72
1
 73
2
 74
3
 0
SEQEND
 0
POLYLINE
 8
D_SEN_51
 66
1
 10
0.0
 20
0.0
 30
0.0
 70
64
 71
8
 72
5
 0
VERTEX
 8
D_SEN_51
 10
1.3076
 20
-10.2896
 30
40.8368
 70
192
 0
VERTEX
 8
D_SEN_51
 10
1.3076
 20
-10.3856
 30
40.8368
 70
192
 0
VERTEX
 8
D_SEN_51
 10
1.3956
 20
-10.3856
 30
40.8368
 70
192
 0
VERTEX
 8
D_SEN_51
 10
1.3956
 20
-10.2896
 30
40.8368
 70
192
 0
VERTEX
 8
D_SEN_51
 10
1.3076
 20
-10.2896
 30
40.8625
 70
192
 0
VERTEX
 8
D_SEN_51
 10
1.3076
 20
-10.3856
 30
40.8625
 70
192
 0
VERTEX
 8
D_SEN_51
 10
1.3956
 20
-10.3856
 30
40.8625
 70
192
 0
VERTEX
 8
D_SEN_51
 10
1.3956
 20
-10.2896
 30
40.8625
 70
192
 0
VERTEX
 8
D_SEN_51
 10
0
 20
0
 30
0
 70
128
 71
6
 72
2
 73
1
 74
5
 0
VERTEX
 8
D_SEN_51
 10
0
 20
0
 30
0
 70
128
 71
7
 72
3
 73
2
 74
6
 0
VERTEX
 8
D_SEN_51
 10
0
 20
0
 30
0
 70
128
 71
8
 72
4
 73
3
 74
7
 0
VERTEX
 8
D_SEN_51
 10
0
 20
0
 30
0
 70
128
 71
5
 72
1
 73
4
 74
8
 0
VERTEX
 8
D_SEN_51
 10
0
 20
0
 30
0
 70
128
 71
4
 72
1
 73
2
 74
3
 0
SEQEND
 0
POLYLINE
 8
HANDBRAUSE_1
 66
1
 10
0.0
 20
0.0
 30
0.0
 70
64
 71
40
 72
38
 0
VERTEX
 8
HANDBRAUSE_1
 10
-0.3336
 20
0.5367
 30
26.3568
 70
192
 0
VERTEX
 8
HANDBRAUSE_1
 10
0.6664
 20
0.4883
 30
32.324
 70
192
 0
VERTEX
 8
HANDBRAUSE_1
 10
-0.3336
 20
-0.102
 30
32.2166
 70
192
 0
VERTEX
 8
HANDBRAUSE_1
 10
-0.3336
 20
-0.1999
 30
32.5851
 70
192
 0
VERTEX
 8
HANDBRAUSE_1
 10
-0.3336
 20
-0.325
 30
32.9293
 70
192
 0
VERTEX
 8
HANDBRAUSE_1
 10
-0.3336
 20
-0.4499
 30
33.2725
 70
192
 0
VERTEX
 8
HANDBRAUSE_1
 10
-0.3336
 20
-0.5749
 30
33.6157
 70
192
 0
VERTEX
 8
HANDBRAUSE_1
 10
-0.3336
 20
-0.6998
 30
33.9588
 70
192
 0
VERTEX
 8
HANDBRAUSE_1
 10
-0.3336
 20
-0.8247
 30
34.302
 70
192
 0
VERTEX
 8
HANDBRAUSE_1
 10
-0.3336
 20
-0.9496
 30
34.6452
 70
192
 0
VERTEX
 8
HANDBRAUSE_1
 10
0.6664
 20
-0.0633
 30
26.3568
 70
192
 0
VERTEX
 8
HANDBRAUSE_1
 10
0.6664
 20
0.2388
 30
33.1345
 70
192
 0
VERTEX
 8
HANDBRAUSE_1
 10
0.6664
 20
-0.2609
 30
34.5073
 70
192
 0
VERTEX
 8
HANDBRAUSE_1
 10
0.6664
 20
-0.0638
 30
31.8372
 70
192
 0
VERTEX
 8
HANDBRAUSE_1
 10
0.6664
 20
-0.011
 30
33.8209
 70
192
 0
VERTEX
 8
HANDBRAUSE_1
 10
-0.3336
 20
0.5361
 30
31.8496
 70
192
 0
VERTEX
 8
HANDBRAUSE_1
 10
-0.3336
 20
0.4883
 30
32.324
 70
192
 0
VERTEX
 8
HANDBRAUSE_1
 10
-0.3336
 20
0.3659
 30
32.7848
 70
192
 0
VERTEX
 8
HANDBRAUSE_1
 10
-0.3336
 20
0.2388
 30
33.1345
 70
192
 0
VERTEX
 8
HANDBRAUSE_1
 10
-0.3336
 20
0.1139
 30
33.4777
 70
192
 0
VERTEX
 8
HANDBRAUSE_1
 10
-0.3336
 20
-0.011
 30
33.8209
 70
192
 0
VERTEX
 8
HANDBRAUSE_1
 10
-0.3336
 20
-0.136
 30
34.1641
 70
192
 0
VERTEX
 8
HANDBRAUSE_1
 10
-0.3336
 20
-0.2609
 30
34.5073
 70
192
 0
VERTEX
 8
HANDBRAUSE_1
 10
-0.3336
 20
-0.3858
 30
34.8504
 70
192
 0
VERTEX
 8
HANDBRAUSE_1
 10
-0.3336
 20
-0.0633
 30
26.3568
 70
192
 0
VERTEX
 8
HANDBRAUSE_1
 10
0.6664
 20
0.3659
 30
32.7848
 70
192
 0
VERTEX
 8
HANDBRAUSE_1
 10
0.6664
 20
-0.102
 30
32.2166
 70
192
 0
VERTEX
 8
HANDBRAUSE_1
 10
0.6664
 20
-0.1999
 30
32.5851
 70
192
 0
VERTEX
 8
HANDBRAUSE_1
 10
0.6664
 20
-0.325
 30
32.9293
 70
192
 0
VERTEX
 8
HANDBRAUSE_1
 10
0.6664
 20
-0.4499
 30
33.2725
 70
192
 0
VERTEX
 8
HANDBRAUSE_1
 10
0.6664
 20
-0.5749
 30
33.6157
 70
192
 0
VERTEX
 8
HANDBRAUSE_1
 10
0.6664
 20
-0.6998
 30
33.9588
 70
192
 0
VERTEX
 8
HANDBRAUSE_1
 10
0.6664
 20
-0.8247
 30
34.302
 70
192
 0
VERTEX
 8
HANDBRAUSE_1
 10
0.6664
 20
-0.9496
 30
34.6452
 70
192
 0
VERTEX
 8
HANDBRAUSE_1
 10
0.6664
 20
0.5367
 30
26.3568
 70
192
 0
VERTEX
 8
HANDBRAUSE_1
 10
0.6664
 20
0.1139
 30
33.4777
 70
192
 0
VERTEX
 8
HANDBRAUSE_1
 10
0.6664
 20
-0.3858
 30
34.8504
 70
192
 0
VERTEX
 8
HANDBRAUSE_1
 10
0.6664
 20
0.5361
 30
31.8496
 70
192
 0
VERTEX
 8
HANDBRAUSE_1
 10
0.6664
 20
-0.136
 30
34.1641
 70
192
 0
VERTEX
 8
HANDBRAUSE_1
 10
-0.3336
 20
-0.0638
 30
31.8372
 70
192
 0
VERTEX
 8
HANDBRAUSE_1
 10
0
 20
0
 30
0
 70
128
 71
36
 72
15
 73
21
 74
20
 0
VERTEX
 8
HANDBRAUSE_1
 10
0
 20
0
 30
0
 70
128
 71
15
 72
39
 73
22
 74
21
 0
VERTEX
 8
HANDBRAUSE_1
 10
0
 20
0
 30
0
 70
128
 71
40
 72
3
 73
27
 74
14
 0
VERTEX
 8
HANDBRAUSE_1
 10
0
 20
0
 30
0
 70
128
 71
3
 72
4
 73
28
 74
27
 0
VERTEX
 8
HANDBRAUSE_1
 10
0
 20
0
 30
0
 70
128
 71
4
 72
5
 73
29
 74
28
 0
VERTEX
 8
HANDBRAUSE_1
 10
0
 20
0
 30
0
 70
128
 71
5
 72
6
 73
30
 74
29
 0
VERTEX
 8
HANDBRAUSE_1
 10
0
 20
0
 30
0
 70
128
 71
6
 72
7
 73
31
 74
30
 0
VERTEX
 8
HANDBRAUSE_1
 10
0
 20
0
 30
0
 70
128
 71
7
 72
8
 73
32
 74
31
 0
VERTEX
 8
HANDBRAUSE_1
 10
0
 20
0
 30
0
 70
128
 71
8
 72
9
 73
33
 74
32
 0
VERTEX
 8
HANDBRAUSE_1
 10
0
 20
0
 30
0
 70
128
 71
9
 72
10
 73
34
 74
33
 0
VERTEX
 8
HANDBRAUSE_1
 10
0
 20
0
 30
0
 70
128
 71
24
 72
37
 73
34
 74
10
 0
VERTEX
 8
HANDBRAUSE_1
 10
0
 20
0
 30
0
 70
128
 71
35
 72
1
 73
25
 74
11
 0
VERTEX
 8
HANDBRAUSE_1
 10
0
 20
0
 30
0
 70
128
 71
39
 72
13
 73
23
 74
22
 0
VERTEX
 8
HANDBRAUSE_1
 10
0
 20
0
 30
0
 70
128
 71
26
 72
12
 73
19
 74
18
 0
VERTEX
 8
HANDBRAUSE_1
 10
0
 20
0
 30
0
 70
128
 71
12
 72
36
 73
20
 74
19
 0
VERTEX
 8
HANDBRAUSE_1
 10
0
 20
0
 30
0
 70
128
 71
16
 72
17
 73
3
 74
40
 0
VERTEX
 8
HANDBRAUSE_1
 10
0
 20
0
 30
0
 70
128
 71
17
 72
18
 73
4
 74
3
 0
VERTEX
 8
HANDBRAUSE_1
 10
0
 20
0
 30
0
 70
128
 71
18
 72
19
 73
5
 74
4
 0
VERTEX
 8
HANDBRAUSE_1
 10
0
 20
0
 30
0
 70
128
 71
19
 72
20
 73
6
 74
5
 0
VERTEX
 8
HANDBRAUSE_1
 10
0
 20
0
 30
0
 70
128
 71
20
 72
21
 73
7
 74
6
 0
VERTEX
 8
HANDBRAUSE_1
 10
0
 20
0
 30
0
 70
128
 71
21
 72
22
 73
8
 74
7
 0
VERTEX
 8
HANDBRAUSE_1
 10
0
 20
0
 30
0
 70
128
 71
22
 72
23
 73
9
 74
8
 0
VERTEX
 8
HANDBRAUSE_1
 10
0
 20
0
 30
0
 70
128
 71
23
 72
24
 73
10
 74
9
 0
VERTEX
 8
HANDBRAUSE_1
 10
0
 20
0
 30
0
 70
128
 71
13
 72
37
 73
24
 74
23
 0
VERTEX
 8
HANDBRAUSE_1
 10
0
 20
0
 30
0
 70
128
 71
14
 72
27
 73
2
 74
38
 0
VERTEX
 8
HANDBRAUSE_1
 10
0
 20
0
 30
0
 70
128
 71
27
 72
28
 73
26
 74
2
 0
VERTEX
 8
HANDBRAUSE_1
 10
0
 20
0
 30
0
 70
128
 71
28
 72
29
 73
12
 74
26
 0
VERTEX
 8
HANDBRAUSE_1
 10
0
 20
0
 30
0
 70
128
 71
29
 72
30
 73
36
 74
12
 0
VERTEX
 8
HANDBRAUSE_1
 10
0
 20
0
 30
0
 70
128
 71
30
 72
31
 73
15
 74
36
 0
VERTEX
 8
HANDBRAUSE_1
 10
0
 20
0
 30
0
 70
128
 71
31
 72
32
 73
39
 74
15
 0
VERTEX
 8
HANDBRAUSE_1
 10
0
 20
0
 30
0
 70
128
 71
32
 72
33
 73
13
 74
39
 0
VERTEX
 8
HANDBRAUSE_1
 10
0
 20
0
 30
0
 70
128
 71
33
 72
34
 73
37
 74
13
 0
VERTEX
 8
HANDBRAUSE_1
 10
0
 20
0
 30
0
 70
128
 71
38
 72
2
 73
17
 74
16
 0
VERTEX
 8
HANDBRAUSE_1
 10
0
 20
0
 30
0
 70
128
 71
2
 72
26
 73
18
 74
17
 0
VERTEX
 8
HANDBRAUSE_1
 10
0
 20
0
 30
0
 70
128
 71
16
 72
40
 73
25
 74
1
 0
VERTEX
 8
HANDBRAUSE_1
 10
0
 20
0
 30
0
 70
128
 71
1
 72
35
 73
38
 74
16
 0
VERTEX
 8
HANDBRAUSE_1
 10
0
 20
0
 30
0
 70
128
 71
40
 72
14
 73
11
 74
25
 0
VERTEX
 8
HANDBRAUSE_1
 10
0
 20
0
 30
0
 70
128
 71
35
 72
11
 73
14
 74
38
 0
SEQEND
 0
POLYLINE
 8
KEGEL
 66
1
 10
0.0
 20
0.0
 30
0.0
 70
64
 71
14
 72
14
 0
VERTEX
 8
KEGEL
 10
-0.3069
 20
-0.0578
 30
26.3962
 70
192
 0
VERTEX
 8
KEGEL
 10
-0.3069
 20
0.533
 30
26.3962
 70
192
 0
VERTEX
 8
KEGEL
 10
0.2428
 20
-0.0086
 30
25.5962
 70
192
 0
VERTEX
 8
KEGEL
 10
-0.0355
 20
0.1521
 30
25.5962
 70
192
 0
VERTEX
 8
KEGEL
 10
0.4456
 20
0.281
 30
25.5962
 70
192
 0
VERTEX
 8
KEGEL
 10
0.662
 20
-0.0443
 30
26.3962
 70
192
 0
VERTEX
 8
KEGEL
 10
-0.0468
 20
0.281
 30
25.5962
 70
192
 0
VERTEX
 8
KEGEL
 10
-0.3338
 20
0.4974
 30
26.3962
 70
192
 0
VERTEX
 8
KEGEL
 10
0.156
 20
0.4838
 30
25.5962
 70
192
 0
VERTEX
 8
KEGEL
 10
0.0744
 20
0.4541
 30
25.5962
 70
192
 0
VERTEX
 8
KEGEL
 10
0.3909
 20
0.0769
 30
25.5962
 70
192
 0
VERTEX
 8
KEGEL
 10
0.3244
 20
0.4541
 30
25.5962
 70
192
 0
VERTEX
 8
KEGEL
 10
0.0387
 20
0.0461
 30
25.5962
 70
192
 0
VERTEX
 8
KEGEL
 10
0.662
 20
0.5195
 30
26.3962
 70
192
 0
VERTEX
 8
KEGEL
 10
0
 20
0
 30
0
 70
128
 71
3
 72
6
 73
11
 74
11
 0
VERTEX
 8
KEGEL
 10
0
 20
0
 30
0
 70
128
 71
5
 72
14
 73
12
 74
12
 0
VERTEX
 8
KEGEL
 10
0
 20
0
 30
0
 70
128
 71
3
 72
1
 73
6
 74
6
 0
VERTEX
 8
KEGEL
 10
0
 20
0
 30
0
 70
128
 71
9
 72
2
 73
8
 74
8
 0
VERTEX
 8
KEGEL
 10
0
 20
0
 30
0
 70
128
 71
9
 72
8
 73
10
 74
10
 0
VERTEX
 8
KEGEL
 10
0
 20
0
 30
0
 70
128
 71
7
 72
8
 73
4
 74
4
 0
VERTEX
 8
KEGEL
 10
0
 20
0
 30
0
 70
128
 71
10
 72
8
 73
7
 74
7
 0
VERTEX
 8
KEGEL
 10
0
 20
0
 30
0
 70
128
 71
5
 72
6
 73
14
 74
14
 0
VERTEX
 8
KEGEL
 10
0
 20
0
 30
0
 70
128
 71
12
 72
14
 73
9
 74
9
 0
VERTEX
 8
KEGEL
 10
0
 20
0
 30
0
 70
128
 71
13
 72
8
 73
1
 74
1
 0
VERTEX
 8
KEGEL
 10
0
 20
0
 30
0
 70
128
 71
9
 72
14
 73
2
 74
2
 0
VERTEX
 8
KEGEL
 10
0
 20
0
 30
0
 70
128
 71
13
 72
1
 73
3
 74
3
 0
VERTEX
 8
KEGEL
 10
0
 20
0
 30
0
 70
128
 71
4
 72
8
 73
13
 74
13
 0
VERTEX
 8
KEGEL
 10
0
 20
0
 30
0
 70
128
 71
11
 72
6
 73
5
 74
5
 0
SEQEND
 0
POLYLINE
 8
D_SEN_49
 66
1
 10
0.0
 20
0.0
 30
0.0
 70
64
 71
8
 72
5
 0
VERTEX
 8
D_SEN_49
 10
0.4658
 20
-0.9294
 30
34.4898
 70
192
 0
VERTEX
 8
D_SEN_49
 10
0.4658
 20
-0.913
 30
34.4447
 70
192
 0
VERTEX
 8
D_SEN_49
 10
0.5138
 20
-0.913
 30
34.4447
 70
192
 0
VERTEX
 8
D_SEN_49
 10
0.5138
 20
-0.9294
 30
34.4898
 70
192
 0
VERTEX
 8
D_SEN_49
 10
0.4658
 20
-0.8973
 30
34.5015
 70
192
 0
VERTEX
 8
D_SEN_49
 10
0.4658
 20
-0.8809
 30
34.4564
 70
192
 0
VERTEX
 8
D_SEN_49
 10
0.5138
 20
-0.8809
 30
34.4564
 70
192
 0
VERTEX
 8
D_SEN_49
 10
0.5138
 20
-0.8973
 30
34.5015
 70
192
 0
VERTEX
 8
D_SEN_49
 10
0
 20
0
 30
0
 70
128
 71
5
 72
1
 73
2
 74
6
 0
VERTEX
 8
D_SEN_49
 10
0
 20
0
 30
0
 70
128
 71
6
 72
2
 73
3
 74
7
 0
VERTEX
 8
D_SEN_49
 10
0
 20
0
 30
0
 70
128
 71
7
 72
3
 73
4
 74
8
 0
VERTEX
 8
D_SEN_49
 10
0
 20
0
 30
0
 70
128
 71
8
 72
4
 73
1
 74
5
 0
VERTEX
 8
D_SEN_49
 10
0
 20
0
 30
0
 70
128
 71
1
 72
4
 73
3
 74
2
 0
SEQEND
 0
POLYLINE
 8
D_SEN_48
 66
1
 10
0.0
 20
0.0
 30
0.0
 70
64
 71
10
 72
7
 0
VERTEX
 8
D_SEN_48
 10
0.4658
 20
-0.8648
 30
34.3124
 70
192
 0
VERTEX
 8
D_SEN_48
 10
0.4658
 20
-0.8484
 30
34.2673
 70
192
 0
VERTEX
 8
D_SEN_48
 10
0.5138
 20
-0.8484
 30
34.2673
 70
192
 0
VERTEX
 8
D_SEN_48
 10
0.5138
 20
-0.8648
 30
34.3124
 70
192
 0
VERTEX
 8
D_SEN_48
 10
0.4658
 20
-0.8163
 30
34.279
 70
192
 0
VERTEX
 8
D_SEN_48
 10
0.5138
 20
-0.8163
 30
34.279
 70
192
 0
VERTEX
 8
D_SEN_48
 10
0.4658
 20
-0.8327
 30
34.3241
 70
192
 0
VERTEX
 8
D_SEN_48
 10
0.5138
 20
-0.8327
 30
34.3241
 70
192
 0
VERTEX
 8
D_SEN_48
 10
0.4658
 20
-0.8247
 30
34.302
 70
192
 0
VERTEX
 8
D_SEN_48
 10
0.5138
 20
-0.8247
 30
34.302
 70
192
 0
VERTEX
 8
D_SEN_48
 10
0
 20
0
 30
0
 70
128
 71
7
 72
1
 73
2
 74
9
 0
VERTEX
 8
D_SEN_48
 10
0
 20
0
 30
0
 70
128
 71
2
 72
5
 73
9
 74
9
 0
VERTEX
 8
D_SEN_48
 10
0
 20
0
 30
0
 70
128
 71
5
 72
2
 73
3
 74
6
 0
VERTEX
 8
D_SEN_48
 10
0
 20
0
 30
0
 70
128
 71
6
 72
3
 73
4
 74
10
 0
VERTEX
 8
D_SEN_48
 10
0
 20
0
 30
0
 70
128
 71
4
 72
8
 73
10
 74
10
 0
VERTEX
 8
D_SEN_48
 10
0
 20
0
 30
0
 70
128
 71
8
 72
4
 73
1
 74
7
 0
VERTEX
 8
D_SEN_48
 10
0
 20
0
 30
0
 70
128
 71
1
 72
4
 73
3
 74
2
 0
SEQEND
 0
POLYLINE
 8
D_SEN_47
 66
1
 10
0.0
 20
0.0
 30
0.0
 70
64
 71
8
 72
5
 0
VERTEX
 8
D_SEN_47
 10
0.4658
 20
-0.8015
 30
34.1385
 70
192
 0
VERTEX
 8
D_SEN_47
 10
0.4658
 20
-0.7851
 30
34.0934
 70
192
 0
VERTEX
 8
D_SEN_47
 10
0.5138
 20
-0.7851
 30
34.0934
 70
192
 0
VERTEX
 8
D_SEN_47
 10
0.5138
 20
-0.8015
 30
34.1385
 70
192
 0
VERTEX
 8
D_SEN_47
 10
0.4658
 20
-0.7694
 30
34.1502
 70
192
 0
VERTEX
 8
D_SEN_47
 10
0.4658
 20
-0.753
 30
34.1051
 70
192
 0
VERTEX
 8
D_SEN_47
 10
0.5138
 20
-0.753
 30
34.1051
 70
192
 0
VERTEX
 8
D_SEN_47
 10
0.5138
 20
-0.7694
 30
34.1502
 70
192
 0
VERTEX
 8
D_SEN_47
 10
0
 20
0
 30
0
 70
128
 71
5
 72
1
 73
2
 74
6
 0
VERTEX
 8
D_SEN_47
 10
0
 20
0
 30
0
 70
128
 71
6
 72
2
 73
3
 74
7
 0
VERTEX
 8
D_SEN_47
 10
0
 20
0
 30
0
 70
128
 71
7
 72
3
 73
4
 74
8
 0
VERTEX
 8
D_SEN_47
 10
0
 20
0
 30
0
 70
128
 71
8
 72
4
 73
1
 74
5
 0
VERTEX
 8
D_SEN_47
 10
0
 20
0
 30
0
 70
128
 71
1
 72
4
 73
3
 74
2
 0
SEQEND
 0
POLYLINE
 8
D_SEN_46
 66
1
 10
0.0
 20
0.0
 30
0.0
 70
64
 71
10
 72
7
 0
VERTEX
 8
D_SEN_46
 10
0.4658
 20
-0.7393
 30
33.9677
 70
192
 0
VERTEX
 8
D_SEN_46
 10
0.4658
 20
-0.7229
 30
33.9226
 70
192
 0
VERTEX
 8
D_SEN_46
 10
0.5138
 20
-0.7229
 30
33.9226
 70
192
 0
VERTEX
 8
D_SEN_46
 10
0.5138
 20
-0.7393
 30
33.9677
 70
192
 0
VERTEX
 8
D_SEN_46
 10
0.4658
 20
-0.6908
 30
33.9343
 70
192
 0
VERTEX
 8
D_SEN_46
 10
0.5138
 20
-0.6908
 30
33.9343
 70
192
 0
VERTEX
 8
D_SEN_46
 10
0.4658
 20
-0.7072
 30
33.9794
 70
192
 0
VERTEX
 8
D_SEN_46
 10
0.5138
 20
-0.7072
 30
33.9794
 70
192
 0
VERTEX
 8
D_SEN_46
 10
0.4658
 20
-0.6998
 30
33.9588
 70
192
 0
VERTEX
 8
D_SEN_46
 10
0.5138
 20
-0.6998
 30
33.9588
 70
192
 0
VERTEX
 8
D_SEN_46
 10
0
 20
0
 30
0
 70
128
 71
7
 72
1
 73
2
 74
9
 0
VERTEX
 8
D_SEN_46
 10
0
 20
0
 30
0
 70
128
 71
2
 72
5
 73
9
 74
9
 0
VERTEX
 8
D_SEN_46
 10
0
 20
0
 30
0
 70
128
 71
5
 72
2
 73
3
 74
6
 0
VERTEX
 8
D_SEN_46
 10
0
 20
0
 30
0
 70
128
 71
6
 72
3
 73
4
 74
10
 0
VERTEX
 8
D_SEN_46
 10
0
 20
0
 30
0
 70
128
 71
4
 72
8
 73
10
 74
10
 0
VERTEX
 8
D_SEN_46
 10
0
 20
0
 30
0
 70
128
 71
8
 72
4
 73
1
 74
7
 0
VERTEX
 8
D_SEN_46
 10
0
 20
0
 30
0
 70
128
 71
1
 72
4
 73
3
 74
2
 0
SEQEND
 0
POLYLINE
 8
D_SEN_45
 66
1
 10
0.0
 20
0.0
 30
0.0
 70
64
 71
8
 72
5
 0
VERTEX
 8
D_SEN_45
 10
0.4658
 20
-0.6771
 30
33.7966
 70
192
 0
VERTEX
 8
D_SEN_45
 10
0.4658
 20
-0.6607
 30
33.7515
 70
192
 0
VERTEX
 8
D_SEN_45
 10
0.5138
 20
-0.6607
 30
33.7515
 70
192
 0
VERTEX
 8
D_SEN_45
 10
0.5138
 20
-0.6771
 30
33.7966
 70
192
 0
VERTEX
 8
D_SEN_45
 10
0.4658
 20
-0.645
 30
33.8083
 70
192
 0
VERTEX
 8
D_SEN_45
 10
0.4658
 20
-0.6286
 30
33.7632
 70
192
 0
VERTEX
 8
D_SEN_45
 10
0.5138
 20
-0.6286
 30
33.7632
 70
192
 0
VERTEX
 8
D_SEN_45
 10
0.5138
 20
-0.645
 30
33.8083
 70
192
 0
VERTEX
 8
D_SEN_45
 10
0
 20
0
 30
0
 70
128
 71
5
 72
1
 73
2
 74
6
 0
VERTEX
 8
D_SEN_45
 10
0
 20
0
 30
0
 70
128
 71
6
 72
2
 73
3
 74
7
 0
VERTEX
 8
D_SEN_45
 10
0
 20
0
 30
0
 70
128
 71
7
 72
3
 73
4
 74
8
 0
VERTEX
 8
D_SEN_45
 10
0
 20
0
 30
0
 70
128
 71
8
 72
4
 73
1
 74
5
 0
VERTEX
 8
D_SEN_45
 10
0
 20
0
 30
0
 70
128
 71
1
 72
4
 73
3
 74
2
 0
SEQEND
 0
POLYLINE
 8
D_SEN_44
 66
1
 10
0.0
 20
0.0
 30
0.0
 70
64
 71
10
 72
7
 0
VERTEX
 8
D_SEN_44
 10
0.4658
 20
-0.61
 30
33.6123
 70
192
 0
VERTEX
 8
D_SEN_44
 10
0.4658
 20
-0.5935
 30
33.5672
 70
192
 0
VERTEX
 8
D_SEN_44
 10
0.5138
 20
-0.5935
 30
33.5672
 70
192
 0
VERTEX
 8
D_SEN_44
 10
0.5138
 20
-0.61
 30
33.6123
 70
192
 0
VERTEX
 8
D_SEN_44
 10
0.4658
 20
-0.5615
 30
33.5788
 70
192
 0
VERTEX
 8
D_SEN_44
 10
0.5138
 20
-0.5615
 30
33.5788
 70
192
 0
VERTEX
 8
D_SEN_44
 10
0.4658
 20
-0.5779
 30
33.6239
 70
192
 0
VERTEX
 8
D_SEN_44
 10
0.5138
 20
-0.5779
 30
33.6239
 70
192
 0
VERTEX
 8
D_SEN_44
 10
0.4658
 20
-0.5749
 30
33.6157
 70
192
 0
VERTEX
 8
D_SEN_44
 10
0.5138
 20
-0.5749
 30
33.6157
 70
192
 0
VERTEX
 8
D_SEN_44
 10
0
 20
0
 30
0
 70
128
 71
7
 72
1
 73
9
 74
9
 0
VERTEX
 8
D_SEN_44
 10
0
 20
0
 30
0
 70
128
 71
2
 72
5
 73
9
 74
1
 0
VERTEX
 8
D_SEN_44
 10
0
 20
0
 30
0
 70
128
 71
5
 72
2
 73
3
 74
6
 0
VERTEX
 8
D_SEN_44
 10
0
 20
0
 30
0
 70
128
 71
6
 72
3
 73
4
 74
10
 0
VERTEX
 8
D_SEN_44
 10
0
 20
0
 30
0
 70
128
 71
4
 72
8
 73
10
 74
10
 0
VERTEX
 8
D_SEN_44
 10
0
 20
0
 30
0
 70
128
 71
8
 72
4
 73
1
 74
7
 0
VERTEX
 8
D_SEN_44
 10
0
 20
0
 30
0
 70
128
 71
1
 72
4
 73
3
 74
2
 0
SEQEND
 0
POLYLINE
 8
D_SEN_43
 66
1
 10
0.0
 20
0.0
 30
0.0
 70
64
 71
8
 72
5
 0
VERTEX
 8
D_SEN_43
 10
0.4658
 20
-0.544
 30
33.4311
 70
192
 0
VERTEX
 8
D_SEN_43
 10
0.4658
 20
-0.5276
 30
33.386
 70
192
 0
VERTEX
 8
D_SEN_43
 10
0.5138
 20
-0.5276
 30
33.386
 70
192
 0
VERTEX
 8
D_SEN_43
 10
0.5138
 20
-0.544
 30
33.4311
 70
192
 0
VERTEX
 8
D_SEN_43
 10
0.4658
 20
-0.5119
 30
33.4428
 70
192
 0
VERTEX
 8
D_SEN_43
 10
0.4658
 20
-0.4955
 30
33.3977
 70
192
 0
VERTEX
 8
D_SEN_43
 10
0.5138
 20
-0.4955
 30
33.3977
 70
192
 0
VERTEX
 8
D_SEN_43
 10
0.5138
 20
-0.5119
 30
33.4428
 70
192
 0
VERTEX
 8
D_SEN_43
 10
0
 20
0
 30
0
 70
128
 71
5
 72
1
 73
2
 74
6
 0
VERTEX
 8
D_SEN_43
 10
0
 20
0
 30
0
 70
128
 71
6
 72
2
 73
3
 74
7
 0
VERTEX
 8
D_SEN_43
 10
0
 20
0
 30
0
 70
128
 71
7
 72
3
 73
4
 74
8
 0
VERTEX
 8
D_SEN_43
 10
0
 20
0
 30
0
 70
128
 71
8
 72
4
 73
1
 74
5
 0
VERTEX
 8
D_SEN_43
 10
0
 20
0
 30
0
 70
128
 71
1
 72
4
 73
3
 74
2
 0
SEQEND
 0
POLYLINE
 8
D_SEN_42
 66
1
 10
0.0
 20
0.0
 30
0.0
 70
64
 71
8
 72
5
 0
VERTEX
 8
D_SEN_42
 10
0.4658
 20
-0.4801
 30
33.2553
 70
192
 0
VERTEX
 8
D_SEN_42
 10
0.4658
 20
-0.4636
 30
33.2102
 70
192
 0
VERTEX
 8
D_SEN_42
 10
0.5138
 20
-0.4636
 30
33.2102
 70
192
 0
VERTEX
 8
D_SEN_42
 10
0.5138
 20
-0.4801
 30
33.2553
 70
192
 0
VERTEX
 8
D_SEN_42
 10
0.4658
 20
-0.448
 30
33.267
 70
192
 0
VERTEX
 8
D_SEN_42
 10
0.4658
 20
-0.4315
 30
33.2219
 70
192
 0
VERTEX
 8
D_SEN_42
 10
0.5138
 20
-0.4315
 30
33.2219
 70
192
 0
VERTEX
 8
D_SEN_42
 10
0.5138
 20
-0.448
 30
33.267
 70
192
 0
VERTEX
 8
D_SEN_42
 10
0
 20
0
 30
0
 70
128
 71
5
 72
1
 73
2
 74
6
 0
VERTEX
 8
D_SEN_42
 10
0
 20
0
 30
0
 70
128
 71
6
 72
2
 73
3
 74
7
 0
VERTEX
 8
D_SEN_42
 10
0
 20
0
 30
0
 70
128
 71
7
 72
3
 73
4
 74
8
 0
VERTEX
 8
D_SEN_42
 10
0
 20
0
 30
0
 70
128
 71
8
 72
4
 73
1
 74
5
 0
VERTEX
 8
D_SEN_42
 10
0
 20
0
 30
0
 70
128
 71
1
 72
4
 73
3
 74
2
 0
SEQEND
 0
POLYLINE
 8
D_SEN_41
 66
1
 10
0.0
 20
0.0
 30
0.0
 70
64
 71
8
 72
5
 0
VERTEX
 8
D_SEN_41
 10
0.4658
 20
-0.4128
 30
33.0706
 70
192
 0
VERTEX
 8
D_SEN_41
 10
0.4658
 20
-0.3964
 30
33.0255
 70
192
 0
VERTEX
 8
D_SEN_41
 10
0.5138
 20
-0.3964
 30
33.0255
 70
192
 0
VERTEX
 8
D_SEN_41
 10
0.5138
 20
-0.4128
 30
33.0706
 70
192
 0
VERTEX
 8
D_SEN_41
 10
0.4658
 20
-0.3807
 30
33.0823
 70
192
 0
VERTEX
 8
D_SEN_41
 10
0.4658
 20
-0.3643
 30
33.0372
 70
192
 0
VERTEX
 8
D_SEN_41
 10
0.5138
 20
-0.3643
 30
33.0372
 70
192
 0
VERTEX
 8
D_SEN_41
 10
0.5138
 20
-0.3807
 30
33.0823
 70
192
 0
VERTEX
 8
D_SEN_41
 10
0
 20
0
 30
0
 70
128
 71
5
 72
1
 73
2
 74
6
 0
VERTEX
 8
D_SEN_41
 10
0
 20
0
 30
0
 70
128
 71
6
 72
2
 73
3
 74
7
 0
VERTEX
 8
D_SEN_41
 10
0
 20
0
 30
0
 70
128
 71
7
 72
3
 73
4
 74
8
 0
VERTEX
 8
D_SEN_41
 10
0
 20
0
 30
0
 70
128
 71
8
 72
4
 73
1
 74
5
 0
VERTEX
 8
D_SEN_41
 10
0
 20
0
 30
0
 70
128
 71
1
 72
4
 73
3
 74
2
 0
SEQEND
 0
POLYLINE
 8
D_SEN_40
 66
1
 10
0.0
 20
0.0
 30
0.0
 70
64
 71
8
 72
5
 0
VERTEX
 8
D_SEN_40
 10
0.4658
 20
-0.3496
 30
32.897
 70
192
 0
VERTEX
 8
D_SEN_40
 10
0.4658
 20
-0.3332
 30
32.8519
 70
192
 0
VERTEX
 8
D_SEN_40
 10
0.5138
 20
-0.3332
 30
32.8519
 70
192
 0
VERTEX
 8
D_SEN_40
 10
0.5138
 20
-0.3496
 30
32.897
 70
192
 0
VERTEX
 8
D_SEN_40
 10
0.4658
 20
-0.3175
 30
32.9086
 70
192
 0
VERTEX
 8
D_SEN_40
 10
0.4658
 20
-0.3011
 30
32.8635
 70
192
 0
VERTEX
 8
D_SEN_40
 10
0.5138
 20
-0.3011
 30
32.8635
 70
192
 0
VERTEX
 8
D_SEN_40
 10
0.5138
 20
-0.3175
 30
32.9086
 70
192
 0
VERTEX
 8
D_SEN_40
 10
0
 20
0
 30
0
 70
128
 71
5
 72
1
 73
2
 74
6
 0
VERTEX
 8
D_SEN_40
 10
0
 20
0
 30
0
 70
128
 71
6
 72
2
 73
3
 74
7
 0
VERTEX
 8
D_SEN_40
 10
0
 20
0
 30
0
 70
128
 71
7
 72
3
 73
4
 74
8
 0
VERTEX
 8
D_SEN_40
 10
0
 20
0
 30
0
 70
128
 71
8
 72
4
 73
1
 74
5
 0
VERTEX
 8
D_SEN_40
 10
0
 20
0
 30
0
 70
128
 71
1
 72
4
 73
3
 74
2
 0
SEQEND
 0
POLYLINE
 8
D_SEN_39
 66
1
 10
0.0
 20
0.0
 30
0.0
 70
64
 71
8
 72
5
 0
VERTEX
 8
D_SEN_39
 10
0.3066
 20
-0.9294
 30
34.4898
 70
192
 0
VERTEX
 8
D_SEN_39
 10
0.3066
 20
-0.913
 30
34.4447
 70
192
 0
VERTEX
 8
D_SEN_39
 10
0.3546
 20
-0.913
 30
34.4447
 70
192
 0
VERTEX
 8
D_SEN_39
 10
0.3546
 20
-0.9294
 30
34.4898
 70
192
 0
VERTEX
 8
D_SEN_39
 10
0.3066
 20
-0.8973
 30
34.5015
 70
192
 0
VERTEX
 8
D_SEN_39
 10
0.3066
 20
-0.8809
 30
34.4564
 70
192
 0
VERTEX
 8
D_SEN_39
 10
0.3546
 20
-0.8809
 30
34.4564
 70
192
 0
VERTEX
 8
D_SEN_39
 10
0.3546
 20
-0.8973
 30
34.5015
 70
192
 0
VERTEX
 8
D_SEN_39
 10
0
 20
0
 30
0
 70
128
 71
5
 72
1
 73
2
 74
6
 0
VERTEX
 8
D_SEN_39
 10
0
 20
0
 30
0
 70
128
 71
6
 72
2
 73
3
 74
7
 0
VERTEX
 8
D_SEN_39
 10
0
 20
0
 30
0
 70
128
 71
7
 72
3
 73
4
 74
8
 0
VERTEX
 8
D_SEN_39
 10
0
 20
0
 30
0
 70
128
 71
8
 72
4
 73
1
 74
5
 0
VERTEX
 8
D_SEN_39
 10
0
 20
0
 30
0
 70
128
 71
1
 72
4
 73
3
 74
2
 0
SEQEND
 0
POLYLINE
 8
D_SEN_38
 66
1
 10
0.0
 20
0.0
 30
0.0
 70
64
 71
10
 72
7
 0
VERTEX
 8
D_SEN_38
 10
0.3066
 20
-0.8648
 30
34.3124
 70
192
 0
VERTEX
 8
D_SEN_38
 10
0.3066
 20
-0.8484
 30
34.2673
 70
192
 0
VERTEX
 8
D_SEN_38
 10
0.3546
 20
-0.8484
 30
34.2673
 70
192
 0
VERTEX
 8
D_SEN_38
 10
0.3546
 20
-0.8648
 30
34.3124
 70
192
 0
VERTEX
 8
D_SEN_38
 10
0.3066
 20
-0.8163
 30
34.279
 70
192
 0
VERTEX
 8
D_SEN_38
 10
0.3546
 20
-0.8163
 30
34.279
 70
192
 0
VERTEX
 8
D_SEN_38
 10
0.3066
 20
-0.8327
 30
34.3241
 70
192
 0
VERTEX
 8
D_SEN_38
 10
0.3546
 20
-0.8327
 30
34.3241
 70
192
 0
VERTEX
 8
D_SEN_38
 10
0.3066
 20
-0.8247
 30
34.302
 70
192
 0
VERTEX
 8
D_SEN_38
 10
0.3546
 20
-0.8247
 30
34.302
 70
192
 0
VERTEX
 8
D_SEN_38
 10
0
 20
0
 30
0
 70
128
 71
7
 72
1
 73
2
 74
9
 0
VERTEX
 8
D_SEN_38
 10
0
 20
0
 30
0
 70
128
 71
2
 72
5
 73
9
 74
9
 0
VERTEX
 8
D_SEN_38
 10
0
 20
0
 30
0
 70
128
 71
5
 72
2
 73
3
 74
6
 0
VERTEX
 8
D_SEN_38
 10
0
 20
0
 30
0
 70
128
 71
6
 72
3
 73
4
 74
10
 0
VERTEX
 8
D_SEN_38
 10
0
 20
0
 30
0
 70
128
 71
4
 72
8
 73
10
 74
10
 0
VERTEX
 8
D_SEN_38
 10
0
 20
0
 30
0
 70
128
 71
8
 72
4
 73
1
 74
7
 0
VERTEX
 8
D_SEN_38
 10
0
 20
0
 30
0
 70
128
 71
1
 72
4
 73
3
 74
2
 0
SEQEND
 0
POLYLINE
 8
D_SEN_37
 66
1
 10
0.0
 20
0.0
 30
0.0
 70
64
 71
8
 72
5
 0
VERTEX
 8
D_SEN_37
 10
0.3066
 20
-0.8015
 30
34.1385
 70
192
 0
VERTEX
 8
D_SEN_37
 10
0.3066
 20
-0.7851
 30
34.0934
 70
192
 0
VERTEX
 8
D_SEN_37
 10
0.3546
 20
-0.7851
 30
34.0934
 70
192
 0
VERTEX
 8
D_SEN_37
 10
0.3546
 20
-0.8015
 30
34.1385
 70
192
 0
VERTEX
 8
D_SEN_37
 10
0.3066
 20
-0.7694
 30
34.1502
 70
192
 0
VERTEX
 8
D_SEN_37
 10
0.3066
 20
-0.753
 30
34.1051
 70
192
 0
VERTEX
 8
D_SEN_37
 10
0.3546
 20
-0.753
 30
34.1051
 70
192
 0
VERTEX
 8
D_SEN_37
 10
0.3546
 20
-0.7694
 30
34.1502
 70
192
 0
VERTEX
 8
D_SEN_37
 10
0
 20
0
 30
0
 70
128
 71
5
 72
1
 73
2
 74
6
 0
VERTEX
 8
D_SEN_37
 10
0
 20
0
 30
0
 70
128
 71
6
 72
2
 73
3
 74
7
 0
VERTEX
 8
D_SEN_37
 10
0
 20
0
 30
0
 70
128
 71
7
 72
3
 73
4
 74
8
 0
VERTEX
 8
D_SEN_37
 10
0
 20
0
 30
0
 70
128
 71
8
 72
4
 73
1
 74
5
 0
VERTEX
 8
D_SEN_37
 10
0
 20
0
 30
0
 70
128
 71
1
 72
4
 73
3
 74
2
 0
SEQEND
 0
POLYLINE
 8
D_SEN_36
 66
1
 10
0.0
 20
0.0
 30
0.0
 70
64
 71
10
 72
7
 0
VERTEX
 8
D_SEN_36
 10
0.3066
 20
-0.7393
 30
33.9677
 70
192
 0
VERTEX
 8
D_SEN_36
 10
0.3066
 20
-0.7229
 30
33.9226
 70
192
 0
VERTEX
 8
D_SEN_36
 10
0.3546
 20
-0.7229
 30
33.9226
 70
192
 0
VERTEX
 8
D_SEN_36
 10
0.3546
 20
-0.7393
 30
33.9677
 70
192
 0
VERTEX
 8
D_SEN_36
 10
0.3066
 20
-0.6908
 30
33.9343
 70
192
 0
VERTEX
 8
D_SEN_36
 10
0.3546
 20
-0.6908
 30
33.9343
 70
192
 0
VERTEX
 8
D_SEN_36
 10
0.3066
 20
-0.7072
 30
33.9794
 70
192
 0
VERTEX
 8
D_SEN_36
 10
0.3546
 20
-0.7072
 30
33.9794
 70
192
 0
VERTEX
 8
D_SEN_36
 10
0.3066
 20
-0.6998
 30
33.9588
 70
192
 0
VERTEX
 8
D_SEN_36
 10
0.3546
 20
-0.6998
 30
33.9588
 70
192
 0
VERTEX
 8
D_SEN_36
 10
0
 20
0
 30
0
 70
128
 71
7
 72
1
 73
2
 74
9
 0
VERTEX
 8
D_SEN_36
 10
0
 20
0
 30
0
 70
128
 71
2
 72
5
 73
9
 74
9
 0
VERTEX
 8
D_SEN_36
 10
0
 20
0
 30
0
 70
128
 71
5
 72
2
 73
3
 74
6
 0
VERTEX
 8
D_SEN_36
 10
0
 20
0
 30
0
 70
128
 71
6
 72
3
 73
4
 74
10
 0
VERTEX
 8
D_SEN_36
 10
0
 20
0
 30
0
 70
128
 71
4
 72
8
 73
10
 74
10
 0
VERTEX
 8
D_SEN_36
 10
0
 20
0
 30
0
 70
128
 71
8
 72
4
 73
1
 74
7
 0
VERTEX
 8
D_SEN_36
 10
0
 20
0
 30
0
 70
128
 71
1
 72
4
 73
3
 74
2
 0
SEQEND
 0
POLYLINE
 8
D_SEN_35
 66
1
 10
0.0
 20
0.0
 30
0.0
 70
64
 71
8
 72
5
 0
VERTEX
 8
D_SEN_35
 10
0.3066
 20
-0.6771
 30
33.7966
 70
192
 0
VERTEX
 8
D_SEN_35
 10
0.3066
 20
-0.6607
 30
33.7515
 70
192
 0
VERTEX
 8
D_SEN_35
 10
0.3546
 20
-0.6607
 30
33.7515
 70
192
 0
VERTEX
 8
D_SEN_35
 10
0.3546
 20
-0.6771
 30
33.7966
 70
192
 0
VERTEX
 8
D_SEN_35
 10
0.3066
 20
-0.645
 30
33.8083
 70
192
 0
VERTEX
 8
D_SEN_35
 10
0.3066
 20
-0.6286
 30
33.7632
 70
192
 0
VERTEX
 8
D_SEN_35
 10
0.3546
 20
-0.6286
 30
33.7632
 70
192
 0
VERTEX
 8
D_SEN_35
 10
0.3546
 20
-0.645
 30
33.8083
 70
192
 0
VERTEX
 8
D_SEN_35
 10
0
 20
0
 30
0
 70
128
 71
5
 72
1
 73
2
 74
6
 0
VERTEX
 8
D_SEN_35
 10
0
 20
0
 30
0
 70
128
 71
6
 72
2
 73
3
 74
7
 0
VERTEX
 8
D_SEN_35
 10
0
 20
0
 30
0
 70
128
 71
7
 72
3
 73
4
 74
8
 0
VERTEX
 8
D_SEN_35
 10
0
 20
0
 30
0
 70
128
 71
8
 72
4
 73
1
 74
5
 0
VERTEX
 8
D_SEN_35
 10
0
 20
0
 30
0
 70
128
 71
1
 72
4
 73
3
 74
2
 0
SEQEND
 0
POLYLINE
 8
D_SEN_34
 66
1
 10
0.0
 20
0.0
 30
0.0
 70
64
 71
10
 72
7
 0
VERTEX
 8
D_SEN_34
 10
0.3066
 20
-0.61
 30
33.6123
 70
192
 0
VERTEX
 8
D_SEN_34
 10
0.3066
 20
-0.5935
 30
33.5672
 70
192
 0
VERTEX
 8
D_SEN_34
 10
0.3546
 20
-0.5935
 30
33.5672
 70
192
 0
VERTEX
 8
D_SEN_34
 10
0.3546
 20
-0.61
 30
33.6123
 70
192
 0
VERTEX
 8
D_SEN_34
 10
0.3066
 20
-0.5615
 30
33.5788
 70
192
 0
VERTEX
 8
D_SEN_34
 10
0.3546
 20
-0.5615
 30
33.5788
 70
192
 0
VERTEX
 8
D_SEN_34
 10
0.3066
 20
-0.5779
 30
33.6239
 70
192
 0
VERTEX
 8
D_SEN_34
 10
0.3546
 20
-0.5779
 30
33.6239
 70
192
 0
VERTEX
 8
D_SEN_34
 10
0.3066
 20
-0.5749
 30
33.6157
 70
192
 0
VERTEX
 8
D_SEN_34
 10
0.3546
 20
-0.5749
 30
33.6157
 70
192
 0
VERTEX
 8
D_SEN_34
 10
0
 20
0
 30
0
 70
128
 71
7
 72
1
 73
9
 74
9
 0
VERTEX
 8
D_SEN_34
 10
0
 20
0
 30
0
 70
128
 71
2
 72
5
 73
9
 74
1
 0
VERTEX
 8
D_SEN_34
 10
0
 20
0
 30
0
 70
128
 71
5
 72
2
 73
3
 74
6
 0
VERTEX
 8
D_SEN_34
 10
0
 20
0
 30
0
 70
128
 71
6
 72
3
 73
4
 74
10
 0
VERTEX
 8
D_SEN_34
 10
0
 20
0
 30
0
 70
128
 71
4
 72
8
 73
10
 74
10
 0
VERTEX
 8
D_SEN_34
 10
0
 20
0
 30
0
 70
128
 71
8
 72
4
 73
1
 74
7
 0
VERTEX
 8
D_SEN_34
 10
0
 20
0
 30
0
 70
128
 71
1
 72
4
 73
3
 74
2
 0
SEQEND
 0
POLYLINE
 8
D_SEN_33
 66
1
 10
0.0
 20
0.0
 30
0.0
 70
64
 71
8
 72
5
 0
VERTEX
 8
D_SEN_33
 10
0.3066
 20
-0.544
 30
33.4311
 70
192
 0
VERTEX
 8
D_SEN_33
 10
0.3066
 20
-0.5276
 30
33.386
 70
192
 0
VERTEX
 8
D_SEN_33
 10
0.3546
 20
-0.5276
 30
33.386
 70
192
 0
VERTEX
 8
D_SEN_33
 10
0.3546
 20
-0.544
 30
33.4311
 70
192
 0
VERTEX
 8
D_SEN_33
 10
0.3066
 20
-0.5119
 30
33.4428
 70
192
 0
VERTEX
 8
D_SEN_33
 10
0.3066
 20
-0.4955
 30
33.3977
 70
192
 0
VERTEX
 8
D_SEN_33
 10
0.3546
 20
-0.4955
 30
33.3977
 70
192
 0
VERTEX
 8
D_SEN_33
 10
0.3546
 20
-0.5119
 30
33.4428
 70
192
 0
VERTEX
 8
D_SEN_33
 10
0
 20
0
 30
0
 70
128
 71
5
 72
1
 73
2
 74
6
 0
VERTEX
 8
D_SEN_33
 10
0
 20
0
 30
0
 70
128
 71
6
 72
2
 73
3
 74
7
 0
VERTEX
 8
D_SEN_33
 10
0
 20
0
 30
0
 70
128
 71
7
 72
3
 73
4
 74
8
 0
VERTEX
 8
D_SEN_33
 10
0
 20
0
 30
0
 70
128
 71
8
 72
4
 73
1
 74
5
 0
VERTEX
 8
D_SEN_33
 10
0
 20
0
 30
0
 70
128
 71
1
 72
4
 73
3
 74
2
 0
SEQEND
 0
POLYLINE
 8
D_SEN_32
 66
1
 10
0.0
 20
0.0
 30
0.0
 70
64
 71
8
 72
5
 0
VERTEX
 8
D_SEN_32
 10
0.3066
 20
-0.4801
 30
33.2553
 70
192
 0
VERTEX
 8
D_SEN_32
 10
0.3066
 20
-0.4636
 30
33.2102
 70
192
 0
VERTEX
 8
D_SEN_32
 10
0.3546
 20
-0.4636
 30
33.2102
 70
192
 0
VERTEX
 8
D_SEN_32
 10
0.3546
 20
-0.4801
 30
33.2553
 70
192
 0
VERTEX
 8
D_SEN_32
 10
0.3066
 20
-0.448
 30
33.267
 70
192
 0
VERTEX
 8
D_SEN_32
 10
0.3066
 20
-0.4315
 30
33.2219
 70
192
 0
VERTEX
 8
D_SEN_32
 10
0.3546
 20
-0.4315
 30
33.2219
 70
192
 0
VERTEX
 8
D_SEN_32
 10
0.3546
 20
-0.448
 30
33.267
 70
192
 0
VERTEX
 8
D_SEN_32
 10
0
 20
0
 30
0
 70
128
 71
5
 72
1
 73
2
 74
6
 0
VERTEX
 8
D_SEN_32
 10
0
 20
0
 30
0
 70
128
 71
6
 72
2
 73
3
 74
7
 0
VERTEX
 8
D_SEN_32
 10
0
 20
0
 30
0
 70
128
 71
7
 72
3
 73
4
 74
8
 0
VERTEX
 8
D_SEN_32
 10
0
 20
0
 30
0
 70
128
 71
8
 72
4
 73
1
 74
5
 0
VERTEX
 8
D_SEN_32
 10
0
 20
0
 30
0
 70
128
 71
1
 72
4
 73
3
 74
2
 0
SEQEND
 0
POLYLINE
 8
D_SEN_31
 66
1
 10
0.0
 20
0.0
 30
0.0
 70
64
 71
8
 72
5
 0
VERTEX
 8
D_SEN_31
 10
0.3066
 20
-0.4128
 30
33.0706
 70
192
 0
VERTEX
 8
D_SEN_31
 10
0.3066
 20
-0.3964
 30
33.0255
 70
192
 0
VERTEX
 8
D_SEN_31
 10
0.3546
 20
-0.3964
 30
33.0255
 70
192
 0
VERTEX
 8
D_SEN_31
 10
0.3546
 20
-0.4128
 30
33.0706
 70
192
 0
VERTEX
 8
D_SEN_31
 10
0.3066
 20
-0.3807
 30
33.0823
 70
192
 0
VERTEX
 8
D_SEN_31
 10
0.3066
 20
-0.3643
 30
33.0372
 70
192
 0
VERTEX
 8
D_SEN_31
 10
0.3546
 20
-0.3643
 30
33.0372
 70
192
 0
VERTEX
 8
D_SEN_31
 10
0.3546
 20
-0.3807
 30
33.0823
 70
192
 0
VERTEX
 8
D_SEN_31
 10
0
 20
0
 30
0
 70
128
 71
5
 72
1
 73
2
 74
6
 0
VERTEX
 8
D_SEN_31
 10
0
 20
0
 30
0
 70
128
 71
6
 72
2
 73
3
 74
7
 0
VERTEX
 8
D_SEN_31
 10
0
 20
0
 30
0
 70
128
 71
7
 72
3
 73
4
 74
8
 0
VERTEX
 8
D_SEN_31
 10
0
 20
0
 30
0
 70
128
 71
8
 72
4
 73
1
 74
5
 0
VERTEX
 8
D_SEN_31
 10
0
 20
0
 30
0
 70
128
 71
1
 72
4
 73
3
 74
2
 0
SEQEND
 0
POLYLINE
 8
D_SEN_30
 66
1
 10
0.0
 20
0.0
 30
0.0
 70
64
 71
8
 72
5
 0
VERTEX
 8
D_SEN_30
 10
0.3066
 20
-0.3496
 30
32.897
 70
192
 0
VERTEX
 8
D_SEN_30
 10
0.3066
 20
-0.3332
 30
32.8519
 70
192
 0
VERTEX
 8
D_SEN_30
 10
0.3546
 20
-0.3332
 30
32.8519
 70
192
 0
VERTEX
 8
D_SEN_30
 10
0.3546
 20
-0.3496
 30
32.897
 70
192
 0
VERTEX
 8
D_SEN_30
 10
0.3066
 20
-0.3175
 30
32.9086
 70
192
 0
VERTEX
 8
D_SEN_30
 10
0.3066
 20
-0.3011
 30
32.8635
 70
192
 0
VERTEX
 8
D_SEN_30
 10
0.3546
 20
-0.3011
 30
32.8635
 70
192
 0
VERTEX
 8
D_SEN_30
 10
0.3546
 20
-0.3175
 30
32.9086
 70
192
 0
VERTEX
 8
D_SEN_30
 10
0
 20
0
 30
0
 70
128
 71
5
 72
1
 73
2
 74
6
 0
VERTEX
 8
D_SEN_30
 10
0
 20
0
 30
0
 70
128
 71
6
 72
2
 73
3
 74
7
 0
VERTEX
 8
D_SEN_30
 10
0
 20
0
 30
0
 70
128
 71
7
 72
3
 73
4
 74
8
 0
VERTEX
 8
D_SEN_30
 10
0
 20
0
 30
0
 70
128
 71
8
 72
4
 73
1
 74
5
 0
VERTEX
 8
D_SEN_30
 10
0
 20
0
 30
0
 70
128
 71
1
 72
4
 73
3
 74
2
 0
SEQEND
 0
POLYLINE
 8
D_SEN_29
 66
1
 10
0.0
 20
0.0
 30
0.0
 70
64
 71
8
 72
5
 0
VERTEX
 8
D_SEN_29
 10
0.1399
 20
-0.9294
 30
34.4898
 70
192
 0
VERTEX
 8
D_SEN_29
 10
0.1399
 20
-0.913
 30
34.4447
 70
192
 0
VERTEX
 8
D_SEN_29
 10
0.1879
 20
-0.913
 30
34.4447
 70
192
 0
VERTEX
 8
D_SEN_29
 10
0.1879
 20
-0.9294
 30
34.4898
 70
192
 0
VERTEX
 8
D_SEN_29
 10
0.1399
 20
-0.8973
 30
34.5015
 70
192
 0
VERTEX
 8
D_SEN_29
 10
0.1399
 20
-0.8809
 30
34.4564
 70
192
 0
VERTEX
 8
D_SEN_29
 10
0.1879
 20
-0.8809
 30
34.4564
 70
192
 0
VERTEX
 8
D_SEN_29
 10
0.1879
 20
-0.8973
 30
34.5015
 70
192
 0
VERTEX
 8
D_SEN_29
 10
0
 20
0
 30
0
 70
128
 71
5
 72
1
 73
2
 74
6
 0
VERTEX
 8
D_SEN_29
 10
0
 20
0
 30
0
 70
128
 71
6
 72
2
 73
3
 74
7
 0
VERTEX
 8
D_SEN_29
 10
0
 20
0
 30
0
 70
128
 71
7
 72
3
 73
4
 74
8
 0
VERTEX
 8
D_SEN_29
 10
0
 20
0
 30
0
 70
128
 71
8
 72
4
 73
1
 74
5
 0
VERTEX
 8
D_SEN_29
 10
0
 20
0
 30
0
 70
128
 71
1
 72
4
 73
3
 74
2
 0
SEQEND
 0
POLYLINE
 8
D_SEN_28
 66
1
 10
0.0
 20
0.0
 30
0.0
 70
64
 71
10
 72
7
 0
VERTEX
 8
D_SEN_28
 10
0.1399
 20
-0.8648
 30
34.3124
 70
192
 0
VERTEX
 8
D_SEN_28
 10
0.1399
 20
-0.8484
 30
34.2673
 70
192
 0
VERTEX
 8
D_SEN_28
 10
0.1879
 20
-0.8484
 30
34.2673
 70
192
 0
VERTEX
 8
D_SEN_28
 10
0.1879
 20
-0.8648
 30
34.3124
 70
192
 0
VERTEX
 8
D_SEN_28
 10
0.1399
 20
-0.8163
 30
34.279
 70
192
 0
VERTEX
 8
D_SEN_28
 10
0.1879
 20
-0.8163
 30
34.279
 70
192
 0
VERTEX
 8
D_SEN_28
 10
0.1399
 20
-0.8327
 30
34.3241
 70
192
 0
VERTEX
 8
D_SEN_28
 10
0.1879
 20
-0.8327
 30
34.3241
 70
192
 0
VERTEX
 8
D_SEN_28
 10
0.1399
 20
-0.8247
 30
34.302
 70
192
 0
VERTEX
 8
D_SEN_28
 10
0.1879
 20
-0.8247
 30
34.302
 70
192
 0
VERTEX
 8
D_SEN_28
 10
0
 20
0
 30
0
 70
128
 71
7
 72
1
 73
2
 74
9
 0
VERTEX
 8
D_SEN_28
 10
0
 20
0
 30
0
 70
128
 71
2
 72
5
 73
9
 74
9
 0
VERTEX
 8
D_SEN_28
 10
0
 20
0
 30
0
 70
128
 71
5
 72
2
 73
3
 74
6
 0
VERTEX
 8
D_SEN_28
 10
0
 20
0
 30
0
 70
128
 71
6
 72
3
 73
4
 74
10
 0
VERTEX
 8
D_SEN_28
 10
0
 20
0
 30
0
 70
128
 71
4
 72
8
 73
10
 74
10
 0
VERTEX
 8
D_SEN_28
 10
0
 20
0
 30
0
 70
128
 71
8
 72
4
 73
1
 74
7
 0
VERTEX
 8
D_SEN_28
 10
0
 20
0
 30
0
 70
128
 71
1
 72
4
 73
3
 74
2
 0
SEQEND
 0
POLYLINE
 8
D_SEN_27
 66
1
 10
0.0
 20
0.0
 30
0.0
 70
64
 71
8
 72
5
 0
VERTEX
 8
D_SEN_27
 10
0.1399
 20
-0.8015
 30
34.1385
 70
192
 0
VERTEX
 8
D_SEN_27
 10
0.1399
 20
-0.7851
 30
34.0934
 70
192
 0
VERTEX
 8
D_SEN_27
 10
0.1879
 20
-0.7851
 30
34.0934
 70
192
 0
VERTEX
 8
D_SEN_27
 10
0.1879
 20
-0.8015
 30
34.1385
 70
192
 0
VERTEX
 8
D_SEN_27
 10
0.1399
 20
-0.7694
 30
34.1502
 70
192
 0
VERTEX
 8
D_SEN_27
 10
0.1399
 20
-0.753
 30
34.1051
 70
192
 0
VERTEX
 8
D_SEN_27
 10
0.1879
 20
-0.753
 30
34.1051
 70
192
 0
VERTEX
 8
D_SEN_27
 10
0.1879
 20
-0.7694
 30
34.1502
 70
192
 0
VERTEX
 8
D_SEN_27
 10
0
 20
0
 30
0
 70
128
 71
5
 72
1
 73
2
 74
6
 0
VERTEX
 8
D_SEN_27
 10
0
 20
0
 30
0
 70
128
 71
6
 72
2
 73
3
 74
7
 0
VERTEX
 8
D_SEN_27
 10
0
 20
0
 30
0
 70
128
 71
7
 72
3
 73
4
 74
8
 0
VERTEX
 8
D_SEN_27
 10
0
 20
0
 30
0
 70
128
 71
8
 72
4
 73
1
 74
5
 0
VERTEX
 8
D_SEN_27
 10
0
 20
0
 30
0
 70
128
 71
1
 72
4
 73
3
 74
2
 0
SEQEND
 0
POLYLINE
 8
D_SEN_26
 66
1
 10
0.0
 20
0.0
 30
0.0
 70
64
 71
10
 72
7
 0
VERTEX
 8
D_SEN_26
 10
0.1399
 20
-0.7393
 30
33.9677
 70
192
 0
VERTEX
 8
D_SEN_26
 10
0.1399
 20
-0.7229
 30
33.9226
 70
192
 0
VERTEX
 8
D_SEN_26
 10
0.1879
 20
-0.7229
 30
33.9226
 70
192
 0
VERTEX
 8
D_SEN_26
 10
0.1879
 20
-0.7393
 30
33.9677
 70
192
 0
VERTEX
 8
D_SEN_26
 10
0.1399
 20
-0.6908
 30
33.9343
 70
192
 0
VERTEX
 8
D_SEN_26
 10
0.1879
 20
-0.6908
 30
33.9343
 70
192
 0
VERTEX
 8
D_SEN_26
 10
0.1399
 20
-0.7072
 30
33.9794
 70
192
 0
VERTEX
 8
D_SEN_26
 10
0.1879
 20
-0.7072
 30
33.9794
 70
192
 0
VERTEX
 8
D_SEN_26
 10
0.1399
 20
-0.6998
 30
33.9588
 70
192
 0
VERTEX
 8
D_SEN_26
 10
0.1879
 20
-0.6998
 30
33.9588
 70
192
 0
VERTEX
 8
D_SEN_26
 10
0
 20
0
 30
0
 70
128
 71
7
 72
1
 73
2
 74
9
 0
VERTEX
 8
D_SEN_26
 10
0
 20
0
 30
0
 70
128
 71
2
 72
5
 73
9
 74
9
 0
VERTEX
 8
D_SEN_26
 10
0
 20
0
 30
0
 70
128
 71
5
 72
2
 73
3
 74
6
 0
VERTEX
 8
D_SEN_26
 10
0
 20
0
 30
0
 70
128
 71
6
 72
3
 73
4
 74
10
 0
VERTEX
 8
D_SEN_26
 10
0
 20
0
 30
0
 70
128
 71
4
 72
8
 73
10
 74
10
 0
VERTEX
 8
D_SEN_26
 10
0
 20
0
 30
0
 70
128
 71
8
 72
4
 73
1
 74
7
 0
VERTEX
 8
D_SEN_26
 10
0
 20
0
 30
0
 70
128
 71
1
 72
4
 73
3
 74
2
 0
SEQEND
 0
POLYLINE
 8
D_SEN_25
 66
1
 10
0.0
 20
0.0
 30
0.0
 70
64
 71
8
 72
5
 0
VERTEX
 8
D_SEN_25
 10
0.1399
 20
-0.6771
 30
33.7966
 70
192
 0
VERTEX
 8
D_SEN_25
 10
0.1399
 20
-0.6607
 30
33.7515
 70
192
 0
VERTEX
 8
D_SEN_25
 10
0.1879
 20
-0.6607
 30
33.7515
 70
192
 0
VERTEX
 8
D_SEN_25
 10
0.1879
 20
-0.6771
 30
33.7966
 70
192
 0
VERTEX
 8
D_SEN_25
 10
0.1399
 20
-0.645
 30
33.8083
 70
192
 0
VERTEX
 8
D_SEN_25
 10
0.1399
 20
-0.6286
 30
33.7632
 70
192
 0
VERTEX
 8
D_SEN_25
 10
0.1879
 20
-0.6286
 30
33.7632
 70
192
 0
VERTEX
 8
D_SEN_25
 10
0.1879
 20
-0.645
 30
33.8083
 70
192
 0
VERTEX
 8
D_SEN_25
 10
0
 20
0
 30
0
 70
128
 71
5
 72
1
 73
2
 74
6
 0
VERTEX
 8
D_SEN_25
 10
0
 20
0
 30
0
 70
128
 71
6
 72
2
 73
3
 74
7
 0
VERTEX
 8
D_SEN_25
 10
0
 20
0
 30
0
 70
128
 71
7
 72
3
 73
4
 74
8
 0
VERTEX
 8
D_SEN_25
 10
0
 20
0
 30
0
 70
128
 71
8
 72
4
 73
1
 74
5
 0
VERTEX
 8
D_SEN_25
 10
0
 20
0
 30
0
 70
128
 71
1
 72
4
 73
3
 74
2
 0
SEQEND
 0
POLYLINE
 8
D_SEN_24
 66
1
 10
0.0
 20
0.0
 30
0.0
 70
64
 71
10
 72
7
 0
VERTEX
 8
D_SEN_24
 10
0.1399
 20
-0.61
 30
33.6123
 70
192
 0
VERTEX
 8
D_SEN_24
 10
0.1399
 20
-0.5935
 30
33.5672
 70
192
 0
VERTEX
 8
D_SEN_24
 10
0.1879
 20
-0.5935
 30
33.5672
 70
192
 0
VERTEX
 8
D_SEN_24
 10
0.1879
 20
-0.61
 30
33.6123
 70
192
 0
VERTEX
 8
D_SEN_24
 10
0.1399
 20
-0.5615
 30
33.5788
 70
192
 0
VERTEX
 8
D_SEN_24
 10
0.1879
 20
-0.5615
 30
33.5788
 70
192
 0
VERTEX
 8
D_SEN_24
 10
0.1399
 20
-0.5779
 30
33.6239
 70
192
 0
VERTEX
 8
D_SEN_24
 10
0.1879
 20
-0.5779
 30
33.6239
 70
192
 0
VERTEX
 8
D_SEN_24
 10
0.1399
 20
-0.5749
 30
33.6157
 70
192
 0
VERTEX
 8
D_SEN_24
 10
0.1879
 20
-0.5749
 30
33.6157
 70
192
 0
VERTEX
 8
D_SEN_24
 10
0
 20
0
 30
0
 70
128
 71
7
 72
1
 73
9
 74
9
 0
VERTEX
 8
D_SEN_24
 10
0
 20
0
 30
0
 70
128
 71
2
 72
5
 73
9
 74
1
 0
VERTEX
 8
D_SEN_24
 10
0
 20
0
 30
0
 70
128
 71
5
 72
2
 73
3
 74
6
 0
VERTEX
 8
D_SEN_24
 10
0
 20
0
 30
0
 70
128
 71
6
 72
3
 73
4
 74
10
 0
VERTEX
 8
D_SEN_24
 10
0
 20
0
 30
0
 70
128
 71
4
 72
8
 73
10
 74
10
 0
VERTEX
 8
D_SEN_24
 10
0
 20
0
 30
0
 70
128
 71
8
 72
4
 73
1
 74
7
 0
VERTEX
 8
D_SEN_24
 10
0
 20
0
 30
0
 70
128
 71
1
 72
4
 73
3
 74
2
 0
SEQEND
 0
POLYLINE
 8
D_SEN_23
 66
1
 10
0.0
 20
0.0
 30
0.0
 70
64
 71
8
 72
5
 0
VERTEX
 8
D_SEN_23
 10
0.1399
 20
-0.544
 30
33.4311
 70
192
 0
VERTEX
 8
D_SEN_23
 10
0.1399
 20
-0.5276
 30
33.386
 70
192
 0
VERTEX
 8
D_SEN_23
 10
0.1879
 20
-0.5276
 30
33.386
 70
192
 0
VERTEX
 8
D_SEN_23
 10
0.1879
 20
-0.544
 30
33.4311
 70
192
 0
VERTEX
 8
D_SEN_23
 10
0.1399
 20
-0.5119
 30
33.4428
 70
192
 0
VERTEX
 8
D_SEN_23
 10
0.1399
 20
-0.4955
 30
33.3977
 70
192
 0
VERTEX
 8
D_SEN_23
 10
0.1879
 20
-0.4955
 30
33.3977
 70
192
 0
VERTEX
 8
D_SEN_23
 10
0.1879
 20
-0.5119
 30
33.4428
 70
192
 0
VERTEX
 8
D_SEN_23
 10
0
 20
0
 30
0
 70
128
 71
5
 72
1
 73
2
 74
6
 0
VERTEX
 8
D_SEN_23
 10
0
 20
0
 30
0
 70
128
 71
6
 72
2
 73
3
 74
7
 0
VERTEX
 8
D_SEN_23
 10
0
 20
0
 30
0
 70
128
 71
7
 72
3
 73
4
 74
8
 0
VERTEX
 8
D_SEN_23
 10
0
 20
0
 30
0
 70
128
 71
8
 72
4
 73
1
 74
5
 0
VERTEX
 8
D_SEN_23
 10
0
 20
0
 30
0
 70
128
 71
1
 72
4
 73
3
 74
2
 0
SEQEND
 0
POLYLINE
 8
D_SEN_22
 66
1
 10
0.0
 20
0.0
 30
0.0
 70
64
 71
8
 72
5
 0
VERTEX
 8
D_SEN_22
 10
0.1399
 20
-0.4801
 30
33.2553
 70
192
 0
VERTEX
 8
D_SEN_22
 10
0.1399
 20
-0.4636
 30
33.2102
 70
192
 0
VERTEX
 8
D_SEN_22
 10
0.1879
 20
-0.4636
 30
33.2102
 70
192
 0
VERTEX
 8
D_SEN_22
 10
0.1879
 20
-0.4801
 30
33.2553
 70
192
 0
VERTEX
 8
D_SEN_22
 10
0.1399
 20
-0.448
 30
33.267
 70
192
 0
VERTEX
 8
D_SEN_22
 10
0.1399
 20
-0.4315
 30
33.2219
 70
192
 0
VERTEX
 8
D_SEN_22
 10
0.1879
 20
-0.4315
 30
33.2219
 70
192
 0
VERTEX
 8
D_SEN_22
 10
0.1879
 20
-0.448
 30
33.267
 70
192
 0
VERTEX
 8
D_SEN_22
 10
0
 20
0
 30
0
 70
128
 71
5
 72
1
 73
2
 74
6
 0
VERTEX
 8
D_SEN_22
 10
0
 20
0
 30
0
 70
128
 71
6
 72
2
 73
3
 74
7
 0
VERTEX
 8
D_SEN_22
 10
0
 20
0
 30
0
 70
128
 71
7
 72
3
 73
4
 74
8
 0
VERTEX
 8
D_SEN_22
 10
0
 20
0
 30
0
 70
128
 71
8
 72
4
 73
1
 74
5
 0
VERTEX
 8
D_SEN_22
 10
0
 20
0
 30
0
 70
128
 71
1
 72
4
 73
3
 74
2
 0
SEQEND
 0
POLYLINE
 8
D_SEN_21
 66
1
 10
0.0
 20
0.0
 30
0.0
 70
64
 71
8
 72
5
 0
VERTEX
 8
D_SEN_21
 10
0.1399
 20
-0.4128
 30
33.0706
 70
192
 0
VERTEX
 8
D_SEN_21
 10
0.1399
 20
-0.3964
 30
33.0255
 70
192
 0
VERTEX
 8
D_SEN_21
 10
0.1879
 20
-0.3964
 30
33.0255
 70
192
 0
VERTEX
 8
D_SEN_21
 10
0.1879
 20
-0.4128
 30
33.0706
 70
192
 0
VERTEX
 8
D_SEN_21
 10
0.1399
 20
-0.3807
 30
33.0823
 70
192
 0
VERTEX
 8
D_SEN_21
 10
0.1399
 20
-0.3643
 30
33.0372
 70
192
 0
VERTEX
 8
D_SEN_21
 10
0.1879
 20
-0.3643
 30
33.0372
 70
192
 0
VERTEX
 8
D_SEN_21
 10
0.1879
 20
-0.3807
 30
33.0823
 70
192
 0
VERTEX
 8
D_SEN_21
 10
0
 20
0
 30
0
 70
128
 71
5
 72
1
 73
2
 74
6
 0
VERTEX
 8
D_SEN_21
 10
0
 20
0
 30
0
 70
128
 71
6
 72
2
 73
3
 74
7
 0
VERTEX
 8
D_SEN_21
 10
0
 20
0
 30
0
 70
128
 71
7
 72
3
 73
4
 74
8
 0
VERTEX
 8
D_SEN_21
 10
0
 20
0
 30
0
 70
128
 71
8
 72
4
 73
1
 74
5
 0
VERTEX
 8
D_SEN_21
 10
0
 20
0
 30
0
 70
128
 71
1
 72
4
 73
3
 74
2
 0
SEQEND
 0
POLYLINE
 8
D_SEN_20
 66
1
 10
0.0
 20
0.0
 30
0.0
 70
64
 71
8
 72
5
 0
VERTEX
 8
D_SEN_20
 10
0.1399
 20
-0.3496
 30
32.897
 70
192
 0
VERTEX
 8
D_SEN_20
 10
0.1399
 20
-0.3332
 30
32.8519
 70
192
 0
VERTEX
 8
D_SEN_20
 10
0.1879
 20
-0.3332
 30
32.8519
 70
192
 0
VERTEX
 8
D_SEN_20
 10
0.1879
 20
-0.3496
 30
32.897
 70
192
 0
VERTEX
 8
D_SEN_20
 10
0.1399
 20
-0.3175
 30
32.9086
 70
192
 0
VERTEX
 8
D_SEN_20
 10
0.1399
 20
-0.3011
 30
32.8635
 70
192
 0
VERTEX
 8
D_SEN_20
 10
0.1879
 20
-0.3011
 30
32.8635
 70
192
 0
VERTEX
 8
D_SEN_20
 10
0.1879
 20
-0.3175
 30
32.9086
 70
192
 0
VERTEX
 8
D_SEN_20
 10
0
 20
0
 30
0
 70
128
 71
5
 72
1
 73
2
 74
6
 0
VERTEX
 8
D_SEN_20
 10
0
 20
0
 30
0
 70
128
 71
6
 72
2
 73
3
 74
7
 0
VERTEX
 8
D_SEN_20
 10
0
 20
0
 30
0
 70
128
 71
7
 72
3
 73
4
 74
8
 0
VERTEX
 8
D_SEN_20
 10
0
 20
0
 30
0
 70
128
 71
8
 72
4
 73
1
 74
5
 0
VERTEX
 8
D_SEN_20
 10
0
 20
0
 30
0
 70
128
 71
1
 72
4
 73
3
 74
2
 0
SEQEND
 0
POLYLINE
 8
D_SEN_19
 66
1
 10
0.0
 20
0.0
 30
0.0
 70
64
 71
8
 72
5
 0
VERTEX
 8
D_SEN_19
 10
-0.0193
 20
-0.9294
 30
34.4898
 70
192
 0
VERTEX
 8
D_SEN_19
 10
-0.0193
 20
-0.913
 30
34.4447
 70
192
 0
VERTEX
 8
D_SEN_19
 10
0.0287
 20
-0.913
 30
34.4447
 70
192
 0
VERTEX
 8
D_SEN_19
 10
0.0287
 20
-0.9294
 30
34.4898
 70
192
 0
VERTEX
 8
D_SEN_19
 10
-0.0193
 20
-0.8973
 30
34.5015
 70
192
 0
VERTEX
 8
D_SEN_19
 10
-0.0193
 20
-0.8809
 30
34.4564
 70
192
 0
VERTEX
 8
D_SEN_19
 10
0.0287
 20
-0.8809
 30
34.4564
 70
192
 0
VERTEX
 8
D_SEN_19
 10
0.0287
 20
-0.8973
 30
34.5015
 70
192
 0
VERTEX
 8
D_SEN_19
 10
0
 20
0
 30
0
 70
128
 71
5
 72
1
 73
2
 74
6
 0
VERTEX
 8
D_SEN_19
 10
0
 20
0
 30
0
 70
128
 71
6
 72
2
 73
3
 74
7
 0
VERTEX
 8
D_SEN_19
 10
0
 20
0
 30
0
 70
128
 71
7
 72
3
 73
4
 74
8
 0
VERTEX
 8
D_SEN_19
 10
0
 20
0
 30
0
 70
128
 71
8
 72
4
 73
1
 74
5
 0
VERTEX
 8
D_SEN_19
 10
0
 20
0
 30
0
 70
128
 71
1
 72
4
 73
3
 74
2
 0
SEQEND
 0
POLYLINE
 8
D_SEN_18
 66
1
 10
0.0
 20
0.0
 30
0.0
 70
64
 71
10
 72
7
 0
VERTEX
 8
D_SEN_18
 10
-0.0193
 20
-0.8648
 30
34.3124
 70
192
 0
VERTEX
 8
D_SEN_18
 10
-0.0193
 20
-0.8484
 30
34.2673
 70
192
 0
VERTEX
 8
D_SEN_18
 10
0.0287
 20
-0.8484
 30
34.2673
 70
192
 0
VERTEX
 8
D_SEN_18
 10
0.0287
 20
-0.8648
 30
34.3124
 70
192
 0
VERTEX
 8
D_SEN_18
 10
-0.0193
 20
-0.8163
 30
34.279
 70
192
 0
VERTEX
 8
D_SEN_18
 10
0.0287
 20
-0.8163
 30
34.279
 70
192
 0
VERTEX
 8
D_SEN_18
 10
-0.0193
 20
-0.8327
 30
34.3241
 70
192
 0
VERTEX
 8
D_SEN_18
 10
0.0287
 20
-0.8327
 30
34.3241
 70
192
 0
VERTEX
 8
D_SEN_18
 10
-0.0193
 20
-0.8247
 30
34.302
 70
192
 0
VERTEX
 8
D_SEN_18
 10
0.0287
 20
-0.8247
 30
34.302
 70
192
 0
VERTEX
 8
D_SEN_18
 10
0
 20
0
 30
0
 70
128
 71
7
 72
1
 73
2
 74
9
 0
VERTEX
 8
D_SEN_18
 10
0
 20
0
 30
0
 70
128
 71
2
 72
5
 73
9
 74
9
 0
VERTEX
 8
D_SEN_18
 10
0
 20
0
 30
0
 70
128
 71
5
 72
2
 73
3
 74
6
 0
VERTEX
 8
D_SEN_18
 10
0
 20
0
 30
0
 70
128
 71
6
 72
3
 73
4
 74
10
 0
VERTEX
 8
D_SEN_18
 10
0
 20
0
 30
0
 70
128
 71
4
 72
8
 73
10
 74
10
 0
VERTEX
 8
D_SEN_18
 10
0
 20
0
 30
0
 70
128
 71
8
 72
4
 73
1
 74
7
 0
VERTEX
 8
D_SEN_18
 10
0
 20
0
 30
0
 70
128
 71
1
 72
4
 73
3
 74
2
 0
SEQEND
 0
POLYLINE
 8
D_SEN_17
 66
1
 10
0.0
 20
0.0
 30
0.0
 70
64
 71
8
 72
5
 0
VERTEX
 8
D_SEN_17
 10
-0.0193
 20
-0.8015
 30
34.1385
 70
192
 0
VERTEX
 8
D_SEN_17
 10
-0.0193
 20
-0.7851
 30
34.0934
 70
192
 0
VERTEX
 8
D_SEN_17
 10
0.0287
 20
-0.7851
 30
34.0934
 70
192
 0
VERTEX
 8
D_SEN_17
 10
0.0287
 20
-0.8015
 30
34.1385
 70
192
 0
VERTEX
 8
D_SEN_17
 10
-0.0193
 20
-0.7694
 30
34.1502
 70
192
 0
VERTEX
 8
D_SEN_17
 10
-0.0193
 20
-0.753
 30
34.1051
 70
192
 0
VERTEX
 8
D_SEN_17
 10
0.0287
 20
-0.753
 30
34.1051
 70
192
 0
VERTEX
 8
D_SEN_17
 10
0.0287
 20
-0.7694
 30
34.1502
 70
192
 0
VERTEX
 8
D_SEN_17
 10
0
 20
0
 30
0
 70
128
 71
5
 72
1
 73
2
 74
6
 0
VERTEX
 8
D_SEN_17
 10
0
 20
0
 30
0
 70
128
 71
6
 72
2
 73
3
 74
7
 0
VERTEX
 8
D_SEN_17
 10
0
 20
0
 30
0
 70
128
 71
7
 72
3
 73
4
 74
8
 0
VERTEX
 8
D_SEN_17
 10
0
 20
0
 30
0
 70
128
 71
8
 72
4
 73
1
 74
5
 0
VERTEX
 8
D_SEN_17
 10
0
 20
0
 30
0
 70
128
 71
1
 72
4
 73
3
 74
2
 0
SEQEND
 0
POLYLINE
 8
D_SEN_16
 66
1
 10
0.0
 20
0.0
 30
0.0
 70
64
 71
10
 72
7
 0
VERTEX
 8
D_SEN_16
 10
-0.0193
 20
-0.7393
 30
33.9677
 70
192
 0
VERTEX
 8
D_SEN_16
 10
-0.0193
 20
-0.7229
 30
33.9226
 70
192
 0
VERTEX
 8
D_SEN_16
 10
0.0287
 20
-0.7229
 30
33.9226
 70
192
 0
VERTEX
 8
D_SEN_16
 10
0.0287
 20
-0.7393
 30
33.9677
 70
192
 0
VERTEX
 8
D_SEN_16
 10
-0.0193
 20
-0.6908
 30
33.9343
 70
192
 0
VERTEX
 8
D_SEN_16
 10
0.0287
 20
-0.6908
 30
33.9343
 70
192
 0
VERTEX
 8
D_SEN_16
 10
-0.0193
 20
-0.7072
 30
33.9794
 70
192
 0
VERTEX
 8
D_SEN_16
 10
0.0287
 20
-0.7072
 30
33.9794
 70
192
 0
VERTEX
 8
D_SEN_16
 10
-0.0193
 20
-0.6998
 30
33.9588
 70
192
 0
VERTEX
 8
D_SEN_16
 10
0.0287
 20
-0.6998
 30
33.9588
 70
192
 0
VERTEX
 8
D_SEN_16
 10
0
 20
0
 30
0
 70
128
 71
7
 72
1
 73
2
 74
9
 0
VERTEX
 8
D_SEN_16
 10
0
 20
0
 30
0
 70
128
 71
2
 72
5
 73
9
 74
9
 0
VERTEX
 8
D_SEN_16
 10
0
 20
0
 30
0
 70
128
 71
5
 72
2
 73
3
 74
6
 0
VERTEX
 8
D_SEN_16
 10
0
 20
0
 30
0
 70
128
 71
6
 72
3
 73
4
 74
10
 0
VERTEX
 8
D_SEN_16
 10
0
 20
0
 30
0
 70
128
 71
4
 72
8
 73
10
 74
10
 0
VERTEX
 8
D_SEN_16
 10
0
 20
0
 30
0
 70
128
 71
8
 72
4
 73
1
 74
7
 0
VERTEX
 8
D_SEN_16
 10
0
 20
0
 30
0
 70
128
 71
1
 72
4
 73
3
 74
2
 0
SEQEND
 0
POLYLINE
 8
D_SEN_15
 66
1
 10
0.0
 20
0.0
 30
0.0
 70
64
 71
8
 72
5
 0
VERTEX
 8
D_SEN_15
 10
-0.0193
 20
-0.6771
 30
33.7966
 70
192
 0
VERTEX
 8
D_SEN_15
 10
-0.0193
 20
-0.6607
 30
33.7515
 70
192
 0
VERTEX
 8
D_SEN_15
 10
0.0287
 20
-0.6607
 30
33.7515
 70
192
 0
VERTEX
 8
D_SEN_15
 10
0.0287
 20
-0.6771
 30
33.7966
 70
192
 0
VERTEX
 8
D_SEN_15
 10
-0.0193
 20
-0.645
 30
33.8083
 70
192
 0
VERTEX
 8
D_SEN_15
 10
-0.0193
 20
-0.6286
 30
33.7632
 70
192
 0
VERTEX
 8
D_SEN_15
 10
0.0287
 20
-0.6286
 30
33.7632
 70
192
 0
VERTEX
 8
D_SEN_15
 10
0.0287
 20
-0.645
 30
33.8083
 70
192
 0
VERTEX
 8
D_SEN_15
 10
0
 20
0
 30
0
 70
128
 71
5
 72
1
 73
2
 74
6
 0
VERTEX
 8
D_SEN_15
 10
0
 20
0
 30
0
 70
128
 71
6
 72
2
 73
3
 74
7
 0
VERTEX
 8
D_SEN_15
 10
0
 20
0
 30
0
 70
128
 71
7
 72
3
 73
4
 74
8
 0
VERTEX
 8
D_SEN_15
 10
0
 20
0
 30
0
 70
128
 71
8
 72
4
 73
1
 74
5
 0
VERTEX
 8
D_SEN_15
 10
0
 20
0
 30
0
 70
128
 71
1
 72
4
 73
3
 74
2
 0
SEQEND
 0
POLYLINE
 8
D_SEN_14
 66
1
 10
0.0
 20
0.0
 30
0.0
 70
64
 71
10
 72
7
 0
VERTEX
 8
D_SEN_14
 10
-0.0193
 20
-0.61
 30
33.6123
 70
192
 0
VERTEX
 8
D_SEN_14
 10
-0.0193
 20
-0.5935
 30
33.5672
 70
192
 0
VERTEX
 8
D_SEN_14
 10
0.0287
 20
-0.5935
 30
33.5672
 70
192
 0
VERTEX
 8
D_SEN_14
 10
0.0287
 20
-0.61
 30
33.6123
 70
192
 0
VERTEX
 8
D_SEN_14
 10
-0.0193
 20
-0.5615
 30
33.5788
 70
192
 0
VERTEX
 8
D_SEN_14
 10
0.0287
 20
-0.5615
 30
33.5788
 70
192
 0
VERTEX
 8
D_SEN_14
 10
-0.0193
 20
-0.5779
 30
33.6239
 70
192
 0
VERTEX
 8
D_SEN_14
 10
0.0287
 20
-0.5779
 30
33.6239
 70
192
 0
VERTEX
 8
D_SEN_14
 10
-0.0193
 20
-0.5749
 30
33.6157
 70
192
 0
VERTEX
 8
D_SEN_14
 10
0.0287
 20
-0.5749
 30
33.6157
 70
192
 0
VERTEX
 8
D_SEN_14
 10
0
 20
0
 30
0
 70
128
 71
7
 72
1
 73
9
 74
9
 0
VERTEX
 8
D_SEN_14
 10
0
 20
0
 30
0
 70
128
 71
2
 72
5
 73
9
 74
1
 0
VERTEX
 8
D_SEN_14
 10
0
 20
0
 30
0
 70
128
 71
5
 72
2
 73
3
 74
6
 0
VERTEX
 8
D_SEN_14
 10
0
 20
0
 30
0
 70
128
 71
6
 72
3
 73
4
 74
10
 0
VERTEX
 8
D_SEN_14
 10
0
 20
0
 30
0
 70
128
 71
4
 72
8
 73
10
 74
10
 0
VERTEX
 8
D_SEN_14
 10
0
 20
0
 30
0
 70
128
 71
8
 72
4
 73
1
 74
7
 0
VERTEX
 8
D_SEN_14
 10
0
 20
0
 30
0
 70
128
 71
1
 72
4
 73
3
 74
2
 0
SEQEND
 0
POLYLINE
 8
D_SEN_13
 66
1
 10
0.0
 20
0.0
 30
0.0
 70
64
 71
8
 72
5
 0
VERTEX
 8
D_SEN_13
 10
-0.0193
 20
-0.544
 30
33.4311
 70
192
 0
VERTEX
 8
D_SEN_13
 10
-0.0193
 20
-0.5276
 30
33.386
 70
192
 0
VERTEX
 8
D_SEN_13
 10
0.0287
 20
-0.5276
 30
33.386
 70
192
 0
VERTEX
 8
D_SEN_13
 10
0.0287
 20
-0.544
 30
33.4311
 70
192
 0
VERTEX
 8
D_SEN_13
 10
-0.0193
 20
-0.5119
 30
33.4428
 70
192
 0
VERTEX
 8
D_SEN_13
 10
-0.0193
 20
-0.4955
 30
33.3977
 70
192
 0
VERTEX
 8
D_SEN_13
 10
0.0287
 20
-0.4955
 30
33.3977
 70
192
 0
VERTEX
 8
D_SEN_13
 10
0.0287
 20
-0.5119
 30
33.4428
 70
192
 0
VERTEX
 8
D_SEN_13
 10
0
 20
0
 30
0
 70
128
 71
5
 72
1
 73
2
 74
6
 0
VERTEX
 8
D_SEN_13
 10
0
 20
0
 30
0
 70
128
 71
6
 72
2
 73
3
 74
7
 0
VERTEX
 8
D_SEN_13
 10
0
 20
0
 30
0
 70
128
 71
7
 72
3
 73
4
 74
8
 0
VERTEX
 8
D_SEN_13
 10
0
 20
0
 30
0
 70
128
 71
8
 72
4
 73
1
 74
5
 0
VERTEX
 8
D_SEN_13
 10
0
 20
0
 30
0
 70
128
 71
1
 72
4
 73
3
 74
2
 0
SEQEND
 0
POLYLINE
 8
D_SEN_12
 66
1
 10
0.0
 20
0.0
 30
0.0
 70
64
 71
8
 72
5
 0
VERTEX
 8
D_SEN_12
 10
-0.0193
 20
-0.4801
 30
33.2553
 70
192
 0
VERTEX
 8
D_SEN_12
 10
-0.0193
 20
-0.4636
 30
33.2102
 70
192
 0
VERTEX
 8
D_SEN_12
 10
0.0287
 20
-0.4636
 30
33.2102
 70
192
 0
VERTEX
 8
D_SEN_12
 10
0.0287
 20
-0.4801
 30
33.2553
 70
192
 0
VERTEX
 8
D_SEN_12
 10
-0.0193
 20
-0.448
 30
33.267
 70
192
 0
VERTEX
 8
D_SEN_12
 10
-0.0193
 20
-0.4315
 30
33.2219
 70
192
 0
VERTEX
 8
D_SEN_12
 10
0.0287
 20
-0.4315
 30
33.2219
 70
192
 0
VERTEX
 8
D_SEN_12
 10
0.0287
 20
-0.448
 30
33.267
 70
192
 0
VERTEX
 8
D_SEN_12
 10
0
 20
0
 30
0
 70
128
 71
5
 72
1
 73
2
 74
6
 0
VERTEX
 8
D_SEN_12
 10
0
 20
0
 30
0
 70
128
 71
6
 72
2
 73
3
 74
7
 0
VERTEX
 8
D_SEN_12
 10
0
 20
0
 30
0
 70
128
 71
7
 72
3
 73
4
 74
8
 0
VERTEX
 8
D_SEN_12
 10
0
 20
0
 30
0
 70
128
 71
8
 72
4
 73
1
 74
5
 0
VERTEX
 8
D_SEN_12
 10
0
 20
0
 30
0
 70
128
 71
1
 72
4
 73
3
 74
2
 0
SEQEND
 0
POLYLINE
 8
D_SEN_11
 66
1
 10
0.0
 20
0.0
 30
0.0
 70
64
 71
8
 72
5
 0
VERTEX
 8
D_SEN_11
 10
-0.0193
 20
-0.4128
 30
33.0706
 70
192
 0
VERTEX
 8
D_SEN_11
 10
-0.0193
 20
-0.3964
 30
33.0255
 70
192
 0
VERTEX
 8
D_SEN_11
 10
0.0287
 20
-0.3964
 30
33.0255
 70
192
 0
VERTEX
 8
D_SEN_11
 10
0.0287
 20
-0.4128
 30
33.0706
 70
192
 0
VERTEX
 8
D_SEN_11
 10
-0.0193
 20
-0.3807
 30
33.0823
 70
192
 0
VERTEX
 8
D_SEN_11
 10
-0.0193
 20
-0.3643
 30
33.0372
 70
192
 0
VERTEX
 8
D_SEN_11
 10
0.0287
 20
-0.3643
 30
33.0372
 70
192
 0
VERTEX
 8
D_SEN_11
 10
0.0287
 20
-0.3807
 30
33.0823
 70
192
 0
VERTEX
 8
D_SEN_11
 10
0
 20
0
 30
0
 70
128
 71
5
 72
1
 73
2
 74
6
 0
VERTEX
 8
D_SEN_11
 10
0
 20
0
 30
0
 70
128
 71
6
 72
2
 73
3
 74
7
 0
VERTEX
 8
D_SEN_11
 10
0
 20
0
 30
0
 70
128
 71
7
 72
3
 73
4
 74
8
 0
VERTEX
 8
D_SEN_11
 10
0
 20
0
 30
0
 70
128
 71
8
 72
4
 73
1
 74
5
 0
VERTEX
 8
D_SEN_11
 10
0
 20
0
 30
0
 70
128
 71
1
 72
4
 73
3
 74
2
 0
SEQEND
 0
POLYLINE
 8
D_SEN_10
 66
1
 10
0.0
 20
0.0
 30
0.0
 70
64
 71
8
 72
5
 0
VERTEX
 8
D_SEN_10
 10
-0.0193
 20
-0.3496
 30
32.897
 70
192
 0
VERTEX
 8
D_SEN_10
 10
-0.0193
 20
-0.3332
 30
32.8519
 70
192
 0
VERTEX
 8
D_SEN_10
 10
0.0287
 20
-0.3332
 30
32.8519
 70
192
 0
VERTEX
 8
D_SEN_10
 10
0.0287
 20
-0.3496
 30
32.897
 70
192
 0
VERTEX
 8
D_SEN_10
 10
-0.0193
 20
-0.3175
 30
32.9086
 70
192
 0
VERTEX
 8
D_SEN_10
 10
-0.0193
 20
-0.3011
 30
32.8635
 70
192
 0
VERTEX
 8
D_SEN_10
 10
0.0287
 20
-0.3011
 30
32.8635
 70
192
 0
VERTEX
 8
D_SEN_10
 10
0.0287
 20
-0.3175
 30
32.9086
 70
192
 0
VERTEX
 8
D_SEN_10
 10
0
 20
0
 30
0
 70
128
 71
5
 72
1
 73
2
 74
6
 0
VERTEX
 8
D_SEN_10
 10
0
 20
0
 30
0
 70
128
 71
6
 72
2
 73
3
 74
7
 0
VERTEX
 8
D_SEN_10
 10
0
 20
0
 30
0
 70
128
 71
7
 72
3
 73
4
 74
8
 0
VERTEX
 8
D_SEN_10
 10
0
 20
0
 30
0
 70
128
 71
8
 72
4
 73
1
 74
5
 0
VERTEX
 8
D_SEN_10
 10
0
 20
0
 30
0
 70
128
 71
1
 72
4
 73
3
 74
2
 0
SEQEND
 0
POLYLINE
 8
D_SEN_9
 66
1
 10
0.0
 20
0.0
 30
0.0
 70
64
 71
8
 72
5
 0
VERTEX
 8
D_SEN_9
 10
-0.1785
 20
-0.9294
 30
34.4898
 70
192
 0
VERTEX
 8
D_SEN_9
 10
-0.1785
 20
-0.913
 30
34.4447
 70
192
 0
VERTEX
 8
D_SEN_9
 10
-0.1305
 20
-0.913
 30
34.4447
 70
192
 0
VERTEX
 8
D_SEN_9
 10
-0.1305
 20
-0.9294
 30
34.4898
 70
192
 0
VERTEX
 8
D_SEN_9
 10
-0.1785
 20
-0.8973
 30
34.5015
 70
192
 0
VERTEX
 8
D_SEN_9
 10
-0.1785
 20
-0.8809
 30
34.4564
 70
192
 0
VERTEX
 8
D_SEN_9
 10
-0.1305
 20
-0.8809
 30
34.4564
 70
192
 0
VERTEX
 8
D_SEN_9
 10
-0.1305
 20
-0.8973
 30
34.5015
 70
192
 0
VERTEX
 8
D_SEN_9
 10
0
 20
0
 30
0
 70
128
 71
5
 72
1
 73
2
 74
6
 0
VERTEX
 8
D_SEN_9
 10
0
 20
0
 30
0
 70
128
 71
6
 72
2
 73
3
 74
7
 0
VERTEX
 8
D_SEN_9
 10
0
 20
0
 30
0
 70
128
 71
7
 72
3
 73
4
 74
8
 0
VERTEX
 8
D_SEN_9
 10
0
 20
0
 30
0
 70
128
 71
8
 72
4
 73
1
 74
5
 0
VERTEX
 8
D_SEN_9
 10
0
 20
0
 30
0
 70
128
 71
1
 72
4
 73
3
 74
2
 0
SEQEND
 0
POLYLINE
 8
D_SEN_8
 66
1
 10
0.0
 20
0.0
 30
0.0
 70
64
 71
10
 72
7
 0
VERTEX
 8
D_SEN_8
 10
-0.1785
 20
-0.8648
 30
34.3124
 70
192
 0
VERTEX
 8
D_SEN_8
 10
-0.1785
 20
-0.8484
 30
34.2673
 70
192
 0
VERTEX
 8
D_SEN_8
 10
-0.1305
 20
-0.8484
 30
34.2673
 70
192
 0
VERTEX
 8
D_SEN_8
 10
-0.1305
 20
-0.8648
 30
34.3124
 70
192
 0
VERTEX
 8
D_SEN_8
 10
-0.1785
 20
-0.8163
 30
34.279
 70
192
 0
VERTEX
 8
D_SEN_8
 10
-0.1305
 20
-0.8163
 30
34.279
 70
192
 0
VERTEX
 8
D_SEN_8
 10
-0.1785
 20
-0.8327
 30
34.3241
 70
192
 0
VERTEX
 8
D_SEN_8
 10
-0.1305
 20
-0.8327
 30
34.3241
 70
192
 0
VERTEX
 8
D_SEN_8
 10
-0.1785
 20
-0.8247
 30
34.302
 70
192
 0
VERTEX
 8
D_SEN_8
 10
-0.1305
 20
-0.8247
 30
34.302
 70
192
 0
VERTEX
 8
D_SEN_8
 10
0
 20
0
 30
0
 70
128
 71
7
 72
1
 73
2
 74
9
 0
VERTEX
 8
D_SEN_8
 10
0
 20
0
 30
0
 70
128
 71
2
 72
5
 73
9
 74
9
 0
VERTEX
 8
D_SEN_8
 10
0
 20
0
 30
0
 70
128
 71
5
 72
2
 73
3
 74
6
 0
VERTEX
 8
D_SEN_8
 10
0
 20
0
 30
0
 70
128
 71
6
 72
3
 73
4
 74
10
 0
VERTEX
 8
D_SEN_8
 10
0
 20
0
 30
0
 70
128
 71
4
 72
8
 73
10
 74
10
 0
VERTEX
 8
D_SEN_8
 10
0
 20
0
 30
0
 70
128
 71
8
 72
4
 73
1
 74
7
 0
VERTEX
 8
D_SEN_8
 10
0
 20
0
 30
0
 70
128
 71
1
 72
4
 73
3
 74
2
 0
SEQEND
 0
POLYLINE
 8
D_SEN_7
 66
1
 10
0.0
 20
0.0
 30
0.0
 70
64
 71
8
 72
5
 0
VERTEX
 8
D_SEN_7
 10
-0.1785
 20
-0.8015
 30
34.1385
 70
192
 0
VERTEX
 8
D_SEN_7
 10
-0.1785
 20
-0.7851
 30
34.0934
 70
192
 0
VERTEX
 8
D_SEN_7
 10
-0.1305
 20
-0.7851
 30
34.0934
 70
192
 0
VERTEX
 8
D_SEN_7
 10
-0.1305
 20
-0.8015
 30
34.1385
 70
192
 0
VERTEX
 8
D_SEN_7
 10
-0.1785
 20
-0.7694
 30
34.1502
 70
192
 0
VERTEX
 8
D_SEN_7
 10
-0.1785
 20
-0.753
 30
34.1051
 70
192
 0
VERTEX
 8
D_SEN_7
 10
-0.1305
 20
-0.753
 30
34.1051
 70
192
 0
VERTEX
 8
D_SEN_7
 10
-0.1305
 20
-0.7694
 30
34.1502
 70
192
 0
VERTEX
 8
D_SEN_7
 10
0
 20
0
 30
0
 70
128
 71
5
 72
1
 73
2
 74
6
 0
VERTEX
 8
D_SEN_7
 10
0
 20
0
 30
0
 70
128
 71
6
 72
2
 73
3
 74
7
 0
VERTEX
 8
D_SEN_7
 10
0
 20
0
 30
0
 70
128
 71
7
 72
3
 73
4
 74
8
 0
VERTEX
 8
D_SEN_7
 10
0
 20
0
 30
0
 70
128
 71
8
 72
4
 73
1
 74
5
 0
VERTEX
 8
D_SEN_7
 10
0
 20
0
 30
0
 70
128
 71
1
 72
4
 73
3
 74
2
 0
SEQEND
 0
POLYLINE
 8
D_SEN_6
 66
1
 10
0.0
 20
0.0
 30
0.0
 70
64
 71
10
 72
7
 0
VERTEX
 8
D_SEN_6
 10
-0.1785
 20
-0.7393
 30
33.9677
 70
192
 0
VERTEX
 8
D_SEN_6
 10
-0.1785
 20
-0.7229
 30
33.9226
 70
192
 0
VERTEX
 8
D_SEN_6
 10
-0.1305
 20
-0.7229
 30
33.9226
 70
192
 0
VERTEX
 8
D_SEN_6
 10
-0.1305
 20
-0.7393
 30
33.9677
 70
192
 0
VERTEX
 8
D_SEN_6
 10
-0.1785
 20
-0.6908
 30
33.9343
 70
192
 0
VERTEX
 8
D_SEN_6
 10
-0.1305
 20
-0.6908
 30
33.9343
 70
192
 0
VERTEX
 8
D_SEN_6
 10
-0.1785
 20
-0.7072
 30
33.9794
 70
192
 0
VERTEX
 8
D_SEN_6
 10
-0.1305
 20
-0.7072
 30
33.9794
 70
192
 0
VERTEX
 8
D_SEN_6
 10
-0.1785
 20
-0.6998
 30
33.9588
 70
192
 0
VERTEX
 8
D_SEN_6
 10
-0.1305
 20
-0.6998
 30
33.9588
 70
192
 0
VERTEX
 8
D_SEN_6
 10
0
 20
0
 30
0
 70
128
 71
7
 72
1
 73
2
 74
9
 0
VERTEX
 8
D_SEN_6
 10
0
 20
0
 30
0
 70
128
 71
2
 72
5
 73
9
 74
9
 0
VERTEX
 8
D_SEN_6
 10
0
 20
0
 30
0
 70
128
 71
5
 72
2
 73
3
 74
6
 0
VERTEX
 8
D_SEN_6
 10
0
 20
0
 30
0
 70
128
 71
6
 72
3
 73
4
 74
10
 0
VERTEX
 8
D_SEN_6
 10
0
 20
0
 30
0
 70
128
 71
4
 72
8
 73
10
 74
10
 0
VERTEX
 8
D_SEN_6
 10
0
 20
0
 30
0
 70
128
 71
8
 72
4
 73
1
 74
7
 0
VERTEX
 8
D_SEN_6
 10
0
 20
0
 30
0
 70
128
 71
1
 72
4
 73
3
 74
2
 0
SEQEND
 0
POLYLINE
 8
D_SEN_5
 66
1
 10
0.0
 20
0.0
 30
0.0
 70
64
 71
8
 72
5
 0
VERTEX
 8
D_SEN_5
 10
-0.1785
 20
-0.6771
 30
33.7966
 70
192
 0
VERTEX
 8
D_SEN_5
 10
-0.1785
 20
-0.6607
 30
33.7515
 70
192
 0
VERTEX
 8
D_SEN_5
 10
-0.1305
 20
-0.6607
 30
33.7515
 70
192
 0
VERTEX
 8
D_SEN_5
 10
-0.1305
 20
-0.6771
 30
33.7966
 70
192
 0
VERTEX
 8
D_SEN_5
 10
-0.1785
 20
-0.645
 30
33.8083
 70
192
 0
VERTEX
 8
D_SEN_5
 10
-0.1785
 20
-0.6286
 30
33.7632
 70
192
 0
VERTEX
 8
D_SEN_5
 10
-0.1305
 20
-0.6286
 30
33.7632
 70
192
 0
VERTEX
 8
D_SEN_5
 10
-0.1305
 20
-0.645
 30
33.8083
 70
192
 0
VERTEX
 8
D_SEN_5
 10
0
 20
0
 30
0
 70
128
 71
5
 72
1
 73
2
 74
6
 0
VERTEX
 8
D_SEN_5
 10
0
 20
0
 30
0
 70
128
 71
6
 72
2
 73
3
 74
7
 0
VERTEX
 8
D_SEN_5
 10
0
 20
0
 30
0
 70
128
 71
7
 72
3
 73
4
 74
8
 0
VERTEX
 8
D_SEN_5
 10
0
 20
0
 30
0
 70
128
 71
8
 72
4
 73
1
 74
5
 0
VERTEX
 8
D_SEN_5
 10
0
 20
0
 30
0
 70
128
 71
1
 72
4
 73
3
 74
2
 0
SEQEND
 0
POLYLINE
 8
D_SEN_4
 66
1
 10
0.0
 20
0.0
 30
0.0
 70
64
 71
10
 72
7
 0
VERTEX
 8
D_SEN_4
 10
-0.1785
 20
-0.61
 30
33.6123
 70
192
 0
VERTEX
 8
D_SEN_4
 10
-0.1785
 20
-0.5935
 30
33.5672
 70
192
 0
VERTEX
 8
D_SEN_4
 10
-0.1305
 20
-0.5935
 30
33.5672
 70
192
 0
VERTEX
 8
D_SEN_4
 10
-0.1305
 20
-0.61
 30
33.6123
 70
192
 0
VERTEX
 8
D_SEN_4
 10
-0.1785
 20
-0.5615
 30
33.5788
 70
192
 0
VERTEX
 8
D_SEN_4
 10
-0.1305
 20
-0.5615
 30
33.5788
 70
192
 0
VERTEX
 8
D_SEN_4
 10
-0.1785
 20
-0.5779
 30
33.6239
 70
192
 0
VERTEX
 8
D_SEN_4
 10
-0.1305
 20
-0.5779
 30
33.6239
 70
192
 0
VERTEX
 8
D_SEN_4
 10
-0.1785
 20
-0.5749
 30
33.6157
 70
192
 0
VERTEX
 8
D_SEN_4
 10
-0.1305
 20
-0.5749
 30
33.6157
 70
192
 0
VERTEX
 8
D_SEN_4
 10
0
 20
0
 30
0
 70
128
 71
7
 72
1
 73
9
 74
9
 0
VERTEX
 8
D_SEN_4
 10
0
 20
0
 30
0
 70
128
 71
2
 72
5
 73
9
 74
1
 0
VERTEX
 8
D_SEN_4
 10
0
 20
0
 30
0
 70
128
 71
5
 72
2
 73
3
 74
6
 0
VERTEX
 8
D_SEN_4
 10
0
 20
0
 30
0
 70
128
 71
6
 72
3
 73
4
 74
10
 0
VERTEX
 8
D_SEN_4
 10
0
 20
0
 30
0
 70
128
 71
4
 72
8
 73
10
 74
10
 0
VERTEX
 8
D_SEN_4
 10
0
 20
0
 30
0
 70
128
 71
8
 72
4
 73
1
 74
7
 0
VERTEX
 8
D_SEN_4
 10
0
 20
0
 30
0
 70
128
 71
1
 72
4
 73
3
 74
2
 0
SEQEND
 0
POLYLINE
 8
D_SEN_3
 66
1
 10
0.0
 20
0.0
 30
0.0
 70
64
 71
8
 72
5
 0
VERTEX
 8
D_SEN_3
 10
-0.1785
 20
-0.544
 30
33.4311
 70
192
 0
VERTEX
 8
D_SEN_3
 10
-0.1785
 20
-0.5276
 30
33.386
 70
192
 0
VERTEX
 8
D_SEN_3
 10
-0.1305
 20
-0.5276
 30
33.386
 70
192
 0
VERTEX
 8
D_SEN_3
 10
-0.1305
 20
-0.544
 30
33.4311
 70
192
 0
VERTEX
 8
D_SEN_3
 10
-0.1785
 20
-0.5119
 30
33.4428
 70
192
 0
VERTEX
 8
D_SEN_3
 10
-0.1785
 20
-0.4955
 30
33.3977
 70
192
 0
VERTEX
 8
D_SEN_3
 10
-0.1305
 20
-0.4955
 30
33.3977
 70
192
 0
VERTEX
 8
D_SEN_3
 10
-0.1305
 20
-0.5119
 30
33.4428
 70
192
 0
VERTEX
 8
D_SEN_3
 10
0
 20
0
 30
0
 70
128
 71
5
 72
1
 73
2
 74
6
 0
VERTEX
 8
D_SEN_3
 10
0
 20
0
 30
0
 70
128
 71
6
 72
2
 73
3
 74
7
 0
VERTEX
 8
D_SEN_3
 10
0
 20
0
 30
0
 70
128
 71
7
 72
3
 73
4
 74
8
 0
VERTEX
 8
D_SEN_3
 10
0
 20
0
 30
0
 70
128
 71
8
 72
4
 73
1
 74
5
 0
VERTEX
 8
D_SEN_3
 10
0
 20
0
 30
0
 70
128
 71
1
 72
4
 73
3
 74
2
 0
SEQEND
 0
POLYLINE
 8
D_SEN_2
 66
1
 10
0.0
 20
0.0
 30
0.0
 70
64
 71
8
 72
5
 0
VERTEX
 8
D_SEN_2
 10
-0.1785
 20
-0.4801
 30
33.2553
 70
192
 0
VERTEX
 8
D_SEN_2
 10
-0.1785
 20
-0.4636
 30
33.2102
 70
192
 0
VERTEX
 8
D_SEN_2
 10
-0.1305
 20
-0.4636
 30
33.2102
 70
192
 0
VERTEX
 8
D_SEN_2
 10
-0.1305
 20
-0.4801
 30
33.2553
 70
192
 0
VERTEX
 8
D_SEN_2
 10
-0.1785
 20
-0.448
 30
33.267
 70
192
 0
VERTEX
 8
D_SEN_2
 10
-0.1785
 20
-0.4315
 30
33.2219
 70
192
 0
VERTEX
 8
D_SEN_2
 10
-0.1305
 20
-0.4315
 30
33.2219
 70
192
 0
VERTEX
 8
D_SEN_2
 10
-0.1305
 20
-0.448
 30
33.267
 70
192
 0
VERTEX
 8
D_SEN_2
 10
0
 20
0
 30
0
 70
128
 71
5
 72
1
 73
2
 74
6
 0
VERTEX
 8
D_SEN_2
 10
0
 20
0
 30
0
 70
128
 71
6
 72
2
 73
3
 74
7
 0
VERTEX
 8
D_SEN_2
 10
0
 20
0
 30
0
 70
128
 71
7
 72
3
 73
4
 74
8
 0
VERTEX
 8
D_SEN_2
 10
0
 20
0
 30
0
 70
128
 71
8
 72
4
 73
1
 74
5
 0
VERTEX
 8
D_SEN_2
 10
0
 20
0
 30
0
 70
128
 71
1
 72
4
 73
3
 74
2
 0
SEQEND
 0
POLYLINE
 8
D_SEN_1
 66
1
 10
0.0
 20
0.0
 30
0.0
 70
64
 71
8
 72
5
 0
VERTEX
 8
D_SEN_1
 10
-0.1785
 20
-0.4128
 30
33.0706
 70
192
 0
VERTEX
 8
D_SEN_1
 10
-0.1785
 20
-0.3964
 30
33.0255
 70
192
 0
VERTEX
 8
D_SEN_1
 10
-0.1305
 20
-0.3964
 30
33.0255
 70
192
 0
VERTEX
 8
D_SEN_1
 10
-0.1305
 20
-0.4128
 30
33.0706
 70
192
 0
VERTEX
 8
D_SEN_1
 10
-0.1785
 20
-0.3807
 30
33.0823
 70
192
 0
VERTEX
 8
D_SEN_1
 10
-0.1785
 20
-0.3643
 30
33.0372
 70
192
 0
VERTEX
 8
D_SEN_1
 10
-0.1305
 20
-0.3643
 30
33.0372
 70
192
 0
VERTEX
 8
D_SEN_1
 10
-0.1305
 20
-0.3807
 30
33.0823
 70
192
 0
VERTEX
 8
D_SEN_1
 10
0
 20
0
 30
0
 70
128
 71
5
 72
1
 73
2
 74
6
 0
VERTEX
 8
D_SEN_1
 10
0
 20
0
 30
0
 70
128
 71
6
 72
2
 73
3
 74
7
 0
VERTEX
 8
D_SEN_1
 10
0
 20
0
 30
0
 70
128
 71
7
 72
3
 73
4
 74
8
 0
VERTEX
 8
D_SEN_1
 10
0
 20
0
 30
0
 70
128
 71
8
 72
4
 73
1
 74
5
 0
VERTEX
 8
D_SEN_1
 10
0
 20
0
 30
0
 70
128
 71
1
 72
4
 73
3
 74
2
 0
SEQEND
 0
POLYLINE
 8
D_SEN
 66
1
 10
0.0
 20
0.0
 30
0.0
 70
64
 71
8
 72
5
 0
VERTEX
 8
D_SEN
 10
-0.1785
 20
-0.3496
 30
32.897
 70
192
 0
VERTEX
 8
D_SEN
 10
-0.1785
 20
-0.3332
 30
32.8519
 70
192
 0
VERTEX
 8
D_SEN
 10
-0.1305
 20
-0.3332
 30
32.8519
 70
192
 0
VERTEX
 8
D_SEN
 10
-0.1305
 20
-0.3496
 30
32.897
 70
192
 0
VERTEX
 8
D_SEN
 10
-0.1785
 20
-0.3175
 30
32.9086
 70
192
 0
VERTEX
 8
D_SEN
 10
-0.1785
 20
-0.3011
 30
32.8635
 70
192
 0
VERTEX
 8
D_SEN
 10
-0.1305
 20
-0.3011
 30
32.8635
 70
192
 0
VERTEX
 8
D_SEN
 10
-0.1305
 20
-0.3175
 30
32.9086
 70
192
 0
VERTEX
 8
D_SEN
 10
0
 20
0
 30
0
 70
128
 71
5
 72
1
 73
2
 74
6
 0
VERTEX
 8
D_SEN
 10
0
 20
0
 30
0
 70
128
 71
6
 72
2
 73
3
 74
7
 0
VERTEX
 8
D_SEN
 10
0
 20
0
 30
0
 70
128
 71
7
 72
3
 73
4
 74
8
 0
VERTEX
 8
D_SEN
 10
0
 20
0
 30
0
 70
128
 71
8
 72
4
 73
1
 74
5
 0
VERTEX
 8
D_SEN
 10
0
 20
0
 30
0
 70
128
 71
1
 72
4
 73
3
 74
2
 0
SEQEND
 0
ENDSEC
 0
EOF
