 0
SECTION
 2
HEADER
 9
$ACADVER
 1
AC1009
 0
ENDSEC
 0
SECTION
 2
TABLES
 0
TABLE
 2
LTYPE
 70
1
 0
LTYPE
 2
CONTINUOUS
 70
64
 3
solid line
 72
65
 73
0
 40
0.0
 0
ENDTAB
 0
TABLE
 2
LAYER
 70
6
 0
LAYER
 2
0
 70
0
 62
7
 6
CONTINUOUS
 0
LAYER
 2
135_1401_M
 70
64
 62
7
 6
CONTINUOUS
 0
LAYER
 2
GRIFF_1_1
 70
64
 62
250
 6
CONTINUOUS
 0
LAYER
 2
CAPSULE
 70
64
 62
250
 6
CONTINUOUS
 0
LAYER
 2
GRIFF_2
 70
64
 62
250
 6
CONTINUOUS
 0
LAYER
 2
GRIFF_3
 70
64
 62
250
 6
CONTINUOUS
 0
LAYER
 2
GRIFF_1
 70
64
 62
250
 6
CONTINUOUS
 0
LAYER
 2
ROSETTE
 70
64
 62
250
 6
CONTINUOUS
 0
LAYER
 2
AUSLAUF_2
 70
64
 62
250
 6
CONTINUOUS
 0
LAYER
 2
AUSLAUF_3
 70
64
 62
250
 6
CONTINUOUS
 0
LAYER
 2
K_RPER
 70
64
 62
250
 6
CONTINUOUS
 0
LAYER
 2
CYLINDER
 70
64
 62
250
 6
CONTINUOUS
 0
ENDTAB
 0
ENDSEC
 0
SECTION
 2
BLOCKS
 0
ENDSEC
 0
SECTION
 2
ENTITIES
 0
POLYLINE
 8
GRIFF_1_1
 66
1
 10
0.0
 20
0.0
 30
0.0
 70
64
 71
24
 72
26
 0
VERTEX
 8
GRIFF_1_1
 10
8.5238
 20
2.21
 30
4.8624
 70
192
 0
VERTEX
 8
GRIFF_1_1
 10
8.5238
 20
-2.21
 30
4.8624
 70
192
 0
VERTEX
 8
GRIFF_1_1
 10
8.9438
 20
-2.21
 30
4.8624
 70
192
 0
VERTEX
 8
GRIFF_1_1
 10
8.9438
 20
2.21
 30
4.8624
 70
192
 0
VERTEX
 8
GRIFF_1_1
 10
8.4838
 20
2.21
 30
4.9024
 70
192
 0
VERTEX
 8
GRIFF_1_1
 10
8.4838
 20
-2.21
 30
4.9024
 70
192
 0
VERTEX
 8
GRIFF_1_1
 10
8.5238
 20
-2.25
 30
4.9024
 70
192
 0
VERTEX
 8
GRIFF_1_1
 10
8.9438
 20
-2.25
 30
4.9024
 70
192
 0
VERTEX
 8
GRIFF_1_1
 10
8.9838
 20
-2.21
 30
4.9024
 70
192
 0
VERTEX
 8
GRIFF_1_1
 10
8.9838
 20
2.21
 30
4.9024
 70
192
 0
VERTEX
 8
GRIFF_1_1
 10
8.9438
 20
2.25
 30
4.9024
 70
192
 0
VERTEX
 8
GRIFF_1_1
 10
8.5238
 20
2.25
 30
4.9024
 70
192
 0
VERTEX
 8
GRIFF_1_1
 10
8.4838
 20
2.21
 30
13.8224
 70
192
 0
VERTEX
 8
GRIFF_1_1
 10
8.4838
 20
-2.21
 30
13.8224
 70
192
 0
VERTEX
 8
GRIFF_1_1
 10
8.5238
 20
-2.25
 30
13.8224
 70
192
 0
VERTEX
 8
GRIFF_1_1
 10
8.9438
 20
-2.25
 30
13.8224
 70
192
 0
VERTEX
 8
GRIFF_1_1
 10
8.9838
 20
-2.21
 30
13.8224
 70
192
 0
VERTEX
 8
GRIFF_1_1
 10
8.9838
 20
2.21
 30
13.8224
 70
192
 0
VERTEX
 8
GRIFF_1_1
 10
8.9438
 20
2.25
 30
13.8224
 70
192
 0
VERTEX
 8
GRIFF_1_1
 10
8.5238
 20
2.25
 30
13.8224
 70
192
 0
VERTEX
 8
GRIFF_1_1
 10
8.5238
 20
2.21
 30
13.8624
 70
192
 0
VERTEX
 8
GRIFF_1_1
 10
8.5238
 20
-2.21
 30
13.8624
 70
192
 0
VERTEX
 8
GRIFF_1_1
 10
8.9438
 20
-2.21
 30
13.8624
 70
192
 0
VERTEX
 8
GRIFF_1_1
 10
8.9438
 20
2.21
 30
13.8624
 70
192
 0
VERTEX
 8
GRIFF_1_1
 10
0
 20
0
 30
0
 70
128
 71
1
 72
5
 73
6
 74
2
 0
VERTEX
 8
GRIFF_1_1
 10
0
 20
0
 30
0
 70
128
 71
5
 72
13
 73
14
 74
6
 0
VERTEX
 8
GRIFF_1_1
 10
0
 20
0
 30
0
 70
128
 71
13
 72
21
 73
22
 74
14
 0
VERTEX
 8
GRIFF_1_1
 10
0
 20
0
 30
0
 70
128
 71
2
 72
6
 73
7
 74
7
 0
VERTEX
 8
GRIFF_1_1
 10
0
 20
0
 30
0
 70
128
 71
6
 72
14
 73
15
 74
7
 0
VERTEX
 8
GRIFF_1_1
 10
0
 20
0
 30
0
 70
128
 71
14
 72
22
 73
15
 74
15
 0
VERTEX
 8
GRIFF_1_1
 10
0
 20
0
 30
0
 70
128
 71
2
 72
7
 73
8
 74
3
 0
VERTEX
 8
GRIFF_1_1
 10
0
 20
0
 30
0
 70
128
 71
7
 72
15
 73
16
 74
8
 0
VERTEX
 8
GRIFF_1_1
 10
0
 20
0
 30
0
 70
128
 71
15
 72
22
 73
23
 74
16
 0
VERTEX
 8
GRIFF_1_1
 10
0
 20
0
 30
0
 70
128
 71
3
 72
8
 73
9
 74
9
 0
VERTEX
 8
GRIFF_1_1
 10
0
 20
0
 30
0
 70
128
 71
8
 72
16
 73
17
 74
9
 0
VERTEX
 8
GRIFF_1_1
 10
0
 20
0
 30
0
 70
128
 71
16
 72
23
 73
17
 74
17
 0
VERTEX
 8
GRIFF_1_1
 10
0
 20
0
 30
0
 70
128
 71
3
 72
9
 73
10
 74
4
 0
VERTEX
 8
GRIFF_1_1
 10
0
 20
0
 30
0
 70
128
 71
9
 72
17
 73
18
 74
10
 0
VERTEX
 8
GRIFF_1_1
 10
0
 20
0
 30
0
 70
128
 71
17
 72
23
 73
24
 74
18
 0
VERTEX
 8
GRIFF_1_1
 10
0
 20
0
 30
0
 70
128
 71
4
 72
10
 73
11
 74
11
 0
VERTEX
 8
GRIFF_1_1
 10
0
 20
0
 30
0
 70
128
 71
10
 72
18
 73
19
 74
11
 0
VERTEX
 8
GRIFF_1_1
 10
0
 20
0
 30
0
 70
128
 71
18
 72
24
 73
19
 74
19
 0
VERTEX
 8
GRIFF_1_1
 10
0
 20
0
 30
0
 70
128
 71
4
 72
11
 73
12
 74
1
 0
VERTEX
 8
GRIFF_1_1
 10
0
 20
0
 30
0
 70
128
 71
11
 72
19
 73
20
 74
12
 0
VERTEX
 8
GRIFF_1_1
 10
0
 20
0
 30
0
 70
128
 71
19
 72
24
 73
21
 74
20
 0
VERTEX
 8
GRIFF_1_1
 10
0
 20
0
 30
0
 70
128
 71
1
 72
12
 73
5
 74
5
 0
VERTEX
 8
GRIFF_1_1
 10
0
 20
0
 30
0
 70
128
 71
12
 72
20
 73
13
 74
5
 0
VERTEX
 8
GRIFF_1_1
 10
0
 20
0
 30
0
 70
128
 71
20
 72
21
 73
13
 74
13
 0
VERTEX
 8
GRIFF_1_1
 10
0
 20
0
 30
0
 70
128
 71
21
 72
24
 73
23
 74
22
 0
VERTEX
 8
GRIFF_1_1
 10
0
 20
0
 30
0
 70
128
 71
1
 72
2
 73
3
 74
4
 0
SEQEND
 0
POLYLINE
 8
CAPSULE
 66
1
 10
0.0
 20
0.0
 30
0.0
 70
64
 71
60
 72
40
 0
VERTEX
 8
CAPSULE
 10
6.0198
 20
-0.5099
 30
5.3047
 70
192
 0
VERTEX
 8
CAPSULE
 10
4.3198
 20
-0.9698
 30
5.5391
 70
192
 0
VERTEX
 8
CAPSULE
 10
6.8448
 20
-1.156
 30
6.0341
 70
192
 0
VERTEX
 8
CAPSULE
 10
6.8448
 20
-1.4289
 30
6.874
 70
192
 0
VERTEX
 8
CAPSULE
 10
6.0198
 20
-1.65
 30
6.874
 70
192
 0
VERTEX
 8
CAPSULE
 10
4.3198
 20
-1.65
 30
6.874
 70
192
 0
VERTEX
 8
CAPSULE
 10
6.8448
 20
0.8399
 30
5.7179
 70
192
 0
VERTEX
 8
CAPSULE
 10
6.0198
 20
0.9698
 30
5.5391
 70
192
 0
VERTEX
 8
CAPSULE
 10
6.0198
 20
-1.3349
 30
5.9041
 70
192
 0
VERTEX
 8
CAPSULE
 10
6.8448
 20
-1.359
 30
7.3155
 70
192
 0
VERTEX
 8
CAPSULE
 10
6.0198
 20
-1.5692
 30
7.3838
 70
192
 0
VERTEX
 8
CAPSULE
 10
4.3198
 20
-1.5692
 30
7.3838
 70
192
 0
VERTEX
 8
CAPSULE
 10
4.3198
 20
0.9698
 30
5.5391
 70
192
 0
VERTEX
 8
CAPSULE
 10
6.8448
 20
1.4289
 30
6.874
 70
192
 0
VERTEX
 8
CAPSULE
 10
4.3198
 20
-1.3349
 30
5.9041
 70
192
 0
VERTEX
 8
CAPSULE
 10
6.8448
 20
-1.156
 30
7.7139
 70
192
 0
VERTEX
 8
CAPSULE
 10
6.0198
 20
-1.3349
 30
7.8438
 70
192
 0
VERTEX
 8
CAPSULE
 10
4.3198
 20
-1.3349
 30
7.8438
 70
192
 0
VERTEX
 8
CAPSULE
 10
6.0198
 20
1.65
 30
6.874
 70
192
 0
VERTEX
 8
CAPSULE
 10
6.8448
 20
0.4416
 30
5.515
 70
192
 0
VERTEX
 8
CAPSULE
 10
6.0198
 20
0.5099
 30
5.3047
 70
192
 0
VERTEX
 8
CAPSULE
 10
6.8448
 20
-0.8399
 30
8.03
 70
192
 0
VERTEX
 8
CAPSULE
 10
6.0198
 20
-0.9698
 30
8.2088
 70
192
 0
VERTEX
 8
CAPSULE
 10
4.3198
 20
-0.9698
 30
8.2088
 70
192
 0
VERTEX
 8
CAPSULE
 10
4.3198
 20
0.5099
 30
5.3047
 70
192
 0
VERTEX
 8
CAPSULE
 10
4.3198
 20
1.65
 30
6.874
 70
192
 0
VERTEX
 8
CAPSULE
 10
6.8448
 20
-0.8399
 30
5.7179
 70
192
 0
VERTEX
 8
CAPSULE
 10
6.8448
 20
-0.4416
 30
8.233
 70
192
 0
VERTEX
 8
CAPSULE
 10
6.0198
 20
-0.5099
 30
8.4432
 70
192
 0
VERTEX
 8
CAPSULE
 10
4.3198
 20
-0.5099
 30
8.4432
 70
192
 0
VERTEX
 8
CAPSULE
 10
4.3198
 20
-1.5692
 30
6.3641
 70
192
 0
VERTEX
 8
CAPSULE
 10
6.8448
 20
0
 30
5.445
 70
192
 0
VERTEX
 8
CAPSULE
 10
6.8448
 20
-1.359
 30
6.4324
 70
192
 0
VERTEX
 8
CAPSULE
 10
6.8448
 20
0
 30
8.3029
 70
192
 0
VERTEX
 8
CAPSULE
 10
6.0198
 20
0
 30
8.524
 70
192
 0
VERTEX
 8
CAPSULE
 10
4.3198
 20
0
 30
8.524
 70
192
 0
VERTEX
 8
CAPSULE
 10
6.0198
 20
0
 30
5.224
 70
192
 0
VERTEX
 8
CAPSULE
 10
4.3198
 20
0
 30
5.224
 70
192
 0
VERTEX
 8
CAPSULE
 10
6.0198
 20
-1.5692
 30
6.3641
 70
192
 0
VERTEX
 8
CAPSULE
 10
6.8448
 20
0.4416
 30
8.233
 70
192
 0
VERTEX
 8
CAPSULE
 10
6.0198
 20
0.5099
 30
8.4432
 70
192
 0
VERTEX
 8
CAPSULE
 10
4.3198
 20
0.5099
 30
8.4432
 70
192
 0
VERTEX
 8
CAPSULE
 10
6.8448
 20
1.359
 30
6.4324
 70
192
 0
VERTEX
 8
CAPSULE
 10
6.0198
 20
1.5692
 30
6.3641
 70
192
 0
VERTEX
 8
CAPSULE
 10
4.3198
 20
-0.5099
 30
5.3047
 70
192
 0
VERTEX
 8
CAPSULE
 10
6.8448
 20
0.8399
 30
8.03
 70
192
 0
VERTEX
 8
CAPSULE
 10
6.0198
 20
0.9698
 30
8.2088
 70
192
 0
VERTEX
 8
CAPSULE
 10
4.3198
 20
0.9698
 30
8.2088
 70
192
 0
VERTEX
 8
CAPSULE
 10
4.3198
 20
1.5692
 30
6.3641
 70
192
 0
VERTEX
 8
CAPSULE
 10
6.0198
 20
-0.9698
 30
5.5391
 70
192
 0
VERTEX
 8
CAPSULE
 10
6.8448
 20
1.156
 30
6.0341
 70
192
 0
VERTEX
 8
CAPSULE
 10
6.8448
 20
1.156
 30
7.7139
 70
192
 0
VERTEX
 8
CAPSULE
 10
6.0198
 20
1.3349
 30
7.8438
 70
192
 0
VERTEX
 8
CAPSULE
 10
4.3198
 20
1.3349
 30
7.8438
 70
192
 0
VERTEX
 8
CAPSULE
 10
6.0198
 20
1.3349
 30
5.9041
 70
192
 0
VERTEX
 8
CAPSULE
 10
4.3198
 20
1.3349
 30
5.9041
 70
192
 0
VERTEX
 8
CAPSULE
 10
6.8448
 20
-0.4416
 30
5.515
 70
192
 0
VERTEX
 8
CAPSULE
 10
6.8448
 20
1.359
 30
7.3155
 70
192
 0
VERTEX
 8
CAPSULE
 10
6.0198
 20
1.5692
 30
7.3838
 70
192
 0
VERTEX
 8
CAPSULE
 10
4.3198
 20
1.5692
 30
7.3838
 70
192
 0
VERTEX
 8
CAPSULE
 10
0
 20
0
 30
0
 70
128
 71
32
 72
37
 73
1
 74
57
 0
VERTEX
 8
CAPSULE
 10
0
 20
0
 30
0
 70
128
 71
37
 72
38
 73
45
 74
1
 0
VERTEX
 8
CAPSULE
 10
0
 20
0
 30
0
 70
128
 71
4
 72
5
 73
11
 74
10
 0
VERTEX
 8
CAPSULE
 10
0
 20
0
 30
0
 70
128
 71
5
 72
6
 73
12
 74
11
 0
VERTEX
 8
CAPSULE
 10
0
 20
0
 30
0
 70
128
 71
21
 72
25
 73
38
 74
37
 0
VERTEX
 8
CAPSULE
 10
0
 20
0
 30
0
 70
128
 71
52
 72
53
 73
59
 74
58
 0
VERTEX
 8
CAPSULE
 10
0
 20
0
 30
0
 70
128
 71
53
 72
54
 73
60
 74
59
 0
VERTEX
 8
CAPSULE
 10
0
 20
0
 30
0
 70
128
 71
33
 72
39
 73
5
 74
4
 0
VERTEX
 8
CAPSULE
 10
0
 20
0
 30
0
 70
128
 71
7
 72
8
 73
21
 74
20
 0
VERTEX
 8
CAPSULE
 10
0
 20
0
 30
0
 70
128
 71
10
 72
11
 73
17
 74
16
 0
VERTEX
 8
CAPSULE
 10
0
 20
0
 30
0
 70
128
 71
11
 72
12
 73
18
 74
17
 0
VERTEX
 8
CAPSULE
 10
0
 20
0
 30
0
 70
128
 71
9
 72
15
 73
31
 74
39
 0
VERTEX
 8
CAPSULE
 10
0
 20
0
 30
0
 70
128
 71
40
 72
41
 73
47
 74
46
 0
VERTEX
 8
CAPSULE
 10
0
 20
0
 30
0
 70
128
 71
58
 72
59
 73
19
 74
14
 0
VERTEX
 8
CAPSULE
 10
0
 20
0
 30
0
 70
128
 71
59
 72
60
 73
26
 74
19
 0
VERTEX
 8
CAPSULE
 10
0
 20
0
 30
0
 70
128
 71
57
 72
1
 73
50
 74
27
 0
VERTEX
 8
CAPSULE
 10
0
 20
0
 30
0
 70
128
 71
16
 72
17
 73
23
 74
22
 0
VERTEX
 8
CAPSULE
 10
0
 20
0
 30
0
 70
128
 71
17
 72
18
 73
24
 74
23
 0
VERTEX
 8
CAPSULE
 10
0
 20
0
 30
0
 70
128
 71
41
 72
42
 73
48
 74
47
 0
VERTEX
 8
CAPSULE
 10
0
 20
0
 30
0
 70
128
 71
8
 72
13
 73
25
 74
21
 0
VERTEX
 8
CAPSULE
 10
0
 20
0
 30
0
 70
128
 71
20
 72
21
 73
37
 74
32
 0
VERTEX
 8
CAPSULE
 10
0
 20
0
 30
0
 70
128
 71
1
 72
45
 73
2
 74
50
 0
VERTEX
 8
CAPSULE
 10
0
 20
0
 30
0
 70
128
 71
14
 72
19
 73
44
 74
43
 0
VERTEX
 8
CAPSULE
 10
0
 20
0
 30
0
 70
128
 71
22
 72
23
 73
29
 74
28
 0
VERTEX
 8
CAPSULE
 10
0
 20
0
 30
0
 70
128
 71
23
 72
24
 73
30
 74
29
 0
VERTEX
 8
CAPSULE
 10
0
 20
0
 30
0
 70
128
 71
19
 72
26
 73
49
 74
44
 0
VERTEX
 8
CAPSULE
 10
0
 20
0
 30
0
 70
128
 71
46
 72
47
 73
53
 74
52
 0
VERTEX
 8
CAPSULE
 10
0
 20
0
 30
0
 70
128
 71
47
 72
48
 73
54
 74
53
 0
VERTEX
 8
CAPSULE
 10
0
 20
0
 30
0
 70
128
 71
43
 72
44
 73
55
 74
51
 0
VERTEX
 8
CAPSULE
 10
0
 20
0
 30
0
 70
128
 71
44
 72
49
 73
56
 74
55
 0
VERTEX
 8
CAPSULE
 10
0
 20
0
 30
0
 70
128
 71
28
 72
29
 73
35
 74
34
 0
VERTEX
 8
CAPSULE
 10
0
 20
0
 30
0
 70
128
 71
29
 72
30
 73
36
 74
35
 0
VERTEX
 8
CAPSULE
 10
0
 20
0
 30
0
 70
128
 71
39
 72
31
 73
6
 74
5
 0
VERTEX
 8
CAPSULE
 10
0
 20
0
 30
0
 70
128
 71
3
 72
9
 73
39
 74
33
 0
VERTEX
 8
CAPSULE
 10
0
 20
0
 30
0
 70
128
 71
51
 72
55
 73
8
 74
7
 0
VERTEX
 8
CAPSULE
 10
0
 20
0
 30
0
 70
128
 71
27
 72
50
 73
9
 74
3
 0
VERTEX
 8
CAPSULE
 10
0
 20
0
 30
0
 70
128
 71
50
 72
2
 73
15
 74
9
 0
VERTEX
 8
CAPSULE
 10
0
 20
0
 30
0
 70
128
 71
34
 72
35
 73
41
 74
40
 0
VERTEX
 8
CAPSULE
 10
0
 20
0
 30
0
 70
128
 71
35
 72
36
 73
42
 74
41
 0
VERTEX
 8
CAPSULE
 10
0
 20
0
 30
0
 70
128
 71
55
 72
56
 73
13
 74
8
 0
SEQEND
 0
POLYLINE
 8
GRIFF_2
 66
1
 10
0.0
 20
0.0
 30
0.0
 70
64
 71
24
 72
26
 0
VERTEX
 8
GRIFF_2
 10
2.2635
 20
2.21
 30
4.8557
 70
192
 0
VERTEX
 8
GRIFF_2
 10
2.2635
 20
-2.21
 30
4.8557
 70
192
 0
VERTEX
 8
GRIFF_2
 10
5.1835
 20
-2.21
 30
4.8557
 70
192
 0
VERTEX
 8
GRIFF_2
 10
5.1835
 20
2.21
 30
4.8557
 70
192
 0
VERTEX
 8
GRIFF_2
 10
2.2235
 20
2.21
 30
4.8957
 70
192
 0
VERTEX
 8
GRIFF_2
 10
2.2235
 20
-2.21
 30
4.8957
 70
192
 0
VERTEX
 8
GRIFF_2
 10
2.2635
 20
-2.25
 30
4.8957
 70
192
 0
VERTEX
 8
GRIFF_2
 10
5.1835
 20
-2.25
 30
4.8957
 70
192
 0
VERTEX
 8
GRIFF_2
 10
5.2235
 20
-2.21
 30
4.8957
 70
192
 0
VERTEX
 8
GRIFF_2
 10
5.2235
 20
2.21
 30
4.8957
 70
192
 0
VERTEX
 8
GRIFF_2
 10
5.1835
 20
2.25
 30
4.8957
 70
192
 0
VERTEX
 8
GRIFF_2
 10
2.2635
 20
2.25
 30
4.8957
 70
192
 0
VERTEX
 8
GRIFF_2
 10
2.2235
 20
2.21
 30
8.8157
 70
192
 0
VERTEX
 8
GRIFF_2
 10
2.2235
 20
-2.21
 30
8.8157
 70
192
 0
VERTEX
 8
GRIFF_2
 10
2.2635
 20
-2.25
 30
8.8157
 70
192
 0
VERTEX
 8
GRIFF_2
 10
5.1835
 20
-2.25
 30
8.8157
 70
192
 0
VERTEX
 8
GRIFF_2
 10
5.2235
 20
-2.21
 30
8.8157
 70
192
 0
VERTEX
 8
GRIFF_2
 10
5.2235
 20
2.21
 30
8.8157
 70
192
 0
VERTEX
 8
GRIFF_2
 10
5.1835
 20
2.25
 30
8.8157
 70
192
 0
VERTEX
 8
GRIFF_2
 10
2.2635
 20
2.25
 30
8.8157
 70
192
 0
VERTEX
 8
GRIFF_2
 10
2.2635
 20
2.21
 30
8.8557
 70
192
 0
VERTEX
 8
GRIFF_2
 10
2.2635
 20
-2.21
 30
8.8557
 70
192
 0
VERTEX
 8
GRIFF_2
 10
5.1835
 20
-2.21
 30
8.8557
 70
192
 0
VERTEX
 8
GRIFF_2
 10
5.1835
 20
2.21
 30
8.8557
 70
192
 0
VERTEX
 8
GRIFF_2
 10
0
 20
0
 30
0
 70
128
 71
1
 72
5
 73
6
 74
2
 0
VERTEX
 8
GRIFF_2
 10
0
 20
0
 30
0
 70
128
 71
5
 72
13
 73
14
 74
6
 0
VERTEX
 8
GRIFF_2
 10
0
 20
0
 30
0
 70
128
 71
13
 72
21
 73
22
 74
14
 0
VERTEX
 8
GRIFF_2
 10
0
 20
0
 30
0
 70
128
 71
2
 72
6
 73
7
 74
7
 0
VERTEX
 8
GRIFF_2
 10
0
 20
0
 30
0
 70
128
 71
6
 72
14
 73
15
 74
7
 0
VERTEX
 8
GRIFF_2
 10
0
 20
0
 30
0
 70
128
 71
14
 72
22
 73
15
 74
15
 0
VERTEX
 8
GRIFF_2
 10
0
 20
0
 30
0
 70
128
 71
2
 72
7
 73
8
 74
3
 0
VERTEX
 8
GRIFF_2
 10
0
 20
0
 30
0
 70
128
 71
7
 72
15
 73
16
 74
8
 0
VERTEX
 8
GRIFF_2
 10
0
 20
0
 30
0
 70
128
 71
15
 72
22
 73
23
 74
16
 0
VERTEX
 8
GRIFF_2
 10
0
 20
0
 30
0
 70
128
 71
3
 72
8
 73
9
 74
9
 0
VERTEX
 8
GRIFF_2
 10
0
 20
0
 30
0
 70
128
 71
8
 72
16
 73
17
 74
9
 0
VERTEX
 8
GRIFF_2
 10
0
 20
0
 30
0
 70
128
 71
16
 72
23
 73
17
 74
17
 0
VERTEX
 8
GRIFF_2
 10
0
 20
0
 30
0
 70
128
 71
3
 72
9
 73
10
 74
4
 0
VERTEX
 8
GRIFF_2
 10
0
 20
0
 30
0
 70
128
 71
9
 72
17
 73
18
 74
10
 0
VERTEX
 8
GRIFF_2
 10
0
 20
0
 30
0
 70
128
 71
17
 72
23
 73
24
 74
18
 0
VERTEX
 8
GRIFF_2
 10
0
 20
0
 30
0
 70
128
 71
4
 72
10
 73
11
 74
11
 0
VERTEX
 8
GRIFF_2
 10
0
 20
0
 30
0
 70
128
 71
10
 72
18
 73
19
 74
11
 0
VERTEX
 8
GRIFF_2
 10
0
 20
0
 30
0
 70
128
 71
18
 72
24
 73
19
 74
19
 0
VERTEX
 8
GRIFF_2
 10
0
 20
0
 30
0
 70
128
 71
4
 72
11
 73
12
 74
1
 0
VERTEX
 8
GRIFF_2
 10
0
 20
0
 30
0
 70
128
 71
11
 72
19
 73
20
 74
12
 0
VERTEX
 8
GRIFF_2
 10
0
 20
0
 30
0
 70
128
 71
19
 72
24
 73
21
 74
20
 0
VERTEX
 8
GRIFF_2
 10
0
 20
0
 30
0
 70
128
 71
1
 72
12
 73
5
 74
5
 0
VERTEX
 8
GRIFF_2
 10
0
 20
0
 30
0
 70
128
 71
12
 72
20
 73
13
 74
5
 0
VERTEX
 8
GRIFF_2
 10
0
 20
0
 30
0
 70
128
 71
20
 72
21
 73
13
 74
13
 0
VERTEX
 8
GRIFF_2
 10
0
 20
0
 30
0
 70
128
 71
21
 72
24
 73
23
 74
22
 0
VERTEX
 8
GRIFF_2
 10
0
 20
0
 30
0
 70
128
 71
1
 72
2
 73
3
 74
4
 0
SEQEND
 0
POLYLINE
 8
GRIFF_3
 66
1
 10
0.0
 20
0.0
 30
0.0
 70
64
 71
26
 72
25
 0
VERTEX
 8
GRIFF_3
 10
8.4164
 20
-2.21
 30
4.8724
 70
192
 0
VERTEX
 8
GRIFF_3
 10
8.4164
 20
2.21
 30
4.8724
 70
192
 0
VERTEX
 8
GRIFF_3
 10
8.4164
 20
-2.25
 30
4.9124
 70
192
 0
VERTEX
 8
GRIFF_3
 10
8.4564
 20
-2.21
 30
4.9124
 70
192
 0
VERTEX
 8
GRIFF_3
 10
8.4564
 20
2.21
 30
4.9124
 70
192
 0
VERTEX
 8
GRIFF_3
 10
8.4164
 20
2.25
 30
4.9124
 70
192
 0
VERTEX
 8
GRIFF_3
 10
5.6679
 20
2.21
 30
8.8324
 70
192
 0
VERTEX
 8
GRIFF_3
 10
5.6679
 20
-2.21
 30
8.8324
 70
192
 0
VERTEX
 8
GRIFF_3
 10
5.7079
 20
-2.25
 30
8.8324
 70
192
 0
VERTEX
 8
GRIFF_3
 10
8.4164
 20
-2.25
 30
8.8324
 70
192
 0
VERTEX
 8
GRIFF_3
 10
8.4564
 20
-2.21
 30
8.8324
 70
192
 0
VERTEX
 8
GRIFF_3
 10
8.4564
 20
2.21
 30
8.8324
 70
192
 0
VERTEX
 8
GRIFF_3
 10
8.4164
 20
2.25
 30
8.8324
 70
192
 0
VERTEX
 8
GRIFF_3
 10
5.7079
 20
2.25
 30
8.8324
 70
192
 0
VERTEX
 8
GRIFF_3
 10
5.7079
 20
2.21
 30
8.8724
 70
192
 0
VERTEX
 8
GRIFF_3
 10
5.7079
 20
-2.21
 30
8.8724
 70
192
 0
VERTEX
 8
GRIFF_3
 10
8.4164
 20
-2.21
 30
8.8724
 70
192
 0
VERTEX
 8
GRIFF_3
 10
8.4164
 20
2.21
 30
8.8724
 70
192
 0
VERTEX
 8
GRIFF_3
 10
5.6679
 20
2.21
 30
6.8639
 70
192
 0
VERTEX
 8
GRIFF_3
 10
5.6679
 20
-2.21
 30
6.8639
 70
192
 0
VERTEX
 8
GRIFF_3
 10
5.7079
 20
-2.25
 30
6.7898
 70
192
 0
VERTEX
 8
GRIFF_3
 10
6.7212
 20
-2.25
 30
4.9124
 70
192
 0
VERTEX
 8
GRIFF_3
 10
6.7428
 20
-2.21
 30
4.8724
 70
192
 0
VERTEX
 8
GRIFF_3
 10
6.7212
 20
2.25
 30
4.9124
 70
192
 0
VERTEX
 8
GRIFF_3
 10
6.7428
 20
2.21
 30
4.8724
 70
192
 0
VERTEX
 8
GRIFF_3
 10
5.7079
 20
2.25
 30
6.7898
 70
192
 0
VERTEX
 8
GRIFF_3
 10
0
 20
0
 30
0
 70
128
 71
19
 72
7
 73
8
 74
20
 0
VERTEX
 8
GRIFF_3
 10
0
 20
0
 30
0
 70
128
 71
7
 72
15
 73
16
 74
8
 0
VERTEX
 8
GRIFF_3
 10
0
 20
0
 30
0
 70
128
 71
20
 72
8
 73
9
 74
21
 0
VERTEX
 8
GRIFF_3
 10
0
 20
0
 30
0
 70
128
 71
8
 72
16
 73
9
 74
9
 0
VERTEX
 8
GRIFF_3
 10
0
 20
0
 30
0
 70
128
 71
22
 72
3
 73
1
 74
23
 0
VERTEX
 8
GRIFF_3
 10
0
 20
0
 30
0
 70
128
 71
21
 72
9
 73
10
 74
22
 0
VERTEX
 8
GRIFF_3
 10
0
 20
0
 30
0
 70
128
 71
10
 72
3
 73
22
 74
22
 0
VERTEX
 8
GRIFF_3
 10
0
 20
0
 30
0
 70
128
 71
9
 72
16
 73
17
 74
10
 0
VERTEX
 8
GRIFF_3
 10
0
 20
0
 30
0
 70
128
 71
1
 72
3
 73
4
 74
4
 0
VERTEX
 8
GRIFF_3
 10
0
 20
0
 30
0
 70
128
 71
3
 72
10
 73
11
 74
4
 0
VERTEX
 8
GRIFF_3
 10
0
 20
0
 30
0
 70
128
 71
10
 72
17
 73
11
 74
11
 0
VERTEX
 8
GRIFF_3
 10
0
 20
0
 30
0
 70
128
 71
1
 72
4
 73
5
 74
2
 0
VERTEX
 8
GRIFF_3
 10
0
 20
0
 30
0
 70
128
 71
4
 72
11
 73
12
 74
5
 0
VERTEX
 8
GRIFF_3
 10
0
 20
0
 30
0
 70
128
 71
11
 72
17
 73
18
 74
12
 0
VERTEX
 8
GRIFF_3
 10
0
 20
0
 30
0
 70
128
 71
2
 72
5
 73
6
 74
6
 0
VERTEX
 8
GRIFF_3
 10
0
 20
0
 30
0
 70
128
 71
5
 72
12
 73
13
 74
6
 0
VERTEX
 8
GRIFF_3
 10
0
 20
0
 30
0
 70
128
 71
12
 72
18
 73
13
 74
13
 0
VERTEX
 8
GRIFF_3
 10
0
 20
0
 30
0
 70
128
 71
25
 72
2
 73
6
 74
24
 0
VERTEX
 8
GRIFF_3
 10
0
 20
0
 30
0
 70
128
 71
24
 72
6
 73
13
 74
13
 0
VERTEX
 8
GRIFF_3
 10
0
 20
0
 30
0
 70
128
 71
13
 72
14
 73
26
 74
24
 0
VERTEX
 8
GRIFF_3
 10
0
 20
0
 30
0
 70
128
 71
13
 72
18
 73
15
 74
14
 0
VERTEX
 8
GRIFF_3
 10
0
 20
0
 30
0
 70
128
 71
26
 72
14
 73
7
 74
19
 0
VERTEX
 8
GRIFF_3
 10
0
 20
0
 30
0
 70
128
 71
14
 72
15
 73
7
 74
7
 0
VERTEX
 8
GRIFF_3
 10
0
 20
0
 30
0
 70
128
 71
15
 72
18
 73
17
 74
16
 0
VERTEX
 8
GRIFF_3
 10
0
 20
0
 30
0
 70
128
 71
23
 72
1
 73
2
 74
25
 0
SEQEND
 0
POLYLINE
 8
GRIFF_1
 66
1
 10
0.0
 20
0.0
 30
0.0
 70
64
 71
8
 72
5
 0
VERTEX
 8
GRIFF_1
 10
5.6679
 20
2.21
 30
6.8639
 70
192
 0
VERTEX
 8
GRIFF_1
 10
5.6679
 20
-2.21
 30
6.8639
 70
192
 0
VERTEX
 8
GRIFF_1
 10
5.7079
 20
-2.25
 30
6.7898
 70
192
 0
VERTEX
 8
GRIFF_1
 10
6.7212
 20
-2.25
 30
4.9124
 70
192
 0
VERTEX
 8
GRIFF_1
 10
6.7428
 20
-2.21
 30
4.8724
 70
192
 0
VERTEX
 8
GRIFF_1
 10
6.7212
 20
2.25
 30
4.9124
 70
192
 0
VERTEX
 8
GRIFF_1
 10
6.7428
 20
2.21
 30
4.8724
 70
192
 0
VERTEX
 8
GRIFF_1
 10
5.7079
 20
2.25
 30
6.7898
 70
192
 0
VERTEX
 8
GRIFF_1
 10
0
 20
0
 30
0
 70
128
 71
2
 72
3
 73
1
 74
1
 0
VERTEX
 8
GRIFF_1
 10
0
 20
0
 30
0
 70
128
 71
7
 72
6
 73
5
 74
5
 0
VERTEX
 8
GRIFF_1
 10
0
 20
0
 30
0
 70
128
 71
4
 72
5
 73
8
 74
1
 0
VERTEX
 8
GRIFF_1
 10
0
 20
0
 30
0
 70
128
 71
3
 72
4
 73
1
 74
1
 0
VERTEX
 8
GRIFF_1
 10
0
 20
0
 30
0
 70
128
 71
8
 72
5
 73
6
 74
6
 0
SEQEND
 0
POLYLINE
 8
ROSETTE
 66
1
 10
0.0
 20
0.0
 30
0.0
 70
64
 71
24
 72
26
 0
VERTEX
 8
ROSETTE
 10
-2.7213
 20
-2.7578
 30
0.7858
 70
192
 0
VERTEX
 8
ROSETTE
 10
-2.7213
 20
-2.7578
 30
1.1458
 70
192
 0
VERTEX
 8
ROSETTE
 10
2.6387
 20
-2.7578
 30
1.1458
 70
192
 0
VERTEX
 8
ROSETTE
 10
2.6387
 20
-2.7578
 30
0.7858
 70
192
 0
VERTEX
 8
ROSETTE
 10
-2.7913
 20
-2.6878
 30
0.7858
 70
192
 0
VERTEX
 8
ROSETTE
 10
-2.7913
 20
-2.6878
 30
1.1458
 70
192
 0
VERTEX
 8
ROSETTE
 10
-2.7213
 20
-2.6878
 30
1.2158
 70
192
 0
VERTEX
 8
ROSETTE
 10
2.6387
 20
-2.6878
 30
1.2158
 70
192
 0
VERTEX
 8
ROSETTE
 10
2.7087
 20
-2.6878
 30
1.1458
 70
192
 0
VERTEX
 8
ROSETTE
 10
2.7087
 20
-2.6878
 30
0.7858
 70
192
 0
VERTEX
 8
ROSETTE
 10
2.6387
 20
-2.6878
 30
0.7158
 70
192
 0
VERTEX
 8
ROSETTE
 10
-2.7213
 20
-2.6878
 30
0.7158
 70
192
 0
VERTEX
 8
ROSETTE
 10
-2.7913
 20
2.6722
 30
0.7858
 70
192
 0
VERTEX
 8
ROSETTE
 10
-2.7913
 20
2.6722
 30
1.1458
 70
192
 0
VERTEX
 8
ROSETTE
 10
-2.7213
 20
2.6722
 30
1.2158
 70
192
 0
VERTEX
 8
ROSETTE
 10
2.6387
 20
2.6722
 30
1.2158
 70
192
 0
VERTEX
 8
ROSETTE
 10
2.7087
 20
2.6722
 30
1.1458
 70
192
 0
VERTEX
 8
ROSETTE
 10
2.7087
 20
2.6722
 30
0.7858
 70
192
 0
VERTEX
 8
ROSETTE
 10
2.6387
 20
2.6722
 30
0.7158
 70
192
 0
VERTEX
 8
ROSETTE
 10
-2.7213
 20
2.6722
 30
0.7158
 70
192
 0
VERTEX
 8
ROSETTE
 10
-2.7213
 20
2.7422
 30
0.7858
 70
192
 0
VERTEX
 8
ROSETTE
 10
-2.7213
 20
2.7422
 30
1.1458
 70
192
 0
VERTEX
 8
ROSETTE
 10
2.6387
 20
2.7422
 30
1.1458
 70
192
 0
VERTEX
 8
ROSETTE
 10
2.6387
 20
2.7422
 30
0.7858
 70
192
 0
VERTEX
 8
ROSETTE
 10
0
 20
0
 30
0
 70
128
 71
1
 72
5
 73
6
 74
2
 0
VERTEX
 8
ROSETTE
 10
0
 20
0
 30
0
 70
128
 71
5
 72
13
 73
14
 74
6
 0
VERTEX
 8
ROSETTE
 10
0
 20
0
 30
0
 70
128
 71
13
 72
21
 73
22
 74
14
 0
VERTEX
 8
ROSETTE
 10
0
 20
0
 30
0
 70
128
 71
2
 72
6
 73
7
 74
7
 0
VERTEX
 8
ROSETTE
 10
0
 20
0
 30
0
 70
128
 71
6
 72
14
 73
15
 74
7
 0
VERTEX
 8
ROSETTE
 10
0
 20
0
 30
0
 70
128
 71
14
 72
22
 73
15
 74
15
 0
VERTEX
 8
ROSETTE
 10
0
 20
0
 30
0
 70
128
 71
2
 72
7
 73
8
 74
3
 0
VERTEX
 8
ROSETTE
 10
0
 20
0
 30
0
 70
128
 71
7
 72
15
 73
16
 74
8
 0
VERTEX
 8
ROSETTE
 10
0
 20
0
 30
0
 70
128
 71
15
 72
22
 73
23
 74
16
 0
VERTEX
 8
ROSETTE
 10
0
 20
0
 30
0
 70
128
 71
3
 72
8
 73
9
 74
9
 0
VERTEX
 8
ROSETTE
 10
0
 20
0
 30
0
 70
128
 71
8
 72
16
 73
17
 74
9
 0
VERTEX
 8
ROSETTE
 10
0
 20
0
 30
0
 70
128
 71
16
 72
23
 73
17
 74
17
 0
VERTEX
 8
ROSETTE
 10
0
 20
0
 30
0
 70
128
 71
3
 72
9
 73
10
 74
4
 0
VERTEX
 8
ROSETTE
 10
0
 20
0
 30
0
 70
128
 71
9
 72
17
 73
18
 74
10
 0
VERTEX
 8
ROSETTE
 10
0
 20
0
 30
0
 70
128
 71
17
 72
23
 73
24
 74
18
 0
VERTEX
 8
ROSETTE
 10
0
 20
0
 30
0
 70
128
 71
4
 72
10
 73
11
 74
11
 0
VERTEX
 8
ROSETTE
 10
0
 20
0
 30
0
 70
128
 71
10
 72
18
 73
19
 74
11
 0
VERTEX
 8
ROSETTE
 10
0
 20
0
 30
0
 70
128
 71
18
 72
24
 73
19
 74
19
 0
VERTEX
 8
ROSETTE
 10
0
 20
0
 30
0
 70
128
 71
4
 72
11
 73
12
 74
1
 0
VERTEX
 8
ROSETTE
 10
0
 20
0
 30
0
 70
128
 71
11
 72
19
 73
20
 74
12
 0
VERTEX
 8
ROSETTE
 10
0
 20
0
 30
0
 70
128
 71
19
 72
24
 73
21
 74
20
 0
VERTEX
 8
ROSETTE
 10
0
 20
0
 30
0
 70
128
 71
1
 72
12
 73
5
 74
5
 0
VERTEX
 8
ROSETTE
 10
0
 20
0
 30
0
 70
128
 71
12
 72
20
 73
13
 74
5
 0
VERTEX
 8
ROSETTE
 10
0
 20
0
 30
0
 70
128
 71
20
 72
21
 73
13
 74
13
 0
VERTEX
 8
ROSETTE
 10
0
 20
0
 30
0
 70
128
 71
21
 72
24
 73
23
 74
22
 0
VERTEX
 8
ROSETTE
 10
0
 20
0
 30
0
 70
128
 71
1
 72
2
 73
3
 74
4
 0
SEQEND
 0
POLYLINE
 8
AUSLAUF_2
 66
1
 10
0.0
 20
0.0
 30
0.0
 70
64
 71
164
 72
165
 0
VERTEX
 8
AUSLAUF_2
 10
-1.5408
 20
-0.5385
 30
10.4716
 70
192
 0
VERTEX
 8
AUSLAUF_2
 10
-1.6108
 20
-1.006
 30
26.8622
 70
192
 0
VERTEX
 8
AUSLAUF_2
 10
-1.6108
 20
-13.9631
 30
27.8014
 70
192
 0
VERTEX
 8
AUSLAUF_2
 10
-1.5408
 20
-15.8956
 30
23.8578
 70
192
 0
VERTEX
 8
AUSLAUF_2
 10
-1.5408
 20
-15.8956
 30
23.5435
 70
192
 0
VERTEX
 8
AUSLAUF_2
 10
-1.5408
 20
-15.8956
 30
23.2292
 70
192
 0
VERTEX
 8
AUSLAUF_2
 10
-1.5408
 20
-15.8956
 30
22.9148
 70
192
 0
VERTEX
 8
AUSLAUF_2
 10
1.4192
 20
-15.8956
 30
22.9148
 70
192
 0
VERTEX
 8
AUSLAUF_2
 10
1.4192
 20
-15.8956
 30
23.2291
 70
192
 0
VERTEX
 8
AUSLAUF_2
 10
1.4192
 20
-15.8956
 30
23.5435
 70
192
 0
VERTEX
 8
AUSLAUF_2
 10
1.4192
 20
-15.8956
 30
23.8578
 70
192
 0
VERTEX
 8
AUSLAUF_2
 10
1.4192
 20
-15.8896
 30
24.4376
 70
192
 0
VERTEX
 8
AUSLAUF_2
 10
1.4192
 20
-15.565
 30
26.4252
 70
192
 0
VERTEX
 8
AUSLAUF_2
 10
1.4192
 20
-14.7645
 30
28.2733
 70
192
 0
VERTEX
 8
AUSLAUF_2
 10
1.4192
 20
-13.5366
 30
29.8697
 70
192
 0
VERTEX
 8
AUSLAUF_2
 10
-1.6108
 20
-8.0872
 30
31.3623
 70
192
 0
VERTEX
 8
AUSLAUF_2
 10
1.4892
 20
-0.4685
 30
10.4716
 70
192
 0
VERTEX
 8
AUSLAUF_2
 10
1.4192
 20
-0.4685
 30
10.4016
 70
192
 0
VERTEX
 8
AUSLAUF_2
 10
-1.5408
 20
-0.4685
 30
10.4016
 70
192
 0
VERTEX
 8
AUSLAUF_2
 10
-1.6108
 20
0.3915
 30
10.4716
 70
192
 0
VERTEX
 8
AUSLAUF_2
 10
-1.6108
 20
-0.4685
 30
23.9879
 70
192
 0
VERTEX
 8
AUSLAUF_2
 10
-1.6108
 20
-14.9656
 30
23.5435
 70
192
 0
VERTEX
 8
AUSLAUF_2
 10
-1.6108
 20
-14.9656
 30
23.2292
 70
192
 0
VERTEX
 8
AUSLAUF_2
 10
-1.6108
 20
-14.9656
 30
22.9148
 70
192
 0
VERTEX
 8
AUSLAUF_2
 10
-1.5408
 20
-14.9656
 30
22.8448
 70
192
 0
VERTEX
 8
AUSLAUF_2
 10
1.4192
 20
-14.9656
 30
22.8448
 70
192
 0
VERTEX
 8
AUSLAUF_2
 10
1.4892
 20
-14.9656
 30
22.9148
 70
192
 0
VERTEX
 8
AUSLAUF_2
 10
1.4892
 20
-14.9656
 30
23.2291
 70
192
 0
VERTEX
 8
AUSLAUF_2
 10
1.4892
 20
-14.9656
 30
23.5435
 70
192
 0
VERTEX
 8
AUSLAUF_2
 10
1.4892
 20
-14.9656
 30
23.8578
 70
192
 0
VERTEX
 8
AUSLAUF_2
 10
1.4892
 20
-14.9603
 30
24.4018
 70
192
 0
VERTEX
 8
AUSLAUF_2
 10
1.4892
 20
-14.6726
 30
26.1635
 70
192
 0
VERTEX
 8
AUSLAUF_2
 10
-1.6108
 20
-11.4739
 30
30.3222
 70
192
 0
VERTEX
 8
AUSLAUF_2
 10
1.4192
 20
0.4615
 30
10.4716
 70
192
 0
VERTEX
 8
AUSLAUF_2
 10
-1.4108
 20
-15.6956
 30
22.8448
 70
192
 0
VERTEX
 8
AUSLAUF_2
 10
-1.4108
 20
-15.0956
 30
22.8448
 70
192
 0
VERTEX
 8
AUSLAUF_2
 10
1.2892
 20
-15.6956
 30
22.8448
 70
192
 0
VERTEX
 8
AUSLAUF_2
 10
1.2892
 20
-15.0956
 30
22.8448
 70
192
 0
VERTEX
 8
AUSLAUF_2
 10
-1.6108
 20
-1.8788
 30
28.4192
 70
192
 0
VERTEX
 8
AUSLAUF_2
 10
-1.6108
 20
0.3915
 30
23.9879
 70
192
 0
VERTEX
 8
AUSLAUF_2
 10
-1.6108
 20
0.3114
 30
25.2597
 70
192
 0
VERTEX
 8
AUSLAUF_2
 10
1.4192
 20
-11.9559
 30
31.1176
 70
192
 0
VERTEX
 8
AUSLAUF_2
 10
-1.6108
 20
-3.1057
 30
29.7157
 70
192
 0
VERTEX
 8
AUSLAUF_2
 10
-1.5408
 20
-0.5385
 30
23.9879
 70
192
 0
VERTEX
 8
AUSLAUF_2
 10
-1.5408
 20
-0.6094
 30
25.1293
 70
192
 0
VERTEX
 8
AUSLAUF_2
 10
-1.5408
 20
-1.0708
 30
26.8358
 70
192
 0
VERTEX
 8
AUSLAUF_2
 10
-1.5408
 20
-1.9352
 30
28.3777
 70
192
 0
VERTEX
 8
AUSLAUF_2
 10
-1.5408
 20
-3.1502
 30
29.6617
 70
192
 0
VERTEX
 8
AUSLAUF_2
 10
-1.5408
 20
-4.6421
 30
30.6098
 70
192
 0
VERTEX
 8
AUSLAUF_2
 10
-1.5408
 20
-6.3205
 30
31.1646
 70
192
 0
VERTEX
 8
AUSLAUF_2
 10
-1.5408
 20
-8.0836
 30
31.2924
 70
192
 0
VERTEX
 8
AUSLAUF_2
 10
-1.5408
 20
-9.8245
 30
30.9854
 70
192
 0
VERTEX
 8
AUSLAUF_2
 10
-1.5408
 20
-11.4376
 30
30.2624
 70
192
 0
VERTEX
 8
AUSLAUF_2
 10
-1.5408
 20
-12.8251
 30
29.167
 70
192
 0
VERTEX
 8
AUSLAUF_2
 10
-1.5408
 20
-13.9028
 30
27.7658
 70
192
 0
VERTEX
 8
AUSLAUF_2
 10
-1.5408
 20
-14.6054
 30
26.1438
 70
192
 0
VERTEX
 8
AUSLAUF_2
 10
-1.5408
 20
-14.8903
 30
24.3991
 70
192
 0
VERTEX
 8
AUSLAUF_2
 10
-1.5408
 20
-14.8956
 30
23.8578
 70
192
 0
VERTEX
 8
AUSLAUF_2
 10
-1.5408
 20
-14.8956
 30
23.5435
 70
192
 0
VERTEX
 8
AUSLAUF_2
 10
-1.5408
 20
-14.8956
 30
23.2292
 70
192
 0
VERTEX
 8
AUSLAUF_2
 10
-1.5408
 20
-14.8956
 30
22.9148
 70
192
 0
VERTEX
 8
AUSLAUF_2
 10
1.4192
 20
-14.8956
 30
22.9148
 70
192
 0
VERTEX
 8
AUSLAUF_2
 10
1.4192
 20
-14.8956
 30
23.2291
 70
192
 0
VERTEX
 8
AUSLAUF_2
 10
1.4192
 20
-14.8956
 30
23.5435
 70
192
 0
VERTEX
 8
AUSLAUF_2
 10
1.4192
 20
-14.8956
 30
23.8578
 70
192
 0
VERTEX
 8
AUSLAUF_2
 10
1.4192
 20
-14.8903
 30
24.3991
 70
192
 0
VERTEX
 8
AUSLAUF_2
 10
1.4192
 20
-14.6054
 30
26.1437
 70
192
 0
VERTEX
 8
AUSLAUF_2
 10
1.4192
 20
-13.9028
 30
27.7658
 70
192
 0
VERTEX
 8
AUSLAUF_2
 10
1.4192
 20
-12.8251
 30
29.167
 70
192
 0
VERTEX
 8
AUSLAUF_2
 10
1.4192
 20
-11.4376
 30
30.2624
 70
192
 0
VERTEX
 8
AUSLAUF_2
 10
1.4192
 20
-9.8245
 30
30.9854
 70
192
 0
VERTEX
 8
AUSLAUF_2
 10
1.4192
 20
-8.0836
 30
31.2924
 70
192
 0
VERTEX
 8
AUSLAUF_2
 10
1.4192
 20
-6.3205
 30
31.1646
 70
192
 0
VERTEX
 8
AUSLAUF_2
 10
1.4192
 20
-4.6421
 30
30.6098
 70
192
 0
VERTEX
 8
AUSLAUF_2
 10
1.4192
 20
-3.1502
 30
29.6617
 70
192
 0
VERTEX
 8
AUSLAUF_2
 10
1.4192
 20
-1.9352
 30
28.3777
 70
192
 0
VERTEX
 8
AUSLAUF_2
 10
1.4192
 20
-1.0708
 30
26.8358
 70
192
 0
VERTEX
 8
AUSLAUF_2
 10
1.4192
 20
-0.6094
 30
25.1293
 70
192
 0
VERTEX
 8
AUSLAUF_2
 10
1.4192
 20
-0.5385
 30
23.9879
 70
192
 0
VERTEX
 8
AUSLAUF_2
 10
-1.6108
 20
-14.6726
 30
26.1635
 70
192
 0
VERTEX
 8
AUSLAUF_2
 10
1.4892
 20
-13.9631
 30
27.8014
 70
192
 0
VERTEX
 8
AUSLAUF_2
 10
1.4892
 20
-12.8749
 30
29.2162
 70
192
 0
VERTEX
 8
AUSLAUF_2
 10
1.4892
 20
-11.4739
 30
30.3222
 70
192
 0
VERTEX
 8
AUSLAUF_2
 10
1.4892
 20
-9.8451
 30
31.0524
 70
192
 0
VERTEX
 8
AUSLAUF_2
 10
1.4892
 20
-8.0872
 30
31.3623
 70
192
 0
VERTEX
 8
AUSLAUF_2
 10
1.4892
 20
-6.3069
 30
31.2333
 70
192
 0
VERTEX
 8
AUSLAUF_2
 10
-1.6108
 20
-12.8749
 30
29.2162
 70
192
 0
VERTEX
 8
AUSLAUF_2
 10
1.4892
 20
0.3915
 30
10.4716
 70
192
 0
VERTEX
 8
AUSLAUF_2
 10
1.4192
 20
0.3915
 30
10.4016
 70
192
 0
VERTEX
 8
AUSLAUF_2
 10
-1.5408
 20
0.3915
 30
10.4016
 70
192
 0
VERTEX
 8
AUSLAUF_2
 10
-1.5408
 20
0.4615
 30
10.4716
 70
192
 0
VERTEX
 8
AUSLAUF_2
 10
-1.6108
 20
-4.6121
 30
30.6731
 70
192
 0
VERTEX
 8
AUSLAUF_2
 10
1.4892
 20
-4.6122
 30
30.6731
 70
192
 0
VERTEX
 8
AUSLAUF_2
 10
1.4892
 20
-3.1057
 30
29.7157
 70
192
 0
VERTEX
 8
AUSLAUF_2
 10
1.4892
 20
-1.8788
 30
28.4192
 70
192
 0
VERTEX
 8
AUSLAUF_2
 10
1.4892
 20
-1.006
 30
26.8622
 70
192
 0
VERTEX
 8
AUSLAUF_2
 10
1.4892
 20
-0.5401
 30
25.1391
 70
192
 0
VERTEX
 8
AUSLAUF_2
 10
1.4892
 20
-0.4685
 30
23.9879
 70
192
 0
VERTEX
 8
AUSLAUF_2
 10
1.4192
 20
-10.1181
 30
31.9414
 70
192
 0
VERTEX
 8
AUSLAUF_2
 10
-1.6108
 20
-0.2097
 30
27.1872
 70
192
 0
VERTEX
 8
AUSLAUF_2
 10
-1.6108
 20
-1.1861
 30
28.9289
 70
192
 0
VERTEX
 8
AUSLAUF_2
 10
-1.6108
 20
-2.5585
 30
30.3792
 70
192
 0
VERTEX
 8
AUSLAUF_2
 10
-1.6108
 20
-4.2438
 30
31.4502
 70
192
 0
VERTEX
 8
AUSLAUF_2
 10
-1.6108
 20
-6.1396
 30
32.0768
 70
192
 0
VERTEX
 8
AUSLAUF_2
 10
-1.6108
 20
-8.1311
 30
32.2212
 70
192
 0
VERTEX
 8
AUSLAUF_2
 10
-1.6108
 20
-10.0975
 30
31.8745
 70
192
 0
VERTEX
 8
AUSLAUF_2
 10
-1.6108
 20
-11.9196
 30
31.0577
 70
192
 0
VERTEX
 8
AUSLAUF_2
 10
-1.6108
 20
-13.4868
 30
29.8205
 70
192
 0
VERTEX
 8
AUSLAUF_2
 10
-1.6108
 20
-14.7042
 30
28.2377
 70
192
 0
VERTEX
 8
AUSLAUF_2
 10
-1.6108
 20
-15.4978
 30
26.4055
 70
192
 0
VERTEX
 8
AUSLAUF_2
 10
-1.6108
 20
-15.8197
 30
24.4349
 70
192
 0
VERTEX
 8
AUSLAUF_2
 10
-1.6108
 20
-15.8256
 30
23.8578
 70
192
 0
VERTEX
 8
AUSLAUF_2
 10
-1.6108
 20
-15.8256
 30
23.5435
 70
192
 0
VERTEX
 8
AUSLAUF_2
 10
-1.6108
 20
-15.8256
 30
23.2292
 70
192
 0
VERTEX
 8
AUSLAUF_2
 10
1.4192
 20
-8.1347
 30
32.2911
 70
192
 0
VERTEX
 8
AUSLAUF_2
 10
1.4192
 20
-6.126
 30
32.1455
 70
192
 0
VERTEX
 8
AUSLAUF_2
 10
1.4192
 20
-4.2138
 30
31.5134
 70
192
 0
VERTEX
 8
AUSLAUF_2
 10
1.4192
 20
-2.514
 30
30.4332
 70
192
 0
VERTEX
 8
AUSLAUF_2
 10
1.4192
 20
-1.1297
 30
28.9704
 70
192
 0
VERTEX
 8
AUSLAUF_2
 10
1.4192
 20
-0.1449
 30
27.2137
 70
192
 0
VERTEX
 8
AUSLAUF_2
 10
-1.6108
 20
-14.9603
 30
24.4018
 70
192
 0
VERTEX
 8
AUSLAUF_2
 10
1.4192
 20
-0.5385
 30
10.4716
 70
192
 0
VERTEX
 8
AUSLAUF_2
 10
-1.6108
 20
-0.4685
 30
10.4716
 70
192
 0
VERTEX
 8
AUSLAUF_2
 10
-1.6108
 20
-0.5401
 30
25.1391
 70
192
 0
VERTEX
 8
AUSLAUF_2
 10
1.4192
 20
0.3807
 30
25.2695
 70
192
 0
VERTEX
 8
AUSLAUF_2
 10
1.4192
 20
0.4615
 30
23.9879
 70
192
 0
VERTEX
 8
AUSLAUF_2
 10
-1.6108
 20
-14.9656
 30
23.8578
 70
192
 0
VERTEX
 8
AUSLAUF_2
 10
1.4892
 20
-0.2097
 30
27.1872
 70
192
 0
VERTEX
 8
AUSLAUF_2
 10
1.4892
 20
0.3114
 30
25.2597
 70
192
 0
VERTEX
 8
AUSLAUF_2
 10
1.4892
 20
0.3915
 30
23.9879
 70
192
 0
VERTEX
 8
AUSLAUF_2
 10
-1.6108
 20
-9.8451
 30
31.0524
 70
192
 0
VERTEX
 8
AUSLAUF_2
 10
-1.6108
 20
-15.8256
 30
22.9148
 70
192
 0
VERTEX
 8
AUSLAUF_2
 10
-1.5408
 20
-15.8256
 30
22.8448
 70
192
 0
VERTEX
 8
AUSLAUF_2
 10
1.4192
 20
-15.8256
 30
22.8448
 70
192
 0
VERTEX
 8
AUSLAUF_2
 10
1.4892
 20
-15.8256
 30
22.9148
 70
192
 0
VERTEX
 8
AUSLAUF_2
 10
1.4892
 20
-15.8256
 30
23.2291
 70
192
 0
VERTEX
 8
AUSLAUF_2
 10
1.4892
 20
-15.8256
 30
23.5435
 70
192
 0
VERTEX
 8
AUSLAUF_2
 10
1.4892
 20
-15.8256
 30
23.8578
 70
192
 0
VERTEX
 8
AUSLAUF_2
 10
1.4892
 20
-15.8197
 30
24.4349
 70
192
 0
VERTEX
 8
AUSLAUF_2
 10
1.4892
 20
-15.4978
 30
26.4055
 70
192
 0
VERTEX
 8
AUSLAUF_2
 10
1.4892
 20
-14.7042
 30
28.2377
 70
192
 0
VERTEX
 8
AUSLAUF_2
 10
1.4892
 20
-13.4868
 30
29.8205
 70
192
 0
VERTEX
 8
AUSLAUF_2
 10
1.4892
 20
-11.9196
 30
31.0577
 70
192
 0
VERTEX
 8
AUSLAUF_2
 10
1.4892
 20
-10.0975
 30
31.8745
 70
192
 0
VERTEX
 8
AUSLAUF_2
 10
1.4892
 20
-8.1311
 30
32.2212
 70
192
 0
VERTEX
 8
AUSLAUF_2
 10
1.4892
 20
-6.1396
 30
32.0768
 70
192
 0
VERTEX
 8
AUSLAUF_2
 10
1.4892
 20
-4.2438
 30
31.4502
 70
192
 0
VERTEX
 8
AUSLAUF_2
 10
1.4892
 20
-2.5585
 30
30.3792
 70
192
 0
VERTEX
 8
AUSLAUF_2
 10
1.4892
 20
-1.1861
 30
28.9289
 70
192
 0
VERTEX
 8
AUSLAUF_2
 10
-1.6108
 20
-6.3069
 30
31.2333
 70
192
 0
VERTEX
 8
AUSLAUF_2
 10
-1.5408
 20
0.4615
 30
23.9879
 70
192
 0
VERTEX
 8
AUSLAUF_2
 10
-1.5408
 20
0.3807
 30
25.2695
 70
192
 0
VERTEX
 8
AUSLAUF_2
 10
-1.5408
 20
-0.1449
 30
27.2136
 70
192
 0
VERTEX
 8
AUSLAUF_2
 10
-1.5408
 20
-1.1297
 30
28.9704
 70
192
 0
VERTEX
 8
AUSLAUF_2
 10
-1.5408
 20
-2.514
 30
30.4332
 70
192
 0
VERTEX
 8
AUSLAUF_2
 10
-1.5408
 20
-4.2138
 30
31.5134
 70
192
 0
VERTEX
 8
AUSLAUF_2
 10
-1.5408
 20
-6.126
 30
32.1455
 70
192
 0
VERTEX
 8
AUSLAUF_2
 10
-1.5408
 20
-8.1347
 30
32.2911
 70
192
 0
VERTEX
 8
AUSLAUF_2
 10
-1.5408
 20
-10.1181
 30
31.9414
 70
192
 0
VERTEX
 8
AUSLAUF_2
 10
-1.5408
 20
-11.9559
 30
31.1176
 70
192
 0
VERTEX
 8
AUSLAUF_2
 10
-1.5408
 20
-13.5366
 30
29.8697
 70
192
 0
VERTEX
 8
AUSLAUF_2
 10
-1.5408
 20
-14.7645
 30
28.2733
 70
192
 0
VERTEX
 8
AUSLAUF_2
 10
-1.5408
 20
-15.565
 30
26.4252
 70
192
 0
VERTEX
 8
AUSLAUF_2
 10
-1.5408
 20
-15.8896
 30
24.4376
 70
192
 0
VERTEX
 8
AUSLAUF_2
 10
0
 20
0
 30
0
 70
128
 71
107
 72
160
 73
161
 74
108
 0
VERTEX
 8
AUSLAUF_2
 10
0
 20
0
 30
0
 70
128
 71
33
 72
107
 73
108
 74
87
 0
VERTEX
 8
AUSLAUF_2
 10
0
 20
0
 30
0
 70
128
 71
54
 72
87
 73
3
 74
55
 0
VERTEX
 8
AUSLAUF_2
 10
0
 20
0
 30
0
 70
128
 71
26
 72
134
 73
135
 74
27
 0
VERTEX
 8
AUSLAUF_2
 10
0
 20
0
 30
0
 70
128
 71
134
 72
8
 73
135
 74
135
 0
VERTEX
 8
AUSLAUF_2
 10
0
 20
0
 30
0
 70
128
 71
112
 72
4
 73
5
 74
113
 0
VERTEX
 8
AUSLAUF_2
 10
0
 20
0
 30
0
 70
128
 71
62
 72
27
 73
28
 74
63
 0
VERTEX
 8
AUSLAUF_2
 10
0
 20
0
 30
0
 70
128
 71
27
 72
135
 73
136
 74
28
 0
VERTEX
 8
AUSLAUF_2
 10
0
 20
0
 30
0
 70
128
 71
59
 72
22
 73
23
 74
60
 0
VERTEX
 8
AUSLAUF_2
 10
0
 20
0
 30
0
 70
128
 71
135
 72
8
 73
9
 74
136
 0
VERTEX
 8
AUSLAUF_2
 10
0
 20
0
 30
0
 70
128
 71
63
 72
28
 73
29
 74
64
 0
VERTEX
 8
AUSLAUF_2
 10
0
 20
0
 30
0
 70
128
 71
22
 72
113
 73
114
 74
23
 0
VERTEX
 8
AUSLAUF_2
 10
0
 20
0
 30
0
 70
128
 71
28
 72
136
 73
137
 74
29
 0
VERTEX
 8
AUSLAUF_2
 10
0
 20
0
 30
0
 70
128
 71
136
 72
9
 73
10
 74
137
 0
VERTEX
 8
AUSLAUF_2
 10
0
 20
0
 30
0
 70
128
 71
113
 72
5
 73
6
 74
114
 0
VERTEX
 8
AUSLAUF_2
 10
0
 20
0
 30
0
 70
128
 71
64
 72
29
 73
30
 74
65
 0
VERTEX
 8
AUSLAUF_2
 10
0
 20
0
 30
0
 70
128
 71
29
 72
137
 73
138
 74
30
 0
VERTEX
 8
AUSLAUF_2
 10
0
 20
0
 30
0
 70
128
 71
60
 72
23
 73
24
 74
61
 0
VERTEX
 8
AUSLAUF_2
 10
0
 20
0
 30
0
 70
128
 71
137
 72
10
 73
11
 74
138
 0
VERTEX
 8
AUSLAUF_2
 10
0
 20
0
 30
0
 70
128
 71
84
 72
144
 73
145
 74
85
 0
VERTEX
 8
AUSLAUF_2
 10
0
 20
0
 30
0
 70
128
 71
144
 72
99
 73
115
 74
145
 0
VERTEX
 8
AUSLAUF_2
 10
0
 20
0
 30
0
 70
128
 71
65
 72
30
 73
31
 74
66
 0
VERTEX
 8
AUSLAUF_2
 10
0
 20
0
 30
0
 70
128
 71
72
 72
85
 73
86
 74
73
 0
VERTEX
 8
AUSLAUF_2
 10
0
 20
0
 30
0
 70
128
 71
85
 72
145
 73
146
 74
86
 0
VERTEX
 8
AUSLAUF_2
 10
0
 20
0
 30
0
 70
128
 71
145
 72
115
 73
116
 74
146
 0
VERTEX
 8
AUSLAUF_2
 10
0
 20
0
 30
0
 70
128
 71
73
 72
86
 73
93
 74
74
 0
VERTEX
 8
AUSLAUF_2
 10
0
 20
0
 30
0
 70
128
 71
86
 72
146
 73
147
 74
93
 0
VERTEX
 8
AUSLAUF_2
 10
0
 20
0
 30
0
 70
128
 71
146
 72
116
 73
117
 74
147
 0
VERTEX
 8
AUSLAUF_2
 10
0
 20
0
 30
0
 70
128
 71
74
 72
93
 73
94
 74
75
 0
VERTEX
 8
AUSLAUF_2
 10
0
 20
0
 30
0
 70
128
 71
93
 72
147
 73
148
 74
94
 0
VERTEX
 8
AUSLAUF_2
 10
0
 20
0
 30
0
 70
128
 71
147
 72
117
 73
118
 74
148
 0
VERTEX
 8
AUSLAUF_2
 10
0
 20
0
 30
0
 70
128
 71
75
 72
94
 73
95
 74
76
 0
VERTEX
 8
AUSLAUF_2
 10
0
 20
0
 30
0
 70
128
 71
94
 72
148
 73
149
 74
95
 0
VERTEX
 8
AUSLAUF_2
 10
0
 20
0
 30
0
 70
128
 71
148
 72
118
 73
119
 74
149
 0
VERTEX
 8
AUSLAUF_2
 10
0
 20
0
 30
0
 70
128
 71
76
 72
95
 73
96
 74
77
 0
VERTEX
 8
AUSLAUF_2
 10
0
 20
0
 30
0
 70
128
 71
95
 72
149
 73
128
 74
96
 0
VERTEX
 8
AUSLAUF_2
 10
0
 20
0
 30
0
 70
128
 71
149
 72
119
 73
120
 74
128
 0
VERTEX
 8
AUSLAUF_2
 10
0
 20
0
 30
0
 70
128
 71
77
 72
96
 73
97
 74
78
 0
VERTEX
 8
AUSLAUF_2
 10
0
 20
0
 30
0
 70
128
 71
96
 72
128
 73
129
 74
97
 0
VERTEX
 8
AUSLAUF_2
 10
0
 20
0
 30
0
 70
128
 71
128
 72
120
 73
125
 74
129
 0
VERTEX
 8
AUSLAUF_2
 10
0
 20
0
 30
0
 70
128
 71
78
 72
97
 73
98
 74
79
 0
VERTEX
 8
AUSLAUF_2
 10
0
 20
0
 30
0
 70
128
 71
30
 72
138
 73
139
 74
31
 0
VERTEX
 8
AUSLAUF_2
 10
0
 20
0
 30
0
 70
128
 71
138
 72
11
 73
12
 74
139
 0
VERTEX
 8
AUSLAUF_2
 10
0
 20
0
 30
0
 70
128
 71
23
 72
114
 73
132
 74
24
 0
VERTEX
 8
AUSLAUF_2
 10
0
 20
0
 30
0
 70
128
 71
66
 72
31
 73
32
 74
67
 0
VERTEX
 8
AUSLAUF_2
 10
0
 20
0
 30
0
 70
128
 71
31
 72
139
 73
140
 74
32
 0
VERTEX
 8
AUSLAUF_2
 10
0
 20
0
 30
0
 70
128
 71
114
 72
6
 73
7
 74
132
 0
VERTEX
 8
AUSLAUF_2
 10
0
 20
0
 30
0
 70
128
 71
139
 72
12
 73
13
 74
140
 0
VERTEX
 8
AUSLAUF_2
 10
0
 20
0
 30
0
 70
128
 71
67
 72
32
 73
81
 74
68
 0
VERTEX
 8
AUSLAUF_2
 10
0
 20
0
 30
0
 70
128
 71
61
 72
24
 73
25
 74
25
 0
VERTEX
 8
AUSLAUF_2
 10
0
 20
0
 30
0
 70
128
 71
32
 72
140
 73
141
 74
81
 0
VERTEX
 8
AUSLAUF_2
 10
0
 20
0
 30
0
 70
128
 71
140
 72
13
 73
14
 74
141
 0
VERTEX
 8
AUSLAUF_2
 10
0
 20
0
 30
0
 70
128
 71
24
 72
132
 73
133
 74
25
 0
VERTEX
 8
AUSLAUF_2
 10
0
 20
0
 30
0
 70
128
 71
68
 72
81
 73
82
 74
69
 0
VERTEX
 8
AUSLAUF_2
 10
0
 20
0
 30
0
 70
128
 71
81
 72
141
 73
142
 74
82
 0
VERTEX
 8
AUSLAUF_2
 10
0
 20
0
 30
0
 70
128
 71
132
 72
7
 73
133
 74
133
 0
VERTEX
 8
AUSLAUF_2
 10
0
 20
0
 30
0
 70
128
 71
141
 72
14
 73
15
 74
142
 0
VERTEX
 8
AUSLAUF_2
 10
0
 20
0
 30
0
 70
128
 71
69
 72
82
 73
83
 74
70
 0
VERTEX
 8
AUSLAUF_2
 10
0
 20
0
 30
0
 70
128
 71
61
 72
25
 73
26
 74
62
 0
VERTEX
 8
AUSLAUF_2
 10
0
 20
0
 30
0
 70
128
 71
80
 72
110
 73
111
 74
121
 0
VERTEX
 8
AUSLAUF_2
 10
0
 20
0
 30
0
 70
128
 71
3
 72
109
 73
110
 74
80
 0
VERTEX
 8
AUSLAUF_2
 10
0
 20
0
 30
0
 70
128
 71
109
 72
162
 73
163
 74
110
 0
VERTEX
 8
AUSLAUF_2
 10
0
 20
0
 30
0
 70
128
 71
122
 72
17
 73
18
 74
18
 0
VERTEX
 8
AUSLAUF_2
 10
0
 20
0
 30
0
 70
128
 71
17
 72
88
 73
89
 74
18
 0
VERTEX
 8
AUSLAUF_2
 10
0
 20
0
 30
0
 70
128
 71
88
 72
34
 73
89
 74
89
 0
VERTEX
 8
AUSLAUF_2
 10
0
 20
0
 30
0
 70
128
 71
122
 72
18
 73
19
 74
1
 0
VERTEX
 8
AUSLAUF_2
 10
0
 20
0
 30
0
 70
128
 71
18
 72
89
 73
90
 74
19
 0
VERTEX
 8
AUSLAUF_2
 10
0
 20
0
 30
0
 70
128
 71
89
 72
34
 73
91
 74
90
 0
VERTEX
 8
AUSLAUF_2
 10
0
 20
0
 30
0
 70
128
 71
1
 72
19
 73
123
 74
123
 0
VERTEX
 8
AUSLAUF_2
 10
0
 20
0
 30
0
 70
128
 71
19
 72
90
 73
20
 74
123
 0
VERTEX
 8
AUSLAUF_2
 10
0
 20
0
 30
0
 70
128
 71
90
 72
91
 73
20
 74
20
 0
VERTEX
 8
AUSLAUF_2
 10
0
 20
0
 30
0
 70
128
 71
56
 72
80
 73
121
 74
57
 0
VERTEX
 8
AUSLAUF_2
 10
0
 20
0
 30
0
 70
128
 71
36
 72
38
 73
26
 74
25
 0
VERTEX
 8
AUSLAUF_2
 10
0
 20
0
 30
0
 70
128
 71
134
 72
26
 73
38
 74
37
 0
VERTEX
 8
AUSLAUF_2
 10
0
 20
0
 30
0
 70
128
 71
35
 72
36
 73
25
 74
133
 0
VERTEX
 8
AUSLAUF_2
 10
0
 20
0
 30
0
 70
128
 71
134
 72
37
 73
35
 74
133
 0
VERTEX
 8
AUSLAUF_2
 10
0
 20
0
 30
0
 70
128
 71
133
 72
7
 73
8
 74
134
 0
VERTEX
 8
AUSLAUF_2
 10
0
 20
0
 30
0
 70
128
 71
62
 72
26
 73
27
 74
27
 0
VERTEX
 8
AUSLAUF_2
 10
0
 20
0
 30
0
 70
128
 71
97
 72
129
 73
130
 74
98
 0
VERTEX
 8
AUSLAUF_2
 10
0
 20
0
 30
0
 70
128
 71
129
 72
125
 73
126
 74
130
 0
VERTEX
 8
AUSLAUF_2
 10
0
 20
0
 30
0
 70
128
 71
110
 72
163
 73
164
 74
111
 0
VERTEX
 8
AUSLAUF_2
 10
0
 20
0
 30
0
 70
128
 71
57
 72
121
 73
127
 74
58
 0
VERTEX
 8
AUSLAUF_2
 10
0
 20
0
 30
0
 70
128
 71
121
 72
111
 73
112
 74
127
 0
VERTEX
 8
AUSLAUF_2
 10
0
 20
0
 30
0
 70
128
 71
163
 72
13
 73
12
 74
164
 0
VERTEX
 8
AUSLAUF_2
 10
0
 20
0
 30
0
 70
128
 71
164
 72
12
 73
11
 74
4
 0
VERTEX
 8
AUSLAUF_2
 10
0
 20
0
 30
0
 70
128
 71
4
 72
11
 73
10
 74
5
 0
VERTEX
 8
AUSLAUF_2
 10
0
 20
0
 30
0
 70
128
 71
5
 72
10
 73
9
 74
6
 0
VERTEX
 8
AUSLAUF_2
 10
0
 20
0
 30
0
 70
128
 71
6
 72
9
 73
8
 74
7
 0
VERTEX
 8
AUSLAUF_2
 10
0
 20
0
 30
0
 70
128
 71
111
 72
164
 73
4
 74
112
 0
VERTEX
 8
AUSLAUF_2
 10
0
 20
0
 30
0
 70
128
 71
82
 72
142
 73
143
 74
83
 0
VERTEX
 8
AUSLAUF_2
 10
0
 20
0
 30
0
 70
128
 71
142
 72
15
 73
42
 74
143
 0
VERTEX
 8
AUSLAUF_2
 10
0
 20
0
 30
0
 70
128
 71
70
 72
83
 73
84
 74
71
 0
VERTEX
 8
AUSLAUF_2
 10
0
 20
0
 30
0
 70
128
 71
83
 72
143
 73
144
 74
84
 0
VERTEX
 8
AUSLAUF_2
 10
0
 20
0
 30
0
 70
128
 71
143
 72
42
 73
99
 74
144
 0
VERTEX
 8
AUSLAUF_2
 10
0
 20
0
 30
0
 70
128
 71
71
 72
84
 73
85
 74
72
 0
VERTEX
 8
AUSLAUF_2
 10
0
 20
0
 30
0
 70
128
 71
58
 72
127
 73
22
 74
59
 0
VERTEX
 8
AUSLAUF_2
 10
0
 20
0
 30
0
 70
128
 71
44
 72
45
 73
78
 74
79
 0
VERTEX
 8
AUSLAUF_2
 10
0
 20
0
 30
0
 70
128
 71
45
 72
46
 73
77
 74
78
 0
VERTEX
 8
AUSLAUF_2
 10
0
 20
0
 30
0
 70
128
 71
46
 72
47
 73
76
 74
77
 0
VERTEX
 8
AUSLAUF_2
 10
0
 20
0
 30
0
 70
128
 71
47
 72
48
 73
75
 74
76
 0
VERTEX
 8
AUSLAUF_2
 10
0
 20
0
 30
0
 70
128
 71
48
 72
49
 73
74
 74
75
 0
VERTEX
 8
AUSLAUF_2
 10
0
 20
0
 30
0
 70
128
 71
49
 72
50
 73
73
 74
74
 0
VERTEX
 8
AUSLAUF_2
 10
0
 20
0
 30
0
 70
128
 71
50
 72
51
 73
72
 74
73
 0
VERTEX
 8
AUSLAUF_2
 10
0
 20
0
 30
0
 70
128
 71
51
 72
52
 73
71
 74
72
 0
VERTEX
 8
AUSLAUF_2
 10
0
 20
0
 30
0
 70
128
 71
52
 72
53
 73
70
 74
71
 0
VERTEX
 8
AUSLAUF_2
 10
0
 20
0
 30
0
 70
128
 71
53
 72
54
 73
69
 74
70
 0
VERTEX
 8
AUSLAUF_2
 10
0
 20
0
 30
0
 70
128
 71
54
 72
55
 73
68
 74
69
 0
VERTEX
 8
AUSLAUF_2
 10
0
 20
0
 30
0
 70
128
 71
55
 72
56
 73
67
 74
68
 0
VERTEX
 8
AUSLAUF_2
 10
0
 20
0
 30
0
 70
128
 71
56
 72
57
 73
66
 74
67
 0
VERTEX
 8
AUSLAUF_2
 10
0
 20
0
 30
0
 70
128
 71
57
 72
58
 73
65
 74
66
 0
VERTEX
 8
AUSLAUF_2
 10
0
 20
0
 30
0
 70
128
 71
58
 72
59
 73
64
 74
65
 0
VERTEX
 8
AUSLAUF_2
 10
0
 20
0
 30
0
 70
128
 71
59
 72
60
 73
63
 74
64
 0
VERTEX
 8
AUSLAUF_2
 10
0
 20
0
 30
0
 70
128
 71
60
 72
61
 73
62
 74
63
 0
VERTEX
 8
AUSLAUF_2
 10
0
 20
0
 30
0
 70
128
 71
127
 72
112
 73
113
 74
22
 0
VERTEX
 8
AUSLAUF_2
 10
0
 20
0
 30
0
 70
128
 71
151
 72
126
 73
125
 74
152
 0
VERTEX
 8
AUSLAUF_2
 10
0
 20
0
 30
0
 70
128
 71
152
 72
125
 73
120
 74
153
 0
VERTEX
 8
AUSLAUF_2
 10
0
 20
0
 30
0
 70
128
 71
153
 72
120
 73
119
 74
154
 0
VERTEX
 8
AUSLAUF_2
 10
0
 20
0
 30
0
 70
128
 71
154
 72
119
 73
118
 74
155
 0
VERTEX
 8
AUSLAUF_2
 10
0
 20
0
 30
0
 70
128
 71
155
 72
118
 73
117
 74
156
 0
VERTEX
 8
AUSLAUF_2
 10
0
 20
0
 30
0
 70
128
 71
156
 72
117
 73
116
 74
157
 0
VERTEX
 8
AUSLAUF_2
 10
0
 20
0
 30
0
 70
128
 71
157
 72
116
 73
115
 74
158
 0
VERTEX
 8
AUSLAUF_2
 10
0
 20
0
 30
0
 70
128
 71
158
 72
115
 73
99
 74
159
 0
VERTEX
 8
AUSLAUF_2
 10
0
 20
0
 30
0
 70
128
 71
159
 72
99
 73
42
 74
160
 0
VERTEX
 8
AUSLAUF_2
 10
0
 20
0
 30
0
 70
128
 71
160
 72
42
 73
15
 74
161
 0
VERTEX
 8
AUSLAUF_2
 10
0
 20
0
 30
0
 70
128
 71
161
 72
15
 73
14
 74
162
 0
VERTEX
 8
AUSLAUF_2
 10
0
 20
0
 30
0
 70
128
 71
162
 72
14
 73
13
 74
163
 0
VERTEX
 8
AUSLAUF_2
 10
0
 20
0
 30
0
 70
128
 71
87
 72
108
 73
109
 74
3
 0
VERTEX
 8
AUSLAUF_2
 10
0
 20
0
 30
0
 70
128
 71
108
 72
161
 73
162
 74
109
 0
VERTEX
 8
AUSLAUF_2
 10
0
 20
0
 30
0
 70
128
 71
55
 72
3
 73
80
 74
56
 0
VERTEX
 8
AUSLAUF_2
 10
0
 20
0
 30
0
 70
128
 71
44
 72
21
 73
124
 74
45
 0
VERTEX
 8
AUSLAUF_2
 10
0
 20
0
 30
0
 70
128
 71
21
 72
40
 73
41
 74
124
 0
VERTEX
 8
AUSLAUF_2
 10
0
 20
0
 30
0
 70
128
 71
40
 72
151
 73
152
 74
41
 0
VERTEX
 8
AUSLAUF_2
 10
0
 20
0
 30
0
 70
128
 71
45
 72
124
 73
2
 74
46
 0
VERTEX
 8
AUSLAUF_2
 10
0
 20
0
 30
0
 70
128
 71
124
 72
41
 73
100
 74
2
 0
VERTEX
 8
AUSLAUF_2
 10
0
 20
0
 30
0
 70
128
 71
41
 72
152
 73
153
 74
100
 0
VERTEX
 8
AUSLAUF_2
 10
0
 20
0
 30
0
 70
128
 71
46
 72
2
 73
39
 74
47
 0
VERTEX
 8
AUSLAUF_2
 10
0
 20
0
 30
0
 70
128
 71
2
 72
100
 73
101
 74
39
 0
VERTEX
 8
AUSLAUF_2
 10
0
 20
0
 30
0
 70
128
 71
100
 72
153
 73
154
 74
101
 0
VERTEX
 8
AUSLAUF_2
 10
0
 20
0
 30
0
 70
128
 71
47
 72
39
 73
43
 74
48
 0
VERTEX
 8
AUSLAUF_2
 10
0
 20
0
 30
0
 70
128
 71
39
 72
101
 73
102
 74
43
 0
VERTEX
 8
AUSLAUF_2
 10
0
 20
0
 30
0
 70
128
 71
101
 72
154
 73
155
 74
102
 0
VERTEX
 8
AUSLAUF_2
 10
0
 20
0
 30
0
 70
128
 71
48
 72
43
 73
92
 74
49
 0
VERTEX
 8
AUSLAUF_2
 10
0
 20
0
 30
0
 70
128
 71
43
 72
102
 73
103
 74
92
 0
VERTEX
 8
AUSLAUF_2
 10
0
 20
0
 30
0
 70
128
 71
102
 72
155
 73
156
 74
103
 0
VERTEX
 8
AUSLAUF_2
 10
0
 20
0
 30
0
 70
128
 71
49
 72
92
 73
150
 74
50
 0
VERTEX
 8
AUSLAUF_2
 10
0
 20
0
 30
0
 70
128
 71
92
 72
103
 73
104
 74
150
 0
VERTEX
 8
AUSLAUF_2
 10
0
 20
0
 30
0
 70
128
 71
103
 72
156
 73
157
 74
104
 0
VERTEX
 8
AUSLAUF_2
 10
0
 20
0
 30
0
 70
128
 71
50
 72
150
 73
16
 74
51
 0
VERTEX
 8
AUSLAUF_2
 10
0
 20
0
 30
0
 70
128
 71
150
 72
104
 73
105
 74
16
 0
VERTEX
 8
AUSLAUF_2
 10
0
 20
0
 30
0
 70
128
 71
104
 72
157
 73
158
 74
105
 0
VERTEX
 8
AUSLAUF_2
 10
0
 20
0
 30
0
 70
128
 71
51
 72
16
 73
131
 74
52
 0
VERTEX
 8
AUSLAUF_2
 10
0
 20
0
 30
0
 70
128
 71
16
 72
105
 73
106
 74
131
 0
VERTEX
 8
AUSLAUF_2
 10
0
 20
0
 30
0
 70
128
 71
105
 72
158
 73
159
 74
106
 0
VERTEX
 8
AUSLAUF_2
 10
0
 20
0
 30
0
 70
128
 71
52
 72
131
 73
33
 74
53
 0
VERTEX
 8
AUSLAUF_2
 10
0
 20
0
 30
0
 70
128
 71
131
 72
106
 73
107
 74
33
 0
VERTEX
 8
AUSLAUF_2
 10
0
 20
0
 30
0
 70
128
 71
106
 72
159
 73
160
 74
107
 0
VERTEX
 8
AUSLAUF_2
 10
0
 20
0
 30
0
 70
128
 71
53
 72
33
 73
87
 74
54
 0
VERTEX
 8
AUSLAUF_2
 10
0
 20
0
 30
0
 70
128
 71
40
 72
21
 73
123
 74
20
 0
VERTEX
 8
AUSLAUF_2
 10
0
 20
0
 30
0
 70
128
 71
91
 72
34
 73
126
 74
151
 0
VERTEX
 8
AUSLAUF_2
 10
0
 20
0
 30
0
 70
128
 71
44
 72
79
 73
122
 74
1
 0
VERTEX
 8
AUSLAUF_2
 10
0
 20
0
 30
0
 70
128
 71
98
 72
130
 73
88
 74
17
 0
VERTEX
 8
AUSLAUF_2
 10
0
 20
0
 30
0
 70
128
 71
34
 72
88
 73
130
 74
126
 0
VERTEX
 8
AUSLAUF_2
 10
0
 20
0
 30
0
 70
128
 71
79
 72
98
 73
17
 74
122
 0
VERTEX
 8
AUSLAUF_2
 10
0
 20
0
 30
0
 70
128
 71
21
 72
44
 73
1
 74
123
 0
VERTEX
 8
AUSLAUF_2
 10
0
 20
0
 30
0
 70
128
 71
20
 72
91
 73
151
 74
40
 0
SEQEND
 0
POLYLINE
 8
AUSLAUF_3
 66
1
 10
0.0
 20
0.0
 30
0.0
 70
64
 71
8
 72
5
 0
VERTEX
 8
AUSLAUF_3
 10
-1.4108
 20
-15.09
 30
24.4129
 70
192
 0
VERTEX
 8
AUSLAUF_3
 10
-1.4108
 20
-15.6895
 30
24.4365
 70
192
 0
VERTEX
 8
AUSLAUF_3
 10
1.2892
 20
-15.09
 30
24.4129
 70
192
 0
VERTEX
 8
AUSLAUF_3
 10
1.2892
 20
-15.6895
 30
24.4364
 70
192
 0
VERTEX
 8
AUSLAUF_3
 10
-1.4108
 20
-15.6956
 30
22.8448
 70
192
 0
VERTEX
 8
AUSLAUF_3
 10
-1.4108
 20
-15.0956
 30
22.8448
 70
192
 0
VERTEX
 8
AUSLAUF_3
 10
1.2892
 20
-15.6956
 30
22.8448
 70
192
 0
VERTEX
 8
AUSLAUF_3
 10
1.2892
 20
-15.0956
 30
22.8448
 70
192
 0
VERTEX
 8
AUSLAUF_3
 10
0
 20
0
 30
0
 70
128
 71
1
 72
6
 73
5
 74
2
 0
VERTEX
 8
AUSLAUF_3
 10
0
 20
0
 30
0
 70
128
 71
4
 72
7
 73
8
 74
3
 0
VERTEX
 8
AUSLAUF_3
 10
0
 20
0
 30
0
 70
128
 71
4
 72
3
 73
1
 74
2
 0
VERTEX
 8
AUSLAUF_3
 10
0
 20
0
 30
0
 70
128
 71
2
 72
5
 73
7
 74
4
 0
VERTEX
 8
AUSLAUF_3
 10
0
 20
0
 30
0
 70
128
 71
3
 72
8
 73
6
 74
1
 0
SEQEND
 0
POLYLINE
 8
K_RPER
 66
1
 10
0.0
 20
0.0
 30
0.0
 70
64
 71
24
 72
26
 0
VERTEX
 8
K_RPER
 10
-2.2213
 20
-2.2578
 30
1.2742
 70
192
 0
VERTEX
 8
K_RPER
 10
-2.2213
 20
-2.2578
 30
10.3342
 70
192
 0
VERTEX
 8
K_RPER
 10
2.1387
 20
-2.2578
 30
10.3342
 70
192
 0
VERTEX
 8
K_RPER
 10
2.1387
 20
-2.2578
 30
1.2742
 70
192
 0
VERTEX
 8
K_RPER
 10
-2.2913
 20
-2.1878
 30
1.2742
 70
192
 0
VERTEX
 8
K_RPER
 10
-2.2913
 20
-2.1878
 30
10.3342
 70
192
 0
VERTEX
 8
K_RPER
 10
-2.2213
 20
-2.1878
 30
10.4042
 70
192
 0
VERTEX
 8
K_RPER
 10
2.1387
 20
-2.1878
 30
10.4042
 70
192
 0
VERTEX
 8
K_RPER
 10
2.2087
 20
-2.1878
 30
10.3342
 70
192
 0
VERTEX
 8
K_RPER
 10
2.2087
 20
-2.1878
 30
1.2742
 70
192
 0
VERTEX
 8
K_RPER
 10
2.1387
 20
-2.1878
 30
1.2042
 70
192
 0
VERTEX
 8
K_RPER
 10
-2.2213
 20
-2.1878
 30
1.2042
 70
192
 0
VERTEX
 8
K_RPER
 10
-2.2913
 20
2.1722
 30
1.2742
 70
192
 0
VERTEX
 8
K_RPER
 10
-2.2913
 20
2.1722
 30
10.3342
 70
192
 0
VERTEX
 8
K_RPER
 10
-2.2213
 20
2.1722
 30
10.4042
 70
192
 0
VERTEX
 8
K_RPER
 10
2.1387
 20
2.1722
 30
10.4042
 70
192
 0
VERTEX
 8
K_RPER
 10
2.2087
 20
2.1722
 30
10.3342
 70
192
 0
VERTEX
 8
K_RPER
 10
2.2087
 20
2.1722
 30
1.2742
 70
192
 0
VERTEX
 8
K_RPER
 10
2.1387
 20
2.1722
 30
1.2042
 70
192
 0
VERTEX
 8
K_RPER
 10
-2.2213
 20
2.1722
 30
1.2042
 70
192
 0
VERTEX
 8
K_RPER
 10
-2.2213
 20
2.2422
 30
1.2742
 70
192
 0
VERTEX
 8
K_RPER
 10
-2.2213
 20
2.2422
 30
10.3342
 70
192
 0
VERTEX
 8
K_RPER
 10
2.1387
 20
2.2422
 30
10.3342
 70
192
 0
VERTEX
 8
K_RPER
 10
2.1387
 20
2.2422
 30
1.2742
 70
192
 0
VERTEX
 8
K_RPER
 10
0
 20
0
 30
0
 70
128
 71
1
 72
5
 73
6
 74
2
 0
VERTEX
 8
K_RPER
 10
0
 20
0
 30
0
 70
128
 71
5
 72
13
 73
14
 74
6
 0
VERTEX
 8
K_RPER
 10
0
 20
0
 30
0
 70
128
 71
13
 72
21
 73
22
 74
14
 0
VERTEX
 8
K_RPER
 10
0
 20
0
 30
0
 70
128
 71
2
 72
6
 73
7
 74
7
 0
VERTEX
 8
K_RPER
 10
0
 20
0
 30
0
 70
128
 71
6
 72
14
 73
15
 74
7
 0
VERTEX
 8
K_RPER
 10
0
 20
0
 30
0
 70
128
 71
14
 72
22
 73
15
 74
15
 0
VERTEX
 8
K_RPER
 10
0
 20
0
 30
0
 70
128
 71
2
 72
7
 73
8
 74
3
 0
VERTEX
 8
K_RPER
 10
0
 20
0
 30
0
 70
128
 71
7
 72
15
 73
16
 74
8
 0
VERTEX
 8
K_RPER
 10
0
 20
0
 30
0
 70
128
 71
15
 72
22
 73
23
 74
16
 0
VERTEX
 8
K_RPER
 10
0
 20
0
 30
0
 70
128
 71
3
 72
8
 73
9
 74
9
 0
VERTEX
 8
K_RPER
 10
0
 20
0
 30
0
 70
128
 71
8
 72
16
 73
17
 74
9
 0
VERTEX
 8
K_RPER
 10
0
 20
0
 30
0
 70
128
 71
16
 72
23
 73
17
 74
17
 0
VERTEX
 8
K_RPER
 10
0
 20
0
 30
0
 70
128
 71
3
 72
9
 73
10
 74
4
 0
VERTEX
 8
K_RPER
 10
0
 20
0
 30
0
 70
128
 71
9
 72
17
 73
18
 74
10
 0
VERTEX
 8
K_RPER
 10
0
 20
0
 30
0
 70
128
 71
17
 72
23
 73
24
 74
18
 0
VERTEX
 8
K_RPER
 10
0
 20
0
 30
0
 70
128
 71
4
 72
10
 73
11
 74
11
 0
VERTEX
 8
K_RPER
 10
0
 20
0
 30
0
 70
128
 71
10
 72
18
 73
19
 74
11
 0
VERTEX
 8
K_RPER
 10
0
 20
0
 30
0
 70
128
 71
18
 72
24
 73
19
 74
19
 0
VERTEX
 8
K_RPER
 10
0
 20
0
 30
0
 70
128
 71
4
 72
11
 73
12
 74
1
 0
VERTEX
 8
K_RPER
 10
0
 20
0
 30
0
 70
128
 71
11
 72
19
 73
20
 74
12
 0
VERTEX
 8
K_RPER
 10
0
 20
0
 30
0
 70
128
 71
19
 72
24
 73
21
 74
20
 0
VERTEX
 8
K_RPER
 10
0
 20
0
 30
0
 70
128
 71
1
 72
12
 73
5
 74
5
 0
VERTEX
 8
K_RPER
 10
0
 20
0
 30
0
 70
128
 71
12
 72
20
 73
13
 74
5
 0
VERTEX
 8
K_RPER
 10
0
 20
0
 30
0
 70
128
 71
20
 72
21
 73
13
 74
13
 0
VERTEX
 8
K_RPER
 10
0
 20
0
 30
0
 70
128
 71
21
 72
24
 73
23
 74
22
 0
VERTEX
 8
K_RPER
 10
0
 20
0
 30
0
 70
128
 71
1
 72
2
 73
3
 74
4
 0
SEQEND
 0
POLYLINE
 8
CYLINDER
 66
1
 10
0.0
 20
0.0
 30
0.0
 70
64
 71
82
 72
60
 0
VERTEX
 8
CYLINDER
 10
-0.0074
 20
0.0128
 30
9.4183
 70
192
 0
VERTEX
 8
CYLINDER
 10
-0.0074
 20
0.0128
 30
10.4183
 70
192
 0
VERTEX
 8
CYLINDER
 10
-0.0074
 20
-1.8172
 30
9.4183
 70
192
 0
VERTEX
 8
CYLINDER
 10
-0.0074
 20
-1.8672
 30
9.4683
 70
192
 0
VERTEX
 8
CYLINDER
 10
-0.0074
 20
-1.8672
 30
10.3683
 70
192
 0
VERTEX
 8
CYLINDER
 10
-0.0074
 20
-1.8172
 30
10.4183
 70
192
 0
VERTEX
 8
CYLINDER
 10
0.5581
 20
-1.7276
 30
9.4183
 70
192
 0
VERTEX
 8
CYLINDER
 10
0.5736
 20
-1.7752
 30
9.4683
 70
192
 0
VERTEX
 8
CYLINDER
 10
0.5736
 20
-1.7752
 30
10.3683
 70
192
 0
VERTEX
 8
CYLINDER
 10
0.5581
 20
-1.7276
 30
10.4183
 70
192
 0
VERTEX
 8
CYLINDER
 10
1.0683
 20
-1.4677
 30
9.4183
 70
192
 0
VERTEX
 8
CYLINDER
 10
1.0977
 20
-1.5082
 30
9.4683
 70
192
 0
VERTEX
 8
CYLINDER
 10
1.0977
 20
-1.5082
 30
10.3683
 70
192
 0
VERTEX
 8
CYLINDER
 10
1.0683
 20
-1.4677
 30
10.4183
 70
192
 0
VERTEX
 8
CYLINDER
 10
1.4731
 20
-1.0629
 30
9.4183
 70
192
 0
VERTEX
 8
CYLINDER
 10
1.5136
 20
-1.0922
 30
9.4683
 70
192
 0
VERTEX
 8
CYLINDER
 10
1.5136
 20
-1.0922
 30
10.3683
 70
192
 0
VERTEX
 8
CYLINDER
 10
1.4731
 20
-1.0629
 30
10.4183
 70
192
 0
VERTEX
 8
CYLINDER
 10
1.7331
 20
-0.5527
 30
9.4183
 70
192
 0
VERTEX
 8
CYLINDER
 10
1.7806
 20
-0.5682
 30
9.4683
 70
192
 0
VERTEX
 8
CYLINDER
 10
1.7806
 20
-0.5682
 30
10.3683
 70
192
 0
VERTEX
 8
CYLINDER
 10
1.7331
 20
-0.5527
 30
10.4183
 70
192
 0
VERTEX
 8
CYLINDER
 10
1.8226
 20
0.0128
 30
9.4183
 70
192
 0
VERTEX
 8
CYLINDER
 10
1.8726
 20
0.0128
 30
9.4683
 70
192
 0
VERTEX
 8
CYLINDER
 10
1.8726
 20
0.0128
 30
10.3683
 70
192
 0
VERTEX
 8
CYLINDER
 10
1.8226
 20
0.0128
 30
10.4183
 70
192
 0
VERTEX
 8
CYLINDER
 10
1.7331
 20
0.5783
 30
9.4183
 70
192
 0
VERTEX
 8
CYLINDER
 10
1.7806
 20
0.5937
 30
9.4683
 70
192
 0
VERTEX
 8
CYLINDER
 10
1.7806
 20
0.5937
 30
10.3683
 70
192
 0
VERTEX
 8
CYLINDER
 10
1.7331
 20
0.5783
 30
10.4183
 70
192
 0
VERTEX
 8
CYLINDER
 10
1.4731
 20
1.0884
 30
9.4183
 70
192
 0
VERTEX
 8
CYLINDER
 10
1.5136
 20
1.1178
 30
9.4683
 70
192
 0
VERTEX
 8
CYLINDER
 10
1.5136
 20
1.1178
 30
10.3683
 70
192
 0
VERTEX
 8
CYLINDER
 10
1.4731
 20
1.0884
 30
10.4183
 70
192
 0
VERTEX
 8
CYLINDER
 10
1.0683
 20
1.4933
 30
9.4183
 70
192
 0
VERTEX
 8
CYLINDER
 10
1.0977
 20
1.5337
 30
9.4683
 70
192
 0
VERTEX
 8
CYLINDER
 10
1.0977
 20
1.5337
 30
10.3683
 70
192
 0
VERTEX
 8
CYLINDER
 10
1.0683
 20
1.4933
 30
10.4183
 70
192
 0
VERTEX
 8
CYLINDER
 10
0.5581
 20
1.7532
 30
9.4183
 70
192
 0
VERTEX
 8
CYLINDER
 10
0.5736
 20
1.8008
 30
9.4683
 70
192
 0
VERTEX
 8
CYLINDER
 10
0.5736
 20
1.8008
 30
10.3683
 70
192
 0
VERTEX
 8
CYLINDER
 10
0.5581
 20
1.7532
 30
10.4183
 70
192
 0
VERTEX
 8
CYLINDER
 10
-0.0074
 20
1.8428
 30
9.4183
 70
192
 0
VERTEX
 8
CYLINDER
 10
-0.0074
 20
1.8928
 30
9.4683
 70
192
 0
VERTEX
 8
CYLINDER
 10
-0.0074
 20
1.8928
 30
10.3683
 70
192
 0
VERTEX
 8
CYLINDER
 10
-0.0074
 20
1.8428
 30
10.4183
 70
192
 0
VERTEX
 8
CYLINDER
 10
-0.5729
 20
1.7532
 30
9.4183
 70
192
 0
VERTEX
 8
CYLINDER
 10
-0.5883
 20
1.8008
 30
9.4683
 70
192
 0
VERTEX
 8
CYLINDER
 10
-0.5883
 20
1.8008
 30
10.3683
 70
192
 0
VERTEX
 8
CYLINDER
 10
-0.5729
 20
1.7532
 30
10.4183
 70
192
 0
VERTEX
 8
CYLINDER
 10
-1.083
 20
1.4933
 30
9.4183
 70
192
 0
VERTEX
 8
CYLINDER
 10
-1.1124
 20
1.5337
 30
9.4683
 70
192
 0
VERTEX
 8
CYLINDER
 10
-1.1124
 20
1.5337
 30
10.3683
 70
192
 0
VERTEX
 8
CYLINDER
 10
-1.083
 20
1.4933
 30
10.4183
 70
192
 0
VERTEX
 8
CYLINDER
 10
-1.4879
 20
1.0884
 30
9.4183
 70
192
 0
VERTEX
 8
CYLINDER
 10
-1.5283
 20
1.1178
 30
9.4683
 70
192
 0
VERTEX
 8
CYLINDER
 10
-1.5283
 20
1.1178
 30
10.3683
 70
192
 0
VERTEX
 8
CYLINDER
 10
-1.4879
 20
1.0884
 30
10.4183
 70
192
 0
VERTEX
 8
CYLINDER
 10
-1.7478
 20
0.5783
 30
9.4183
 70
192
 0
VERTEX
 8
CYLINDER
 10
-1.7953
 20
0.5937
 30
9.4683
 70
192
 0
VERTEX
 8
CYLINDER
 10
-1.7953
 20
0.5937
 30
10.3683
 70
192
 0
VERTEX
 8
CYLINDER
 10
-1.7478
 20
0.5783
 30
10.4183
 70
192
 0
VERTEX
 8
CYLINDER
 10
-1.8374
 20
0.0128
 30
9.4183
 70
192
 0
VERTEX
 8
CYLINDER
 10
-1.8874
 20
0.0128
 30
9.4683
 70
192
 0
VERTEX
 8
CYLINDER
 10
-1.8874
 20
0.0128
 30
10.3683
 70
192
 0
VERTEX
 8
CYLINDER
 10
-1.8374
 20
0.0128
 30
10.4183
 70
192
 0
VERTEX
 8
CYLINDER
 10
-1.7478
 20
-0.5527
 30
9.4183
 70
192
 0
VERTEX
 8
CYLINDER
 10
-1.7953
 20
-0.5682
 30
9.4683
 70
192
 0
VERTEX
 8
CYLINDER
 10
-1.7953
 20
-0.5682
 30
10.3683
 70
192
 0
VERTEX
 8
CYLINDER
 10
-1.7478
 20
-0.5527
 30
10.4183
 70
192
 0
VERTEX
 8
CYLINDER
 10
-1.4879
 20
-1.0629
 30
9.4183
 70
192
 0
VERTEX
 8
CYLINDER
 10
-1.5283
 20
-1.0922
 30
9.4683
 70
192
 0
VERTEX
 8
CYLINDER
 10
-1.5283
 20
-1.0922
 30
10.3683
 70
192
 0
VERTEX
 8
CYLINDER
 10
-1.4879
 20
-1.0629
 30
10.4183
 70
192
 0
VERTEX
 8
CYLINDER
 10
-1.083
 20
-1.4677
 30
9.4183
 70
192
 0
VERTEX
 8
CYLINDER
 10
-1.1124
 20
-1.5082
 30
9.4683
 70
192
 0
VERTEX
 8
CYLINDER
 10
-1.1124
 20
-1.5082
 30
10.3683
 70
192
 0
VERTEX
 8
CYLINDER
 10
-1.083
 20
-1.4677
 30
10.4183
 70
192
 0
VERTEX
 8
CYLINDER
 10
-0.5729
 20
-1.7276
 30
9.4183
 70
192
 0
VERTEX
 8
CYLINDER
 10
-0.5883
 20
-1.7752
 30
9.4683
 70
192
 0
VERTEX
 8
CYLINDER
 10
-0.5883
 20
-1.7752
 30
10.3683
 70
192
 0
VERTEX
 8
CYLINDER
 10
-0.5729
 20
-1.7276
 30
10.4183
 70
192
 0
VERTEX
 8
CYLINDER
 10
0
 20
0
 30
0
 70
128
 71
81
 72
82
 73
6
 74
5
 0
VERTEX
 8
CYLINDER
 10
0
 20
0
 30
0
 70
128
 71
60
 72
61
 73
65
 74
64
 0
VERTEX
 8
CYLINDER
 10
0
 20
0
 30
0
 70
128
 71
4
 72
5
 73
9
 74
8
 0
VERTEX
 8
CYLINDER
 10
0
 20
0
 30
0
 70
128
 71
5
 72
6
 73
10
 74
9
 0
VERTEX
 8
CYLINDER
 10
0
 20
0
 30
0
 70
128
 71
6
 72
2
 73
10
 74
10
 0
VERTEX
 8
CYLINDER
 10
0
 20
0
 30
0
 70
128
 71
61
 72
62
 73
66
 74
65
 0
VERTEX
 8
CYLINDER
 10
0
 20
0
 30
0
 70
128
 71
62
 72
2
 73
66
 74
66
 0
VERTEX
 8
CYLINDER
 10
0
 20
0
 30
0
 70
128
 71
8
 72
9
 73
13
 74
12
 0
VERTEX
 8
CYLINDER
 10
0
 20
0
 30
0
 70
128
 71
9
 72
10
 73
14
 74
13
 0
VERTEX
 8
CYLINDER
 10
0
 20
0
 30
0
 70
128
 71
10
 72
2
 73
14
 74
14
 0
VERTEX
 8
CYLINDER
 10
0
 20
0
 30
0
 70
128
 71
64
 72
65
 73
69
 74
68
 0
VERTEX
 8
CYLINDER
 10
0
 20
0
 30
0
 70
128
 71
65
 72
66
 73
70
 74
69
 0
VERTEX
 8
CYLINDER
 10
0
 20
0
 30
0
 70
128
 71
12
 72
13
 73
17
 74
16
 0
VERTEX
 8
CYLINDER
 10
0
 20
0
 30
0
 70
128
 71
13
 72
14
 73
18
 74
17
 0
VERTEX
 8
CYLINDER
 10
0
 20
0
 30
0
 70
128
 71
14
 72
2
 73
18
 74
18
 0
VERTEX
 8
CYLINDER
 10
0
 20
0
 30
0
 70
128
 71
66
 72
2
 73
70
 74
70
 0
VERTEX
 8
CYLINDER
 10
0
 20
0
 30
0
 70
128
 71
68
 72
69
 73
73
 74
72
 0
VERTEX
 8
CYLINDER
 10
0
 20
0
 30
0
 70
128
 71
16
 72
17
 73
21
 74
20
 0
VERTEX
 8
CYLINDER
 10
0
 20
0
 30
0
 70
128
 71
17
 72
18
 73
22
 74
21
 0
VERTEX
 8
CYLINDER
 10
0
 20
0
 30
0
 70
128
 71
18
 72
2
 73
22
 74
22
 0
VERTEX
 8
CYLINDER
 10
0
 20
0
 30
0
 70
128
 71
69
 72
70
 73
74
 74
73
 0
VERTEX
 8
CYLINDER
 10
0
 20
0
 30
0
 70
128
 71
70
 72
2
 73
74
 74
74
 0
VERTEX
 8
CYLINDER
 10
0
 20
0
 30
0
 70
128
 71
20
 72
21
 73
25
 74
24
 0
VERTEX
 8
CYLINDER
 10
0
 20
0
 30
0
 70
128
 71
21
 72
22
 73
26
 74
25
 0
VERTEX
 8
CYLINDER
 10
0
 20
0
 30
0
 70
128
 71
22
 72
2
 73
26
 74
26
 0
VERTEX
 8
CYLINDER
 10
0
 20
0
 30
0
 70
128
 71
72
 72
73
 73
77
 74
76
 0
VERTEX
 8
CYLINDER
 10
0
 20
0
 30
0
 70
128
 71
52
 72
53
 73
57
 74
56
 0
VERTEX
 8
CYLINDER
 10
0
 20
0
 30
0
 70
128
 71
24
 72
25
 73
29
 74
28
 0
VERTEX
 8
CYLINDER
 10
0
 20
0
 30
0
 70
128
 71
25
 72
26
 73
30
 74
29
 0
VERTEX
 8
CYLINDER
 10
0
 20
0
 30
0
 70
128
 71
26
 72
2
 73
30
 74
30
 0
VERTEX
 8
CYLINDER
 10
0
 20
0
 30
0
 70
128
 71
73
 72
74
 73
78
 74
77
 0
VERTEX
 8
CYLINDER
 10
0
 20
0
 30
0
 70
128
 71
53
 72
54
 73
58
 74
57
 0
VERTEX
 8
CYLINDER
 10
0
 20
0
 30
0
 70
128
 71
28
 72
29
 73
33
 74
32
 0
VERTEX
 8
CYLINDER
 10
0
 20
0
 30
0
 70
128
 71
29
 72
30
 73
34
 74
33
 0
VERTEX
 8
CYLINDER
 10
0
 20
0
 30
0
 70
128
 71
30
 72
2
 73
34
 74
34
 0
VERTEX
 8
CYLINDER
 10
0
 20
0
 30
0
 70
128
 71
74
 72
2
 73
78
 74
78
 0
VERTEX
 8
CYLINDER
 10
0
 20
0
 30
0
 70
128
 71
54
 72
2
 73
58
 74
58
 0
VERTEX
 8
CYLINDER
 10
0
 20
0
 30
0
 70
128
 71
32
 72
33
 73
37
 74
36
 0
VERTEX
 8
CYLINDER
 10
0
 20
0
 30
0
 70
128
 71
33
 72
34
 73
38
 74
37
 0
VERTEX
 8
CYLINDER
 10
0
 20
0
 30
0
 70
128
 71
34
 72
2
 73
38
 74
38
 0
VERTEX
 8
CYLINDER
 10
0
 20
0
 30
0
 70
128
 71
76
 72
77
 73
81
 74
80
 0
VERTEX
 8
CYLINDER
 10
0
 20
0
 30
0
 70
128
 71
82
 72
2
 73
6
 74
6
 0
VERTEX
 8
CYLINDER
 10
0
 20
0
 30
0
 70
128
 71
36
 72
37
 73
41
 74
40
 0
VERTEX
 8
CYLINDER
 10
0
 20
0
 30
0
 70
128
 71
37
 72
38
 73
42
 74
41
 0
VERTEX
 8
CYLINDER
 10
0
 20
0
 30
0
 70
128
 71
38
 72
2
 73
42
 74
42
 0
VERTEX
 8
CYLINDER
 10
0
 20
0
 30
0
 70
128
 71
77
 72
78
 73
82
 74
81
 0
VERTEX
 8
CYLINDER
 10
0
 20
0
 30
0
 70
128
 71
56
 72
57
 73
61
 74
60
 0
VERTEX
 8
CYLINDER
 10
0
 20
0
 30
0
 70
128
 71
40
 72
41
 73
45
 74
44
 0
VERTEX
 8
CYLINDER
 10
0
 20
0
 30
0
 70
128
 71
41
 72
42
 73
46
 74
45
 0
VERTEX
 8
CYLINDER
 10
0
 20
0
 30
0
 70
128
 71
42
 72
2
 73
46
 74
46
 0
VERTEX
 8
CYLINDER
 10
0
 20
0
 30
0
 70
128
 71
78
 72
2
 73
82
 74
82
 0
VERTEX
 8
CYLINDER
 10
0
 20
0
 30
0
 70
128
 71
57
 72
58
 73
62
 74
61
 0
VERTEX
 8
CYLINDER
 10
0
 20
0
 30
0
 70
128
 71
44
 72
45
 73
49
 74
48
 0
VERTEX
 8
CYLINDER
 10
0
 20
0
 30
0
 70
128
 71
45
 72
46
 73
50
 74
49
 0
VERTEX
 8
CYLINDER
 10
0
 20
0
 30
0
 70
128
 71
46
 72
2
 73
50
 74
50
 0
VERTEX
 8
CYLINDER
 10
0
 20
0
 30
0
 70
128
 71
80
 72
81
 73
5
 74
4
 0
VERTEX
 8
CYLINDER
 10
0
 20
0
 30
0
 70
128
 71
58
 72
2
 73
62
 74
62
 0
VERTEX
 8
CYLINDER
 10
0
 20
0
 30
0
 70
128
 71
48
 72
49
 73
53
 74
52
 0
VERTEX
 8
CYLINDER
 10
0
 20
0
 30
0
 70
128
 71
49
 72
50
 73
54
 74
53
 0
VERTEX
 8
CYLINDER
 10
0
 20
0
 30
0
 70
128
 71
50
 72
2
 73
54
 74
54
 0
SEQEND
 0
ENDSEC
 0
EOF
