 0
SECTION
 2
HEADER
 9
$ACADVER
 1
AC1009
 0
ENDSEC
 0
SECTION
 2
TABLES
 0
TABLE
 2
LTYPE
 70
1
 0
LTYPE
 2
CONTINUOUS
 70
64
 3
solid line
 72
65
 73
0
 40
0.0
 0
ENDTAB
 0
TABLE
 2
LAYER
 70
6
 0
LAYER
 2
0
 70
0
 62
7
 6
CONTINUOUS
 0
LAYER
 2
160_1110_M
 70
64
 62
7
 6
CONTINUOUS
 0
LAYER
 2
TUBE
 70
64
 62
252
 6
CONTINUOUS
 0
LAYER
 2
PELATOR
 70
64
 62
250
 6
CONTINUOUS
 0
LAYER
 2
AUSLAUF
 70
64
 62
250
 6
CONTINUOUS
 0
LAYER
 2
K_RPER
 70
64
 62
250
 6
CONTINUOUS
 0
LAYER
 2
TUBE_1
 70
64
 62
250
 6
CONTINUOUS
 0
LAYER
 2
TUBE_2
 70
64
 62
250
 6
CONTINUOUS
 0
LAYER
 2
CYLINDER
 70
64
 62
250
 6
CONTINUOUS
 0
LAYER
 2
GRIFF_1
 70
64
 62
250
 6
CONTINUOUS
 0
LAYER
 2
CAPSULE
 70
64
 62
250
 6
CONTINUOUS
 0
LAYER
 2
GRIFF_2
 70
64
 62
250
 6
CONTINUOUS
 0
LAYER
 2
ROSETTE_1
 70
64
 62
250
 6
CONTINUOUS
 0
LAYER
 2
CYLIND44
 70
64
 62
250
 6
CONTINUOUS
 0
LAYER
 2
CYLINDER_1
 70
64
 62
250
 6
CONTINUOUS
 0
LAYER
 2
CYLINDE5
 70
64
 62
250
 6
CONTINUOUS
 0
LAYER
 2
ROSETTE_2
 70
64
 62
250
 6
CONTINUOUS
 0
LAYER
 2
CYLINDER_2
 70
64
 62
250
 6
CONTINUOUS
 0
LAYER
 2
K_RPER_1
 70
64
 62
250
 6
CONTINUOUS
 0
ENDTAB
 0
ENDSEC
 0
SECTION
 2
BLOCKS
 0
ENDSEC
 0
SECTION
 2
ENTITIES
 0
POLYLINE
 8
TUBE
 66
1
 10
0.0
 20
0.0
 30
0.0
 70
64
 71
80
 72
30
 0
VERTEX
 8
TUBE
 10
-0.0219
 20
-11.4177
 30
14.575
 70
192
 0
VERTEX
 8
TUBE
 10
-0.0219
 20
-10.4299
 30
14.4362
 70
192
 0
VERTEX
 8
TUBE
 10
-0.0219
 20
-10.4299
 30
14.4362
 70
192
 0
VERTEX
 8
TUBE
 10
-0.0219
 20
-10.5029
 30
13.9163
 70
192
 0
VERTEX
 8
TUBE
 10
-0.0219
 20
-10.5029
 30
13.9163
 70
192
 0
VERTEX
 8
TUBE
 10
-0.0219
 20
-11.4907
 30
14.0551
 70
192
 0
VERTEX
 8
TUBE
 10
-0.0219
 20
-11.4907
 30
14.0551
 70
192
 0
VERTEX
 8
TUBE
 10
-0.0219
 20
-11.4177
 30
14.575
 70
192
 0
VERTEX
 8
TUBE
 10
-0.0219
 20
-11.4177
 30
14.575
 70
192
 0
VERTEX
 8
TUBE
 10
0.5644
 20
-10.6185
 30
14.4627
 70
192
 0
VERTEX
 8
TUBE
 10
0.5644
 20
-10.6185
 30
14.4627
 70
192
 0
VERTEX
 8
TUBE
 10
0.5644
 20
-10.6916
 30
13.9428
 70
192
 0
VERTEX
 8
TUBE
 10
0.5644
 20
-10.6916
 30
13.9428
 70
192
 0
VERTEX
 8
TUBE
 10
-0.0219
 20
-11.4907
 30
14.0551
 70
192
 0
VERTEX
 8
TUBE
 10
-0.0219
 20
-11.4907
 30
14.0551
 70
192
 0
VERTEX
 8
TUBE
 10
-0.0219
 20
-11.4177
 30
14.575
 70
192
 0
VERTEX
 8
TUBE
 10
-0.0219
 20
-11.4177
 30
14.575
 70
192
 0
VERTEX
 8
TUBE
 10
0.9267
 20
-11.1124
 30
14.5321
 70
192
 0
VERTEX
 8
TUBE
 10
0.9267
 20
-11.1124
 30
14.5321
 70
192
 0
VERTEX
 8
TUBE
 10
0.9267
 20
-11.1855
 30
14.0122
 70
192
 0
VERTEX
 8
TUBE
 10
0.9267
 20
-11.1855
 30
14.0122
 70
192
 0
VERTEX
 8
TUBE
 10
-0.0219
 20
-11.4907
 30
14.0551
 70
192
 0
VERTEX
 8
TUBE
 10
-0.0219
 20
-11.4907
 30
14.0551
 70
192
 0
VERTEX
 8
TUBE
 10
-0.0219
 20
-11.4177
 30
14.575
 70
192
 0
VERTEX
 8
TUBE
 10
-0.0219
 20
-11.4177
 30
14.575
 70
192
 0
VERTEX
 8
TUBE
 10
0.9267
 20
-11.7229
 30
14.6179
 70
192
 0
VERTEX
 8
TUBE
 10
0.9267
 20
-11.7229
 30
14.6179
 70
192
 0
VERTEX
 8
TUBE
 10
0.9267
 20
-11.796
 30
14.098
 70
192
 0
VERTEX
 8
TUBE
 10
0.9267
 20
-11.796
 30
14.098
 70
192
 0
VERTEX
 8
TUBE
 10
-0.0219
 20
-11.4907
 30
14.0551
 70
192
 0
VERTEX
 8
TUBE
 10
-0.0219
 20
-11.4907
 30
14.0551
 70
192
 0
VERTEX
 8
TUBE
 10
-0.0219
 20
-11.4177
 30
14.575
 70
192
 0
VERTEX
 8
TUBE
 10
-0.0219
 20
-11.4177
 30
14.575
 70
192
 0
VERTEX
 8
TUBE
 10
0.5644
 20
-12.2168
 30
14.6873
 70
192
 0
VERTEX
 8
TUBE
 10
0.5644
 20
-12.2168
 30
14.6873
 70
192
 0
VERTEX
 8
TUBE
 10
0.5644
 20
-12.2899
 30
14.1674
 70
192
 0
VERTEX
 8
TUBE
 10
0.5644
 20
-12.2899
 30
14.1674
 70
192
 0
VERTEX
 8
TUBE
 10
-0.0219
 20
-11.4907
 30
14.0551
 70
192
 0
VERTEX
 8
TUBE
 10
-0.0219
 20
-11.4907
 30
14.0551
 70
192
 0
VERTEX
 8
TUBE
 10
-0.0219
 20
-11.4177
 30
14.575
 70
192
 0
VERTEX
 8
TUBE
 10
-0.0219
 20
-11.4177
 30
14.575
 70
192
 0
VERTEX
 8
TUBE
 10
-0.0219
 20
-12.4054
 30
14.7138
 70
192
 0
VERTEX
 8
TUBE
 10
-0.0219
 20
-12.4054
 30
14.7138
 70
192
 0
VERTEX
 8
TUBE
 10
-0.0219
 20
-12.4785
 30
14.194
 70
192
 0
VERTEX
 8
TUBE
 10
-0.0219
 20
-12.4785
 30
14.194
 70
192
 0
VERTEX
 8
TUBE
 10
-0.0219
 20
-11.4907
 30
14.0551
 70
192
 0
VERTEX
 8
TUBE
 10
-0.0219
 20
-11.4907
 30
14.0551
 70
192
 0
VERTEX
 8
TUBE
 10
-0.0219
 20
-11.4177
 30
14.575
 70
192
 0
VERTEX
 8
TUBE
 10
-0.0219
 20
-11.4177
 30
14.575
 70
192
 0
VERTEX
 8
TUBE
 10
-0.6083
 20
-12.2168
 30
14.6873
 70
192
 0
VERTEX
 8
TUBE
 10
-0.6083
 20
-12.2168
 30
14.6873
 70
192
 0
VERTEX
 8
TUBE
 10
-0.6083
 20
-12.2899
 30
14.1674
 70
192
 0
VERTEX
 8
TUBE
 10
-0.6083
 20
-12.2899
 30
14.1674
 70
192
 0
VERTEX
 8
TUBE
 10
-0.0219
 20
-11.4907
 30
14.0551
 70
192
 0
VERTEX
 8
TUBE
 10
-0.0219
 20
-11.4907
 30
14.0551
 70
192
 0
VERTEX
 8
TUBE
 10
-0.0219
 20
-11.4177
 30
14.575
 70
192
 0
VERTEX
 8
TUBE
 10
-0.0219
 20
-11.4177
 30
14.575
 70
192
 0
VERTEX
 8
TUBE
 10
-0.9706
 20
-11.7229
 30
14.6179
 70
192
 0
VERTEX
 8
TUBE
 10
-0.9706
 20
-11.7229
 30
14.6179
 70
192
 0
VERTEX
 8
TUBE
 10
-0.9706
 20
-11.796
 30
14.098
 70
192
 0
VERTEX
 8
TUBE
 10
-0.9706
 20
-11.796
 30
14.098
 70
192
 0
VERTEX
 8
TUBE
 10
-0.0219
 20
-11.4907
 30
14.0551
 70
192
 0
VERTEX
 8
TUBE
 10
-0.0219
 20
-11.4907
 30
14.0551
 70
192
 0
VERTEX
 8
TUBE
 10
-0.0219
 20
-11.4177
 30
14.575
 70
192
 0
VERTEX
 8
TUBE
 10
-0.0219
 20
-11.4177
 30
14.575
 70
192
 0
VERTEX
 8
TUBE
 10
-0.9706
 20
-11.1124
 30
14.5321
 70
192
 0
VERTEX
 8
TUBE
 10
-0.9706
 20
-11.1124
 30
14.5321
 70
192
 0
VERTEX
 8
TUBE
 10
-0.9706
 20
-11.1855
 30
14.0122
 70
192
 0
VERTEX
 8
TUBE
 10
-0.9706
 20
-11.1855
 30
14.0122
 70
192
 0
VERTEX
 8
TUBE
 10
-0.0219
 20
-11.4907
 30
14.0551
 70
192
 0
VERTEX
 8
TUBE
 10
-0.0219
 20
-11.4907
 30
14.0551
 70
192
 0
VERTEX
 8
TUBE
 10
-0.0219
 20
-11.4177
 30
14.575
 70
192
 0
VERTEX
 8
TUBE
 10
-0.0219
 20
-11.4177
 30
14.575
 70
192
 0
VERTEX
 8
TUBE
 10
-0.6083
 20
-10.6185
 30
14.4627
 70
192
 0
VERTEX
 8
TUBE
 10
-0.6083
 20
-10.6185
 30
14.4627
 70
192
 0
VERTEX
 8
TUBE
 10
-0.6083
 20
-10.6916
 30
13.9428
 70
192
 0
VERTEX
 8
TUBE
 10
-0.6083
 20
-10.6916
 30
13.9428
 70
192
 0
VERTEX
 8
TUBE
 10
-0.0219
 20
-11.4907
 30
14.0551
 70
192
 0
VERTEX
 8
TUBE
 10
-0.0219
 20
-11.4907
 30
14.0551
 70
192
 0
VERTEX
 8
TUBE
 10
-0.0219
 20
-11.4177
 30
14.575
 70
192
 0
VERTEX
 8
TUBE
 10
0
 20
0
 30
0
 70
128
 71
1
 72
2
 73
10
 74
10
 0
VERTEX
 8
TUBE
 10
0
 20
0
 30
0
 70
128
 71
3
 72
4
 73
12
 74
11
 0
VERTEX
 8
TUBE
 10
0
 20
0
 30
0
 70
128
 71
5
 72
14
 73
13
 74
13
 0
VERTEX
 8
TUBE
 10
0
 20
0
 30
0
 70
128
 71
9
 72
10
 73
18
 74
18
 0
VERTEX
 8
TUBE
 10
0
 20
0
 30
0
 70
128
 71
11
 72
12
 73
20
 74
19
 0
VERTEX
 8
TUBE
 10
0
 20
0
 30
0
 70
128
 71
13
 72
22
 73
21
 74
21
 0
VERTEX
 8
TUBE
 10
0
 20
0
 30
0
 70
128
 71
17
 72
18
 73
26
 74
26
 0
VERTEX
 8
TUBE
 10
0
 20
0
 30
0
 70
128
 71
19
 72
20
 73
28
 74
27
 0
VERTEX
 8
TUBE
 10
0
 20
0
 30
0
 70
128
 71
21
 72
30
 73
29
 74
29
 0
VERTEX
 8
TUBE
 10
0
 20
0
 30
0
 70
128
 71
25
 72
26
 73
34
 74
34
 0
VERTEX
 8
TUBE
 10
0
 20
0
 30
0
 70
128
 71
27
 72
28
 73
36
 74
35
 0
VERTEX
 8
TUBE
 10
0
 20
0
 30
0
 70
128
 71
29
 72
38
 73
37
 74
37
 0
VERTEX
 8
TUBE
 10
0
 20
0
 30
0
 70
128
 71
33
 72
34
 73
42
 74
42
 0
VERTEX
 8
TUBE
 10
0
 20
0
 30
0
 70
128
 71
35
 72
36
 73
44
 74
43
 0
VERTEX
 8
TUBE
 10
0
 20
0
 30
0
 70
128
 71
37
 72
46
 73
45
 74
45
 0
VERTEX
 8
TUBE
 10
0
 20
0
 30
0
 70
128
 71
41
 72
42
 73
50
 74
50
 0
VERTEX
 8
TUBE
 10
0
 20
0
 30
0
 70
128
 71
43
 72
44
 73
52
 74
51
 0
VERTEX
 8
TUBE
 10
0
 20
0
 30
0
 70
128
 71
45
 72
54
 73
53
 74
53
 0
VERTEX
 8
TUBE
 10
0
 20
0
 30
0
 70
128
 71
49
 72
50
 73
58
 74
58
 0
VERTEX
 8
TUBE
 10
0
 20
0
 30
0
 70
128
 71
51
 72
52
 73
60
 74
59
 0
VERTEX
 8
TUBE
 10
0
 20
0
 30
0
 70
128
 71
53
 72
62
 73
61
 74
61
 0
VERTEX
 8
TUBE
 10
0
 20
0
 30
0
 70
128
 71
57
 72
58
 73
66
 74
66
 0
VERTEX
 8
TUBE
 10
0
 20
0
 30
0
 70
128
 71
59
 72
60
 73
68
 74
67
 0
VERTEX
 8
TUBE
 10
0
 20
0
 30
0
 70
128
 71
61
 72
70
 73
69
 74
69
 0
VERTEX
 8
TUBE
 10
0
 20
0
 30
0
 70
128
 71
65
 72
66
 73
74
 74
74
 0
VERTEX
 8
TUBE
 10
0
 20
0
 30
0
 70
128
 71
67
 72
68
 73
76
 74
75
 0
VERTEX
 8
TUBE
 10
0
 20
0
 30
0
 70
128
 71
69
 72
78
 73
77
 74
77
 0
VERTEX
 8
TUBE
 10
0
 20
0
 30
0
 70
128
 71
73
 72
74
 73
2
 74
2
 0
VERTEX
 8
TUBE
 10
0
 20
0
 30
0
 70
128
 71
75
 72
76
 73
4
 74
3
 0
VERTEX
 8
TUBE
 10
0
 20
0
 30
0
 70
128
 71
77
 72
6
 73
5
 74
5
 0
SEQEND
 0
POLYLINE
 8
PELATOR
 66
1
 10
0.0
 20
0.0
 30
0.0
 70
64
 71
80
 72
40
 0
VERTEX
 8
PELATOR
 10
0.9779
 20
-11.4847
 30
14.0315
 70
192
 0
VERTEX
 8
PELATOR
 10
1.2279
 20
-11.4847
 30
14.0315
 70
192
 0
VERTEX
 8
PELATOR
 10
1.2279
 20
-11.4847
 30
14.0315
 70
192
 0
VERTEX
 8
PELATOR
 10
1.2279
 20
-11.276
 30
15.5169
 70
192
 0
VERTEX
 8
PELATOR
 10
1.2279
 20
-11.276
 30
15.5169
 70
192
 0
VERTEX
 8
PELATOR
 10
0.9779
 20
-11.276
 30
15.5169
 70
192
 0
VERTEX
 8
PELATOR
 10
0.9779
 20
-11.276
 30
15.5169
 70
192
 0
VERTEX
 8
PELATOR
 10
0.9779
 20
-11.4847
 30
14.0315
 70
192
 0
VERTEX
 8
PELATOR
 10
0.7869
 20
-10.9027
 30
13.9497
 70
192
 0
VERTEX
 8
PELATOR
 10
0.9892
 20
-10.7572
 30
13.9292
 70
192
 0
VERTEX
 8
PELATOR
 10
0.9892
 20
-10.7572
 30
13.9292
 70
192
 0
VERTEX
 8
PELATOR
 10
0.9892
 20
-10.5484
 30
15.4146
 70
192
 0
VERTEX
 8
PELATOR
 10
0.9892
 20
-10.5484
 30
15.4146
 70
192
 0
VERTEX
 8
PELATOR
 10
0.7869
 20
-10.6939
 30
15.4351
 70
192
 0
VERTEX
 8
PELATOR
 10
0.7869
 20
-10.6939
 30
15.4351
 70
192
 0
VERTEX
 8
PELATOR
 10
0.7869
 20
-10.9027
 30
13.9497
 70
192
 0
VERTEX
 8
PELATOR
 10
0.2869
 20
-10.5429
 30
13.8991
 70
192
 0
VERTEX
 8
PELATOR
 10
0.3642
 20
-10.3075
 30
13.866
 70
192
 0
VERTEX
 8
PELATOR
 10
0.3642
 20
-10.3075
 30
13.866
 70
192
 0
VERTEX
 8
PELATOR
 10
0.3642
 20
-10.0987
 30
15.3514
 70
192
 0
VERTEX
 8
PELATOR
 10
0.3642
 20
-10.0987
 30
15.3514
 70
192
 0
VERTEX
 8
PELATOR
 10
0.2869
 20
-10.3342
 30
15.3845
 70
192
 0
VERTEX
 8
PELATOR
 10
0.2869
 20
-10.3342
 30
15.3845
 70
192
 0
VERTEX
 8
PELATOR
 10
0.2869
 20
-10.5429
 30
13.8991
 70
192
 0
VERTEX
 8
PELATOR
 10
-0.3311
 20
-10.5429
 30
13.8991
 70
192
 0
VERTEX
 8
PELATOR
 10
-0.4084
 20
-10.3075
 30
13.866
 70
192
 0
VERTEX
 8
PELATOR
 10
-0.4084
 20
-10.3075
 30
13.866
 70
192
 0
VERTEX
 8
PELATOR
 10
-0.4084
 20
-10.0987
 30
15.3514
 70
192
 0
VERTEX
 8
PELATOR
 10
-0.4084
 20
-10.0987
 30
15.3514
 70
192
 0
VERTEX
 8
PELATOR
 10
-0.3311
 20
-10.3342
 30
15.3845
 70
192
 0
VERTEX
 8
PELATOR
 10
-0.3311
 20
-10.3342
 30
15.3845
 70
192
 0
VERTEX
 8
PELATOR
 10
-0.3311
 20
-10.5429
 30
13.8991
 70
192
 0
VERTEX
 8
PELATOR
 10
-0.8311
 20
-10.9027
 30
13.9497
 70
192
 0
VERTEX
 8
PELATOR
 10
-1.0334
 20
-10.7572
 30
13.9292
 70
192
 0
VERTEX
 8
PELATOR
 10
-1.0334
 20
-10.7572
 30
13.9292
 70
192
 0
VERTEX
 8
PELATOR
 10
-1.0334
 20
-10.5484
 30
15.4146
 70
192
 0
VERTEX
 8
PELATOR
 10
-1.0334
 20
-10.5484
 30
15.4146
 70
192
 0
VERTEX
 8
PELATOR
 10
-0.8311
 20
-10.6939
 30
15.4351
 70
192
 0
VERTEX
 8
PELATOR
 10
-0.8311
 20
-10.6939
 30
15.4351
 70
192
 0
VERTEX
 8
PELATOR
 10
-0.8311
 20
-10.9027
 30
13.9497
 70
192
 0
VERTEX
 8
PELATOR
 10
-1.0221
 20
-11.4847
 30
14.0315
 70
192
 0
VERTEX
 8
PELATOR
 10
-1.2721
 20
-11.4847
 30
14.0315
 70
192
 0
VERTEX
 8
PELATOR
 10
-1.2721
 20
-11.4847
 30
14.0315
 70
192
 0
VERTEX
 8
PELATOR
 10
-1.2721
 20
-11.276
 30
15.5169
 70
192
 0
VERTEX
 8
PELATOR
 10
-1.2721
 20
-11.276
 30
15.5169
 70
192
 0
VERTEX
 8
PELATOR
 10
-1.0221
 20
-11.276
 30
15.5169
 70
192
 0
VERTEX
 8
PELATOR
 10
-1.0221
 20
-11.276
 30
15.5169
 70
192
 0
VERTEX
 8
PELATOR
 10
-1.0221
 20
-11.4847
 30
14.0315
 70
192
 0
VERTEX
 8
PELATOR
 10
-0.8311
 20
-12.0668
 30
14.1133
 70
192
 0
VERTEX
 8
PELATOR
 10
-1.0334
 20
-12.2123
 30
14.1338
 70
192
 0
VERTEX
 8
PELATOR
 10
-1.0334
 20
-12.2123
 30
14.1338
 70
192
 0
VERTEX
 8
PELATOR
 10
-1.0334
 20
-12.0036
 30
15.6192
 70
192
 0
VERTEX
 8
PELATOR
 10
-1.0334
 20
-12.0036
 30
15.6192
 70
192
 0
VERTEX
 8
PELATOR
 10
-0.8311
 20
-11.8581
 30
15.5987
 70
192
 0
VERTEX
 8
PELATOR
 10
-0.8311
 20
-11.8581
 30
15.5987
 70
192
 0
VERTEX
 8
PELATOR
 10
-0.8311
 20
-12.0668
 30
14.1133
 70
192
 0
VERTEX
 8
PELATOR
 10
-0.3311
 20
-12.4265
 30
14.1639
 70
192
 0
VERTEX
 8
PELATOR
 10
-0.4084
 20
-12.662
 30
14.1969
 70
192
 0
VERTEX
 8
PELATOR
 10
-0.4084
 20
-12.662
 30
14.1969
 70
192
 0
VERTEX
 8
PELATOR
 10
-0.4084
 20
-12.4532
 30
15.6824
 70
192
 0
VERTEX
 8
PELATOR
 10
-0.4084
 20
-12.4532
 30
15.6824
 70
192
 0
VERTEX
 8
PELATOR
 10
-0.3311
 20
-12.2178
 30
15.6493
 70
192
 0
VERTEX
 8
PELATOR
 10
-0.3311
 20
-12.2178
 30
15.6493
 70
192
 0
VERTEX
 8
PELATOR
 10
-0.3311
 20
-12.4265
 30
14.1639
 70
192
 0
VERTEX
 8
PELATOR
 10
0.2869
 20
-12.4265
 30
14.1639
 70
192
 0
VERTEX
 8
PELATOR
 10
0.3642
 20
-12.662
 30
14.1969
 70
192
 0
VERTEX
 8
PELATOR
 10
0.3642
 20
-12.662
 30
14.1969
 70
192
 0
VERTEX
 8
PELATOR
 10
0.3642
 20
-12.4532
 30
15.6824
 70
192
 0
VERTEX
 8
PELATOR
 10
0.3642
 20
-12.4532
 30
15.6824
 70
192
 0
VERTEX
 8
PELATOR
 10
0.2869
 20
-12.2178
 30
15.6493
 70
192
 0
VERTEX
 8
PELATOR
 10
0.2869
 20
-12.2178
 30
15.6493
 70
192
 0
VERTEX
 8
PELATOR
 10
0.2869
 20
-12.4265
 30
14.1639
 70
192
 0
VERTEX
 8
PELATOR
 10
0.7869
 20
-12.0668
 30
14.1133
 70
192
 0
VERTEX
 8
PELATOR
 10
0.9892
 20
-12.2123
 30
14.1338
 70
192
 0
VERTEX
 8
PELATOR
 10
0.9892
 20
-12.2123
 30
14.1338
 70
192
 0
VERTEX
 8
PELATOR
 10
0.9892
 20
-12.0036
 30
15.6192
 70
192
 0
VERTEX
 8
PELATOR
 10
0.9892
 20
-12.0036
 30
15.6192
 70
192
 0
VERTEX
 8
PELATOR
 10
0.7869
 20
-11.8581
 30
15.5987
 70
192
 0
VERTEX
 8
PELATOR
 10
0.7869
 20
-11.8581
 30
15.5987
 70
192
 0
VERTEX
 8
PELATOR
 10
0.7869
 20
-12.0668
 30
14.1133
 70
192
 0
VERTEX
 8
PELATOR
 10
0
 20
0
 30
0
 70
128
 71
1
 72
2
 73
10
 74
9
 0
VERTEX
 8
PELATOR
 10
0
 20
0
 30
0
 70
128
 71
3
 72
4
 73
12
 74
11
 0
VERTEX
 8
PELATOR
 10
0
 20
0
 30
0
 70
128
 71
5
 72
6
 73
14
 74
13
 0
VERTEX
 8
PELATOR
 10
0
 20
0
 30
0
 70
128
 71
7
 72
8
 73
16
 74
15
 0
VERTEX
 8
PELATOR
 10
0
 20
0
 30
0
 70
128
 71
9
 72
10
 73
18
 74
17
 0
VERTEX
 8
PELATOR
 10
0
 20
0
 30
0
 70
128
 71
11
 72
12
 73
20
 74
19
 0
VERTEX
 8
PELATOR
 10
0
 20
0
 30
0
 70
128
 71
13
 72
14
 73
22
 74
21
 0
VERTEX
 8
PELATOR
 10
0
 20
0
 30
0
 70
128
 71
15
 72
16
 73
24
 74
23
 0
VERTEX
 8
PELATOR
 10
0
 20
0
 30
0
 70
128
 71
17
 72
18
 73
26
 74
25
 0
VERTEX
 8
PELATOR
 10
0
 20
0
 30
0
 70
128
 71
19
 72
20
 73
28
 74
27
 0
VERTEX
 8
PELATOR
 10
0
 20
0
 30
0
 70
128
 71
21
 72
22
 73
30
 74
29
 0
VERTEX
 8
PELATOR
 10
0
 20
0
 30
0
 70
128
 71
23
 72
24
 73
32
 74
31
 0
VERTEX
 8
PELATOR
 10
0
 20
0
 30
0
 70
128
 71
25
 72
26
 73
34
 74
33
 0
VERTEX
 8
PELATOR
 10
0
 20
0
 30
0
 70
128
 71
27
 72
28
 73
36
 74
35
 0
VERTEX
 8
PELATOR
 10
0
 20
0
 30
0
 70
128
 71
29
 72
30
 73
38
 74
37
 0
VERTEX
 8
PELATOR
 10
0
 20
0
 30
0
 70
128
 71
31
 72
32
 73
40
 74
39
 0
VERTEX
 8
PELATOR
 10
0
 20
0
 30
0
 70
128
 71
33
 72
34
 73
42
 74
41
 0
VERTEX
 8
PELATOR
 10
0
 20
0
 30
0
 70
128
 71
35
 72
36
 73
44
 74
43
 0
VERTEX
 8
PELATOR
 10
0
 20
0
 30
0
 70
128
 71
37
 72
38
 73
46
 74
45
 0
VERTEX
 8
PELATOR
 10
0
 20
0
 30
0
 70
128
 71
39
 72
40
 73
48
 74
47
 0
VERTEX
 8
PELATOR
 10
0
 20
0
 30
0
 70
128
 71
41
 72
42
 73
50
 74
49
 0
VERTEX
 8
PELATOR
 10
0
 20
0
 30
0
 70
128
 71
43
 72
44
 73
52
 74
51
 0
VERTEX
 8
PELATOR
 10
0
 20
0
 30
0
 70
128
 71
45
 72
46
 73
54
 74
53
 0
VERTEX
 8
PELATOR
 10
0
 20
0
 30
0
 70
128
 71
47
 72
48
 73
56
 74
55
 0
VERTEX
 8
PELATOR
 10
0
 20
0
 30
0
 70
128
 71
49
 72
50
 73
58
 74
57
 0
VERTEX
 8
PELATOR
 10
0
 20
0
 30
0
 70
128
 71
51
 72
52
 73
60
 74
59
 0
VERTEX
 8
PELATOR
 10
0
 20
0
 30
0
 70
128
 71
53
 72
54
 73
62
 74
61
 0
VERTEX
 8
PELATOR
 10
0
 20
0
 30
0
 70
128
 71
55
 72
56
 73
64
 74
63
 0
VERTEX
 8
PELATOR
 10
0
 20
0
 30
0
 70
128
 71
57
 72
58
 73
66
 74
65
 0
VERTEX
 8
PELATOR
 10
0
 20
0
 30
0
 70
128
 71
59
 72
60
 73
68
 74
67
 0
VERTEX
 8
PELATOR
 10
0
 20
0
 30
0
 70
128
 71
61
 72
62
 73
70
 74
69
 0
VERTEX
 8
PELATOR
 10
0
 20
0
 30
0
 70
128
 71
63
 72
64
 73
72
 74
71
 0
VERTEX
 8
PELATOR
 10
0
 20
0
 30
0
 70
128
 71
65
 72
66
 73
74
 74
73
 0
VERTEX
 8
PELATOR
 10
0
 20
0
 30
0
 70
128
 71
67
 72
68
 73
76
 74
75
 0
VERTEX
 8
PELATOR
 10
0
 20
0
 30
0
 70
128
 71
69
 72
70
 73
78
 74
77
 0
VERTEX
 8
PELATOR
 10
0
 20
0
 30
0
 70
128
 71
71
 72
72
 73
80
 74
79
 0
VERTEX
 8
PELATOR
 10
0
 20
0
 30
0
 70
128
 71
73
 72
74
 73
2
 74
1
 0
VERTEX
 8
PELATOR
 10
0
 20
0
 30
0
 70
128
 71
75
 72
76
 73
4
 74
3
 0
VERTEX
 8
PELATOR
 10
0
 20
0
 30
0
 70
128
 71
77
 72
78
 73
6
 74
5
 0
VERTEX
 8
PELATOR
 10
0
 20
0
 30
0
 70
128
 71
79
 72
80
 73
8
 74
7
 0
SEQEND
 0
POLYLINE
 8
AUSLAUF
 66
1
 10
0.0
 20
0.0
 30
0.0
 70
64
 71
24
 72
26
 0
VERTEX
 8
AUSLAUF
 10
-1.6823
 20
-2.0861
 30
14.7126
 70
192
 0
VERTEX
 8
AUSLAUF
 10
-1.6823
 20
-12.9461
 30
14.7126
 70
192
 0
VERTEX
 8
AUSLAUF
 10
1.7777
 20
-12.9461
 30
14.7126
 70
192
 0
VERTEX
 8
AUSLAUF
 10
1.7777
 20
-2.0861
 30
14.7126
 70
192
 0
VERTEX
 8
AUSLAUF
 10
-1.7523
 20
-2.0861
 30
14.7826
 70
192
 0
VERTEX
 8
AUSLAUF
 10
-1.7523
 20
-12.9461
 30
14.7826
 70
192
 0
VERTEX
 8
AUSLAUF
 10
-1.6823
 20
-13.0161
 30
14.7826
 70
192
 0
VERTEX
 8
AUSLAUF
 10
1.7777
 20
-13.0161
 30
14.7826
 70
192
 0
VERTEX
 8
AUSLAUF
 10
1.8477
 20
-12.9461
 30
14.7826
 70
192
 0
VERTEX
 8
AUSLAUF
 10
1.8477
 20
-2.0861
 30
14.7826
 70
192
 0
VERTEX
 8
AUSLAUF
 10
1.7777
 20
-2.0161
 30
14.7826
 70
192
 0
VERTEX
 8
AUSLAUF
 10
-1.6823
 20
-2.0161
 30
14.7826
 70
192
 0
VERTEX
 8
AUSLAUF
 10
-1.7523
 20
-2.0861
 30
16.6426
 70
192
 0
VERTEX
 8
AUSLAUF
 10
-1.7523
 20
-12.9461
 30
16.6426
 70
192
 0
VERTEX
 8
AUSLAUF
 10
-1.6823
 20
-13.0161
 30
16.6426
 70
192
 0
VERTEX
 8
AUSLAUF
 10
1.7777
 20
-13.0161
 30
16.6426
 70
192
 0
VERTEX
 8
AUSLAUF
 10
1.8477
 20
-12.9461
 30
16.6426
 70
192
 0
VERTEX
 8
AUSLAUF
 10
1.8477
 20
-2.0861
 30
16.6426
 70
192
 0
VERTEX
 8
AUSLAUF
 10
1.7777
 20
-2.0161
 30
16.6426
 70
192
 0
VERTEX
 8
AUSLAUF
 10
-1.6823
 20
-2.0161
 30
16.6426
 70
192
 0
VERTEX
 8
AUSLAUF
 10
-1.6823
 20
-2.0861
 30
16.7126
 70
192
 0
VERTEX
 8
AUSLAUF
 10
-1.6823
 20
-12.9461
 30
16.7126
 70
192
 0
VERTEX
 8
AUSLAUF
 10
1.7777
 20
-12.9461
 30
16.7126
 70
192
 0
VERTEX
 8
AUSLAUF
 10
1.7777
 20
-2.0861
 30
16.7126
 70
192
 0
VERTEX
 8
AUSLAUF
 10
0
 20
0
 30
0
 70
128
 71
1
 72
5
 73
6
 74
2
 0
VERTEX
 8
AUSLAUF
 10
0
 20
0
 30
0
 70
128
 71
5
 72
13
 73
14
 74
6
 0
VERTEX
 8
AUSLAUF
 10
0
 20
0
 30
0
 70
128
 71
13
 72
21
 73
22
 74
14
 0
VERTEX
 8
AUSLAUF
 10
0
 20
0
 30
0
 70
128
 71
2
 72
6
 73
7
 74
7
 0
VERTEX
 8
AUSLAUF
 10
0
 20
0
 30
0
 70
128
 71
6
 72
14
 73
15
 74
7
 0
VERTEX
 8
AUSLAUF
 10
0
 20
0
 30
0
 70
128
 71
14
 72
22
 73
15
 74
15
 0
VERTEX
 8
AUSLAUF
 10
0
 20
0
 30
0
 70
128
 71
2
 72
7
 73
8
 74
3
 0
VERTEX
 8
AUSLAUF
 10
0
 20
0
 30
0
 70
128
 71
7
 72
15
 73
16
 74
8
 0
VERTEX
 8
AUSLAUF
 10
0
 20
0
 30
0
 70
128
 71
15
 72
22
 73
23
 74
16
 0
VERTEX
 8
AUSLAUF
 10
0
 20
0
 30
0
 70
128
 71
3
 72
8
 73
9
 74
9
 0
VERTEX
 8
AUSLAUF
 10
0
 20
0
 30
0
 70
128
 71
8
 72
16
 73
17
 74
9
 0
VERTEX
 8
AUSLAUF
 10
0
 20
0
 30
0
 70
128
 71
16
 72
23
 73
17
 74
17
 0
VERTEX
 8
AUSLAUF
 10
0
 20
0
 30
0
 70
128
 71
3
 72
9
 73
10
 74
4
 0
VERTEX
 8
AUSLAUF
 10
0
 20
0
 30
0
 70
128
 71
9
 72
17
 73
18
 74
10
 0
VERTEX
 8
AUSLAUF
 10
0
 20
0
 30
0
 70
128
 71
17
 72
23
 73
24
 74
18
 0
VERTEX
 8
AUSLAUF
 10
0
 20
0
 30
0
 70
128
 71
4
 72
10
 73
11
 74
11
 0
VERTEX
 8
AUSLAUF
 10
0
 20
0
 30
0
 70
128
 71
10
 72
18
 73
19
 74
11
 0
VERTEX
 8
AUSLAUF
 10
0
 20
0
 30
0
 70
128
 71
18
 72
24
 73
19
 74
19
 0
VERTEX
 8
AUSLAUF
 10
0
 20
0
 30
0
 70
128
 71
4
 72
11
 73
12
 74
1
 0
VERTEX
 8
AUSLAUF
 10
0
 20
0
 30
0
 70
128
 71
11
 72
19
 73
20
 74
12
 0
VERTEX
 8
AUSLAUF
 10
0
 20
0
 30
0
 70
128
 71
19
 72
24
 73
21
 74
20
 0
VERTEX
 8
AUSLAUF
 10
0
 20
0
 30
0
 70
128
 71
1
 72
12
 73
5
 74
5
 0
VERTEX
 8
AUSLAUF
 10
0
 20
0
 30
0
 70
128
 71
12
 72
20
 73
13
 74
5
 0
VERTEX
 8
AUSLAUF
 10
0
 20
0
 30
0
 70
128
 71
20
 72
21
 73
13
 74
13
 0
VERTEX
 8
AUSLAUF
 10
0
 20
0
 30
0
 70
128
 71
21
 72
24
 73
23
 74
22
 0
VERTEX
 8
AUSLAUF
 10
0
 20
0
 30
0
 70
128
 71
1
 72
2
 73
3
 74
4
 0
SEQEND
 0
POLYLINE
 8
K_RPER
 66
1
 10
0.0
 20
0.0
 30
0.0
 70
64
 71
8
 72
6
 0
VERTEX
 8
K_RPER
 10
-0.9807
 20
0.25
 30
18.3348
 70
192
 0
VERTEX
 8
K_RPER
 10
-0.9807
 20
0.25
 30
19.8348
 70
192
 0
VERTEX
 8
K_RPER
 10
-0.9807
 20
-0.25
 30
18.3348
 70
192
 0
VERTEX
 8
K_RPER
 10
-0.9807
 20
-0.25
 30
19.8348
 70
192
 0
VERTEX
 8
K_RPER
 10
1.0193
 20
-0.25
 30
18.3348
 70
192
 0
VERTEX
 8
K_RPER
 10
1.0193
 20
-0.25
 30
19.8348
 70
192
 0
VERTEX
 8
K_RPER
 10
1.0193
 20
0.25
 30
18.3348
 70
192
 0
VERTEX
 8
K_RPER
 10
1.0193
 20
0.25
 30
19.8348
 70
192
 0
VERTEX
 8
K_RPER
 10
0
 20
0
 30
0
 70
128
 71
1
 72
2
 73
4
 74
3
 0
VERTEX
 8
K_RPER
 10
0
 20
0
 30
0
 70
128
 71
3
 72
4
 73
6
 74
5
 0
VERTEX
 8
K_RPER
 10
0
 20
0
 30
0
 70
128
 71
5
 72
6
 73
8
 74
7
 0
VERTEX
 8
K_RPER
 10
0
 20
0
 30
0
 70
128
 71
7
 72
8
 73
2
 74
1
 0
VERTEX
 8
K_RPER
 10
0
 20
0
 30
0
 70
128
 71
2
 72
8
 73
6
 74
4
 0
VERTEX
 8
K_RPER
 10
0
 20
0
 30
0
 70
128
 71
7
 72
1
 73
3
 74
5
 0
SEQEND
 0
POLYLINE
 8
TUBE_1
 66
1
 10
0.0
 20
0.0
 30
0.0
 70
64
 71
64
 72
32
 0
VERTEX
 8
TUBE_1
 10
0.008
 20
-0.3
 30
17.7821
 70
192
 0
VERTEX
 8
TUBE_1
 10
0.008
 20
-0.48
 30
17.7821
 70
192
 0
VERTEX
 8
TUBE_1
 10
0.008
 20
-0.48
 30
17.7821
 70
192
 0
VERTEX
 8
TUBE_1
 10
0.008
 20
-0.48
 30
18.2821
 70
192
 0
VERTEX
 8
TUBE_1
 10
0.008
 20
-0.48
 30
18.2821
 70
192
 0
VERTEX
 8
TUBE_1
 10
0.008
 20
-0.3
 30
18.2821
 70
192
 0
VERTEX
 8
TUBE_1
 10
0.008
 20
-0.3
 30
18.2821
 70
192
 0
VERTEX
 8
TUBE_1
 10
0.008
 20
-0.3
 30
17.7821
 70
192
 0
VERTEX
 8
TUBE_1
 10
0.2201
 20
-0.2121
 30
17.7821
 70
192
 0
VERTEX
 8
TUBE_1
 10
0.3474
 20
-0.3394
 30
17.7821
 70
192
 0
VERTEX
 8
TUBE_1
 10
0.3474
 20
-0.3394
 30
17.7821
 70
192
 0
VERTEX
 8
TUBE_1
 10
0.3474
 20
-0.3394
 30
18.2821
 70
192
 0
VERTEX
 8
TUBE_1
 10
0.3474
 20
-0.3394
 30
18.2821
 70
192
 0
VERTEX
 8
TUBE_1
 10
0.2201
 20
-0.2121
 30
18.2821
 70
192
 0
VERTEX
 8
TUBE_1
 10
0.2201
 20
-0.2121
 30
18.2821
 70
192
 0
VERTEX
 8
TUBE_1
 10
0.2201
 20
-0.2121
 30
17.7821
 70
192
 0
VERTEX
 8
TUBE_1
 10
0.308
 20
0
 30
17.7821
 70
192
 0
VERTEX
 8
TUBE_1
 10
0.488
 20
0
 30
17.7821
 70
192
 0
VERTEX
 8
TUBE_1
 10
0.488
 20
0
 30
17.7821
 70
192
 0
VERTEX
 8
TUBE_1
 10
0.488
 20
0
 30
18.2821
 70
192
 0
VERTEX
 8
TUBE_1
 10
0.488
 20
0
 30
18.2821
 70
192
 0
VERTEX
 8
TUBE_1
 10
0.308
 20
0
 30
18.2821
 70
192
 0
VERTEX
 8
TUBE_1
 10
0.308
 20
0
 30
18.2821
 70
192
 0
VERTEX
 8
TUBE_1
 10
0.308
 20
0
 30
17.7821
 70
192
 0
VERTEX
 8
TUBE_1
 10
0.2201
 20
0.2121
 30
17.7821
 70
192
 0
VERTEX
 8
TUBE_1
 10
0.3474
 20
0.3394
 30
17.7821
 70
192
 0
VERTEX
 8
TUBE_1
 10
0.3474
 20
0.3394
 30
17.7821
 70
192
 0
VERTEX
 8
TUBE_1
 10
0.3474
 20
0.3394
 30
18.2821
 70
192
 0
VERTEX
 8
TUBE_1
 10
0.3474
 20
0.3394
 30
18.2821
 70
192
 0
VERTEX
 8
TUBE_1
 10
0.2201
 20
0.2121
 30
18.2821
 70
192
 0
VERTEX
 8
TUBE_1
 10
0.2201
 20
0.2121
 30
18.2821
 70
192
 0
VERTEX
 8
TUBE_1
 10
0.2201
 20
0.2121
 30
17.7821
 70
192
 0
VERTEX
 8
TUBE_1
 10
0.008
 20
0.3
 30
17.7821
 70
192
 0
VERTEX
 8
TUBE_1
 10
0.008
 20
0.48
 30
17.7821
 70
192
 0
VERTEX
 8
TUBE_1
 10
0.008
 20
0.48
 30
17.7821
 70
192
 0
VERTEX
 8
TUBE_1
 10
0.008
 20
0.48
 30
18.2821
 70
192
 0
VERTEX
 8
TUBE_1
 10
0.008
 20
0.48
 30
18.2821
 70
192
 0
VERTEX
 8
TUBE_1
 10
0.008
 20
0.3
 30
18.2821
 70
192
 0
VERTEX
 8
TUBE_1
 10
0.008
 20
0.3
 30
18.2821
 70
192
 0
VERTEX
 8
TUBE_1
 10
0.008
 20
0.3
 30
17.7821
 70
192
 0
VERTEX
 8
TUBE_1
 10
-0.2041
 20
0.2121
 30
17.7821
 70
192
 0
VERTEX
 8
TUBE_1
 10
-0.3314
 20
0.3394
 30
17.7821
 70
192
 0
VERTEX
 8
TUBE_1
 10
-0.3314
 20
0.3394
 30
17.7821
 70
192
 0
VERTEX
 8
TUBE_1
 10
-0.3314
 20
0.3394
 30
18.2821
 70
192
 0
VERTEX
 8
TUBE_1
 10
-0.3314
 20
0.3394
 30
18.2821
 70
192
 0
VERTEX
 8
TUBE_1
 10
-0.2041
 20
0.2121
 30
18.2821
 70
192
 0
VERTEX
 8
TUBE_1
 10
-0.2041
 20
0.2121
 30
18.2821
 70
192
 0
VERTEX
 8
TUBE_1
 10
-0.2041
 20
0.2121
 30
17.7821
 70
192
 0
VERTEX
 8
TUBE_1
 10
-0.292
 20
0
 30
17.7821
 70
192
 0
VERTEX
 8
TUBE_1
 10
-0.472
 20
0
 30
17.7821
 70
192
 0
VERTEX
 8
TUBE_1
 10
-0.472
 20
0
 30
17.7821
 70
192
 0
VERTEX
 8
TUBE_1
 10
-0.472
 20
0
 30
18.2821
 70
192
 0
VERTEX
 8
TUBE_1
 10
-0.472
 20
0
 30
18.2821
 70
192
 0
VERTEX
 8
TUBE_1
 10
-0.292
 20
0
 30
18.2821
 70
192
 0
VERTEX
 8
TUBE_1
 10
-0.292
 20
0
 30
18.2821
 70
192
 0
VERTEX
 8
TUBE_1
 10
-0.292
 20
0
 30
17.7821
 70
192
 0
VERTEX
 8
TUBE_1
 10
-0.2041
 20
-0.2121
 30
17.7821
 70
192
 0
VERTEX
 8
TUBE_1
 10
-0.3314
 20
-0.3394
 30
17.7821
 70
192
 0
VERTEX
 8
TUBE_1
 10
-0.3314
 20
-0.3394
 30
17.7821
 70
192
 0
VERTEX
 8
TUBE_1
 10
-0.3314
 20
-0.3394
 30
18.2821
 70
192
 0
VERTEX
 8
TUBE_1
 10
-0.3314
 20
-0.3394
 30
18.2821
 70
192
 0
VERTEX
 8
TUBE_1
 10
-0.2041
 20
-0.2121
 30
18.2821
 70
192
 0
VERTEX
 8
TUBE_1
 10
-0.2041
 20
-0.2121
 30
18.2821
 70
192
 0
VERTEX
 8
TUBE_1
 10
-0.2041
 20
-0.2121
 30
17.7821
 70
192
 0
VERTEX
 8
TUBE_1
 10
0
 20
0
 30
0
 70
128
 71
1
 72
2
 73
10
 74
9
 0
VERTEX
 8
TUBE_1
 10
0
 20
0
 30
0
 70
128
 71
3
 72
4
 73
12
 74
11
 0
VERTEX
 8
TUBE_1
 10
0
 20
0
 30
0
 70
128
 71
5
 72
6
 73
14
 74
13
 0
VERTEX
 8
TUBE_1
 10
0
 20
0
 30
0
 70
128
 71
7
 72
8
 73
16
 74
15
 0
VERTEX
 8
TUBE_1
 10
0
 20
0
 30
0
 70
128
 71
9
 72
10
 73
18
 74
17
 0
VERTEX
 8
TUBE_1
 10
0
 20
0
 30
0
 70
128
 71
11
 72
12
 73
20
 74
19
 0
VERTEX
 8
TUBE_1
 10
0
 20
0
 30
0
 70
128
 71
13
 72
14
 73
22
 74
21
 0
VERTEX
 8
TUBE_1
 10
0
 20
0
 30
0
 70
128
 71
15
 72
16
 73
24
 74
23
 0
VERTEX
 8
TUBE_1
 10
0
 20
0
 30
0
 70
128
 71
17
 72
18
 73
26
 74
25
 0
VERTEX
 8
TUBE_1
 10
0
 20
0
 30
0
 70
128
 71
19
 72
20
 73
28
 74
27
 0
VERTEX
 8
TUBE_1
 10
0
 20
0
 30
0
 70
128
 71
21
 72
22
 73
30
 74
29
 0
VERTEX
 8
TUBE_1
 10
0
 20
0
 30
0
 70
128
 71
23
 72
24
 73
32
 74
31
 0
VERTEX
 8
TUBE_1
 10
0
 20
0
 30
0
 70
128
 71
25
 72
26
 73
34
 74
33
 0
VERTEX
 8
TUBE_1
 10
0
 20
0
 30
0
 70
128
 71
27
 72
28
 73
36
 74
35
 0
VERTEX
 8
TUBE_1
 10
0
 20
0
 30
0
 70
128
 71
29
 72
30
 73
38
 74
37
 0
VERTEX
 8
TUBE_1
 10
0
 20
0
 30
0
 70
128
 71
31
 72
32
 73
40
 74
39
 0
VERTEX
 8
TUBE_1
 10
0
 20
0
 30
0
 70
128
 71
33
 72
34
 73
42
 74
41
 0
VERTEX
 8
TUBE_1
 10
0
 20
0
 30
0
 70
128
 71
35
 72
36
 73
44
 74
43
 0
VERTEX
 8
TUBE_1
 10
0
 20
0
 30
0
 70
128
 71
37
 72
38
 73
46
 74
45
 0
VERTEX
 8
TUBE_1
 10
0
 20
0
 30
0
 70
128
 71
39
 72
40
 73
48
 74
47
 0
VERTEX
 8
TUBE_1
 10
0
 20
0
 30
0
 70
128
 71
41
 72
42
 73
50
 74
49
 0
VERTEX
 8
TUBE_1
 10
0
 20
0
 30
0
 70
128
 71
43
 72
44
 73
52
 74
51
 0
VERTEX
 8
TUBE_1
 10
0
 20
0
 30
0
 70
128
 71
45
 72
46
 73
54
 74
53
 0
VERTEX
 8
TUBE_1
 10
0
 20
0
 30
0
 70
128
 71
47
 72
48
 73
56
 74
55
 0
VERTEX
 8
TUBE_1
 10
0
 20
0
 30
0
 70
128
 71
49
 72
50
 73
58
 74
57
 0
VERTEX
 8
TUBE_1
 10
0
 20
0
 30
0
 70
128
 71
51
 72
52
 73
60
 74
59
 0
VERTEX
 8
TUBE_1
 10
0
 20
0
 30
0
 70
128
 71
53
 72
54
 73
62
 74
61
 0
VERTEX
 8
TUBE_1
 10
0
 20
0
 30
0
 70
128
 71
55
 72
56
 73
64
 74
63
 0
VERTEX
 8
TUBE_1
 10
0
 20
0
 30
0
 70
128
 71
57
 72
58
 73
2
 74
1
 0
VERTEX
 8
TUBE_1
 10
0
 20
0
 30
0
 70
128
 71
59
 72
60
 73
4
 74
3
 0
VERTEX
 8
TUBE_1
 10
0
 20
0
 30
0
 70
128
 71
61
 72
62
 73
6
 74
5
 0
VERTEX
 8
TUBE_1
 10
0
 20
0
 30
0
 70
128
 71
63
 72
64
 73
8
 74
7
 0
SEQEND
 0
POLYLINE
 8
TUBE_2
 66
1
 10
0.0
 20
0.0
 30
0.0
 70
64
 71
40
 72
15
 0
VERTEX
 8
TUBE_2
 10
0.008
 20
1
 30
17.7035
 70
192
 0
VERTEX
 8
TUBE_2
 10
0.008
 20
-1
 30
17.7035
 70
192
 0
VERTEX
 8
TUBE_2
 10
0.008
 20
-1
 30
17.7035
 70
192
 0
VERTEX
 8
TUBE_2
 10
0.008
 20
-1
 30
17.9035
 70
192
 0
VERTEX
 8
TUBE_2
 10
0.008
 20
-1
 30
17.9035
 70
192
 0
VERTEX
 8
TUBE_2
 10
0.008
 20
1
 30
17.7035
 70
192
 0
VERTEX
 8
TUBE_2
 10
0.008
 20
1
 30
17.9035
 70
192
 0
VERTEX
 8
TUBE_2
 10
0.008
 20
1
 30
17.9035
 70
192
 0
VERTEX
 8
TUBE_2
 10
-0.5798
 20
0.809
 30
17.7035
 70
192
 0
VERTEX
 8
TUBE_2
 10
0.5958
 20
-0.809
 30
17.7035
 70
192
 0
VERTEX
 8
TUBE_2
 10
0.5958
 20
-0.809
 30
17.7035
 70
192
 0
VERTEX
 8
TUBE_2
 10
0.5958
 20
-0.809
 30
17.9035
 70
192
 0
VERTEX
 8
TUBE_2
 10
0.5958
 20
-0.809
 30
17.9035
 70
192
 0
VERTEX
 8
TUBE_2
 10
-0.5798
 20
0.809
 30
17.7035
 70
192
 0
VERTEX
 8
TUBE_2
 10
-0.5798
 20
0.809
 30
17.9035
 70
192
 0
VERTEX
 8
TUBE_2
 10
-0.5798
 20
0.809
 30
17.9035
 70
192
 0
VERTEX
 8
TUBE_2
 10
-0.943
 20
0.309
 30
17.7035
 70
192
 0
VERTEX
 8
TUBE_2
 10
0.9591
 20
-0.309
 30
17.7035
 70
192
 0
VERTEX
 8
TUBE_2
 10
0.9591
 20
-0.309
 30
17.7035
 70
192
 0
VERTEX
 8
TUBE_2
 10
0.9591
 20
-0.309
 30
17.9035
 70
192
 0
VERTEX
 8
TUBE_2
 10
0.9591
 20
-0.309
 30
17.9035
 70
192
 0
VERTEX
 8
TUBE_2
 10
-0.943
 20
0.309
 30
17.7035
 70
192
 0
VERTEX
 8
TUBE_2
 10
-0.943
 20
0.309
 30
17.9035
 70
192
 0
VERTEX
 8
TUBE_2
 10
-0.943
 20
0.309
 30
17.9035
 70
192
 0
VERTEX
 8
TUBE_2
 10
-0.943
 20
-0.309
 30
17.7035
 70
192
 0
VERTEX
 8
TUBE_2
 10
0.9591
 20
0.309
 30
17.7035
 70
192
 0
VERTEX
 8
TUBE_2
 10
0.9591
 20
0.309
 30
17.7035
 70
192
 0
VERTEX
 8
TUBE_2
 10
0.9591
 20
0.309
 30
17.9035
 70
192
 0
VERTEX
 8
TUBE_2
 10
0.9591
 20
0.309
 30
17.9035
 70
192
 0
VERTEX
 8
TUBE_2
 10
-0.943
 20
-0.309
 30
17.7035
 70
192
 0
VERTEX
 8
TUBE_2
 10
-0.943
 20
-0.309
 30
17.9035
 70
192
 0
VERTEX
 8
TUBE_2
 10
-0.943
 20
-0.309
 30
17.9035
 70
192
 0
VERTEX
 8
TUBE_2
 10
-0.5798
 20
-0.809
 30
17.7035
 70
192
 0
VERTEX
 8
TUBE_2
 10
0.5958
 20
0.809
 30
17.7035
 70
192
 0
VERTEX
 8
TUBE_2
 10
0.5958
 20
0.809
 30
17.7035
 70
192
 0
VERTEX
 8
TUBE_2
 10
0.5958
 20
0.809
 30
17.9035
 70
192
 0
VERTEX
 8
TUBE_2
 10
0.5958
 20
0.809
 30
17.9035
 70
192
 0
VERTEX
 8
TUBE_2
 10
-0.5798
 20
-0.809
 30
17.7035
 70
192
 0
VERTEX
 8
TUBE_2
 10
-0.5798
 20
-0.809
 30
17.9035
 70
192
 0
VERTEX
 8
TUBE_2
 10
-0.5798
 20
-0.809
 30
17.9035
 70
192
 0
VERTEX
 8
TUBE_2
 10
0
 20
0
 30
0
 70
128
 71
27
 72
28
 73
36
 74
35
 0
VERTEX
 8
TUBE_2
 10
0
 20
0
 30
0
 70
128
 71
3
 72
4
 73
12
 74
11
 0
VERTEX
 8
TUBE_2
 10
0
 20
0
 30
0
 70
128
 71
35
 72
36
 73
7
 74
6
 0
VERTEX
 8
TUBE_2
 10
0
 20
0
 30
0
 70
128
 71
6
 72
7
 73
15
 74
14
 0
VERTEX
 8
TUBE_2
 10
0
 20
0
 30
0
 70
128
 71
14
 72
15
 73
23
 74
22
 0
VERTEX
 8
TUBE_2
 10
0
 20
0
 30
0
 70
128
 71
11
 72
12
 73
20
 74
19
 0
VERTEX
 8
TUBE_2
 10
0
 20
0
 30
0
 70
128
 71
22
 72
23
 73
31
 74
30
 0
VERTEX
 8
TUBE_2
 10
0
 20
0
 30
0
 70
128
 71
30
 72
31
 73
39
 74
38
 0
VERTEX
 8
TUBE_2
 10
0
 20
0
 30
0
 70
128
 71
38
 72
39
 73
4
 74
3
 0
VERTEX
 8
TUBE_2
 10
0
 20
0
 30
0
 70
128
 71
19
 72
20
 73
28
 74
27
 0
VERTEX
 8
TUBE_2
 10
0
 20
0
 30
0
 70
128
 71
12
 72
4
 73
20
 74
20
 0
VERTEX
 8
TUBE_2
 10
0
 20
0
 30
0
 70
128
 71
23
 72
4
 73
39
 74
31
 0
VERTEX
 8
TUBE_2
 10
0
 20
0
 30
0
 70
128
 71
20
 72
4
 73
23
 74
7
 0
VERTEX
 8
TUBE_2
 10
0
 20
0
 30
0
 70
128
 71
23
 72
15
 73
7
 74
7
 0
VERTEX
 8
TUBE_2
 10
0
 20
0
 30
0
 70
128
 71
20
 72
7
 73
36
 74
28
 0
SEQEND
 0
POLYLINE
 8
CYLINDER
 66
1
 10
0.0
 20
0.0
 30
0.0
 70
64
 71
37
 72
36
 0
VERTEX
 8
CYLINDER
 10
-0.0216
 20
-0.0282
 30
12.1388
 70
192
 0
VERTEX
 8
CYLINDER
 10
-0.0216
 20
-0.9632
 30
12.1388
 70
192
 0
VERTEX
 8
CYLINDER
 10
-0.0216
 20
-1.0182
 30
12.1938
 70
192
 0
VERTEX
 8
CYLINDER
 10
0.4459
 20
-0.8379
 30
12.1388
 70
192
 0
VERTEX
 8
CYLINDER
 10
0.4734
 20
-0.8855
 30
12.1938
 70
192
 0
VERTEX
 8
CYLINDER
 10
0.7881
 20
-0.4957
 30
12.1388
 70
192
 0
VERTEX
 8
CYLINDER
 10
0.8358
 20
-0.5232
 30
12.1938
 70
192
 0
VERTEX
 8
CYLINDER
 10
0.9134
 20
-0.0282
 30
12.1388
 70
192
 0
VERTEX
 8
CYLINDER
 10
0.9684
 20
-0.0282
 30
12.1938
 70
192
 0
VERTEX
 8
CYLINDER
 10
0.7881
 20
0.4393
 30
12.1388
 70
192
 0
VERTEX
 8
CYLINDER
 10
0.8358
 20
0.4668
 30
12.1938
 70
192
 0
VERTEX
 8
CYLINDER
 10
0.4459
 20
0.7816
 30
12.1388
 70
192
 0
VERTEX
 8
CYLINDER
 10
0.4734
 20
0.8292
 30
12.1938
 70
192
 0
VERTEX
 8
CYLINDER
 10
-0.0216
 20
0.9068
 30
12.1388
 70
192
 0
VERTEX
 8
CYLINDER
 10
-0.0216
 20
0.9618
 30
12.1938
 70
192
 0
VERTEX
 8
CYLINDER
 10
-0.4891
 20
0.7816
 30
12.1388
 70
192
 0
VERTEX
 8
CYLINDER
 10
-0.5166
 20
0.8292
 30
12.1938
 70
192
 0
VERTEX
 8
CYLINDER
 10
-0.8313
 20
0.4393
 30
12.1388
 70
192
 0
VERTEX
 8
CYLINDER
 10
-0.879
 20
0.4668
 30
12.1938
 70
192
 0
VERTEX
 8
CYLINDER
 10
-0.9566
 20
-0.0282
 30
12.1388
 70
192
 0
VERTEX
 8
CYLINDER
 10
-1.0116
 20
-0.0282
 30
12.1938
 70
192
 0
VERTEX
 8
CYLINDER
 10
-0.8313
 20
-0.4957
 30
12.1388
 70
192
 0
VERTEX
 8
CYLINDER
 10
-0.879
 20
-0.5232
 30
12.1938
 70
192
 0
VERTEX
 8
CYLINDER
 10
-0.4891
 20
-0.8379
 30
12.1388
 70
192
 0
VERTEX
 8
CYLINDER
 10
-0.5166
 20
-0.8855
 30
12.1938
 70
192
 0
VERTEX
 8
CYLINDER
 10
-0.0216
 20
-1.0182
 30
13.7126
 70
192
 0
VERTEX
 8
CYLINDER
 10
0.4734
 20
-0.8855
 30
13.7126
 70
192
 0
VERTEX
 8
CYLINDER
 10
0.8358
 20
-0.5232
 30
13.7126
 70
192
 0
VERTEX
 8
CYLINDER
 10
0.9684
 20
-0.0282
 30
13.7126
 70
192
 0
VERTEX
 8
CYLINDER
 10
0.8358
 20
0.4668
 30
13.7126
 70
192
 0
VERTEX
 8
CYLINDER
 10
0.4734
 20
0.8292
 30
13.7126
 70
192
 0
VERTEX
 8
CYLINDER
 10
-0.0216
 20
0.9618
 30
13.7126
 70
192
 0
VERTEX
 8
CYLINDER
 10
-0.5166
 20
0.8292
 30
13.7126
 70
192
 0
VERTEX
 8
CYLINDER
 10
-0.879
 20
0.4668
 30
13.7126
 70
192
 0
VERTEX
 8
CYLINDER
 10
-1.0116
 20
-0.0282
 30
13.7126
 70
192
 0
VERTEX
 8
CYLINDER
 10
-0.879
 20
-0.5232
 30
13.7126
 70
192
 0
VERTEX
 8
CYLINDER
 10
-0.5166
 20
-0.8855
 30
13.7126
 70
192
 0
VERTEX
 8
CYLINDER
 10
0
 20
0
 30
0
 70
128
 71
1
 72
2
 73
4
 74
4
 0
VERTEX
 8
CYLINDER
 10
0
 20
0
 30
0
 70
128
 71
2
 72
3
 73
5
 74
4
 0
VERTEX
 8
CYLINDER
 10
0
 20
0
 30
0
 70
128
 71
27
 72
5
 73
3
 74
26
 0
VERTEX
 8
CYLINDER
 10
0
 20
0
 30
0
 70
128
 71
1
 72
4
 73
6
 74
6
 0
VERTEX
 8
CYLINDER
 10
0
 20
0
 30
0
 70
128
 71
4
 72
5
 73
7
 74
6
 0
VERTEX
 8
CYLINDER
 10
0
 20
0
 30
0
 70
128
 71
28
 72
7
 73
5
 74
27
 0
VERTEX
 8
CYLINDER
 10
0
 20
0
 30
0
 70
128
 71
1
 72
6
 73
8
 74
8
 0
VERTEX
 8
CYLINDER
 10
0
 20
0
 30
0
 70
128
 71
6
 72
7
 73
9
 74
8
 0
VERTEX
 8
CYLINDER
 10
0
 20
0
 30
0
 70
128
 71
29
 72
9
 73
7
 74
28
 0
VERTEX
 8
CYLINDER
 10
0
 20
0
 30
0
 70
128
 71
1
 72
8
 73
10
 74
10
 0
VERTEX
 8
CYLINDER
 10
0
 20
0
 30
0
 70
128
 71
8
 72
9
 73
11
 74
10
 0
VERTEX
 8
CYLINDER
 10
0
 20
0
 30
0
 70
128
 71
30
 72
11
 73
9
 74
29
 0
VERTEX
 8
CYLINDER
 10
0
 20
0
 30
0
 70
128
 71
1
 72
10
 73
12
 74
12
 0
VERTEX
 8
CYLINDER
 10
0
 20
0
 30
0
 70
128
 71
10
 72
11
 73
13
 74
12
 0
VERTEX
 8
CYLINDER
 10
0
 20
0
 30
0
 70
128
 71
31
 72
13
 73
11
 74
30
 0
VERTEX
 8
CYLINDER
 10
0
 20
0
 30
0
 70
128
 71
1
 72
12
 73
14
 74
14
 0
VERTEX
 8
CYLINDER
 10
0
 20
0
 30
0
 70
128
 71
12
 72
13
 73
15
 74
14
 0
VERTEX
 8
CYLINDER
 10
0
 20
0
 30
0
 70
128
 71
32
 72
15
 73
13
 74
31
 0
VERTEX
 8
CYLINDER
 10
0
 20
0
 30
0
 70
128
 71
1
 72
14
 73
16
 74
16
 0
VERTEX
 8
CYLINDER
 10
0
 20
0
 30
0
 70
128
 71
14
 72
15
 73
17
 74
16
 0
VERTEX
 8
CYLINDER
 10
0
 20
0
 30
0
 70
128
 71
33
 72
17
 73
15
 74
32
 0
VERTEX
 8
CYLINDER
 10
0
 20
0
 30
0
 70
128
 71
1
 72
16
 73
18
 74
18
 0
VERTEX
 8
CYLINDER
 10
0
 20
0
 30
0
 70
128
 71
16
 72
17
 73
19
 74
18
 0
VERTEX
 8
CYLINDER
 10
0
 20
0
 30
0
 70
128
 71
34
 72
19
 73
17
 74
33
 0
VERTEX
 8
CYLINDER
 10
0
 20
0
 30
0
 70
128
 71
1
 72
18
 73
20
 74
20
 0
VERTEX
 8
CYLINDER
 10
0
 20
0
 30
0
 70
128
 71
18
 72
19
 73
21
 74
20
 0
VERTEX
 8
CYLINDER
 10
0
 20
0
 30
0
 70
128
 71
35
 72
21
 73
19
 74
34
 0
VERTEX
 8
CYLINDER
 10
0
 20
0
 30
0
 70
128
 71
1
 72
20
 73
22
 74
22
 0
VERTEX
 8
CYLINDER
 10
0
 20
0
 30
0
 70
128
 71
20
 72
21
 73
23
 74
22
 0
VERTEX
 8
CYLINDER
 10
0
 20
0
 30
0
 70
128
 71
36
 72
23
 73
21
 74
35
 0
VERTEX
 8
CYLINDER
 10
0
 20
0
 30
0
 70
128
 71
1
 72
22
 73
24
 74
24
 0
VERTEX
 8
CYLINDER
 10
0
 20
0
 30
0
 70
128
 71
22
 72
23
 73
25
 74
24
 0
VERTEX
 8
CYLINDER
 10
0
 20
0
 30
0
 70
128
 71
37
 72
25
 73
23
 74
36
 0
VERTEX
 8
CYLINDER
 10
0
 20
0
 30
0
 70
128
 71
1
 72
24
 73
2
 74
2
 0
VERTEX
 8
CYLINDER
 10
0
 20
0
 30
0
 70
128
 71
24
 72
25
 73
3
 74
2
 0
VERTEX
 8
CYLINDER
 10
0
 20
0
 30
0
 70
128
 71
26
 72
3
 73
25
 74
37
 0
SEQEND
 0
POLYLINE
 8
GRIFF_1
 66
1
 10
0.0
 20
0.0
 30
0.0
 70
64
 71
8
 72
6
 0
VERTEX
 8
GRIFF_1
 10
14.5972
 20
2
 30
13.7116
 70
192
 0
VERTEX
 8
GRIFF_1
 10
14.5972
 20
2
 30
23.7116
 70
192
 0
VERTEX
 8
GRIFF_1
 10
14.5972
 20
-2
 30
13.7116
 70
192
 0
VERTEX
 8
GRIFF_1
 10
14.5972
 20
-2
 30
23.7116
 70
192
 0
VERTEX
 8
GRIFF_1
 10
15.0972
 20
-2
 30
13.7116
 70
192
 0
VERTEX
 8
GRIFF_1
 10
15.0972
 20
-2
 30
23.7116
 70
192
 0
VERTEX
 8
GRIFF_1
 10
15.0972
 20
2
 30
13.7116
 70
192
 0
VERTEX
 8
GRIFF_1
 10
15.0972
 20
2
 30
23.7116
 70
192
 0
VERTEX
 8
GRIFF_1
 10
0
 20
0
 30
0
 70
128
 71
1
 72
2
 73
4
 74
3
 0
VERTEX
 8
GRIFF_1
 10
0
 20
0
 30
0
 70
128
 71
3
 72
4
 73
6
 74
5
 0
VERTEX
 8
GRIFF_1
 10
0
 20
0
 30
0
 70
128
 71
5
 72
6
 73
8
 74
7
 0
VERTEX
 8
GRIFF_1
 10
0
 20
0
 30
0
 70
128
 71
7
 72
8
 73
2
 74
1
 0
VERTEX
 8
GRIFF_1
 10
0
 20
0
 30
0
 70
128
 71
2
 72
8
 73
6
 74
4
 0
VERTEX
 8
GRIFF_1
 10
0
 20
0
 30
0
 70
128
 71
7
 72
1
 73
3
 74
5
 0
SEQEND
 0
POLYLINE
 8
CAPSULE
 66
1
 10
0.0
 20
0.0
 30
0.0
 70
64
 71
36
 72
24
 0
VERTEX
 8
CAPSULE
 10
11.9303
 20
-1.4289
 30
14.9015
 70
192
 0
VERTEX
 8
CAPSULE
 10
12.7553
 20
1.4289
 30
15.7265
 70
192
 0
VERTEX
 8
CAPSULE
 10
12.7553
 20
-0.7145
 30
14.489
 70
192
 0
VERTEX
 8
CAPSULE
 10
12.7553
 20
-1.4289
 30
15.7265
 70
192
 0
VERTEX
 8
CAPSULE
 10
11.9303
 20
-1.65
 30
15.7265
 70
192
 0
VERTEX
 8
CAPSULE
 10
11.2327
 20
-1.65
 30
15.7265
 70
192
 0
VERTEX
 8
CAPSULE
 10
11.9303
 20
1.65
 30
15.7265
 70
192
 0
VERTEX
 8
CAPSULE
 10
11.2327
 20
1.65
 30
15.7265
 70
192
 0
VERTEX
 8
CAPSULE
 10
11.9303
 20
-0.825
 30
14.2975
 70
192
 0
VERTEX
 8
CAPSULE
 10
12.7553
 20
-1.2375
 30
16.4409
 70
192
 0
VERTEX
 8
CAPSULE
 10
11.9303
 20
-1.4289
 30
16.5515
 70
192
 0
VERTEX
 8
CAPSULE
 10
11.2327
 20
-1.4289
 30
16.5515
 70
192
 0
VERTEX
 8
CAPSULE
 10
11.2327
 20
-1.4289
 30
14.9015
 70
192
 0
VERTEX
 8
CAPSULE
 10
12.7553
 20
1.2375
 30
15.012
 70
192
 0
VERTEX
 8
CAPSULE
 10
11.2327
 20
-0.825
 30
14.2975
 70
192
 0
VERTEX
 8
CAPSULE
 10
12.7553
 20
-0.7145
 30
16.964
 70
192
 0
VERTEX
 8
CAPSULE
 10
11.9303
 20
-0.825
 30
17.1554
 70
192
 0
VERTEX
 8
CAPSULE
 10
11.2327
 20
-0.825
 30
17.1554
 70
192
 0
VERTEX
 8
CAPSULE
 10
11.9303
 20
1.4289
 30
14.9015
 70
192
 0
VERTEX
 8
CAPSULE
 10
11.2327
 20
1.4289
 30
14.9015
 70
192
 0
VERTEX
 8
CAPSULE
 10
12.7553
 20
0.7145
 30
14.489
 70
192
 0
VERTEX
 8
CAPSULE
 10
12.7553
 20
0
 30
17.1554
 70
192
 0
VERTEX
 8
CAPSULE
 10
11.9303
 20
0
 30
17.3765
 70
192
 0
VERTEX
 8
CAPSULE
 10
11.2327
 20
0
 30
17.3765
 70
192
 0
VERTEX
 8
CAPSULE
 10
11.9303
 20
0.825
 30
14.2975
 70
192
 0
VERTEX
 8
CAPSULE
 10
11.2327
 20
0.825
 30
14.2975
 70
192
 0
VERTEX
 8
CAPSULE
 10
12.7553
 20
0
 30
14.2975
 70
192
 0
VERTEX
 8
CAPSULE
 10
12.7553
 20
0.7145
 30
16.964
 70
192
 0
VERTEX
 8
CAPSULE
 10
11.9303
 20
0.825
 30
17.1554
 70
192
 0
VERTEX
 8
CAPSULE
 10
11.2327
 20
0.825
 30
17.1554
 70
192
 0
VERTEX
 8
CAPSULE
 10
11.9303
 20
0
 30
14.0765
 70
192
 0
VERTEX
 8
CAPSULE
 10
11.2327
 20
0
 30
14.0765
 70
192
 0
VERTEX
 8
CAPSULE
 10
12.7553
 20
-1.2375
 30
15.012
 70
192
 0
VERTEX
 8
CAPSULE
 10
12.7553
 20
1.2375
 30
16.4409
 70
192
 0
VERTEX
 8
CAPSULE
 10
11.9303
 20
1.4289
 30
16.5515
 70
192
 0
VERTEX
 8
CAPSULE
 10
11.2327
 20
1.4289
 30
16.5515
 70
192
 0
VERTEX
 8
CAPSULE
 10
0
 20
0
 30
0
 70
128
 71
23
 72
24
 73
30
 74
29
 0
VERTEX
 8
CAPSULE
 10
0
 20
0
 30
0
 70
128
 71
3
 72
9
 73
1
 74
33
 0
VERTEX
 8
CAPSULE
 10
0
 20
0
 30
0
 70
128
 71
4
 72
5
 73
11
 74
10
 0
VERTEX
 8
CAPSULE
 10
0
 20
0
 30
0
 70
128
 71
5
 72
6
 73
12
 74
11
 0
VERTEX
 8
CAPSULE
 10
0
 20
0
 30
0
 70
128
 71
9
 72
15
 73
13
 74
1
 0
VERTEX
 8
CAPSULE
 10
0
 20
0
 30
0
 70
128
 71
28
 72
29
 73
35
 74
34
 0
VERTEX
 8
CAPSULE
 10
0
 20
0
 30
0
 70
128
 71
29
 72
30
 73
36
 74
35
 0
VERTEX
 8
CAPSULE
 10
0
 20
0
 30
0
 70
128
 71
34
 72
35
 73
7
 74
2
 0
VERTEX
 8
CAPSULE
 10
0
 20
0
 30
0
 70
128
 71
27
 72
31
 73
9
 74
3
 0
VERTEX
 8
CAPSULE
 10
0
 20
0
 30
0
 70
128
 71
10
 72
11
 73
17
 74
16
 0
VERTEX
 8
CAPSULE
 10
0
 20
0
 30
0
 70
128
 71
11
 72
12
 73
18
 74
17
 0
VERTEX
 8
CAPSULE
 10
0
 20
0
 30
0
 70
128
 71
35
 72
36
 73
8
 74
7
 0
VERTEX
 8
CAPSULE
 10
0
 20
0
 30
0
 70
128
 71
33
 72
1
 73
5
 74
4
 0
VERTEX
 8
CAPSULE
 10
0
 20
0
 30
0
 70
128
 71
2
 72
7
 73
19
 74
14
 0
VERTEX
 8
CAPSULE
 10
0
 20
0
 30
0
 70
128
 71
31
 72
32
 73
15
 74
9
 0
VERTEX
 8
CAPSULE
 10
0
 20
0
 30
0
 70
128
 71
7
 72
8
 73
20
 74
19
 0
VERTEX
 8
CAPSULE
 10
0
 20
0
 30
0
 70
128
 71
16
 72
17
 73
23
 74
22
 0
VERTEX
 8
CAPSULE
 10
0
 20
0
 30
0
 70
128
 71
17
 72
18
 73
24
 74
23
 0
VERTEX
 8
CAPSULE
 10
0
 20
0
 30
0
 70
128
 71
1
 72
13
 73
6
 74
5
 0
VERTEX
 8
CAPSULE
 10
0
 20
0
 30
0
 70
128
 71
14
 72
19
 73
25
 74
21
 0
VERTEX
 8
CAPSULE
 10
0
 20
0
 30
0
 70
128
 71
19
 72
20
 73
26
 74
25
 0
VERTEX
 8
CAPSULE
 10
0
 20
0
 30
0
 70
128
 71
21
 72
25
 73
31
 74
27
 0
VERTEX
 8
CAPSULE
 10
0
 20
0
 30
0
 70
128
 71
25
 72
26
 73
32
 74
31
 0
VERTEX
 8
CAPSULE
 10
0
 20
0
 30
0
 70
128
 71
22
 72
23
 73
29
 74
28
 0
SEQEND
 0
POLYLINE
 8
GRIFF_2
 66
1
 10
0.0
 20
0.0
 30
0.0
 70
64
 71
1308
 72
34
 0
VERTEX
 8
GRIFF_2
 10
12.9152
 20
1.93
 30
13.7126
 70
192
 0
VERTEX
 8
GRIFF_2
 10
12.9152
 20
-1.93
 30
13.7126
 70
192
 0
VERTEX
 8
GRIFF_2
 10
14.5765
 20
-1.93
 30
13.7126
 70
192
 0
VERTEX
 8
GRIFF_2
 10
14.5765
 20
1.93
 30
13.7126
 70
192
 0
VERTEX
 8
GRIFF_2
 10
12.906
 20
1.93
 30
13.7132
 70
192
 0
VERTEX
 8
GRIFF_2
 10
12.906
 20
-1.93
 30
13.7132
 70
192
 0
VERTEX
 8
GRIFF_2
 10
12.9061
 20
-1.9312
 30
13.7132
 70
192
 0
VERTEX
 8
GRIFF_2
 10
12.9063
 20
-1.9324
 30
13.7132
 70
192
 0
VERTEX
 8
GRIFF_2
 10
12.9067
 20
-1.9335
 30
13.7132
 70
192
 0
VERTEX
 8
GRIFF_2
 10
12.9073
 20
-1.9346
 30
13.7132
 70
192
 0
VERTEX
 8
GRIFF_2
 10
12.9079
 20
-1.9356
 30
13.7132
 70
192
 0
VERTEX
 8
GRIFF_2
 10
12.9087
 20
-1.9365
 30
13.7132
 70
192
 0
VERTEX
 8
GRIFF_2
 10
12.9096
 20
-1.9372
 30
13.7132
 70
192
 0
VERTEX
 8
GRIFF_2
 10
12.9106
 20
-1.9379
 30
13.7132
 70
192
 0
VERTEX
 8
GRIFF_2
 10
12.9117
 20
-1.9384
 30
13.7132
 70
192
 0
VERTEX
 8
GRIFF_2
 10
12.9128
 20
-1.9388
 30
13.7132
 70
192
 0
VERTEX
 8
GRIFF_2
 10
12.914
 20
-1.9391
 30
13.7132
 70
192
 0
VERTEX
 8
GRIFF_2
 10
12.9152
 20
-1.9391
 30
13.7132
 70
192
 0
VERTEX
 8
GRIFF_2
 10
14.5765
 20
-1.9391
 30
13.7132
 70
192
 0
VERTEX
 8
GRIFF_2
 10
14.5777
 20
-1.9391
 30
13.7132
 70
192
 0
VERTEX
 8
GRIFF_2
 10
14.5788
 20
-1.9388
 30
13.7132
 70
192
 0
VERTEX
 8
GRIFF_2
 10
14.58
 20
-1.9384
 30
13.7132
 70
192
 0
VERTEX
 8
GRIFF_2
 10
14.581
 20
-1.9379
 30
13.7132
 70
192
 0
VERTEX
 8
GRIFF_2
 10
14.582
 20
-1.9372
 30
13.7132
 70
192
 0
VERTEX
 8
GRIFF_2
 10
14.5829
 20
-1.9365
 30
13.7132
 70
192
 0
VERTEX
 8
GRIFF_2
 10
14.5837
 20
-1.9356
 30
13.7132
 70
192
 0
VERTEX
 8
GRIFF_2
 10
14.5844
 20
-1.9346
 30
13.7132
 70
192
 0
VERTEX
 8
GRIFF_2
 10
14.5849
 20
-1.9335
 30
13.7132
 70
192
 0
VERTEX
 8
GRIFF_2
 10
14.5853
 20
-1.9324
 30
13.7132
 70
192
 0
VERTEX
 8
GRIFF_2
 10
14.5855
 20
-1.9312
 30
13.7132
 70
192
 0
VERTEX
 8
GRIFF_2
 10
14.5856
 20
-1.93
 30
13.7132
 70
192
 0
VERTEX
 8
GRIFF_2
 10
14.5856
 20
1.93
 30
13.7132
 70
192
 0
VERTEX
 8
GRIFF_2
 10
14.5855
 20
1.9312
 30
13.7132
 70
192
 0
VERTEX
 8
GRIFF_2
 10
14.5853
 20
1.9324
 30
13.7132
 70
192
 0
VERTEX
 8
GRIFF_2
 10
14.5849
 20
1.9335
 30
13.7132
 70
192
 0
VERTEX
 8
GRIFF_2
 10
14.5844
 20
1.9346
 30
13.7132
 70
192
 0
VERTEX
 8
GRIFF_2
 10
14.5837
 20
1.9356
 30
13.7132
 70
192
 0
VERTEX
 8
GRIFF_2
 10
14.5829
 20
1.9365
 30
13.7132
 70
192
 0
VERTEX
 8
GRIFF_2
 10
14.582
 20
1.9372
 30
13.7132
 70
192
 0
VERTEX
 8
GRIFF_2
 10
14.581
 20
1.9379
 30
13.7132
 70
192
 0
VERTEX
 8
GRIFF_2
 10
14.58
 20
1.9384
 30
13.7132
 70
192
 0
VERTEX
 8
GRIFF_2
 10
14.5788
 20
1.9388
 30
13.7132
 70
192
 0
VERTEX
 8
GRIFF_2
 10
14.5777
 20
1.9391
 30
13.7132
 70
192
 0
VERTEX
 8
GRIFF_2
 10
14.5765
 20
1.9391
 30
13.7132
 70
192
 0
VERTEX
 8
GRIFF_2
 10
12.9152
 20
1.9391
 30
13.7132
 70
192
 0
VERTEX
 8
GRIFF_2
 10
12.914
 20
1.9391
 30
13.7132
 70
192
 0
VERTEX
 8
GRIFF_2
 10
12.9128
 20
1.9388
 30
13.7132
 70
192
 0
VERTEX
 8
GRIFF_2
 10
12.9117
 20
1.9384
 30
13.7132
 70
192
 0
VERTEX
 8
GRIFF_2
 10
12.9106
 20
1.9379
 30
13.7132
 70
192
 0
VERTEX
 8
GRIFF_2
 10
12.9096
 20
1.9372
 30
13.7132
 70
192
 0
VERTEX
 8
GRIFF_2
 10
12.9087
 20
1.9365
 30
13.7132
 70
192
 0
VERTEX
 8
GRIFF_2
 10
12.9079
 20
1.9356
 30
13.7132
 70
192
 0
VERTEX
 8
GRIFF_2
 10
12.9073
 20
1.9346
 30
13.7132
 70
192
 0
VERTEX
 8
GRIFF_2
 10
12.9067
 20
1.9335
 30
13.7132
 70
192
 0
VERTEX
 8
GRIFF_2
 10
12.9063
 20
1.9324
 30
13.7132
 70
192
 0
VERTEX
 8
GRIFF_2
 10
12.9061
 20
1.9312
 30
13.7132
 70
192
 0
VERTEX
 8
GRIFF_2
 10
12.8971
 20
1.93
 30
13.715
 70
192
 0
VERTEX
 8
GRIFF_2
 10
12.8971
 20
-1.93
 30
13.715
 70
192
 0
VERTEX
 8
GRIFF_2
 10
12.8972
 20
-1.9324
 30
13.715
 70
192
 0
VERTEX
 8
GRIFF_2
 10
12.8977
 20
-1.9347
 30
13.715
 70
192
 0
VERTEX
 8
GRIFF_2
 10
12.8984
 20
-1.9369
 30
13.715
 70
192
 0
VERTEX
 8
GRIFF_2
 10
12.8995
 20
-1.9391
 30
13.715
 70
192
 0
VERTEX
 8
GRIFF_2
 10
12.9008
 20
-1.941
 30
13.715
 70
192
 0
VERTEX
 8
GRIFF_2
 10
12.9024
 20
-1.9428
 30
13.715
 70
192
 0
VERTEX
 8
GRIFF_2
 10
12.9041
 20
-1.9444
 30
13.715
 70
192
 0
VERTEX
 8
GRIFF_2
 10
12.9061
 20
-1.9457
 30
13.715
 70
192
 0
VERTEX
 8
GRIFF_2
 10
12.9082
 20
-1.9467
 30
13.715
 70
192
 0
VERTEX
 8
GRIFF_2
 10
12.9105
 20
-1.9475
 30
13.715
 70
192
 0
VERTEX
 8
GRIFF_2
 10
12.9128
 20
-1.948
 30
13.715
 70
192
 0
VERTEX
 8
GRIFF_2
 10
12.9152
 20
-1.9481
 30
13.715
 70
192
 0
VERTEX
 8
GRIFF_2
 10
14.5765
 20
-1.9481
 30
13.715
 70
192
 0
VERTEX
 8
GRIFF_2
 10
14.5788
 20
-1.948
 30
13.715
 70
192
 0
VERTEX
 8
GRIFF_2
 10
14.5812
 20
-1.9475
 30
13.715
 70
192
 0
VERTEX
 8
GRIFF_2
 10
14.5834
 20
-1.9467
 30
13.715
 70
192
 0
VERTEX
 8
GRIFF_2
 10
14.5855
 20
-1.9457
 30
13.715
 70
192
 0
VERTEX
 8
GRIFF_2
 10
14.5875
 20
-1.9444
 30
13.715
 70
192
 0
VERTEX
 8
GRIFF_2
 10
14.5893
 20
-1.9428
 30
13.715
 70
192
 0
VERTEX
 8
GRIFF_2
 10
14.5908
 20
-1.941
 30
13.715
 70
192
 0
VERTEX
 8
GRIFF_2
 10
14.5922
 20
-1.9391
 30
13.715
 70
192
 0
VERTEX
 8
GRIFF_2
 10
14.5932
 20
-1.9369
 30
13.715
 70
192
 0
VERTEX
 8
GRIFF_2
 10
14.594
 20
-1.9347
 30
13.715
 70
192
 0
VERTEX
 8
GRIFF_2
 10
14.5944
 20
-1.9324
 30
13.715
 70
192
 0
VERTEX
 8
GRIFF_2
 10
14.5946
 20
-1.93
 30
13.715
 70
192
 0
VERTEX
 8
GRIFF_2
 10
14.5946
 20
1.93
 30
13.715
 70
192
 0
VERTEX
 8
GRIFF_2
 10
14.5944
 20
1.9324
 30
13.715
 70
192
 0
VERTEX
 8
GRIFF_2
 10
14.594
 20
1.9347
 30
13.715
 70
192
 0
VERTEX
 8
GRIFF_2
 10
14.5932
 20
1.9369
 30
13.715
 70
192
 0
VERTEX
 8
GRIFF_2
 10
14.5922
 20
1.9391
 30
13.715
 70
192
 0
VERTEX
 8
GRIFF_2
 10
14.5908
 20
1.941
 30
13.715
 70
192
 0
VERTEX
 8
GRIFF_2
 10
14.5893
 20
1.9428
 30
13.715
 70
192
 0
VERTEX
 8
GRIFF_2
 10
14.5875
 20
1.9444
 30
13.715
 70
192
 0
VERTEX
 8
GRIFF_2
 10
14.5855
 20
1.9457
 30
13.715
 70
192
 0
VERTEX
 8
GRIFF_2
 10
14.5834
 20
1.9467
 30
13.715
 70
192
 0
VERTEX
 8
GRIFF_2
 10
14.5812
 20
1.9475
 30
13.715
 70
192
 0
VERTEX
 8
GRIFF_2
 10
14.5788
 20
1.948
 30
13.715
 70
192
 0
VERTEX
 8
GRIFF_2
 10
14.5765
 20
1.9481
 30
13.715
 70
192
 0
VERTEX
 8
GRIFF_2
 10
12.9152
 20
1.9481
 30
13.715
 70
192
 0
VERTEX
 8
GRIFF_2
 10
12.9128
 20
1.948
 30
13.715
 70
192
 0
VERTEX
 8
GRIFF_2
 10
12.9105
 20
1.9475
 30
13.715
 70
192
 0
VERTEX
 8
GRIFF_2
 10
12.9082
 20
1.9467
 30
13.715
 70
192
 0
VERTEX
 8
GRIFF_2
 10
12.9061
 20
1.9457
 30
13.715
 70
192
 0
VERTEX
 8
GRIFF_2
 10
12.9041
 20
1.9444
 30
13.715
 70
192
 0
VERTEX
 8
GRIFF_2
 10
12.9024
 20
1.9428
 30
13.715
 70
192
 0
VERTEX
 8
GRIFF_2
 10
12.9008
 20
1.941
 30
13.715
 70
192
 0
VERTEX
 8
GRIFF_2
 10
12.8995
 20
1.9391
 30
13.715
 70
192
 0
VERTEX
 8
GRIFF_2
 10
12.8984
 20
1.9369
 30
13.715
 70
192
 0
VERTEX
 8
GRIFF_2
 10
12.8977
 20
1.9347
 30
13.715
 70
192
 0
VERTEX
 8
GRIFF_2
 10
12.8972
 20
1.9324
 30
13.715
 70
192
 0
VERTEX
 8
GRIFF_2
 10
12.8884
 20
1.93
 30
13.7179
 70
192
 0
VERTEX
 8
GRIFF_2
 10
12.8884
 20
-1.93
 30
13.7179
 70
192
 0
VERTEX
 8
GRIFF_2
 10
12.8886
 20
-1.9335
 30
13.7179
 70
192
 0
VERTEX
 8
GRIFF_2
 10
12.8893
 20
-1.9369
 30
13.7179
 70
192
 0
VERTEX
 8
GRIFF_2
 10
12.8904
 20
-1.9403
 30
13.7179
 70
192
 0
VERTEX
 8
GRIFF_2
 10
12.892
 20
-1.9434
 30
13.7179
 70
192
 0
VERTEX
 8
GRIFF_2
 10
12.8939
 20
-1.9463
 30
13.7179
 70
192
 0
VERTEX
 8
GRIFF_2
 10
12.8962
 20
-1.9489
 30
13.7179
 70
192
 0
VERTEX
 8
GRIFF_2
 10
12.8989
 20
-1.9513
 30
13.7179
 70
192
 0
VERTEX
 8
GRIFF_2
 10
12.9018
 20
-1.9532
 30
13.7179
 70
192
 0
VERTEX
 8
GRIFF_2
 10
12.9049
 20
-1.9547
 30
13.7179
 70
192
 0
VERTEX
 8
GRIFF_2
 10
12.9082
 20
-1.9559
 30
13.7179
 70
192
 0
VERTEX
 8
GRIFF_2
 10
12.9117
 20
-1.9566
 30
13.7179
 70
192
 0
VERTEX
 8
GRIFF_2
 10
12.9152
 20
-1.9568
 30
13.7179
 70
192
 0
VERTEX
 8
GRIFF_2
 10
14.5765
 20
-1.9568
 30
13.7179
 70
192
 0
VERTEX
 8
GRIFF_2
 10
14.58
 20
-1.9566
 30
13.7179
 70
192
 0
VERTEX
 8
GRIFF_2
 10
14.5834
 20
-1.9559
 30
13.7179
 70
192
 0
VERTEX
 8
GRIFF_2
 10
14.5867
 20
-1.9547
 30
13.7179
 70
192
 0
VERTEX
 8
GRIFF_2
 10
14.5899
 20
-1.9532
 30
13.7179
 70
192
 0
VERTEX
 8
GRIFF_2
 10
14.5928
 20
-1.9513
 30
13.7179
 70
192
 0
VERTEX
 8
GRIFF_2
 10
14.5954
 20
-1.9489
 30
13.7179
 70
192
 0
VERTEX
 8
GRIFF_2
 10
14.5977
 20
-1.9463
 30
13.7179
 70
192
 0
VERTEX
 8
GRIFF_2
 10
14.5997
 20
-1.9434
 30
13.7179
 70
192
 0
VERTEX
 8
GRIFF_2
 10
14.6012
 20
-1.9403
 30
13.7179
 70
192
 0
VERTEX
 8
GRIFF_2
 10
14.6023
 20
-1.9369
 30
13.7179
 70
192
 0
VERTEX
 8
GRIFF_2
 10
14.603
 20
-1.9335
 30
13.7179
 70
192
 0
VERTEX
 8
GRIFF_2
 10
14.6033
 20
-1.93
 30
13.7179
 70
192
 0
VERTEX
 8
GRIFF_2
 10
14.6033
 20
1.93
 30
13.7179
 70
192
 0
VERTEX
 8
GRIFF_2
 10
14.603
 20
1.9335
 30
13.7179
 70
192
 0
VERTEX
 8
GRIFF_2
 10
14.6023
 20
1.9369
 30
13.7179
 70
192
 0
VERTEX
 8
GRIFF_2
 10
14.6012
 20
1.9403
 30
13.7179
 70
192
 0
VERTEX
 8
GRIFF_2
 10
14.5997
 20
1.9434
 30
13.7179
 70
192
 0
VERTEX
 8
GRIFF_2
 10
14.5977
 20
1.9463
 30
13.7179
 70
192
 0
VERTEX
 8
GRIFF_2
 10
14.5954
 20
1.9489
 30
13.7179
 70
192
 0
VERTEX
 8
GRIFF_2
 10
14.5928
 20
1.9513
 30
13.7179
 70
192
 0
VERTEX
 8
GRIFF_2
 10
14.5899
 20
1.9532
 30
13.7179
 70
192
 0
VERTEX
 8
GRIFF_2
 10
14.5867
 20
1.9547
 30
13.7179
 70
192
 0
VERTEX
 8
GRIFF_2
 10
14.5834
 20
1.9559
 30
13.7179
 70
192
 0
VERTEX
 8
GRIFF_2
 10
14.58
 20
1.9566
 30
13.7179
 70
192
 0
VERTEX
 8
GRIFF_2
 10
14.5765
 20
1.9568
 30
13.7179
 70
192
 0
VERTEX
 8
GRIFF_2
 10
12.9152
 20
1.9568
 30
13.7179
 70
192
 0
VERTEX
 8
GRIFF_2
 10
12.9117
 20
1.9566
 30
13.7179
 70
192
 0
VERTEX
 8
GRIFF_2
 10
12.9082
 20
1.9559
 30
13.7179
 70
192
 0
VERTEX
 8
GRIFF_2
 10
12.9049
 20
1.9547
 30
13.7179
 70
192
 0
VERTEX
 8
GRIFF_2
 10
12.9018
 20
1.9532
 30
13.7179
 70
192
 0
VERTEX
 8
GRIFF_2
 10
12.8989
 20
1.9513
 30
13.7179
 70
192
 0
VERTEX
 8
GRIFF_2
 10
12.8962
 20
1.9489
 30
13.7179
 70
192
 0
VERTEX
 8
GRIFF_2
 10
12.8939
 20
1.9463
 30
13.7179
 70
192
 0
VERTEX
 8
GRIFF_2
 10
12.892
 20
1.9434
 30
13.7179
 70
192
 0
VERTEX
 8
GRIFF_2
 10
12.8904
 20
1.9403
 30
13.7179
 70
192
 0
VERTEX
 8
GRIFF_2
 10
12.8893
 20
1.9369
 30
13.7179
 70
192
 0
VERTEX
 8
GRIFF_2
 10
12.8886
 20
1.9335
 30
13.7179
 70
192
 0
VERTEX
 8
GRIFF_2
 10
12.8802
 20
1.93
 30
13.722
 70
192
 0
VERTEX
 8
GRIFF_2
 10
12.8802
 20
-1.93
 30
13.722
 70
192
 0
VERTEX
 8
GRIFF_2
 10
12.8805
 20
-1.9346
 30
13.722
 70
192
 0
VERTEX
 8
GRIFF_2
 10
12.8814
 20
-1.9391
 30
13.722
 70
192
 0
VERTEX
 8
GRIFF_2
 10
12.8828
 20
-1.9434
 30
13.722
 70
192
 0
VERTEX
 8
GRIFF_2
 10
12.8849
 20
-1.9475
 30
13.722
 70
192
 0
VERTEX
 8
GRIFF_2
 10
12.8874
 20
-1.9513
 30
13.722
 70
192
 0
VERTEX
 8
GRIFF_2
 10
12.8904
 20
-1.9547
 30
13.722
 70
192
 0
VERTEX
 8
GRIFF_2
 10
12.8939
 20
-1.9578
 30
13.722
 70
192
 0
VERTEX
 8
GRIFF_2
 10
12.8977
 20
-1.9603
 30
13.722
 70
192
 0
VERTEX
 8
GRIFF_2
 10
12.9018
 20
-1.9623
 30
13.722
 70
192
 0
VERTEX
 8
GRIFF_2
 10
12.9061
 20
-1.9638
 30
13.722
 70
192
 0
VERTEX
 8
GRIFF_2
 10
12.9106
 20
-1.9647
 30
13.722
 70
192
 0
VERTEX
 8
GRIFF_2
 10
12.9152
 20
-1.965
 30
13.722
 70
192
 0
VERTEX
 8
GRIFF_2
 10
14.5765
 20
-1.965
 30
13.722
 70
192
 0
VERTEX
 8
GRIFF_2
 10
14.581
 20
-1.9647
 30
13.722
 70
192
 0
VERTEX
 8
GRIFF_2
 10
14.5855
 20
-1.9638
 30
13.722
 70
192
 0
VERTEX
 8
GRIFF_2
 10
14.5899
 20
-1.9623
 30
13.722
 70
192
 0
VERTEX
 8
GRIFF_2
 10
14.594
 20
-1.9603
 30
13.722
 70
192
 0
VERTEX
 8
GRIFF_2
 10
14.5978
 20
-1.9578
 30
13.722
 70
192
 0
VERTEX
 8
GRIFF_2
 10
14.6012
 20
-1.9547
 30
13.722
 70
192
 0
VERTEX
 8
GRIFF_2
 10
14.6042
 20
-1.9513
 30
13.722
 70
192
 0
VERTEX
 8
GRIFF_2
 10
14.6068
 20
-1.9475
 30
13.722
 70
192
 0
VERTEX
 8
GRIFF_2
 10
14.6088
 20
-1.9434
 30
13.722
 70
192
 0
VERTEX
 8
GRIFF_2
 10
14.6103
 20
-1.9391
 30
13.722
 70
192
 0
VERTEX
 8
GRIFF_2
 10
14.6112
 20
-1.9346
 30
13.722
 70
192
 0
VERTEX
 8
GRIFF_2
 10
14.6115
 20
-1.93
 30
13.722
 70
192
 0
VERTEX
 8
GRIFF_2
 10
14.6115
 20
1.93
 30
13.722
 70
192
 0
VERTEX
 8
GRIFF_2
 10
14.6112
 20
1.9346
 30
13.722
 70
192
 0
VERTEX
 8
GRIFF_2
 10
14.6103
 20
1.9391
 30
13.722
 70
192
 0
VERTEX
 8
GRIFF_2
 10
14.6088
 20
1.9434
 30
13.722
 70
192
 0
VERTEX
 8
GRIFF_2
 10
14.6068
 20
1.9475
 30
13.722
 70
192
 0
VERTEX
 8
GRIFF_2
 10
14.6042
 20
1.9513
 30
13.722
 70
192
 0
VERTEX
 8
GRIFF_2
 10
14.6012
 20
1.9547
 30
13.722
 70
192
 0
VERTEX
 8
GRIFF_2
 10
14.5978
 20
1.9578
 30
13.722
 70
192
 0
VERTEX
 8
GRIFF_2
 10
14.594
 20
1.9603
 30
13.722
 70
192
 0
VERTEX
 8
GRIFF_2
 10
14.5899
 20
1.9623
 30
13.722
 70
192
 0
VERTEX
 8
GRIFF_2
 10
14.5855
 20
1.9638
 30
13.722
 70
192
 0
VERTEX
 8
GRIFF_2
 10
14.581
 20
1.9647
 30
13.722
 70
192
 0
VERTEX
 8
GRIFF_2
 10
14.5765
 20
1.965
 30
13.722
 70
192
 0
VERTEX
 8
GRIFF_2
 10
12.9152
 20
1.965
 30
13.722
 70
192
 0
VERTEX
 8
GRIFF_2
 10
12.9106
 20
1.9647
 30
13.722
 70
192
 0
VERTEX
 8
GRIFF_2
 10
12.9061
 20
1.9638
 30
13.722
 70
192
 0
VERTEX
 8
GRIFF_2
 10
12.9018
 20
1.9623
 30
13.722
 70
192
 0
VERTEX
 8
GRIFF_2
 10
12.8977
 20
1.9603
 30
13.722
 70
192
 0
VERTEX
 8
GRIFF_2
 10
12.8939
 20
1.9578
 30
13.722
 70
192
 0
VERTEX
 8
GRIFF_2
 10
12.8904
 20
1.9547
 30
13.722
 70
192
 0
VERTEX
 8
GRIFF_2
 10
12.8874
 20
1.9513
 30
13.722
 70
192
 0
VERTEX
 8
GRIFF_2
 10
12.8849
 20
1.9475
 30
13.722
 70
192
 0
VERTEX
 8
GRIFF_2
 10
12.8828
 20
1.9434
 30
13.722
 70
192
 0
VERTEX
 8
GRIFF_2
 10
12.8814
 20
1.9391
 30
13.722
 70
192
 0
VERTEX
 8
GRIFF_2
 10
12.8805
 20
1.9346
 30
13.722
 70
192
 0
VERTEX
 8
GRIFF_2
 10
12.8726
 20
1.93
 30
13.7271
 70
192
 0
VERTEX
 8
GRIFF_2
 10
12.8726
 20
-1.93
 30
13.7271
 70
192
 0
VERTEX
 8
GRIFF_2
 10
12.8729
 20
-1.9356
 30
13.7271
 70
192
 0
VERTEX
 8
GRIFF_2
 10
12.874
 20
-1.941
 30
13.7271
 70
192
 0
VERTEX
 8
GRIFF_2
 10
12.8758
 20
-1.9463
 30
13.7271
 70
192
 0
VERTEX
 8
GRIFF_2
 10
12.8783
 20
-1.9513
 30
13.7271
 70
192
 0
VERTEX
 8
GRIFF_2
 10
12.8814
 20
-1.9559
 30
13.7271
 70
192
 0
VERTEX
 8
GRIFF_2
 10
12.885
 20
-1.9601
 30
13.7271
 70
192
 0
VERTEX
 8
GRIFF_2
 10
12.8892
 20
-1.9638
 30
13.7271
 70
192
 0
VERTEX
 8
GRIFF_2
 10
12.8939
 20
-1.9669
 30
13.7271
 70
192
 0
VERTEX
 8
GRIFF_2
 10
12.8989
 20
-1.9694
 30
13.7271
 70
192
 0
VERTEX
 8
GRIFF_2
 10
12.9041
 20
-1.9712
 30
13.7271
 70
192
 0
VERTEX
 8
GRIFF_2
 10
12.9096
 20
-1.9722
 30
13.7271
 70
192
 0
VERTEX
 8
GRIFF_2
 10
12.9152
 20
-1.9726
 30
13.7271
 70
192
 0
VERTEX
 8
GRIFF_2
 10
14.5765
 20
-1.9726
 30
13.7271
 70
192
 0
VERTEX
 8
GRIFF_2
 10
14.582
 20
-1.9722
 30
13.7271
 70
192
 0
VERTEX
 8
GRIFF_2
 10
14.5875
 20
-1.9712
 30
13.7271
 70
192
 0
VERTEX
 8
GRIFF_2
 10
14.5928
 20
-1.9694
 30
13.7271
 70
192
 0
VERTEX
 8
GRIFF_2
 10
14.5978
 20
-1.9669
 30
13.7271
 70
192
 0
VERTEX
 8
GRIFF_2
 10
14.6024
 20
-1.9638
 30
13.7271
 70
192
 0
VERTEX
 8
GRIFF_2
 10
14.6066
 20
-1.9601
 30
13.7271
 70
192
 0
VERTEX
 8
GRIFF_2
 10
14.6103
 20
-1.9559
 30
13.7271
 70
192
 0
VERTEX
 8
GRIFF_2
 10
14.6134
 20
-1.9513
 30
13.7271
 70
192
 0
VERTEX
 8
GRIFF_2
 10
14.6158
 20
-1.9463
 30
13.7271
 70
192
 0
VERTEX
 8
GRIFF_2
 10
14.6176
 20
-1.941
 30
13.7271
 70
192
 0
VERTEX
 8
GRIFF_2
 10
14.6187
 20
-1.9356
 30
13.7271
 70
192
 0
VERTEX
 8
GRIFF_2
 10
14.6191
 20
-1.93
 30
13.7271
 70
192
 0
VERTEX
 8
GRIFF_2
 10
14.6191
 20
1.93
 30
13.7271
 70
192
 0
VERTEX
 8
GRIFF_2
 10
14.6187
 20
1.9356
 30
13.7271
 70
192
 0
VERTEX
 8
GRIFF_2
 10
14.6176
 20
1.941
 30
13.7271
 70
192
 0
VERTEX
 8
GRIFF_2
 10
14.6158
 20
1.9463
 30
13.7271
 70
192
 0
VERTEX
 8
GRIFF_2
 10
14.6134
 20
1.9513
 30
13.7271
 70
192
 0
VERTEX
 8
GRIFF_2
 10
14.6103
 20
1.9559
 30
13.7271
 70
192
 0
VERTEX
 8
GRIFF_2
 10
14.6066
 20
1.9601
 30
13.7271
 70
192
 0
VERTEX
 8
GRIFF_2
 10
14.6024
 20
1.9638
 30
13.7271
 70
192
 0
VERTEX
 8
GRIFF_2
 10
14.5978
 20
1.9669
 30
13.7271
 70
192
 0
VERTEX
 8
GRIFF_2
 10
14.5928
 20
1.9694
 30
13.7271
 70
192
 0
VERTEX
 8
GRIFF_2
 10
14.5875
 20
1.9712
 30
13.7271
 70
192
 0
VERTEX
 8
GRIFF_2
 10
14.582
 20
1.9722
 30
13.7271
 70
192
 0
VERTEX
 8
GRIFF_2
 10
14.5765
 20
1.9726
 30
13.7271
 70
192
 0
VERTEX
 8
GRIFF_2
 10
12.9152
 20
1.9726
 30
13.7271
 70
192
 0
VERTEX
 8
GRIFF_2
 10
12.9096
 20
1.9722
 30
13.7271
 70
192
 0
VERTEX
 8
GRIFF_2
 10
12.9041
 20
1.9712
 30
13.7271
 70
192
 0
VERTEX
 8
GRIFF_2
 10
12.8989
 20
1.9694
 30
13.7271
 70
192
 0
VERTEX
 8
GRIFF_2
 10
12.8939
 20
1.9669
 30
13.7271
 70
192
 0
VERTEX
 8
GRIFF_2
 10
12.8892
 20
1.9638
 30
13.7271
 70
192
 0
VERTEX
 8
GRIFF_2
 10
12.885
 20
1.9601
 30
13.7271
 70
192
 0
VERTEX
 8
GRIFF_2
 10
12.8814
 20
1.9559
 30
13.7271
 70
192
 0
VERTEX
 8
GRIFF_2
 10
12.8783
 20
1.9513
 30
13.7271
 70
192
 0
VERTEX
 8
GRIFF_2
 10
12.8758
 20
1.9463
 30
13.7271
 70
192
 0
VERTEX
 8
GRIFF_2
 10
12.874
 20
1.941
 30
13.7271
 70
192
 0
VERTEX
 8
GRIFF_2
 10
12.8729
 20
1.9356
 30
13.7271
 70
192
 0
VERTEX
 8
GRIFF_2
 10
12.8657
 20
1.93
 30
13.7331
 70
192
 0
VERTEX
 8
GRIFF_2
 10
12.8657
 20
-1.93
 30
13.7331
 70
192
 0
VERTEX
 8
GRIFF_2
 10
12.8661
 20
-1.9365
 30
13.7331
 70
192
 0
VERTEX
 8
GRIFF_2
 10
12.8674
 20
-1.9428
 30
13.7331
 70
192
 0
VERTEX
 8
GRIFF_2
 10
12.8694
 20
-1.9489
 30
13.7331
 70
192
 0
VERTEX
 8
GRIFF_2
 10
12.8723
 20
-1.9547
 30
13.7331
 70
192
 0
VERTEX
 8
GRIFF_2
 10
12.8759
 20
-1.9601
 30
13.7331
 70
192
 0
VERTEX
 8
GRIFF_2
 10
12.8802
 20
-1.965
 30
13.7331
 70
192
 0
VERTEX
 8
GRIFF_2
 10
12.885
 20
-1.9693
 30
13.7331
 70
192
 0
VERTEX
 8
GRIFF_2
 10
12.8904
 20
-1.9729
 30
13.7331
 70
192
 0
VERTEX
 8
GRIFF_2
 10
12.8962
 20
-1.9757
 30
13.7331
 70
192
 0
VERTEX
 8
GRIFF_2
 10
12.9024
 20
-1.9778
 30
13.7331
 70
192
 0
VERTEX
 8
GRIFF_2
 10
12.9087
 20
-1.9791
 30
13.7331
 70
192
 0
VERTEX
 8
GRIFF_2
 10
12.9152
 20
-1.9795
 30
13.7331
 70
192
 0
VERTEX
 8
GRIFF_2
 10
14.5765
 20
-1.9795
 30
13.7331
 70
192
 0
VERTEX
 8
GRIFF_2
 10
14.5829
 20
-1.9791
 30
13.7331
 70
192
 0
VERTEX
 8
GRIFF_2
 10
14.5893
 20
-1.9778
 30
13.7331
 70
192
 0
VERTEX
 8
GRIFF_2
 10
14.5954
 20
-1.9757
 30
13.7331
 70
192
 0
VERTEX
 8
GRIFF_2
 10
14.6012
 20
-1.9729
 30
13.7331
 70
192
 0
VERTEX
 8
GRIFF_2
 10
14.6066
 20
-1.9693
 30
13.7331
 70
192
 0
VERTEX
 8
GRIFF_2
 10
14.6115
 20
-1.965
 30
13.7331
 70
192
 0
VERTEX
 8
GRIFF_2
 10
14.6157
 20
-1.9601
 30
13.7331
 70
192
 0
VERTEX
 8
GRIFF_2
 10
14.6193
 20
-1.9547
 30
13.7331
 70
192
 0
VERTEX
 8
GRIFF_2
 10
14.6222
 20
-1.9489
 30
13.7331
 70
192
 0
VERTEX
 8
GRIFF_2
 10
14.6243
 20
-1.9428
 30
13.7331
 70
192
 0
VERTEX
 8
GRIFF_2
 10
14.6255
 20
-1.9365
 30
13.7331
 70
192
 0
VERTEX
 8
GRIFF_2
 10
14.626
 20
-1.93
 30
13.7331
 70
192
 0
VERTEX
 8
GRIFF_2
 10
14.626
 20
1.93
 30
13.7331
 70
192
 0
VERTEX
 8
GRIFF_2
 10
14.6255
 20
1.9365
 30
13.7331
 70
192
 0
VERTEX
 8
GRIFF_2
 10
14.6243
 20
1.9428
 30
13.7331
 70
192
 0
VERTEX
 8
GRIFF_2
 10
14.6222
 20
1.9489
 30
13.7331
 70
192
 0
VERTEX
 8
GRIFF_2
 10
14.6193
 20
1.9547
 30
13.7331
 70
192
 0
VERTEX
 8
GRIFF_2
 10
14.6157
 20
1.9601
 30
13.7331
 70
192
 0
VERTEX
 8
GRIFF_2
 10
14.6115
 20
1.965
 30
13.7331
 70
192
 0
VERTEX
 8
GRIFF_2
 10
14.6066
 20
1.9693
 30
13.7331
 70
192
 0
VERTEX
 8
GRIFF_2
 10
14.6012
 20
1.9729
 30
13.7331
 70
192
 0
VERTEX
 8
GRIFF_2
 10
14.5954
 20
1.9757
 30
13.7331
 70
192
 0
VERTEX
 8
GRIFF_2
 10
14.5893
 20
1.9778
 30
13.7331
 70
192
 0
VERTEX
 8
GRIFF_2
 10
14.5829
 20
1.9791
 30
13.7331
 70
192
 0
VERTEX
 8
GRIFF_2
 10
14.5765
 20
1.9795
 30
13.7331
 70
192
 0
VERTEX
 8
GRIFF_2
 10
12.9152
 20
1.9795
 30
13.7331
 70
192
 0
VERTEX
 8
GRIFF_2
 10
12.9087
 20
1.9791
 30
13.7331
 70
192
 0
VERTEX
 8
GRIFF_2
 10
12.9024
 20
1.9778
 30
13.7331
 70
192
 0
VERTEX
 8
GRIFF_2
 10
12.8962
 20
1.9757
 30
13.7331
 70
192
 0
VERTEX
 8
GRIFF_2
 10
12.8904
 20
1.9729
 30
13.7331
 70
192
 0
VERTEX
 8
GRIFF_2
 10
12.885
 20
1.9693
 30
13.7331
 70
192
 0
VERTEX
 8
GRIFF_2
 10
12.8802
 20
1.965
 30
13.7331
 70
192
 0
VERTEX
 8
GRIFF_2
 10
12.8759
 20
1.9601
 30
13.7331
 70
192
 0
VERTEX
 8
GRIFF_2
 10
12.8723
 20
1.9547
 30
13.7331
 70
192
 0
VERTEX
 8
GRIFF_2
 10
12.8694
 20
1.9489
 30
13.7331
 70
192
 0
VERTEX
 8
GRIFF_2
 10
12.8674
 20
1.9428
 30
13.7331
 70
192
 0
VERTEX
 8
GRIFF_2
 10
12.8661
 20
1.9365
 30
13.7331
 70
192
 0
VERTEX
 8
GRIFF_2
 10
12.8596
 20
1.93
 30
13.74
 70
192
 0
VERTEX
 8
GRIFF_2
 10
12.8596
 20
-1.93
 30
13.74
 70
192
 0
VERTEX
 8
GRIFF_2
 10
12.8601
 20
-1.9372
 30
13.74
 70
192
 0
VERTEX
 8
GRIFF_2
 10
12.8615
 20
-1.9444
 30
13.74
 70
192
 0
VERTEX
 8
GRIFF_2
 10
12.8639
 20
-1.9513
 30
13.74
 70
192
 0
VERTEX
 8
GRIFF_2
 10
12.8671
 20
-1.9578
 30
13.74
 70
192
 0
VERTEX
 8
GRIFF_2
 10
12.8711
 20
-1.9638
 30
13.74
 70
192
 0
VERTEX
 8
GRIFF_2
 10
12.8759
 20
-1.9693
 30
13.74
 70
192
 0
VERTEX
 8
GRIFF_2
 10
12.8814
 20
-1.9741
 30
13.74
 70
192
 0
VERTEX
 8
GRIFF_2
 10
12.8874
 20
-1.9781
 30
13.74
 70
192
 0
VERTEX
 8
GRIFF_2
 10
12.8939
 20
-1.9813
 30
13.74
 70
192
 0
VERTEX
 8
GRIFF_2
 10
12.9008
 20
-1.9836
 30
13.74
 70
192
 0
VERTEX
 8
GRIFF_2
 10
12.9079
 20
-1.9851
 30
13.74
 70
192
 0
VERTEX
 8
GRIFF_2
 10
12.9152
 20
-1.9855
 30
13.74
 70
192
 0
VERTEX
 8
GRIFF_2
 10
14.5765
 20
-1.9855
 30
13.74
 70
192
 0
VERTEX
 8
GRIFF_2
 10
14.5837
 20
-1.9851
 30
13.74
 70
192
 0
VERTEX
 8
GRIFF_2
 10
14.5908
 20
-1.9836
 30
13.74
 70
192
 0
VERTEX
 8
GRIFF_2
 10
14.5977
 20
-1.9813
 30
13.74
 70
192
 0
VERTEX
 8
GRIFF_2
 10
14.6042
 20
-1.9781
 30
13.74
 70
192
 0
VERTEX
 8
GRIFF_2
 10
14.6103
 20
-1.9741
 30
13.74
 70
192
 0
VERTEX
 8
GRIFF_2
 10
14.6157
 20
-1.9693
 30
13.74
 70
192
 0
VERTEX
 8
GRIFF_2
 10
14.6205
 20
-1.9638
 30
13.74
 70
192
 0
VERTEX
 8
GRIFF_2
 10
14.6246
 20
-1.9578
 30
13.74
 70
192
 0
VERTEX
 8
GRIFF_2
 10
14.6278
 20
-1.9513
 30
13.74
 70
192
 0
VERTEX
 8
GRIFF_2
 10
14.6301
 20
-1.9444
 30
13.74
 70
192
 0
VERTEX
 8
GRIFF_2
 10
14.6315
 20
-1.9372
 30
13.74
 70
192
 0
VERTEX
 8
GRIFF_2
 10
14.632
 20
-1.93
 30
13.74
 70
192
 0
VERTEX
 8
GRIFF_2
 10
14.632
 20
1.93
 30
13.74
 70
192
 0
VERTEX
 8
GRIFF_2
 10
14.6315
 20
1.9372
 30
13.74
 70
192
 0
VERTEX
 8
GRIFF_2
 10
14.6301
 20
1.9444
 30
13.74
 70
192
 0
VERTEX
 8
GRIFF_2
 10
14.6278
 20
1.9513
 30
13.74
 70
192
 0
VERTEX
 8
GRIFF_2
 10
14.6246
 20
1.9578
 30
13.74
 70
192
 0
VERTEX
 8
GRIFF_2
 10
14.6205
 20
1.9638
 30
13.74
 70
192
 0
VERTEX
 8
GRIFF_2
 10
14.6157
 20
1.9693
 30
13.74
 70
192
 0
VERTEX
 8
GRIFF_2
 10
14.6103
 20
1.9741
 30
13.74
 70
192
 0
VERTEX
 8
GRIFF_2
 10
14.6042
 20
1.9781
 30
13.74
 70
192
 0
VERTEX
 8
GRIFF_2
 10
14.5977
 20
1.9813
 30
13.74
 70
192
 0
VERTEX
 8
GRIFF_2
 10
14.5908
 20
1.9836
 30
13.74
 70
192
 0
VERTEX
 8
GRIFF_2
 10
14.5837
 20
1.9851
 30
13.74
 70
192
 0
VERTEX
 8
GRIFF_2
 10
14.5765
 20
1.9855
 30
13.74
 70
192
 0
VERTEX
 8
GRIFF_2
 10
12.9152
 20
1.9855
 30
13.74
 70
192
 0
VERTEX
 8
GRIFF_2
 10
12.9079
 20
1.9851
 30
13.74
 70
192
 0
VERTEX
 8
GRIFF_2
 10
12.9008
 20
1.9836
 30
13.74
 70
192
 0
VERTEX
 8
GRIFF_2
 10
12.8939
 20
1.9813
 30
13.74
 70
192
 0
VERTEX
 8
GRIFF_2
 10
12.8874
 20
1.9781
 30
13.74
 70
192
 0
VERTEX
 8
GRIFF_2
 10
12.8814
 20
1.9741
 30
13.74
 70
192
 0
VERTEX
 8
GRIFF_2
 10
12.8759
 20
1.9693
 30
13.74
 70
192
 0
VERTEX
 8
GRIFF_2
 10
12.8711
 20
1.9638
 30
13.74
 70
192
 0
VERTEX
 8
GRIFF_2
 10
12.8671
 20
1.9578
 30
13.74
 70
192
 0
VERTEX
 8
GRIFF_2
 10
12.8639
 20
1.9513
 30
13.74
 70
192
 0
VERTEX
 8
GRIFF_2
 10
12.8615
 20
1.9444
 30
13.74
 70
192
 0
VERTEX
 8
GRIFF_2
 10
12.8601
 20
1.9372
 30
13.74
 70
192
 0
VERTEX
 8
GRIFF_2
 10
12.8546
 20
1.93
 30
13.7476
 70
192
 0
VERTEX
 8
GRIFF_2
 10
12.8546
 20
-1.93
 30
13.7476
 70
192
 0
VERTEX
 8
GRIFF_2
 10
12.8551
 20
-1.9379
 30
13.7476
 70
192
 0
VERTEX
 8
GRIFF_2
 10
12.8566
 20
-1.9457
 30
13.7476
 70
192
 0
VERTEX
 8
GRIFF_2
 10
12.8592
 20
-1.9532
 30
13.7476
 70
192
 0
VERTEX
 8
GRIFF_2
 10
12.8627
 20
-1.9603
 30
13.7476
 70
192
 0
VERTEX
 8
GRIFF_2
 10
12.8671
 20
-1.9669
 30
13.7476
 70
192
 0
VERTEX
 8
GRIFF_2
 10
12.8723
 20
-1.9729
 30
13.7476
 70
192
 0
VERTEX
 8
GRIFF_2
 10
12.8783
 20
-1.9781
 30
13.7476
 70
192
 0
VERTEX
 8
GRIFF_2
 10
12.8849
 20
-1.9825
 30
13.7476
 70
192
 0
VERTEX
 8
GRIFF_2
 10
12.892
 20
-1.986
 30
13.7476
 70
192
 0
VERTEX
 8
GRIFF_2
 10
12.8995
 20
-1.9886
 30
13.7476
 70
192
 0
VERTEX
 8
GRIFF_2
 10
12.9073
 20
-1.9901
 30
13.7476
 70
192
 0
VERTEX
 8
GRIFF_2
 10
12.9152
 20
-1.9906
 30
13.7476
 70
192
 0
VERTEX
 8
GRIFF_2
 10
14.5765
 20
-1.9906
 30
13.7476
 70
192
 0
VERTEX
 8
GRIFF_2
 10
14.5844
 20
-1.9901
 30
13.7476
 70
192
 0
VERTEX
 8
GRIFF_2
 10
14.5922
 20
-1.9886
 30
13.7476
 70
192
 0
VERTEX
 8
GRIFF_2
 10
14.5997
 20
-1.986
 30
13.7476
 70
192
 0
VERTEX
 8
GRIFF_2
 10
14.6068
 20
-1.9825
 30
13.7476
 70
192
 0
VERTEX
 8
GRIFF_2
 10
14.6134
 20
-1.9781
 30
13.7476
 70
192
 0
VERTEX
 8
GRIFF_2
 10
14.6193
 20
-1.9729
 30
13.7476
 70
192
 0
VERTEX
 8
GRIFF_2
 10
14.6246
 20
-1.9669
 30
13.7476
 70
192
 0
VERTEX
 8
GRIFF_2
 10
14.629
 20
-1.9603
 30
13.7476
 70
192
 0
VERTEX
 8
GRIFF_2
 10
14.6325
 20
-1.9532
 30
13.7476
 70
192
 0
VERTEX
 8
GRIFF_2
 10
14.635
 20
-1.9457
 30
13.7476
 70
192
 0
VERTEX
 8
GRIFF_2
 10
14.6366
 20
-1.9379
 30
13.7476
 70
192
 0
VERTEX
 8
GRIFF_2
 10
14.6371
 20
-1.93
 30
13.7476
 70
192
 0
VERTEX
 8
GRIFF_2
 10
14.6371
 20
1.93
 30
13.7476
 70
192
 0
VERTEX
 8
GRIFF_2
 10
14.6366
 20
1.9379
 30
13.7476
 70
192
 0
VERTEX
 8
GRIFF_2
 10
14.635
 20
1.9457
 30
13.7476
 70
192
 0
VERTEX
 8
GRIFF_2
 10
14.6325
 20
1.9532
 30
13.7476
 70
192
 0
VERTEX
 8
GRIFF_2
 10
14.629
 20
1.9603
 30
13.7476
 70
192
 0
VERTEX
 8
GRIFF_2
 10
14.6246
 20
1.9669
 30
13.7476
 70
192
 0
VERTEX
 8
GRIFF_2
 10
14.6193
 20
1.9729
 30
13.7476
 70
192
 0
VERTEX
 8
GRIFF_2
 10
14.6134
 20
1.9781
 30
13.7476
 70
192
 0
VERTEX
 8
GRIFF_2
 10
14.6068
 20
1.9825
 30
13.7476
 70
192
 0
VERTEX
 8
GRIFF_2
 10
14.5997
 20
1.986
 30
13.7476
 70
192
 0
VERTEX
 8
GRIFF_2
 10
14.5922
 20
1.9886
 30
13.7476
 70
192
 0
VERTEX
 8
GRIFF_2
 10
14.5844
 20
1.9901
 30
13.7476
 70
192
 0
VERTEX
 8
GRIFF_2
 10
14.5765
 20
1.9906
 30
13.7476
 70
192
 0
VERTEX
 8
GRIFF_2
 10
12.9152
 20
1.9906
 30
13.7476
 70
192
 0
VERTEX
 8
GRIFF_2
 10
12.9073
 20
1.9901
 30
13.7476
 70
192
 0
VERTEX
 8
GRIFF_2
 10
12.8995
 20
1.9886
 30
13.7476
 70
192
 0
VERTEX
 8
GRIFF_2
 10
12.892
 20
1.986
 30
13.7476
 70
192
 0
VERTEX
 8
GRIFF_2
 10
12.8849
 20
1.9825
 30
13.7476
 70
192
 0
VERTEX
 8
GRIFF_2
 10
12.8783
 20
1.9781
 30
13.7476
 70
192
 0
VERTEX
 8
GRIFF_2
 10
12.8723
 20
1.9729
 30
13.7476
 70
192
 0
VERTEX
 8
GRIFF_2
 10
12.8671
 20
1.9669
 30
13.7476
 70
192
 0
VERTEX
 8
GRIFF_2
 10
12.8627
 20
1.9603
 30
13.7476
 70
192
 0
VERTEX
 8
GRIFF_2
 10
12.8592
 20
1.9532
 30
13.7476
 70
192
 0
VERTEX
 8
GRIFF_2
 10
12.8566
 20
1.9457
 30
13.7476
 70
192
 0
VERTEX
 8
GRIFF_2
 10
12.8551
 20
1.9379
 30
13.7476
 70
192
 0
VERTEX
 8
GRIFF_2
 10
12.8505
 20
1.93
 30
13.7558
 70
192
 0
VERTEX
 8
GRIFF_2
 10
12.8505
 20
-1.93
 30
13.7558
 70
192
 0
VERTEX
 8
GRIFF_2
 10
12.8511
 20
-1.9384
 30
13.7558
 70
192
 0
VERTEX
 8
GRIFF_2
 10
12.8527
 20
-1.9467
 30
13.7558
 70
192
 0
VERTEX
 8
GRIFF_2
 10
12.8554
 20
-1.9547
 30
13.7558
 70
192
 0
VERTEX
 8
GRIFF_2
 10
12.8592
 20
-1.9623
 30
13.7558
 70
192
 0
VERTEX
 8
GRIFF_2
 10
12.8639
 20
-1.9694
 30
13.7558
 70
192
 0
VERTEX
 8
GRIFF_2
 10
12.8694
 20
-1.9757
 30
13.7558
 70
192
 0
VERTEX
 8
GRIFF_2
 10
12.8758
 20
-1.9813
 30
13.7558
 70
192
 0
VERTEX
 8
GRIFF_2
 10
12.8828
 20
-1.986
 30
13.7558
 70
192
 0
VERTEX
 8
GRIFF_2
 10
12.8904
 20
-1.9897
 30
13.7558
 70
192
 0
VERTEX
 8
GRIFF_2
 10
12.8984
 20
-1.9925
 30
13.7558
 70
192
 0
VERTEX
 8
GRIFF_2
 10
12.9067
 20
-1.9941
 30
13.7558
 70
192
 0
VERTEX
 8
GRIFF_2
 10
12.9152
 20
-1.9947
 30
13.7558
 70
192
 0
VERTEX
 8
GRIFF_2
 10
14.5765
 20
-1.9947
 30
13.7558
 70
192
 0
VERTEX
 8
GRIFF_2
 10
14.5849
 20
-1.9941
 30
13.7558
 70
192
 0
VERTEX
 8
GRIFF_2
 10
14.5932
 20
-1.9925
 30
13.7558
 70
192
 0
VERTEX
 8
GRIFF_2
 10
14.6012
 20
-1.9897
 30
13.7558
 70
192
 0
VERTEX
 8
GRIFF_2
 10
14.6088
 20
-1.986
 30
13.7558
 70
192
 0
VERTEX
 8
GRIFF_2
 10
14.6158
 20
-1.9813
 30
13.7558
 70
192
 0
VERTEX
 8
GRIFF_2
 10
14.6222
 20
-1.9757
 30
13.7558
 70
192
 0
VERTEX
 8
GRIFF_2
 10
14.6278
 20
-1.9694
 30
13.7558
 70
192
 0
VERTEX
 8
GRIFF_2
 10
14.6325
 20
-1.9623
 30
13.7558
 70
192
 0
VERTEX
 8
GRIFF_2
 10
14.6362
 20
-1.9547
 30
13.7558
 70
192
 0
VERTEX
 8
GRIFF_2
 10
14.6389
 20
-1.9467
 30
13.7558
 70
192
 0
VERTEX
 8
GRIFF_2
 10
14.6406
 20
-1.9384
 30
13.7558
 70
192
 0
VERTEX
 8
GRIFF_2
 10
14.6411
 20
-1.93
 30
13.7558
 70
192
 0
VERTEX
 8
GRIFF_2
 10
14.6411
 20
1.93
 30
13.7558
 70
192
 0
VERTEX
 8
GRIFF_2
 10
14.6406
 20
1.9384
 30
13.7558
 70
192
 0
VERTEX
 8
GRIFF_2
 10
14.6389
 20
1.9467
 30
13.7558
 70
192
 0
VERTEX
 8
GRIFF_2
 10
14.6362
 20
1.9547
 30
13.7558
 70
192
 0
VERTEX
 8
GRIFF_2
 10
14.6325
 20
1.9623
 30
13.7558
 70
192
 0
VERTEX
 8
GRIFF_2
 10
14.6278
 20
1.9694
 30
13.7558
 70
192
 0
VERTEX
 8
GRIFF_2
 10
14.6222
 20
1.9757
 30
13.7558
 70
192
 0
VERTEX
 8
GRIFF_2
 10
14.6158
 20
1.9813
 30
13.7558
 70
192
 0
VERTEX
 8
GRIFF_2
 10
14.6088
 20
1.986
 30
13.7558
 70
192
 0
VERTEX
 8
GRIFF_2
 10
14.6012
 20
1.9897
 30
13.7558
 70
192
 0
VERTEX
 8
GRIFF_2
 10
14.5932
 20
1.9925
 30
13.7558
 70
192
 0
VERTEX
 8
GRIFF_2
 10
14.5849
 20
1.9941
 30
13.7558
 70
192
 0
VERTEX
 8
GRIFF_2
 10
14.5765
 20
1.9947
 30
13.7558
 70
192
 0
VERTEX
 8
GRIFF_2
 10
12.9152
 20
1.9947
 30
13.7558
 70
192
 0
VERTEX
 8
GRIFF_2
 10
12.9067
 20
1.9941
 30
13.7558
 70
192
 0
VERTEX
 8
GRIFF_2
 10
12.8984
 20
1.9925
 30
13.7558
 70
192
 0
VERTEX
 8
GRIFF_2
 10
12.8904
 20
1.9897
 30
13.7558
 70
192
 0
VERTEX
 8
GRIFF_2
 10
12.8828
 20
1.986
 30
13.7558
 70
192
 0
VERTEX
 8
GRIFF_2
 10
12.8758
 20
1.9813
 30
13.7558
 70
192
 0
VERTEX
 8
GRIFF_2
 10
12.8694
 20
1.9757
 30
13.7558
 70
192
 0
VERTEX
 8
GRIFF_2
 10
12.8639
 20
1.9694
 30
13.7558
 70
192
 0
VERTEX
 8
GRIFF_2
 10
12.8592
 20
1.9623
 30
13.7558
 70
192
 0
VERTEX
 8
GRIFF_2
 10
12.8554
 20
1.9547
 30
13.7558
 70
192
 0
VERTEX
 8
GRIFF_2
 10
12.8527
 20
1.9467
 30
13.7558
 70
192
 0
VERTEX
 8
GRIFF_2
 10
12.8511
 20
1.9384
 30
13.7558
 70
192
 0
VERTEX
 8
GRIFF_2
 10
12.8476
 20
1.93
 30
13.7645
 70
192
 0
VERTEX
 8
GRIFF_2
 10
12.8476
 20
-1.93
 30
13.7645
 70
192
 0
VERTEX
 8
GRIFF_2
 10
12.8481
 20
-1.9388
 30
13.7645
 70
192
 0
VERTEX
 8
GRIFF_2
 10
12.8499
 20
-1.9475
 30
13.7645
 70
192
 0
VERTEX
 8
GRIFF_2
 10
12.8527
 20
-1.9559
 30
13.7645
 70
192
 0
VERTEX
 8
GRIFF_2
 10
12.8566
 20
-1.9638
 30
13.7645
 70
192
 0
VERTEX
 8
GRIFF_2
 10
12.8615
 20
-1.9712
 30
13.7645
 70
192
 0
VERTEX
 8
GRIFF_2
 10
12.8674
 20
-1.9778
 30
13.7645
 70
192
 0
VERTEX
 8
GRIFF_2
 10
12.874
 20
-1.9836
 30
13.7645
 70
192
 0
VERTEX
 8
GRIFF_2
 10
12.8814
 20
-1.9886
 30
13.7645
 70
192
 0
VERTEX
 8
GRIFF_2
 10
12.8893
 20
-1.9925
 30
13.7645
 70
192
 0
VERTEX
 8
GRIFF_2
 10
12.8977
 20
-1.9953
 30
13.7645
 70
192
 0
VERTEX
 8
GRIFF_2
 10
12.9063
 20
-1.997
 30
13.7645
 70
192
 0
VERTEX
 8
GRIFF_2
 10
12.9152
 20
-1.9976
 30
13.7645
 70
192
 0
VERTEX
 8
GRIFF_2
 10
14.5765
 20
-1.9976
 30
13.7645
 70
192
 0
VERTEX
 8
GRIFF_2
 10
14.5853
 20
-1.997
 30
13.7645
 70
192
 0
VERTEX
 8
GRIFF_2
 10
14.594
 20
-1.9953
 30
13.7645
 70
192
 0
VERTEX
 8
GRIFF_2
 10
14.6023
 20
-1.9925
 30
13.7645
 70
192
 0
VERTEX
 8
GRIFF_2
 10
14.6103
 20
-1.9886
 30
13.7645
 70
192
 0
VERTEX
 8
GRIFF_2
 10
14.6176
 20
-1.9836
 30
13.7645
 70
192
 0
VERTEX
 8
GRIFF_2
 10
14.6243
 20
-1.9778
 30
13.7645
 70
192
 0
VERTEX
 8
GRIFF_2
 10
14.6301
 20
-1.9712
 30
13.7645
 70
192
 0
VERTEX
 8
GRIFF_2
 10
14.635
 20
-1.9638
 30
13.7645
 70
192
 0
VERTEX
 8
GRIFF_2
 10
14.6389
 20
-1.9559
 30
13.7645
 70
192
 0
VERTEX
 8
GRIFF_2
 10
14.6418
 20
-1.9475
 30
13.7645
 70
192
 0
VERTEX
 8
GRIFF_2
 10
14.6435
 20
-1.9388
 30
13.7645
 70
192
 0
VERTEX
 8
GRIFF_2
 10
14.6441
 20
-1.93
 30
13.7645
 70
192
 0
VERTEX
 8
GRIFF_2
 10
14.6441
 20
1.93
 30
13.7645
 70
192
 0
VERTEX
 8
GRIFF_2
 10
14.6435
 20
1.9388
 30
13.7645
 70
192
 0
VERTEX
 8
GRIFF_2
 10
14.6418
 20
1.9475
 30
13.7645
 70
192
 0
VERTEX
 8
GRIFF_2
 10
14.6389
 20
1.9559
 30
13.7645
 70
192
 0
VERTEX
 8
GRIFF_2
 10
14.635
 20
1.9638
 30
13.7645
 70
192
 0
VERTEX
 8
GRIFF_2
 10
14.6301
 20
1.9712
 30
13.7645
 70
192
 0
VERTEX
 8
GRIFF_2
 10
14.6243
 20
1.9778
 30
13.7645
 70
192
 0
VERTEX
 8
GRIFF_2
 10
14.6176
 20
1.9836
 30
13.7645
 70
192
 0
VERTEX
 8
GRIFF_2
 10
14.6103
 20
1.9886
 30
13.7645
 70
192
 0
VERTEX
 8
GRIFF_2
 10
14.6023
 20
1.9925
 30
13.7645
 70
192
 0
VERTEX
 8
GRIFF_2
 10
14.594
 20
1.9953
 30
13.7645
 70
192
 0
VERTEX
 8
GRIFF_2
 10
14.5853
 20
1.997
 30
13.7645
 70
192
 0
VERTEX
 8
GRIFF_2
 10
14.5765
 20
1.9976
 30
13.7645
 70
192
 0
VERTEX
 8
GRIFF_2
 10
12.9152
 20
1.9976
 30
13.7645
 70
192
 0
VERTEX
 8
GRIFF_2
 10
12.9063
 20
1.997
 30
13.7645
 70
192
 0
VERTEX
 8
GRIFF_2
 10
12.8977
 20
1.9953
 30
13.7645
 70
192
 0
VERTEX
 8
GRIFF_2
 10
12.8893
 20
1.9925
 30
13.7645
 70
192
 0
VERTEX
 8
GRIFF_2
 10
12.8814
 20
1.9886
 30
13.7645
 70
192
 0
VERTEX
 8
GRIFF_2
 10
12.874
 20
1.9836
 30
13.7645
 70
192
 0
VERTEX
 8
GRIFF_2
 10
12.8674
 20
1.9778
 30
13.7645
 70
192
 0
VERTEX
 8
GRIFF_2
 10
12.8615
 20
1.9712
 30
13.7645
 70
192
 0
VERTEX
 8
GRIFF_2
 10
12.8566
 20
1.9638
 30
13.7645
 70
192
 0
VERTEX
 8
GRIFF_2
 10
12.8527
 20
1.9559
 30
13.7645
 70
192
 0
VERTEX
 8
GRIFF_2
 10
12.8499
 20
1.9475
 30
13.7645
 70
192
 0
VERTEX
 8
GRIFF_2
 10
12.8481
 20
1.9388
 30
13.7645
 70
192
 0
VERTEX
 8
GRIFF_2
 10
12.8458
 20
1.93
 30
13.7735
 70
192
 0
VERTEX
 8
GRIFF_2
 10
12.8458
 20
-1.93
 30
13.7735
 70
192
 0
VERTEX
 8
GRIFF_2
 10
12.8464
 20
-1.9391
 30
13.7735
 70
192
 0
VERTEX
 8
GRIFF_2
 10
12.8481
 20
-1.948
 30
13.7735
 70
192
 0
VERTEX
 8
GRIFF_2
 10
12.8511
 20
-1.9566
 30
13.7735
 70
192
 0
VERTEX
 8
GRIFF_2
 10
12.8551
 20
-1.9647
 30
13.7735
 70
192
 0
VERTEX
 8
GRIFF_2
 10
12.8601
 20
-1.9722
 30
13.7735
 70
192
 0
VERTEX
 8
GRIFF_2
 10
12.8661
 20
-1.9791
 30
13.7735
 70
192
 0
VERTEX
 8
GRIFF_2
 10
12.8729
 20
-1.9851
 30
13.7735
 70
192
 0
VERTEX
 8
GRIFF_2
 10
12.8805
 20
-1.9901
 30
13.7735
 70
192
 0
VERTEX
 8
GRIFF_2
 10
12.8886
 20
-1.9941
 30
13.7735
 70
192
 0
VERTEX
 8
GRIFF_2
 10
12.8972
 20
-1.997
 30
13.7735
 70
192
 0
VERTEX
 8
GRIFF_2
 10
12.9061
 20
-1.9988
 30
13.7735
 70
192
 0
VERTEX
 8
GRIFF_2
 10
12.9152
 20
-1.9994
 30
13.7735
 70
192
 0
VERTEX
 8
GRIFF_2
 10
14.5765
 20
-1.9994
 30
13.7735
 70
192
 0
VERTEX
 8
GRIFF_2
 10
14.5855
 20
-1.9988
 30
13.7735
 70
192
 0
VERTEX
 8
GRIFF_2
 10
14.5944
 20
-1.997
 30
13.7735
 70
192
 0
VERTEX
 8
GRIFF_2
 10
14.603
 20
-1.9941
 30
13.7735
 70
192
 0
VERTEX
 8
GRIFF_2
 10
14.6112
 20
-1.9901
 30
13.7735
 70
192
 0
VERTEX
 8
GRIFF_2
 10
14.6187
 20
-1.9851
 30
13.7735
 70
192
 0
VERTEX
 8
GRIFF_2
 10
14.6255
 20
-1.9791
 30
13.7735
 70
192
 0
VERTEX
 8
GRIFF_2
 10
14.6315
 20
-1.9722
 30
13.7735
 70
192
 0
VERTEX
 8
GRIFF_2
 10
14.6366
 20
-1.9647
 30
13.7735
 70
192
 0
VERTEX
 8
GRIFF_2
 10
14.6406
 20
-1.9566
 30
13.7735
 70
192
 0
VERTEX
 8
GRIFF_2
 10
14.6435
 20
-1.948
 30
13.7735
 70
192
 0
VERTEX
 8
GRIFF_2
 10
14.6453
 20
-1.9391
 30
13.7735
 70
192
 0
VERTEX
 8
GRIFF_2
 10
14.6459
 20
-1.93
 30
13.7735
 70
192
 0
VERTEX
 8
GRIFF_2
 10
14.6459
 20
1.93
 30
13.7735
 70
192
 0
VERTEX
 8
GRIFF_2
 10
14.6453
 20
1.9391
 30
13.7735
 70
192
 0
VERTEX
 8
GRIFF_2
 10
14.6435
 20
1.948
 30
13.7735
 70
192
 0
VERTEX
 8
GRIFF_2
 10
14.6406
 20
1.9566
 30
13.7735
 70
192
 0
VERTEX
 8
GRIFF_2
 10
14.6366
 20
1.9647
 30
13.7735
 70
192
 0
VERTEX
 8
GRIFF_2
 10
14.6315
 20
1.9722
 30
13.7735
 70
192
 0
VERTEX
 8
GRIFF_2
 10
14.6255
 20
1.9791
 30
13.7735
 70
192
 0
VERTEX
 8
GRIFF_2
 10
14.6187
 20
1.9851
 30
13.7735
 70
192
 0
VERTEX
 8
GRIFF_2
 10
14.6112
 20
1.9901
 30
13.7735
 70
192
 0
VERTEX
 8
GRIFF_2
 10
14.603
 20
1.9941
 30
13.7735
 70
192
 0
VERTEX
 8
GRIFF_2
 10
14.5944
 20
1.997
 30
13.7735
 70
192
 0
VERTEX
 8
GRIFF_2
 10
14.5855
 20
1.9988
 30
13.7735
 70
192
 0
VERTEX
 8
GRIFF_2
 10
14.5765
 20
1.9994
 30
13.7735
 70
192
 0
VERTEX
 8
GRIFF_2
 10
12.9152
 20
1.9994
 30
13.7735
 70
192
 0
VERTEX
 8
GRIFF_2
 10
12.9061
 20
1.9988
 30
13.7735
 70
192
 0
VERTEX
 8
GRIFF_2
 10
12.8972
 20
1.997
 30
13.7735
 70
192
 0
VERTEX
 8
GRIFF_2
 10
12.8886
 20
1.9941
 30
13.7735
 70
192
 0
VERTEX
 8
GRIFF_2
 10
12.8805
 20
1.9901
 30
13.7735
 70
192
 0
VERTEX
 8
GRIFF_2
 10
12.8729
 20
1.9851
 30
13.7735
 70
192
 0
VERTEX
 8
GRIFF_2
 10
12.8661
 20
1.9791
 30
13.7735
 70
192
 0
VERTEX
 8
GRIFF_2
 10
12.8601
 20
1.9722
 30
13.7735
 70
192
 0
VERTEX
 8
GRIFF_2
 10
12.8551
 20
1.9647
 30
13.7735
 70
192
 0
VERTEX
 8
GRIFF_2
 10
12.8511
 20
1.9566
 30
13.7735
 70
192
 0
VERTEX
 8
GRIFF_2
 10
12.8481
 20
1.948
 30
13.7735
 70
192
 0
VERTEX
 8
GRIFF_2
 10
12.8464
 20
1.9391
 30
13.7735
 70
192
 0
VERTEX
 8
GRIFF_2
 10
12.8452
 20
1.93
 30
13.7826
 70
192
 0
VERTEX
 8
GRIFF_2
 10
12.8452
 20
-1.93
 30
13.7826
 70
192
 0
VERTEX
 8
GRIFF_2
 10
12.8458
 20
-1.9391
 30
13.7826
 70
192
 0
VERTEX
 8
GRIFF_2
 10
12.8476
 20
-1.9481
 30
13.7826
 70
192
 0
VERTEX
 8
GRIFF_2
 10
12.8505
 20
-1.9568
 30
13.7826
 70
192
 0
VERTEX
 8
GRIFF_2
 10
12.8546
 20
-1.965
 30
13.7826
 70
192
 0
VERTEX
 8
GRIFF_2
 10
12.8596
 20
-1.9726
 30
13.7826
 70
192
 0
VERTEX
 8
GRIFF_2
 10
12.8657
 20
-1.9795
 30
13.7826
 70
192
 0
VERTEX
 8
GRIFF_2
 10
12.8726
 20
-1.9855
 30
13.7826
 70
192
 0
VERTEX
 8
GRIFF_2
 10
12.8802
 20
-1.9906
 30
13.7826
 70
192
 0
VERTEX
 8
GRIFF_2
 10
12.8884
 20
-1.9947
 30
13.7826
 70
192
 0
VERTEX
 8
GRIFF_2
 10
12.8971
 20
-1.9976
 30
13.7826
 70
192
 0
VERTEX
 8
GRIFF_2
 10
12.906
 20
-1.9994
 30
13.7826
 70
192
 0
VERTEX
 8
GRIFF_2
 10
12.9152
 20
-2
 30
13.7826
 70
192
 0
VERTEX
 8
GRIFF_2
 10
14.5765
 20
-2
 30
13.7826
 70
192
 0
VERTEX
 8
GRIFF_2
 10
14.5856
 20
-1.9994
 30
13.7826
 70
192
 0
VERTEX
 8
GRIFF_2
 10
14.5946
 20
-1.9976
 30
13.7826
 70
192
 0
VERTEX
 8
GRIFF_2
 10
14.6033
 20
-1.9947
 30
13.7826
 70
192
 0
VERTEX
 8
GRIFF_2
 10
14.6115
 20
-1.9906
 30
13.7826
 70
192
 0
VERTEX
 8
GRIFF_2
 10
14.6191
 20
-1.9855
 30
13.7826
 70
192
 0
VERTEX
 8
GRIFF_2
 10
14.626
 20
-1.9795
 30
13.7826
 70
192
 0
VERTEX
 8
GRIFF_2
 10
14.632
 20
-1.9726
 30
13.7826
 70
192
 0
VERTEX
 8
GRIFF_2
 10
14.6371
 20
-1.965
 30
13.7826
 70
192
 0
VERTEX
 8
GRIFF_2
 10
14.6411
 20
-1.9568
 30
13.7826
 70
192
 0
VERTEX
 8
GRIFF_2
 10
14.6441
 20
-1.9481
 30
13.7826
 70
192
 0
VERTEX
 8
GRIFF_2
 10
14.6459
 20
-1.9391
 30
13.7826
 70
192
 0
VERTEX
 8
GRIFF_2
 10
14.6465
 20
-1.93
 30
13.7826
 70
192
 0
VERTEX
 8
GRIFF_2
 10
14.6465
 20
1.93
 30
13.7826
 70
192
 0
VERTEX
 8
GRIFF_2
 10
14.6459
 20
1.9391
 30
13.7826
 70
192
 0
VERTEX
 8
GRIFF_2
 10
14.6441
 20
1.9481
 30
13.7826
 70
192
 0
VERTEX
 8
GRIFF_2
 10
14.6411
 20
1.9568
 30
13.7826
 70
192
 0
VERTEX
 8
GRIFF_2
 10
14.6371
 20
1.965
 30
13.7826
 70
192
 0
VERTEX
 8
GRIFF_2
 10
14.632
 20
1.9726
 30
13.7826
 70
192
 0
VERTEX
 8
GRIFF_2
 10
14.626
 20
1.9795
 30
13.7826
 70
192
 0
VERTEX
 8
GRIFF_2
 10
14.6191
 20
1.9855
 30
13.7826
 70
192
 0
VERTEX
 8
GRIFF_2
 10
14.6115
 20
1.9906
 30
13.7826
 70
192
 0
VERTEX
 8
GRIFF_2
 10
14.6033
 20
1.9947
 30
13.7826
 70
192
 0
VERTEX
 8
GRIFF_2
 10
14.5946
 20
1.9976
 30
13.7826
 70
192
 0
VERTEX
 8
GRIFF_2
 10
14.5856
 20
1.9994
 30
13.7826
 70
192
 0
VERTEX
 8
GRIFF_2
 10
14.5765
 20
2
 30
13.7826
 70
192
 0
VERTEX
 8
GRIFF_2
 10
12.9152
 20
2
 30
13.7826
 70
192
 0
VERTEX
 8
GRIFF_2
 10
12.906
 20
1.9994
 30
13.7826
 70
192
 0
VERTEX
 8
GRIFF_2
 10
12.8971
 20
1.9976
 30
13.7826
 70
192
 0
VERTEX
 8
GRIFF_2
 10
12.8884
 20
1.9947
 30
13.7826
 70
192
 0
VERTEX
 8
GRIFF_2
 10
12.8802
 20
1.9906
 30
13.7826
 70
192
 0
VERTEX
 8
GRIFF_2
 10
12.8726
 20
1.9855
 30
13.7826
 70
192
 0
VERTEX
 8
GRIFF_2
 10
12.8657
 20
1.9795
 30
13.7826
 70
192
 0
VERTEX
 8
GRIFF_2
 10
12.8596
 20
1.9726
 30
13.7826
 70
192
 0
VERTEX
 8
GRIFF_2
 10
12.8546
 20
1.965
 30
13.7826
 70
192
 0
VERTEX
 8
GRIFF_2
 10
12.8505
 20
1.9568
 30
13.7826
 70
192
 0
VERTEX
 8
GRIFF_2
 10
12.8476
 20
1.9481
 30
13.7826
 70
192
 0
VERTEX
 8
GRIFF_2
 10
12.8458
 20
1.9391
 30
13.7826
 70
192
 0
VERTEX
 8
GRIFF_2
 10
11.8465
 20
1.93
 30
15.7126
 70
192
 0
VERTEX
 8
GRIFF_2
 10
11.8465
 20
-1.93
 30
15.7126
 70
192
 0
VERTEX
 8
GRIFF_2
 10
11.8471
 20
-1.9391
 30
15.7126
 70
192
 0
VERTEX
 8
GRIFF_2
 10
11.8489
 20
-1.9481
 30
15.7126
 70
192
 0
VERTEX
 8
GRIFF_2
 10
11.8518
 20
-1.9568
 30
15.7126
 70
192
 0
VERTEX
 8
GRIFF_2
 10
11.8558
 20
-1.965
 30
15.7126
 70
192
 0
VERTEX
 8
GRIFF_2
 10
11.8609
 20
-1.9726
 30
15.7126
 70
192
 0
VERTEX
 8
GRIFF_2
 10
11.867
 20
-1.9795
 30
15.7126
 70
192
 0
VERTEX
 8
GRIFF_2
 10
11.8739
 20
-1.9855
 30
15.7126
 70
192
 0
VERTEX
 8
GRIFF_2
 10
11.8815
 20
-1.9906
 30
15.7126
 70
192
 0
VERTEX
 8
GRIFF_2
 10
11.8897
 20
-1.9947
 30
15.7126
 70
192
 0
VERTEX
 8
GRIFF_2
 10
11.8984
 20
-1.9976
 30
15.7126
 70
192
 0
VERTEX
 8
GRIFF_2
 10
11.9073
 20
-1.9994
 30
15.7126
 70
192
 0
VERTEX
 8
GRIFF_2
 10
11.9165
 20
-2
 30
15.7126
 70
192
 0
VERTEX
 8
GRIFF_2
 10
14.5765
 20
-2
 30
15.7126
 70
192
 0
VERTEX
 8
GRIFF_2
 10
14.5856
 20
-1.9994
 30
15.7126
 70
192
 0
VERTEX
 8
GRIFF_2
 10
14.5946
 20
-1.9976
 30
15.7126
 70
192
 0
VERTEX
 8
GRIFF_2
 10
14.6033
 20
-1.9947
 30
15.7126
 70
192
 0
VERTEX
 8
GRIFF_2
 10
14.6115
 20
-1.9906
 30
15.7126
 70
192
 0
VERTEX
 8
GRIFF_2
 10
14.6191
 20
-1.9855
 30
15.7126
 70
192
 0
VERTEX
 8
GRIFF_2
 10
14.626
 20
-1.9795
 30
15.7126
 70
192
 0
VERTEX
 8
GRIFF_2
 10
14.632
 20
-1.9726
 30
15.7126
 70
192
 0
VERTEX
 8
GRIFF_2
 10
14.6371
 20
-1.965
 30
15.7126
 70
192
 0
VERTEX
 8
GRIFF_2
 10
14.6411
 20
-1.9568
 30
15.7126
 70
192
 0
VERTEX
 8
GRIFF_2
 10
14.6441
 20
-1.9481
 30
15.7126
 70
192
 0
VERTEX
 8
GRIFF_2
 10
14.6459
 20
-1.9391
 30
15.7126
 70
192
 0
VERTEX
 8
GRIFF_2
 10
14.6465
 20
-1.93
 30
15.7126
 70
192
 0
VERTEX
 8
GRIFF_2
 10
14.6465
 20
1.93
 30
15.7126
 70
192
 0
VERTEX
 8
GRIFF_2
 10
14.6459
 20
1.9391
 30
15.7126
 70
192
 0
VERTEX
 8
GRIFF_2
 10
14.6441
 20
1.9481
 30
15.7126
 70
192
 0
VERTEX
 8
GRIFF_2
 10
14.6411
 20
1.9568
 30
15.7126
 70
192
 0
VERTEX
 8
GRIFF_2
 10
14.6371
 20
1.965
 30
15.7126
 70
192
 0
VERTEX
 8
GRIFF_2
 10
14.632
 20
1.9726
 30
15.7126
 70
192
 0
VERTEX
 8
GRIFF_2
 10
14.626
 20
1.9795
 30
15.7126
 70
192
 0
VERTEX
 8
GRIFF_2
 10
14.6191
 20
1.9855
 30
15.7126
 70
192
 0
VERTEX
 8
GRIFF_2
 10
14.6115
 20
1.9906
 30
15.7126
 70
192
 0
VERTEX
 8
GRIFF_2
 10
14.6033
 20
1.9947
 30
15.7126
 70
192
 0
VERTEX
 8
GRIFF_2
 10
14.5946
 20
1.9976
 30
15.7126
 70
192
 0
VERTEX
 8
GRIFF_2
 10
14.5856
 20
1.9994
 30
15.7126
 70
192
 0
VERTEX
 8
GRIFF_2
 10
14.5765
 20
2
 30
15.7126
 70
192
 0
VERTEX
 8
GRIFF_2
 10
11.9165
 20
2
 30
15.7126
 70
192
 0
VERTEX
 8
GRIFF_2
 10
11.9073
 20
1.9994
 30
15.7126
 70
192
 0
VERTEX
 8
GRIFF_2
 10
11.8984
 20
1.9976
 30
15.7126
 70
192
 0
VERTEX
 8
GRIFF_2
 10
11.8897
 20
1.9947
 30
15.7126
 70
192
 0
VERTEX
 8
GRIFF_2
 10
11.8815
 20
1.9906
 30
15.7126
 70
192
 0
VERTEX
 8
GRIFF_2
 10
11.8739
 20
1.9855
 30
15.7126
 70
192
 0
VERTEX
 8
GRIFF_2
 10
11.867
 20
1.9795
 30
15.7126
 70
192
 0
VERTEX
 8
GRIFF_2
 10
11.8609
 20
1.9726
 30
15.7126
 70
192
 0
VERTEX
 8
GRIFF_2
 10
11.8558
 20
1.965
 30
15.7126
 70
192
 0
VERTEX
 8
GRIFF_2
 10
11.8518
 20
1.9568
 30
15.7126
 70
192
 0
VERTEX
 8
GRIFF_2
 10
11.8489
 20
1.9481
 30
15.7126
 70
192
 0
VERTEX
 8
GRIFF_2
 10
11.8471
 20
1.9391
 30
15.7126
 70
192
 0
VERTEX
 8
GRIFF_2
 10
11.8465
 20
1.93
 30
17.6426
 70
192
 0
VERTEX
 8
GRIFF_2
 10
11.8465
 20
-1.93
 30
17.6426
 70
192
 0
VERTEX
 8
GRIFF_2
 10
11.8471
 20
-1.9391
 30
17.6426
 70
192
 0
VERTEX
 8
GRIFF_2
 10
11.8489
 20
-1.9481
 30
17.6426
 70
192
 0
VERTEX
 8
GRIFF_2
 10
11.8518
 20
-1.9568
 30
17.6426
 70
192
 0
VERTEX
 8
GRIFF_2
 10
11.8558
 20
-1.965
 30
17.6426
 70
192
 0
VERTEX
 8
GRIFF_2
 10
11.8609
 20
-1.9726
 30
17.6426
 70
192
 0
VERTEX
 8
GRIFF_2
 10
11.867
 20
-1.9795
 30
17.6426
 70
192
 0
VERTEX
 8
GRIFF_2
 10
11.8739
 20
-1.9855
 30
17.6426
 70
192
 0
VERTEX
 8
GRIFF_2
 10
11.8815
 20
-1.9906
 30
17.6426
 70
192
 0
VERTEX
 8
GRIFF_2
 10
11.8897
 20
-1.9947
 30
17.6426
 70
192
 0
VERTEX
 8
GRIFF_2
 10
11.8984
 20
-1.9976
 30
17.6426
 70
192
 0
VERTEX
 8
GRIFF_2
 10
11.9073
 20
-1.9994
 30
17.6426
 70
192
 0
VERTEX
 8
GRIFF_2
 10
11.9165
 20
-2
 30
17.6426
 70
192
 0
VERTEX
 8
GRIFF_2
 10
14.5765
 20
-2
 30
17.6426
 70
192
 0
VERTEX
 8
GRIFF_2
 10
14.5856
 20
-1.9994
 30
17.6426
 70
192
 0
VERTEX
 8
GRIFF_2
 10
14.5946
 20
-1.9976
 30
17.6426
 70
192
 0
VERTEX
 8
GRIFF_2
 10
14.6033
 20
-1.9947
 30
17.6426
 70
192
 0
VERTEX
 8
GRIFF_2
 10
14.6115
 20
-1.9906
 30
17.6426
 70
192
 0
VERTEX
 8
GRIFF_2
 10
14.6191
 20
-1.9855
 30
17.6426
 70
192
 0
VERTEX
 8
GRIFF_2
 10
14.626
 20
-1.9795
 30
17.6426
 70
192
 0
VERTEX
 8
GRIFF_2
 10
14.632
 20
-1.9726
 30
17.6426
 70
192
 0
VERTEX
 8
GRIFF_2
 10
14.6371
 20
-1.965
 30
17.6426
 70
192
 0
VERTEX
 8
GRIFF_2
 10
14.6411
 20
-1.9568
 30
17.6426
 70
192
 0
VERTEX
 8
GRIFF_2
 10
14.6441
 20
-1.9481
 30
17.6426
 70
192
 0
VERTEX
 8
GRIFF_2
 10
14.6459
 20
-1.9391
 30
17.6426
 70
192
 0
VERTEX
 8
GRIFF_2
 10
14.6465
 20
-1.93
 30
17.6426
 70
192
 0
VERTEX
 8
GRIFF_2
 10
14.6465
 20
1.93
 30
17.6426
 70
192
 0
VERTEX
 8
GRIFF_2
 10
14.6459
 20
1.9391
 30
17.6426
 70
192
 0
VERTEX
 8
GRIFF_2
 10
14.6441
 20
1.9481
 30
17.6426
 70
192
 0
VERTEX
 8
GRIFF_2
 10
14.6411
 20
1.9568
 30
17.6426
 70
192
 0
VERTEX
 8
GRIFF_2
 10
14.6371
 20
1.965
 30
17.6426
 70
192
 0
VERTEX
 8
GRIFF_2
 10
14.632
 20
1.9726
 30
17.6426
 70
192
 0
VERTEX
 8
GRIFF_2
 10
14.626
 20
1.9795
 30
17.6426
 70
192
 0
VERTEX
 8
GRIFF_2
 10
14.6191
 20
1.9855
 30
17.6426
 70
192
 0
VERTEX
 8
GRIFF_2
 10
14.6115
 20
1.9906
 30
17.6426
 70
192
 0
VERTEX
 8
GRIFF_2
 10
14.6033
 20
1.9947
 30
17.6426
 70
192
 0
VERTEX
 8
GRIFF_2
 10
14.5946
 20
1.9976
 30
17.6426
 70
192
 0
VERTEX
 8
GRIFF_2
 10
14.5856
 20
1.9994
 30
17.6426
 70
192
 0
VERTEX
 8
GRIFF_2
 10
14.5765
 20
2
 30
17.6426
 70
192
 0
VERTEX
 8
GRIFF_2
 10
11.9165
 20
2
 30
17.6426
 70
192
 0
VERTEX
 8
GRIFF_2
 10
11.9073
 20
1.9994
 30
17.6426
 70
192
 0
VERTEX
 8
GRIFF_2
 10
11.8984
 20
1.9976
 30
17.6426
 70
192
 0
VERTEX
 8
GRIFF_2
 10
11.8897
 20
1.9947
 30
17.6426
 70
192
 0
VERTEX
 8
GRIFF_2
 10
11.8815
 20
1.9906
 30
17.6426
 70
192
 0
VERTEX
 8
GRIFF_2
 10
11.8739
 20
1.9855
 30
17.6426
 70
192
 0
VERTEX
 8
GRIFF_2
 10
11.867
 20
1.9795
 30
17.6426
 70
192
 0
VERTEX
 8
GRIFF_2
 10
11.8609
 20
1.9726
 30
17.6426
 70
192
 0
VERTEX
 8
GRIFF_2
 10
11.8558
 20
1.965
 30
17.6426
 70
192
 0
VERTEX
 8
GRIFF_2
 10
11.8518
 20
1.9568
 30
17.6426
 70
192
 0
VERTEX
 8
GRIFF_2
 10
11.8489
 20
1.9481
 30
17.6426
 70
192
 0
VERTEX
 8
GRIFF_2
 10
11.8471
 20
1.9391
 30
17.6426
 70
192
 0
VERTEX
 8
GRIFF_2
 10
11.8471
 20
1.93
 30
17.6518
 70
192
 0
VERTEX
 8
GRIFF_2
 10
11.8471
 20
-1.93
 30
17.6518
 70
192
 0
VERTEX
 8
GRIFF_2
 10
11.8477
 20
-1.9391
 30
17.6518
 70
192
 0
VERTEX
 8
GRIFF_2
 10
11.8494
 20
-1.948
 30
17.6518
 70
192
 0
VERTEX
 8
GRIFF_2
 10
11.8523
 20
-1.9566
 30
17.6518
 70
192
 0
VERTEX
 8
GRIFF_2
 10
11.8564
 20
-1.9647
 30
17.6518
 70
192
 0
VERTEX
 8
GRIFF_2
 10
11.8614
 20
-1.9722
 30
17.6518
 70
192
 0
VERTEX
 8
GRIFF_2
 10
11.8674
 20
-1.9791
 30
17.6518
 70
192
 0
VERTEX
 8
GRIFF_2
 10
11.8742
 20
-1.9851
 30
17.6518
 70
192
 0
VERTEX
 8
GRIFF_2
 10
11.8818
 20
-1.9901
 30
17.6518
 70
192
 0
VERTEX
 8
GRIFF_2
 10
11.8899
 20
-1.9941
 30
17.6518
 70
192
 0
VERTEX
 8
GRIFF_2
 10
11.8985
 20
-1.997
 30
17.6518
 70
192
 0
VERTEX
 8
GRIFF_2
 10
11.9074
 20
-1.9988
 30
17.6518
 70
192
 0
VERTEX
 8
GRIFF_2
 10
11.9165
 20
-1.9994
 30
17.6518
 70
192
 0
VERTEX
 8
GRIFF_2
 10
14.5765
 20
-1.9994
 30
17.6518
 70
192
 0
VERTEX
 8
GRIFF_2
 10
14.5855
 20
-1.9988
 30
17.6518
 70
192
 0
VERTEX
 8
GRIFF_2
 10
14.5944
 20
-1.997
 30
17.6518
 70
192
 0
VERTEX
 8
GRIFF_2
 10
14.603
 20
-1.9941
 30
17.6518
 70
192
 0
VERTEX
 8
GRIFF_2
 10
14.6112
 20
-1.9901
 30
17.6518
 70
192
 0
VERTEX
 8
GRIFF_2
 10
14.6187
 20
-1.9851
 30
17.6518
 70
192
 0
VERTEX
 8
GRIFF_2
 10
14.6255
 20
-1.9791
 30
17.6518
 70
192
 0
VERTEX
 8
GRIFF_2
 10
14.6315
 20
-1.9722
 30
17.6518
 70
192
 0
VERTEX
 8
GRIFF_2
 10
14.6366
 20
-1.9647
 30
17.6518
 70
192
 0
VERTEX
 8
GRIFF_2
 10
14.6406
 20
-1.9566
 30
17.6518
 70
192
 0
VERTEX
 8
GRIFF_2
 10
14.6435
 20
-1.948
 30
17.6518
 70
192
 0
VERTEX
 8
GRIFF_2
 10
14.6453
 20
-1.9391
 30
17.6518
 70
192
 0
VERTEX
 8
GRIFF_2
 10
14.6459
 20
-1.93
 30
17.6518
 70
192
 0
VERTEX
 8
GRIFF_2
 10
14.6459
 20
1.93
 30
17.6518
 70
192
 0
VERTEX
 8
GRIFF_2
 10
14.6453
 20
1.9391
 30
17.6518
 70
192
 0
VERTEX
 8
GRIFF_2
 10
14.6435
 20
1.948
 30
17.6518
 70
192
 0
VERTEX
 8
GRIFF_2
 10
14.6406
 20
1.9566
 30
17.6518
 70
192
 0
VERTEX
 8
GRIFF_2
 10
14.6366
 20
1.9647
 30
17.6518
 70
192
 0
VERTEX
 8
GRIFF_2
 10
14.6315
 20
1.9722
 30
17.6518
 70
192
 0
VERTEX
 8
GRIFF_2
 10
14.6255
 20
1.9791
 30
17.6518
 70
192
 0
VERTEX
 8
GRIFF_2
 10
14.6187
 20
1.9851
 30
17.6518
 70
192
 0
VERTEX
 8
GRIFF_2
 10
14.6112
 20
1.9901
 30
17.6518
 70
192
 0
VERTEX
 8
GRIFF_2
 10
14.603
 20
1.9941
 30
17.6518
 70
192
 0
VERTEX
 8
GRIFF_2
 10
14.5944
 20
1.997
 30
17.6518
 70
192
 0
VERTEX
 8
GRIFF_2
 10
14.5855
 20
1.9988
 30
17.6518
 70
192
 0
VERTEX
 8
GRIFF_2
 10
14.5765
 20
1.9994
 30
17.6518
 70
192
 0
VERTEX
 8
GRIFF_2
 10
11.9165
 20
1.9994
 30
17.6518
 70
192
 0
VERTEX
 8
GRIFF_2
 10
11.9074
 20
1.9988
 30
17.6518
 70
192
 0
VERTEX
 8
GRIFF_2
 10
11.8985
 20
1.997
 30
17.6518
 70
192
 0
VERTEX
 8
GRIFF_2
 10
11.8899
 20
1.9941
 30
17.6518
 70
192
 0
VERTEX
 8
GRIFF_2
 10
11.8818
 20
1.9901
 30
17.6518
 70
192
 0
VERTEX
 8
GRIFF_2
 10
11.8742
 20
1.9851
 30
17.6518
 70
192
 0
VERTEX
 8
GRIFF_2
 10
11.8674
 20
1.9791
 30
17.6518
 70
192
 0
VERTEX
 8
GRIFF_2
 10
11.8614
 20
1.9722
 30
17.6518
 70
192
 0
VERTEX
 8
GRIFF_2
 10
11.8564
 20
1.9647
 30
17.6518
 70
192
 0
VERTEX
 8
GRIFF_2
 10
11.8523
 20
1.9566
 30
17.6518
 70
192
 0
VERTEX
 8
GRIFF_2
 10
11.8494
 20
1.948
 30
17.6518
 70
192
 0
VERTEX
 8
GRIFF_2
 10
11.8477
 20
1.9391
 30
17.6518
 70
192
 0
VERTEX
 8
GRIFF_2
 10
11.8489
 20
1.93
 30
17.6607
 70
192
 0
VERTEX
 8
GRIFF_2
 10
11.8489
 20
-1.93
 30
17.6607
 70
192
 0
VERTEX
 8
GRIFF_2
 10
11.8494
 20
-1.9388
 30
17.6607
 70
192
 0
VERTEX
 8
GRIFF_2
 10
11.8512
 20
-1.9475
 30
17.6607
 70
192
 0
VERTEX
 8
GRIFF_2
 10
11.854
 20
-1.9559
 30
17.6607
 70
192
 0
VERTEX
 8
GRIFF_2
 10
11.8579
 20
-1.9638
 30
17.6607
 70
192
 0
VERTEX
 8
GRIFF_2
 10
11.8628
 20
-1.9712
 30
17.6607
 70
192
 0
VERTEX
 8
GRIFF_2
 10
11.8687
 20
-1.9778
 30
17.6607
 70
192
 0
VERTEX
 8
GRIFF_2
 10
11.8753
 20
-1.9836
 30
17.6607
 70
192
 0
VERTEX
 8
GRIFF_2
 10
11.8827
 20
-1.9886
 30
17.6607
 70
192
 0
VERTEX
 8
GRIFF_2
 10
11.8906
 20
-1.9925
 30
17.6607
 70
192
 0
VERTEX
 8
GRIFF_2
 10
11.899
 20
-1.9953
 30
17.6607
 70
192
 0
VERTEX
 8
GRIFF_2
 10
11.9076
 20
-1.997
 30
17.6607
 70
192
 0
VERTEX
 8
GRIFF_2
 10
11.9165
 20
-1.9976
 30
17.6607
 70
192
 0
VERTEX
 8
GRIFF_2
 10
14.5765
 20
-1.9976
 30
17.6607
 70
192
 0
VERTEX
 8
GRIFF_2
 10
14.5853
 20
-1.997
 30
17.6607
 70
192
 0
VERTEX
 8
GRIFF_2
 10
14.594
 20
-1.9953
 30
17.6607
 70
192
 0
VERTEX
 8
GRIFF_2
 10
14.6023
 20
-1.9925
 30
17.6607
 70
192
 0
VERTEX
 8
GRIFF_2
 10
14.6103
 20
-1.9886
 30
17.6607
 70
192
 0
VERTEX
 8
GRIFF_2
 10
14.6176
 20
-1.9836
 30
17.6607
 70
192
 0
VERTEX
 8
GRIFF_2
 10
14.6243
 20
-1.9778
 30
17.6607
 70
192
 0
VERTEX
 8
GRIFF_2
 10
14.6301
 20
-1.9712
 30
17.6607
 70
192
 0
VERTEX
 8
GRIFF_2
 10
14.635
 20
-1.9638
 30
17.6607
 70
192
 0
VERTEX
 8
GRIFF_2
 10
14.6389
 20
-1.9559
 30
17.6607
 70
192
 0
VERTEX
 8
GRIFF_2
 10
14.6418
 20
-1.9475
 30
17.6607
 70
192
 0
VERTEX
 8
GRIFF_2
 10
14.6435
 20
-1.9388
 30
17.6607
 70
192
 0
VERTEX
 8
GRIFF_2
 10
14.6441
 20
-1.93
 30
17.6607
 70
192
 0
VERTEX
 8
GRIFF_2
 10
14.6441
 20
1.93
 30
17.6607
 70
192
 0
VERTEX
 8
GRIFF_2
 10
14.6435
 20
1.9388
 30
17.6607
 70
192
 0
VERTEX
 8
GRIFF_2
 10
14.6418
 20
1.9475
 30
17.6607
 70
192
 0
VERTEX
 8
GRIFF_2
 10
14.6389
 20
1.9559
 30
17.6607
 70
192
 0
VERTEX
 8
GRIFF_2
 10
14.635
 20
1.9638
 30
17.6607
 70
192
 0
VERTEX
 8
GRIFF_2
 10
14.6301
 20
1.9712
 30
17.6607
 70
192
 0
VERTEX
 8
GRIFF_2
 10
14.6243
 20
1.9778
 30
17.6607
 70
192
 0
VERTEX
 8
GRIFF_2
 10
14.6176
 20
1.9836
 30
17.6607
 70
192
 0
VERTEX
 8
GRIFF_2
 10
14.6103
 20
1.9886
 30
17.6607
 70
192
 0
VERTEX
 8
GRIFF_2
 10
14.6023
 20
1.9925
 30
17.6607
 70
192
 0
VERTEX
 8
GRIFF_2
 10
14.594
 20
1.9953
 30
17.6607
 70
192
 0
VERTEX
 8
GRIFF_2
 10
14.5853
 20
1.997
 30
17.6607
 70
192
 0
VERTEX
 8
GRIFF_2
 10
14.5765
 20
1.9976
 30
17.6607
 70
192
 0
VERTEX
 8
GRIFF_2
 10
11.9165
 20
1.9976
 30
17.6607
 70
192
 0
VERTEX
 8
GRIFF_2
 10
11.9076
 20
1.997
 30
17.6607
 70
192
 0
VERTEX
 8
GRIFF_2
 10
11.899
 20
1.9953
 30
17.6607
 70
192
 0
VERTEX
 8
GRIFF_2
 10
11.8906
 20
1.9925
 30
17.6607
 70
192
 0
VERTEX
 8
GRIFF_2
 10
11.8827
 20
1.9886
 30
17.6607
 70
192
 0
VERTEX
 8
GRIFF_2
 10
11.8753
 20
1.9836
 30
17.6607
 70
192
 0
VERTEX
 8
GRIFF_2
 10
11.8687
 20
1.9778
 30
17.6607
 70
192
 0
VERTEX
 8
GRIFF_2
 10
11.8628
 20
1.9712
 30
17.6607
 70
192
 0
VERTEX
 8
GRIFF_2
 10
11.8579
 20
1.9638
 30
17.6607
 70
192
 0
VERTEX
 8
GRIFF_2
 10
11.854
 20
1.9559
 30
17.6607
 70
192
 0
VERTEX
 8
GRIFF_2
 10
11.8512
 20
1.9475
 30
17.6607
 70
192
 0
VERTEX
 8
GRIFF_2
 10
11.8494
 20
1.9388
 30
17.6607
 70
192
 0
VERTEX
 8
GRIFF_2
 10
11.8518
 20
1.93
 30
17.6694
 70
192
 0
VERTEX
 8
GRIFF_2
 10
11.8518
 20
-1.93
 30
17.6694
 70
192
 0
VERTEX
 8
GRIFF_2
 10
11.8523
 20
-1.9384
 30
17.6694
 70
192
 0
VERTEX
 8
GRIFF_2
 10
11.854
 20
-1.9467
 30
17.6694
 70
192
 0
VERTEX
 8
GRIFF_2
 10
11.8567
 20
-1.9547
 30
17.6694
 70
192
 0
VERTEX
 8
GRIFF_2
 10
11.8605
 20
-1.9623
 30
17.6694
 70
192
 0
VERTEX
 8
GRIFF_2
 10
11.8652
 20
-1.9694
 30
17.6694
 70
192
 0
VERTEX
 8
GRIFF_2
 10
11.8707
 20
-1.9757
 30
17.6694
 70
192
 0
VERTEX
 8
GRIFF_2
 10
11.8771
 20
-1.9813
 30
17.6694
 70
192
 0
VERTEX
 8
GRIFF_2
 10
11.8841
 20
-1.986
 30
17.6694
 70
192
 0
VERTEX
 8
GRIFF_2
 10
11.8917
 20
-1.9897
 30
17.6694
 70
192
 0
VERTEX
 8
GRIFF_2
 10
11.8997
 20
-1.9925
 30
17.6694
 70
192
 0
VERTEX
 8
GRIFF_2
 10
11.908
 20
-1.9941
 30
17.6694
 70
192
 0
VERTEX
 8
GRIFF_2
 10
11.9165
 20
-1.9947
 30
17.6694
 70
192
 0
VERTEX
 8
GRIFF_2
 10
14.5765
 20
-1.9947
 30
17.6694
 70
192
 0
VERTEX
 8
GRIFF_2
 10
14.5849
 20
-1.9941
 30
17.6694
 70
192
 0
VERTEX
 8
GRIFF_2
 10
14.5932
 20
-1.9925
 30
17.6694
 70
192
 0
VERTEX
 8
GRIFF_2
 10
14.6012
 20
-1.9897
 30
17.6694
 70
192
 0
VERTEX
 8
GRIFF_2
 10
14.6088
 20
-1.986
 30
17.6694
 70
192
 0
VERTEX
 8
GRIFF_2
 10
14.6158
 20
-1.9813
 30
17.6694
 70
192
 0
VERTEX
 8
GRIFF_2
 10
14.6222
 20
-1.9757
 30
17.6694
 70
192
 0
VERTEX
 8
GRIFF_2
 10
14.6278
 20
-1.9694
 30
17.6694
 70
192
 0
VERTEX
 8
GRIFF_2
 10
14.6325
 20
-1.9623
 30
17.6694
 70
192
 0
VERTEX
 8
GRIFF_2
 10
14.6362
 20
-1.9547
 30
17.6694
 70
192
 0
VERTEX
 8
GRIFF_2
 10
14.6389
 20
-1.9467
 30
17.6694
 70
192
 0
VERTEX
 8
GRIFF_2
 10
14.6406
 20
-1.9384
 30
17.6694
 70
192
 0
VERTEX
 8
GRIFF_2
 10
14.6411
 20
-1.93
 30
17.6694
 70
192
 0
VERTEX
 8
GRIFF_2
 10
14.6411
 20
1.93
 30
17.6694
 70
192
 0
VERTEX
 8
GRIFF_2
 10
14.6406
 20
1.9384
 30
17.6694
 70
192
 0
VERTEX
 8
GRIFF_2
 10
14.6389
 20
1.9467
 30
17.6694
 70
192
 0
VERTEX
 8
GRIFF_2
 10
14.6362
 20
1.9547
 30
17.6694
 70
192
 0
VERTEX
 8
GRIFF_2
 10
14.6325
 20
1.9623
 30
17.6694
 70
192
 0
VERTEX
 8
GRIFF_2
 10
14.6278
 20
1.9694
 30
17.6694
 70
192
 0
VERTEX
 8
GRIFF_2
 10
14.6222
 20
1.9757
 30
17.6694
 70
192
 0
VERTEX
 8
GRIFF_2
 10
14.6158
 20
1.9813
 30
17.6694
 70
192
 0
VERTEX
 8
GRIFF_2
 10
14.6088
 20
1.986
 30
17.6694
 70
192
 0
VERTEX
 8
GRIFF_2
 10
14.6012
 20
1.9897
 30
17.6694
 70
192
 0
VERTEX
 8
GRIFF_2
 10
14.5932
 20
1.9925
 30
17.6694
 70
192
 0
VERTEX
 8
GRIFF_2
 10
14.5849
 20
1.9941
 30
17.6694
 70
192
 0
VERTEX
 8
GRIFF_2
 10
14.5765
 20
1.9947
 30
17.6694
 70
192
 0
VERTEX
 8
GRIFF_2
 10
11.9165
 20
1.9947
 30
17.6694
 70
192
 0
VERTEX
 8
GRIFF_2
 10
11.908
 20
1.9941
 30
17.6694
 70
192
 0
VERTEX
 8
GRIFF_2
 10
11.8997
 20
1.9925
 30
17.6694
 70
192
 0
VERTEX
 8
GRIFF_2
 10
11.8917
 20
1.9897
 30
17.6694
 70
192
 0
VERTEX
 8
GRIFF_2
 10
11.8841
 20
1.986
 30
17.6694
 70
192
 0
VERTEX
 8
GRIFF_2
 10
11.8771
 20
1.9813
 30
17.6694
 70
192
 0
VERTEX
 8
GRIFF_2
 10
11.8707
 20
1.9757
 30
17.6694
 70
192
 0
VERTEX
 8
GRIFF_2
 10
11.8652
 20
1.9694
 30
17.6694
 70
192
 0
VERTEX
 8
GRIFF_2
 10
11.8605
 20
1.9623
 30
17.6694
 70
192
 0
VERTEX
 8
GRIFF_2
 10
11.8567
 20
1.9547
 30
17.6694
 70
192
 0
VERTEX
 8
GRIFF_2
 10
11.854
 20
1.9467
 30
17.6694
 70
192
 0
VERTEX
 8
GRIFF_2
 10
11.8523
 20
1.9384
 30
17.6694
 70
192
 0
VERTEX
 8
GRIFF_2
 10
11.8558
 20
1.93
 30
17.6776
 70
192
 0
VERTEX
 8
GRIFF_2
 10
11.8558
 20
-1.93
 30
17.6776
 70
192
 0
VERTEX
 8
GRIFF_2
 10
11.8564
 20
-1.9379
 30
17.6776
 70
192
 0
VERTEX
 8
GRIFF_2
 10
11.8579
 20
-1.9457
 30
17.6776
 70
192
 0
VERTEX
 8
GRIFF_2
 10
11.8605
 20
-1.9532
 30
17.6776
 70
192
 0
VERTEX
 8
GRIFF_2
 10
11.864
 20
-1.9603
 30
17.6776
 70
192
 0
VERTEX
 8
GRIFF_2
 10
11.8684
 20
-1.9669
 30
17.6776
 70
192
 0
VERTEX
 8
GRIFF_2
 10
11.8736
 20
-1.9729
 30
17.6776
 70
192
 0
VERTEX
 8
GRIFF_2
 10
11.8796
 20
-1.9781
 30
17.6776
 70
192
 0
VERTEX
 8
GRIFF_2
 10
11.8862
 20
-1.9825
 30
17.6776
 70
192
 0
VERTEX
 8
GRIFF_2
 10
11.8933
 20
-1.986
 30
17.6776
 70
192
 0
VERTEX
 8
GRIFF_2
 10
11.9008
 20
-1.9886
 30
17.6776
 70
192
 0
VERTEX
 8
GRIFF_2
 10
11.9086
 20
-1.9901
 30
17.6776
 70
192
 0
VERTEX
 8
GRIFF_2
 10
11.9165
 20
-1.9906
 30
17.6776
 70
192
 0
VERTEX
 8
GRIFF_2
 10
14.5765
 20
-1.9906
 30
17.6776
 70
192
 0
VERTEX
 8
GRIFF_2
 10
14.5844
 20
-1.9901
 30
17.6776
 70
192
 0
VERTEX
 8
GRIFF_2
 10
14.5922
 20
-1.9886
 30
17.6776
 70
192
 0
VERTEX
 8
GRIFF_2
 10
14.5997
 20
-1.986
 30
17.6776
 70
192
 0
VERTEX
 8
GRIFF_2
 10
14.6068
 20
-1.9825
 30
17.6776
 70
192
 0
VERTEX
 8
GRIFF_2
 10
14.6134
 20
-1.9781
 30
17.6776
 70
192
 0
VERTEX
 8
GRIFF_2
 10
14.6193
 20
-1.9729
 30
17.6776
 70
192
 0
VERTEX
 8
GRIFF_2
 10
14.6246
 20
-1.9669
 30
17.6776
 70
192
 0
VERTEX
 8
GRIFF_2
 10
14.629
 20
-1.9603
 30
17.6776
 70
192
 0
VERTEX
 8
GRIFF_2
 10
14.6325
 20
-1.9532
 30
17.6776
 70
192
 0
VERTEX
 8
GRIFF_2
 10
14.635
 20
-1.9457
 30
17.6776
 70
192
 0
VERTEX
 8
GRIFF_2
 10
14.6366
 20
-1.9379
 30
17.6776
 70
192
 0
VERTEX
 8
GRIFF_2
 10
14.6371
 20
-1.93
 30
17.6776
 70
192
 0
VERTEX
 8
GRIFF_2
 10
14.6371
 20
1.93
 30
17.6776
 70
192
 0
VERTEX
 8
GRIFF_2
 10
14.6366
 20
1.9379
 30
17.6776
 70
192
 0
VERTEX
 8
GRIFF_2
 10
14.635
 20
1.9457
 30
17.6776
 70
192
 0
VERTEX
 8
GRIFF_2
 10
14.6325
 20
1.9532
 30
17.6776
 70
192
 0
VERTEX
 8
GRIFF_2
 10
14.629
 20
1.9603
 30
17.6776
 70
192
 0
VERTEX
 8
GRIFF_2
 10
14.6246
 20
1.9669
 30
17.6776
 70
192
 0
VERTEX
 8
GRIFF_2
 10
14.6193
 20
1.9729
 30
17.6776
 70
192
 0
VERTEX
 8
GRIFF_2
 10
14.6134
 20
1.9781
 30
17.6776
 70
192
 0
VERTEX
 8
GRIFF_2
 10
14.6068
 20
1.9825
 30
17.6776
 70
192
 0
VERTEX
 8
GRIFF_2
 10
14.5997
 20
1.986
 30
17.6776
 70
192
 0
VERTEX
 8
GRIFF_2
 10
14.5922
 20
1.9886
 30
17.6776
 70
192
 0
VERTEX
 8
GRIFF_2
 10
14.5844
 20
1.9901
 30
17.6776
 70
192
 0
VERTEX
 8
GRIFF_2
 10
14.5765
 20
1.9906
 30
17.6776
 70
192
 0
VERTEX
 8
GRIFF_2
 10
11.9165
 20
1.9906
 30
17.6776
 70
192
 0
VERTEX
 8
GRIFF_2
 10
11.9086
 20
1.9901
 30
17.6776
 70
192
 0
VERTEX
 8
GRIFF_2
 10
11.9008
 20
1.9886
 30
17.6776
 70
192
 0
VERTEX
 8
GRIFF_2
 10
11.8933
 20
1.986
 30
17.6776
 70
192
 0
VERTEX
 8
GRIFF_2
 10
11.8862
 20
1.9825
 30
17.6776
 70
192
 0
VERTEX
 8
GRIFF_2
 10
11.8796
 20
1.9781
 30
17.6776
 70
192
 0
VERTEX
 8
GRIFF_2
 10
11.8736
 20
1.9729
 30
17.6776
 70
192
 0
VERTEX
 8
GRIFF_2
 10
11.8684
 20
1.9669
 30
17.6776
 70
192
 0
VERTEX
 8
GRIFF_2
 10
11.864
 20
1.9603
 30
17.6776
 70
192
 0
VERTEX
 8
GRIFF_2
 10
11.8605
 20
1.9532
 30
17.6776
 70
192
 0
VERTEX
 8
GRIFF_2
 10
11.8579
 20
1.9457
 30
17.6776
 70
192
 0
VERTEX
 8
GRIFF_2
 10
11.8564
 20
1.9379
 30
17.6776
 70
192
 0
VERTEX
 8
GRIFF_2
 10
11.8609
 20
1.93
 30
17.6852
 70
192
 0
VERTEX
 8
GRIFF_2
 10
11.8609
 20
-1.93
 30
17.6852
 70
192
 0
VERTEX
 8
GRIFF_2
 10
11.8614
 20
-1.9372
 30
17.6852
 70
192
 0
VERTEX
 8
GRIFF_2
 10
11.8628
 20
-1.9444
 30
17.6852
 70
192
 0
VERTEX
 8
GRIFF_2
 10
11.8652
 20
-1.9513
 30
17.6852
 70
192
 0
VERTEX
 8
GRIFF_2
 10
11.8684
 20
-1.9578
 30
17.6852
 70
192
 0
VERTEX
 8
GRIFF_2
 10
11.8724
 20
-1.9638
 30
17.6852
 70
192
 0
VERTEX
 8
GRIFF_2
 10
11.8772
 20
-1.9693
 30
17.6852
 70
192
 0
VERTEX
 8
GRIFF_2
 10
11.8827
 20
-1.9741
 30
17.6852
 70
192
 0
VERTEX
 8
GRIFF_2
 10
11.8887
 20
-1.9781
 30
17.6852
 70
192
 0
VERTEX
 8
GRIFF_2
 10
11.8952
 20
-1.9813
 30
17.6852
 70
192
 0
VERTEX
 8
GRIFF_2
 10
11.9021
 20
-1.9836
 30
17.6852
 70
192
 0
VERTEX
 8
GRIFF_2
 10
11.9092
 20
-1.9851
 30
17.6852
 70
192
 0
VERTEX
 8
GRIFF_2
 10
11.9165
 20
-1.9855
 30
17.6852
 70
192
 0
VERTEX
 8
GRIFF_2
 10
14.5765
 20
-1.9855
 30
17.6852
 70
192
 0
VERTEX
 8
GRIFF_2
 10
14.5837
 20
-1.9851
 30
17.6852
 70
192
 0
VERTEX
 8
GRIFF_2
 10
14.5908
 20
-1.9836
 30
17.6852
 70
192
 0
VERTEX
 8
GRIFF_2
 10
14.5977
 20
-1.9813
 30
17.6852
 70
192
 0
VERTEX
 8
GRIFF_2
 10
14.6042
 20
-1.9781
 30
17.6852
 70
192
 0
VERTEX
 8
GRIFF_2
 10
14.6103
 20
-1.9741
 30
17.6852
 70
192
 0
VERTEX
 8
GRIFF_2
 10
14.6157
 20
-1.9693
 30
17.6852
 70
192
 0
VERTEX
 8
GRIFF_2
 10
14.6205
 20
-1.9638
 30
17.6852
 70
192
 0
VERTEX
 8
GRIFF_2
 10
14.6246
 20
-1.9578
 30
17.6852
 70
192
 0
VERTEX
 8
GRIFF_2
 10
14.6278
 20
-1.9513
 30
17.6852
 70
192
 0
VERTEX
 8
GRIFF_2
 10
14.6301
 20
-1.9444
 30
17.6852
 70
192
 0
VERTEX
 8
GRIFF_2
 10
14.6315
 20
-1.9372
 30
17.6852
 70
192
 0
VERTEX
 8
GRIFF_2
 10
14.632
 20
-1.93
 30
17.6852
 70
192
 0
VERTEX
 8
GRIFF_2
 10
14.632
 20
1.93
 30
17.6852
 70
192
 0
VERTEX
 8
GRIFF_2
 10
14.6315
 20
1.9372
 30
17.6852
 70
192
 0
VERTEX
 8
GRIFF_2
 10
14.6301
 20
1.9444
 30
17.6852
 70
192
 0
VERTEX
 8
GRIFF_2
 10
14.6278
 20
1.9513
 30
17.6852
 70
192
 0
VERTEX
 8
GRIFF_2
 10
14.6246
 20
1.9578
 30
17.6852
 70
192
 0
VERTEX
 8
GRIFF_2
 10
14.6205
 20
1.9638
 30
17.6852
 70
192
 0
VERTEX
 8
GRIFF_2
 10
14.6157
 20
1.9693
 30
17.6852
 70
192
 0
VERTEX
 8
GRIFF_2
 10
14.6103
 20
1.9741
 30
17.6852
 70
192
 0
VERTEX
 8
GRIFF_2
 10
14.6042
 20
1.9781
 30
17.6852
 70
192
 0
VERTEX
 8
GRIFF_2
 10
14.5977
 20
1.9813
 30
17.6852
 70
192
 0
VERTEX
 8
GRIFF_2
 10
14.5908
 20
1.9836
 30
17.6852
 70
192
 0
VERTEX
 8
GRIFF_2
 10
14.5837
 20
1.9851
 30
17.6852
 70
192
 0
VERTEX
 8
GRIFF_2
 10
14.5765
 20
1.9855
 30
17.6852
 70
192
 0
VERTEX
 8
GRIFF_2
 10
11.9165
 20
1.9855
 30
17.6852
 70
192
 0
VERTEX
 8
GRIFF_2
 10
11.9092
 20
1.9851
 30
17.6852
 70
192
 0
VERTEX
 8
GRIFF_2
 10
11.9021
 20
1.9836
 30
17.6852
 70
192
 0
VERTEX
 8
GRIFF_2
 10
11.8952
 20
1.9813
 30
17.6852
 70
192
 0
VERTEX
 8
GRIFF_2
 10
11.8887
 20
1.9781
 30
17.6852
 70
192
 0
VERTEX
 8
GRIFF_2
 10
11.8827
 20
1.9741
 30
17.6852
 70
192
 0
VERTEX
 8
GRIFF_2
 10
11.8772
 20
1.9693
 30
17.6852
 70
192
 0
VERTEX
 8
GRIFF_2
 10
11.8724
 20
1.9638
 30
17.6852
 70
192
 0
VERTEX
 8
GRIFF_2
 10
11.8684
 20
1.9578
 30
17.6852
 70
192
 0
VERTEX
 8
GRIFF_2
 10
11.8652
 20
1.9513
 30
17.6852
 70
192
 0
VERTEX
 8
GRIFF_2
 10
11.8628
 20
1.9444
 30
17.6852
 70
192
 0
VERTEX
 8
GRIFF_2
 10
11.8614
 20
1.9372
 30
17.6852
 70
192
 0
VERTEX
 8
GRIFF_2
 10
11.867
 20
1.93
 30
17.6921
 70
192
 0
VERTEX
 8
GRIFF_2
 10
11.867
 20
-1.93
 30
17.6921
 70
192
 0
VERTEX
 8
GRIFF_2
 10
11.8674
 20
-1.9365
 30
17.6921
 70
192
 0
VERTEX
 8
GRIFF_2
 10
11.8687
 20
-1.9428
 30
17.6921
 70
192
 0
VERTEX
 8
GRIFF_2
 10
11.8707
 20
-1.9489
 30
17.6921
 70
192
 0
VERTEX
 8
GRIFF_2
 10
11.8736
 20
-1.9547
 30
17.6921
 70
192
 0
VERTEX
 8
GRIFF_2
 10
11.8772
 20
-1.9601
 30
17.6921
 70
192
 0
VERTEX
 8
GRIFF_2
 10
11.8815
 20
-1.965
 30
17.6921
 70
192
 0
VERTEX
 8
GRIFF_2
 10
11.8863
 20
-1.9693
 30
17.6921
 70
192
 0
VERTEX
 8
GRIFF_2
 10
11.8917
 20
-1.9729
 30
17.6921
 70
192
 0
VERTEX
 8
GRIFF_2
 10
11.8975
 20
-1.9757
 30
17.6921
 70
192
 0
VERTEX
 8
GRIFF_2
 10
11.9037
 20
-1.9778
 30
17.6921
 70
192
 0
VERTEX
 8
GRIFF_2
 10
11.91
 20
-1.9791
 30
17.6921
 70
192
 0
VERTEX
 8
GRIFF_2
 10
11.9165
 20
-1.9795
 30
17.6921
 70
192
 0
VERTEX
 8
GRIFF_2
 10
14.5765
 20
-1.9795
 30
17.6921
 70
192
 0
VERTEX
 8
GRIFF_2
 10
14.5829
 20
-1.9791
 30
17.6921
 70
192
 0
VERTEX
 8
GRIFF_2
 10
14.5893
 20
-1.9778
 30
17.6921
 70
192
 0
VERTEX
 8
GRIFF_2
 10
14.5954
 20
-1.9757
 30
17.6921
 70
192
 0
VERTEX
 8
GRIFF_2
 10
14.6012
 20
-1.9729
 30
17.6921
 70
192
 0
VERTEX
 8
GRIFF_2
 10
14.6066
 20
-1.9693
 30
17.6921
 70
192
 0
VERTEX
 8
GRIFF_2
 10
14.6115
 20
-1.965
 30
17.6921
 70
192
 0
VERTEX
 8
GRIFF_2
 10
14.6157
 20
-1.9601
 30
17.6921
 70
192
 0
VERTEX
 8
GRIFF_2
 10
14.6193
 20
-1.9547
 30
17.6921
 70
192
 0
VERTEX
 8
GRIFF_2
 10
14.6222
 20
-1.9489
 30
17.6921
 70
192
 0
VERTEX
 8
GRIFF_2
 10
14.6243
 20
-1.9428
 30
17.6921
 70
192
 0
VERTEX
 8
GRIFF_2
 10
14.6255
 20
-1.9365
 30
17.6921
 70
192
 0
VERTEX
 8
GRIFF_2
 10
14.626
 20
-1.93
 30
17.6921
 70
192
 0
VERTEX
 8
GRIFF_2
 10
14.626
 20
1.93
 30
17.6921
 70
192
 0
VERTEX
 8
GRIFF_2
 10
14.6255
 20
1.9365
 30
17.6921
 70
192
 0
VERTEX
 8
GRIFF_2
 10
14.6243
 20
1.9428
 30
17.6921
 70
192
 0
VERTEX
 8
GRIFF_2
 10
14.6222
 20
1.9489
 30
17.6921
 70
192
 0
VERTEX
 8
GRIFF_2
 10
14.6193
 20
1.9547
 30
17.6921
 70
192
 0
VERTEX
 8
GRIFF_2
 10
14.6157
 20
1.9601
 30
17.6921
 70
192
 0
VERTEX
 8
GRIFF_2
 10
14.6115
 20
1.965
 30
17.6921
 70
192
 0
VERTEX
 8
GRIFF_2
 10
14.6066
 20
1.9693
 30
17.6921
 70
192
 0
VERTEX
 8
GRIFF_2
 10
14.6012
 20
1.9729
 30
17.6921
 70
192
 0
VERTEX
 8
GRIFF_2
 10
14.5954
 20
1.9757
 30
17.6921
 70
192
 0
VERTEX
 8
GRIFF_2
 10
14.5893
 20
1.9778
 30
17.6921
 70
192
 0
VERTEX
 8
GRIFF_2
 10
14.5829
 20
1.9791
 30
17.6921
 70
192
 0
VERTEX
 8
GRIFF_2
 10
14.5765
 20
1.9795
 30
17.6921
 70
192
 0
VERTEX
 8
GRIFF_2
 10
11.9165
 20
1.9795
 30
17.6921
 70
192
 0
VERTEX
 8
GRIFF_2
 10
11.91
 20
1.9791
 30
17.6921
 70
192
 0
VERTEX
 8
GRIFF_2
 10
11.9037
 20
1.9778
 30
17.6921
 70
192
 0
VERTEX
 8
GRIFF_2
 10
11.8975
 20
1.9757
 30
17.6921
 70
192
 0
VERTEX
 8
GRIFF_2
 10
11.8917
 20
1.9729
 30
17.6921
 70
192
 0
VERTEX
 8
GRIFF_2
 10
11.8863
 20
1.9693
 30
17.6921
 70
192
 0
VERTEX
 8
GRIFF_2
 10
11.8815
 20
1.965
 30
17.6921
 70
192
 0
VERTEX
 8
GRIFF_2
 10
11.8772
 20
1.9601
 30
17.6921
 70
192
 0
VERTEX
 8
GRIFF_2
 10
11.8736
 20
1.9547
 30
17.6921
 70
192
 0
VERTEX
 8
GRIFF_2
 10
11.8707
 20
1.9489
 30
17.6921
 70
192
 0
VERTEX
 8
GRIFF_2
 10
11.8687
 20
1.9428
 30
17.6921
 70
192
 0
VERTEX
 8
GRIFF_2
 10
11.8674
 20
1.9365
 30
17.6921
 70
192
 0
VERTEX
 8
GRIFF_2
 10
11.8739
 20
1.93
 30
17.6982
 70
192
 0
VERTEX
 8
GRIFF_2
 10
11.8739
 20
-1.93
 30
17.6982
 70
192
 0
VERTEX
 8
GRIFF_2
 10
11.8742
 20
-1.9356
 30
17.6982
 70
192
 0
VERTEX
 8
GRIFF_2
 10
11.8753
 20
-1.941
 30
17.6982
 70
192
 0
VERTEX
 8
GRIFF_2
 10
11.8771
 20
-1.9463
 30
17.6982
 70
192
 0
VERTEX
 8
GRIFF_2
 10
11.8796
 20
-1.9513
 30
17.6982
 70
192
 0
VERTEX
 8
GRIFF_2
 10
11.8827
 20
-1.9559
 30
17.6982
 70
192
 0
VERTEX
 8
GRIFF_2
 10
11.8863
 20
-1.9601
 30
17.6982
 70
192
 0
VERTEX
 8
GRIFF_2
 10
11.8905
 20
-1.9638
 30
17.6982
 70
192
 0
VERTEX
 8
GRIFF_2
 10
11.8952
 20
-1.9669
 30
17.6982
 70
192
 0
VERTEX
 8
GRIFF_2
 10
11.9002
 20
-1.9694
 30
17.6982
 70
192
 0
VERTEX
 8
GRIFF_2
 10
11.9054
 20
-1.9712
 30
17.6982
 70
192
 0
VERTEX
 8
GRIFF_2
 10
11.9109
 20
-1.9722
 30
17.6982
 70
192
 0
VERTEX
 8
GRIFF_2
 10
11.9165
 20
-1.9726
 30
17.6982
 70
192
 0
VERTEX
 8
GRIFF_2
 10
14.5765
 20
-1.9726
 30
17.6982
 70
192
 0
VERTEX
 8
GRIFF_2
 10
14.582
 20
-1.9722
 30
17.6982
 70
192
 0
VERTEX
 8
GRIFF_2
 10
14.5875
 20
-1.9712
 30
17.6982
 70
192
 0
VERTEX
 8
GRIFF_2
 10
14.5928
 20
-1.9694
 30
17.6982
 70
192
 0
VERTEX
 8
GRIFF_2
 10
14.5978
 20
-1.9669
 30
17.6982
 70
192
 0
VERTEX
 8
GRIFF_2
 10
14.6024
 20
-1.9638
 30
17.6982
 70
192
 0
VERTEX
 8
GRIFF_2
 10
14.6066
 20
-1.9601
 30
17.6982
 70
192
 0
VERTEX
 8
GRIFF_2
 10
14.6103
 20
-1.9559
 30
17.6982
 70
192
 0
VERTEX
 8
GRIFF_2
 10
14.6134
 20
-1.9513
 30
17.6982
 70
192
 0
VERTEX
 8
GRIFF_2
 10
14.6158
 20
-1.9463
 30
17.6982
 70
192
 0
VERTEX
 8
GRIFF_2
 10
14.6176
 20
-1.941
 30
17.6982
 70
192
 0
VERTEX
 8
GRIFF_2
 10
14.6187
 20
-1.9356
 30
17.6982
 70
192
 0
VERTEX
 8
GRIFF_2
 10
14.6191
 20
-1.93
 30
17.6982
 70
192
 0
VERTEX
 8
GRIFF_2
 10
14.6191
 20
1.93
 30
17.6982
 70
192
 0
VERTEX
 8
GRIFF_2
 10
14.6187
 20
1.9356
 30
17.6982
 70
192
 0
VERTEX
 8
GRIFF_2
 10
14.6176
 20
1.941
 30
17.6982
 70
192
 0
VERTEX
 8
GRIFF_2
 10
14.6158
 20
1.9463
 30
17.6982
 70
192
 0
VERTEX
 8
GRIFF_2
 10
14.6134
 20
1.9513
 30
17.6982
 70
192
 0
VERTEX
 8
GRIFF_2
 10
14.6103
 20
1.9559
 30
17.6982
 70
192
 0
VERTEX
 8
GRIFF_2
 10
14.6066
 20
1.9601
 30
17.6982
 70
192
 0
VERTEX
 8
GRIFF_2
 10
14.6024
 20
1.9638
 30
17.6982
 70
192
 0
VERTEX
 8
GRIFF_2
 10
14.5978
 20
1.9669
 30
17.6982
 70
192
 0
VERTEX
 8
GRIFF_2
 10
14.5928
 20
1.9694
 30
17.6982
 70
192
 0
VERTEX
 8
GRIFF_2
 10
14.5875
 20
1.9712
 30
17.6982
 70
192
 0
VERTEX
 8
GRIFF_2
 10
14.582
 20
1.9722
 30
17.6982
 70
192
 0
VERTEX
 8
GRIFF_2
 10
14.5765
 20
1.9726
 30
17.6982
 70
192
 0
VERTEX
 8
GRIFF_2
 10
11.9165
 20
1.9726
 30
17.6982
 70
192
 0
VERTEX
 8
GRIFF_2
 10
11.9109
 20
1.9722
 30
17.6982
 70
192
 0
VERTEX
 8
GRIFF_2
 10
11.9054
 20
1.9712
 30
17.6982
 70
192
 0
VERTEX
 8
GRIFF_2
 10
11.9002
 20
1.9694
 30
17.6982
 70
192
 0
VERTEX
 8
GRIFF_2
 10
11.8952
 20
1.9669
 30
17.6982
 70
192
 0
VERTEX
 8
GRIFF_2
 10
11.8905
 20
1.9638
 30
17.6982
 70
192
 0
VERTEX
 8
GRIFF_2
 10
11.8863
 20
1.9601
 30
17.6982
 70
192
 0
VERTEX
 8
GRIFF_2
 10
11.8827
 20
1.9559
 30
17.6982
 70
192
 0
VERTEX
 8
GRIFF_2
 10
11.8796
 20
1.9513
 30
17.6982
 70
192
 0
VERTEX
 8
GRIFF_2
 10
11.8771
 20
1.9463
 30
17.6982
 70
192
 0
VERTEX
 8
GRIFF_2
 10
11.8753
 20
1.941
 30
17.6982
 70
192
 0
VERTEX
 8
GRIFF_2
 10
11.8742
 20
1.9356
 30
17.6982
 70
192
 0
VERTEX
 8
GRIFF_2
 10
11.8815
 20
1.93
 30
17.7032
 70
192
 0
VERTEX
 8
GRIFF_2
 10
11.8815
 20
-1.93
 30
17.7032
 70
192
 0
VERTEX
 8
GRIFF_2
 10
11.8818
 20
-1.9346
 30
17.7032
 70
192
 0
VERTEX
 8
GRIFF_2
 10
11.8827
 20
-1.9391
 30
17.7032
 70
192
 0
VERTEX
 8
GRIFF_2
 10
11.8841
 20
-1.9434
 30
17.7032
 70
192
 0
VERTEX
 8
GRIFF_2
 10
11.8862
 20
-1.9475
 30
17.7032
 70
192
 0
VERTEX
 8
GRIFF_2
 10
11.8887
 20
-1.9513
 30
17.7032
 70
192
 0
VERTEX
 8
GRIFF_2
 10
11.8917
 20
-1.9547
 30
17.7032
 70
192
 0
VERTEX
 8
GRIFF_2
 10
11.8952
 20
-1.9578
 30
17.7032
 70
192
 0
VERTEX
 8
GRIFF_2
 10
11.899
 20
-1.9603
 30
17.7032
 70
192
 0
VERTEX
 8
GRIFF_2
 10
11.9031
 20
-1.9623
 30
17.7032
 70
192
 0
VERTEX
 8
GRIFF_2
 10
11.9074
 20
-1.9638
 30
17.7032
 70
192
 0
VERTEX
 8
GRIFF_2
 10
11.9119
 20
-1.9647
 30
17.7032
 70
192
 0
VERTEX
 8
GRIFF_2
 10
11.9165
 20
-1.965
 30
17.7032
 70
192
 0
VERTEX
 8
GRIFF_2
 10
14.5765
 20
-1.965
 30
17.7032
 70
192
 0
VERTEX
 8
GRIFF_2
 10
14.581
 20
-1.9647
 30
17.7032
 70
192
 0
VERTEX
 8
GRIFF_2
 10
14.5855
 20
-1.9638
 30
17.7032
 70
192
 0
VERTEX
 8
GRIFF_2
 10
14.5899
 20
-1.9623
 30
17.7032
 70
192
 0
VERTEX
 8
GRIFF_2
 10
14.594
 20
-1.9603
 30
17.7032
 70
192
 0
VERTEX
 8
GRIFF_2
 10
14.5978
 20
-1.9578
 30
17.7032
 70
192
 0
VERTEX
 8
GRIFF_2
 10
14.6012
 20
-1.9547
 30
17.7032
 70
192
 0
VERTEX
 8
GRIFF_2
 10
14.6042
 20
-1.9513
 30
17.7032
 70
192
 0
VERTEX
 8
GRIFF_2
 10
14.6068
 20
-1.9475
 30
17.7032
 70
192
 0
VERTEX
 8
GRIFF_2
 10
14.6088
 20
-1.9434
 30
17.7032
 70
192
 0
VERTEX
 8
GRIFF_2
 10
14.6103
 20
-1.9391
 30
17.7032
 70
192
 0
VERTEX
 8
GRIFF_2
 10
14.6112
 20
-1.9346
 30
17.7032
 70
192
 0
VERTEX
 8
GRIFF_2
 10
14.6115
 20
-1.93
 30
17.7032
 70
192
 0
VERTEX
 8
GRIFF_2
 10
14.6115
 20
1.93
 30
17.7032
 70
192
 0
VERTEX
 8
GRIFF_2
 10
14.6112
 20
1.9346
 30
17.7032
 70
192
 0
VERTEX
 8
GRIFF_2
 10
14.6103
 20
1.9391
 30
17.7032
 70
192
 0
VERTEX
 8
GRIFF_2
 10
14.6088
 20
1.9434
 30
17.7032
 70
192
 0
VERTEX
 8
GRIFF_2
 10
14.6068
 20
1.9475
 30
17.7032
 70
192
 0
VERTEX
 8
GRIFF_2
 10
14.6042
 20
1.9513
 30
17.7032
 70
192
 0
VERTEX
 8
GRIFF_2
 10
14.6012
 20
1.9547
 30
17.7032
 70
192
 0
VERTEX
 8
GRIFF_2
 10
14.5978
 20
1.9578
 30
17.7032
 70
192
 0
VERTEX
 8
GRIFF_2
 10
14.594
 20
1.9603
 30
17.7032
 70
192
 0
VERTEX
 8
GRIFF_2
 10
14.5899
 20
1.9623
 30
17.7032
 70
192
 0
VERTEX
 8
GRIFF_2
 10
14.5855
 20
1.9638
 30
17.7032
 70
192
 0
VERTEX
 8
GRIFF_2
 10
14.581
 20
1.9647
 30
17.7032
 70
192
 0
VERTEX
 8
GRIFF_2
 10
14.5765
 20
1.965
 30
17.7032
 70
192
 0
VERTEX
 8
GRIFF_2
 10
11.9165
 20
1.965
 30
17.7032
 70
192
 0
VERTEX
 8
GRIFF_2
 10
11.9119
 20
1.9647
 30
17.7032
 70
192
 0
VERTEX
 8
GRIFF_2
 10
11.9074
 20
1.9638
 30
17.7032
 70
192
 0
VERTEX
 8
GRIFF_2
 10
11.9031
 20
1.9623
 30
17.7032
 70
192
 0
VERTEX
 8
GRIFF_2
 10
11.899
 20
1.9603
 30
17.7032
 70
192
 0
VERTEX
 8
GRIFF_2
 10
11.8952
 20
1.9578
 30
17.7032
 70
192
 0
VERTEX
 8
GRIFF_2
 10
11.8917
 20
1.9547
 30
17.7032
 70
192
 0
VERTEX
 8
GRIFF_2
 10
11.8887
 20
1.9513
 30
17.7032
 70
192
 0
VERTEX
 8
GRIFF_2
 10
11.8862
 20
1.9475
 30
17.7032
 70
192
 0
VERTEX
 8
GRIFF_2
 10
11.8841
 20
1.9434
 30
17.7032
 70
192
 0
VERTEX
 8
GRIFF_2
 10
11.8827
 20
1.9391
 30
17.7032
 70
192
 0
VERTEX
 8
GRIFF_2
 10
11.8818
 20
1.9346
 30
17.7032
 70
192
 0
VERTEX
 8
GRIFF_2
 10
11.8897
 20
1.93
 30
17.7073
 70
192
 0
VERTEX
 8
GRIFF_2
 10
11.8897
 20
-1.93
 30
17.7073
 70
192
 0
VERTEX
 8
GRIFF_2
 10
11.8899
 20
-1.9335
 30
17.7073
 70
192
 0
VERTEX
 8
GRIFF_2
 10
11.8906
 20
-1.9369
 30
17.7073
 70
192
 0
VERTEX
 8
GRIFF_2
 10
11.8917
 20
-1.9403
 30
17.7073
 70
192
 0
VERTEX
 8
GRIFF_2
 10
11.8933
 20
-1.9434
 30
17.7073
 70
192
 0
VERTEX
 8
GRIFF_2
 10
11.8952
 20
-1.9463
 30
17.7073
 70
192
 0
VERTEX
 8
GRIFF_2
 10
11.8975
 20
-1.9489
 30
17.7073
 70
192
 0
VERTEX
 8
GRIFF_2
 10
11.9002
 20
-1.9513
 30
17.7073
 70
192
 0
VERTEX
 8
GRIFF_2
 10
11.9031
 20
-1.9532
 30
17.7073
 70
192
 0
VERTEX
 8
GRIFF_2
 10
11.9062
 20
-1.9547
 30
17.7073
 70
192
 0
VERTEX
 8
GRIFF_2
 10
11.9095
 20
-1.9559
 30
17.7073
 70
192
 0
VERTEX
 8
GRIFF_2
 10
11.913
 20
-1.9566
 30
17.7073
 70
192
 0
VERTEX
 8
GRIFF_2
 10
11.9165
 20
-1.9568
 30
17.7073
 70
192
 0
VERTEX
 8
GRIFF_2
 10
14.5765
 20
-1.9568
 30
17.7073
 70
192
 0
VERTEX
 8
GRIFF_2
 10
14.58
 20
-1.9566
 30
17.7073
 70
192
 0
VERTEX
 8
GRIFF_2
 10
14.5834
 20
-1.9559
 30
17.7073
 70
192
 0
VERTEX
 8
GRIFF_2
 10
14.5867
 20
-1.9547
 30
17.7073
 70
192
 0
VERTEX
 8
GRIFF_2
 10
14.5899
 20
-1.9532
 30
17.7073
 70
192
 0
VERTEX
 8
GRIFF_2
 10
14.5928
 20
-1.9513
 30
17.7073
 70
192
 0
VERTEX
 8
GRIFF_2
 10
14.5954
 20
-1.9489
 30
17.7073
 70
192
 0
VERTEX
 8
GRIFF_2
 10
14.5977
 20
-1.9463
 30
17.7073
 70
192
 0
VERTEX
 8
GRIFF_2
 10
14.5997
 20
-1.9434
 30
17.7073
 70
192
 0
VERTEX
 8
GRIFF_2
 10
14.6012
 20
-1.9403
 30
17.7073
 70
192
 0
VERTEX
 8
GRIFF_2
 10
14.6023
 20
-1.9369
 30
17.7073
 70
192
 0
VERTEX
 8
GRIFF_2
 10
14.603
 20
-1.9335
 30
17.7073
 70
192
 0
VERTEX
 8
GRIFF_2
 10
14.6033
 20
-1.93
 30
17.7073
 70
192
 0
VERTEX
 8
GRIFF_2
 10
14.6033
 20
1.93
 30
17.7073
 70
192
 0
VERTEX
 8
GRIFF_2
 10
14.603
 20
1.9335
 30
17.7073
 70
192
 0
VERTEX
 8
GRIFF_2
 10
14.6023
 20
1.9369
 30
17.7073
 70
192
 0
VERTEX
 8
GRIFF_2
 10
14.6012
 20
1.9403
 30
17.7073
 70
192
 0
VERTEX
 8
GRIFF_2
 10
14.5997
 20
1.9434
 30
17.7073
 70
192
 0
VERTEX
 8
GRIFF_2
 10
14.5977
 20
1.9463
 30
17.7073
 70
192
 0
VERTEX
 8
GRIFF_2
 10
14.5954
 20
1.9489
 30
17.7073
 70
192
 0
VERTEX
 8
GRIFF_2
 10
14.5928
 20
1.9513
 30
17.7073
 70
192
 0
VERTEX
 8
GRIFF_2
 10
14.5899
 20
1.9532
 30
17.7073
 70
192
 0
VERTEX
 8
GRIFF_2
 10
14.5867
 20
1.9547
 30
17.7073
 70
192
 0
VERTEX
 8
GRIFF_2
 10
14.5834
 20
1.9559
 30
17.7073
 70
192
 0
VERTEX
 8
GRIFF_2
 10
14.58
 20
1.9566
 30
17.7073
 70
192
 0
VERTEX
 8
GRIFF_2
 10
14.5765
 20
1.9568
 30
17.7073
 70
192
 0
VERTEX
 8
GRIFF_2
 10
11.9165
 20
1.9568
 30
17.7073
 70
192
 0
VERTEX
 8
GRIFF_2
 10
11.913
 20
1.9566
 30
17.7073
 70
192
 0
VERTEX
 8
GRIFF_2
 10
11.9095
 20
1.9559
 30
17.7073
 70
192
 0
VERTEX
 8
GRIFF_2
 10
11.9062
 20
1.9547
 30
17.7073
 70
192
 0
VERTEX
 8
GRIFF_2
 10
11.9031
 20
1.9532
 30
17.7073
 70
192
 0
VERTEX
 8
GRIFF_2
 10
11.9002
 20
1.9513
 30
17.7073
 70
192
 0
VERTEX
 8
GRIFF_2
 10
11.8975
 20
1.9489
 30
17.7073
 70
192
 0
VERTEX
 8
GRIFF_2
 10
11.8952
 20
1.9463
 30
17.7073
 70
192
 0
VERTEX
 8
GRIFF_2
 10
11.8933
 20
1.9434
 30
17.7073
 70
192
 0
VERTEX
 8
GRIFF_2
 10
11.8917
 20
1.9403
 30
17.7073
 70
192
 0
VERTEX
 8
GRIFF_2
 10
11.8906
 20
1.9369
 30
17.7073
 70
192
 0
VERTEX
 8
GRIFF_2
 10
11.8899
 20
1.9335
 30
17.7073
 70
192
 0
VERTEX
 8
GRIFF_2
 10
11.8984
 20
1.93
 30
17.7102
 70
192
 0
VERTEX
 8
GRIFF_2
 10
11.8984
 20
-1.93
 30
17.7102
 70
192
 0
VERTEX
 8
GRIFF_2
 10
11.8985
 20
-1.9324
 30
17.7102
 70
192
 0
VERTEX
 8
GRIFF_2
 10
11.899
 20
-1.9347
 30
17.7102
 70
192
 0
VERTEX
 8
GRIFF_2
 10
11.8997
 20
-1.9369
 30
17.7102
 70
192
 0
VERTEX
 8
GRIFF_2
 10
11.9008
 20
-1.9391
 30
17.7102
 70
192
 0
VERTEX
 8
GRIFF_2
 10
11.9021
 20
-1.941
 30
17.7102
 70
192
 0
VERTEX
 8
GRIFF_2
 10
11.9037
 20
-1.9428
 30
17.7102
 70
192
 0
VERTEX
 8
GRIFF_2
 10
11.9054
 20
-1.9444
 30
17.7102
 70
192
 0
VERTEX
 8
GRIFF_2
 10
11.9074
 20
-1.9457
 30
17.7102
 70
192
 0
VERTEX
 8
GRIFF_2
 10
11.9095
 20
-1.9467
 30
17.7102
 70
192
 0
VERTEX
 8
GRIFF_2
 10
11.9118
 20
-1.9475
 30
17.7102
 70
192
 0
VERTEX
 8
GRIFF_2
 10
11.9141
 20
-1.948
 30
17.7102
 70
192
 0
VERTEX
 8
GRIFF_2
 10
11.9165
 20
-1.9481
 30
17.7102
 70
192
 0
VERTEX
 8
GRIFF_2
 10
14.5765
 20
-1.9481
 30
17.7102
 70
192
 0
VERTEX
 8
GRIFF_2
 10
14.5788
 20
-1.948
 30
17.7102
 70
192
 0
VERTEX
 8
GRIFF_2
 10
14.5812
 20
-1.9475
 30
17.7102
 70
192
 0
VERTEX
 8
GRIFF_2
 10
14.5834
 20
-1.9467
 30
17.7102
 70
192
 0
VERTEX
 8
GRIFF_2
 10
14.5855
 20
-1.9457
 30
17.7102
 70
192
 0
VERTEX
 8
GRIFF_2
 10
14.5875
 20
-1.9444
 30
17.7102
 70
192
 0
VERTEX
 8
GRIFF_2
 10
14.5893
 20
-1.9428
 30
17.7102
 70
192
 0
VERTEX
 8
GRIFF_2
 10
14.5908
 20
-1.941
 30
17.7102
 70
192
 0
VERTEX
 8
GRIFF_2
 10
14.5922
 20
-1.9391
 30
17.7102
 70
192
 0
VERTEX
 8
GRIFF_2
 10
14.5932
 20
-1.9369
 30
17.7102
 70
192
 0
VERTEX
 8
GRIFF_2
 10
14.594
 20
-1.9347
 30
17.7102
 70
192
 0
VERTEX
 8
GRIFF_2
 10
14.5944
 20
-1.9324
 30
17.7102
 70
192
 0
VERTEX
 8
GRIFF_2
 10
14.5946
 20
-1.93
 30
17.7102
 70
192
 0
VERTEX
 8
GRIFF_2
 10
14.5946
 20
1.93
 30
17.7102
 70
192
 0
VERTEX
 8
GRIFF_2
 10
14.5944
 20
1.9324
 30
17.7102
 70
192
 0
VERTEX
 8
GRIFF_2
 10
14.594
 20
1.9347
 30
17.7102
 70
192
 0
VERTEX
 8
GRIFF_2
 10
14.5932
 20
1.9369
 30
17.7102
 70
192
 0
VERTEX
 8
GRIFF_2
 10
14.5922
 20
1.9391
 30
17.7102
 70
192
 0
VERTEX
 8
GRIFF_2
 10
14.5908
 20
1.941
 30
17.7102
 70
192
 0
VERTEX
 8
GRIFF_2
 10
14.5893
 20
1.9428
 30
17.7102
 70
192
 0
VERTEX
 8
GRIFF_2
 10
14.5875
 20
1.9444
 30
17.7102
 70
192
 0
VERTEX
 8
GRIFF_2
 10
14.5855
 20
1.9457
 30
17.7102
 70
192
 0
VERTEX
 8
GRIFF_2
 10
14.5834
 20
1.9467
 30
17.7102
 70
192
 0
VERTEX
 8
GRIFF_2
 10
14.5812
 20
1.9475
 30
17.7102
 70
192
 0
VERTEX
 8
GRIFF_2
 10
14.5788
 20
1.948
 30
17.7102
 70
192
 0
VERTEX
 8
GRIFF_2
 10
14.5765
 20
1.9481
 30
17.7102
 70
192
 0
VERTEX
 8
GRIFF_2
 10
11.9165
 20
1.9481
 30
17.7102
 70
192
 0
VERTEX
 8
GRIFF_2
 10
11.9141
 20
1.948
 30
17.7102
 70
192
 0
VERTEX
 8
GRIFF_2
 10
11.9118
 20
1.9475
 30
17.7102
 70
192
 0
VERTEX
 8
GRIFF_2
 10
11.9095
 20
1.9467
 30
17.7102
 70
192
 0
VERTEX
 8
GRIFF_2
 10
11.9074
 20
1.9457
 30
17.7102
 70
192
 0
VERTEX
 8
GRIFF_2
 10
11.9054
 20
1.9444
 30
17.7102
 70
192
 0
VERTEX
 8
GRIFF_2
 10
11.9037
 20
1.9428
 30
17.7102
 70
192
 0
VERTEX
 8
GRIFF_2
 10
11.9021
 20
1.941
 30
17.7102
 70
192
 0
VERTEX
 8
GRIFF_2
 10
11.9008
 20
1.9391
 30
17.7102
 70
192
 0
VERTEX
 8
GRIFF_2
 10
11.8997
 20
1.9369
 30
17.7102
 70
192
 0
VERTEX
 8
GRIFF_2
 10
11.899
 20
1.9347
 30
17.7102
 70
192
 0
VERTEX
 8
GRIFF_2
 10
11.8985
 20
1.9324
 30
17.7102
 70
192
 0
VERTEX
 8
GRIFF_2
 10
11.9073
 20
1.93
 30
17.712
 70
192
 0
VERTEX
 8
GRIFF_2
 10
11.9073
 20
-1.93
 30
17.712
 70
192
 0
VERTEX
 8
GRIFF_2
 10
11.9074
 20
-1.9312
 30
17.712
 70
192
 0
VERTEX
 8
GRIFF_2
 10
11.9076
 20
-1.9324
 30
17.712
 70
192
 0
VERTEX
 8
GRIFF_2
 10
11.908
 20
-1.9335
 30
17.712
 70
192
 0
VERTEX
 8
GRIFF_2
 10
11.9086
 20
-1.9346
 30
17.712
 70
192
 0
VERTEX
 8
GRIFF_2
 10
11.9092
 20
-1.9356
 30
17.712
 70
192
 0
VERTEX
 8
GRIFF_2
 10
11.91
 20
-1.9365
 30
17.712
 70
192
 0
VERTEX
 8
GRIFF_2
 10
11.9109
 20
-1.9372
 30
17.712
 70
192
 0
VERTEX
 8
GRIFF_2
 10
11.9119
 20
-1.9379
 30
17.712
 70
192
 0
VERTEX
 8
GRIFF_2
 10
11.913
 20
-1.9384
 30
17.712
 70
192
 0
VERTEX
 8
GRIFF_2
 10
11.9141
 20
-1.9388
 30
17.712
 70
192
 0
VERTEX
 8
GRIFF_2
 10
11.9153
 20
-1.9391
 30
17.712
 70
192
 0
VERTEX
 8
GRIFF_2
 10
11.9165
 20
-1.9391
 30
17.712
 70
192
 0
VERTEX
 8
GRIFF_2
 10
14.5765
 20
-1.9391
 30
17.712
 70
192
 0
VERTEX
 8
GRIFF_2
 10
14.5777
 20
-1.9391
 30
17.712
 70
192
 0
VERTEX
 8
GRIFF_2
 10
14.5788
 20
-1.9388
 30
17.712
 70
192
 0
VERTEX
 8
GRIFF_2
 10
14.58
 20
-1.9384
 30
17.712
 70
192
 0
VERTEX
 8
GRIFF_2
 10
14.581
 20
-1.9379
 30
17.712
 70
192
 0
VERTEX
 8
GRIFF_2
 10
14.582
 20
-1.9372
 30
17.712
 70
192
 0
VERTEX
 8
GRIFF_2
 10
14.5829
 20
-1.9365
 30
17.712
 70
192
 0
VERTEX
 8
GRIFF_2
 10
14.5837
 20
-1.9356
 30
17.712
 70
192
 0
VERTEX
 8
GRIFF_2
 10
14.5844
 20
-1.9346
 30
17.712
 70
192
 0
VERTEX
 8
GRIFF_2
 10
14.5849
 20
-1.9335
 30
17.712
 70
192
 0
VERTEX
 8
GRIFF_2
 10
14.5853
 20
-1.9324
 30
17.712
 70
192
 0
VERTEX
 8
GRIFF_2
 10
14.5855
 20
-1.9312
 30
17.712
 70
192
 0
VERTEX
 8
GRIFF_2
 10
14.5856
 20
-1.93
 30
17.712
 70
192
 0
VERTEX
 8
GRIFF_2
 10
14.5856
 20
1.93
 30
17.712
 70
192
 0
VERTEX
 8
GRIFF_2
 10
14.5855
 20
1.9312
 30
17.712
 70
192
 0
VERTEX
 8
GRIFF_2
 10
14.5853
 20
1.9324
 30
17.712
 70
192
 0
VERTEX
 8
GRIFF_2
 10
14.5849
 20
1.9335
 30
17.712
 70
192
 0
VERTEX
 8
GRIFF_2
 10
14.5844
 20
1.9346
 30
17.712
 70
192
 0
VERTEX
 8
GRIFF_2
 10
14.5837
 20
1.9356
 30
17.712
 70
192
 0
VERTEX
 8
GRIFF_2
 10
14.5829
 20
1.9365
 30
17.712
 70
192
 0
VERTEX
 8
GRIFF_2
 10
14.582
 20
1.9372
 30
17.712
 70
192
 0
VERTEX
 8
GRIFF_2
 10
14.581
 20
1.9379
 30
17.712
 70
192
 0
VERTEX
 8
GRIFF_2
 10
14.58
 20
1.9384
 30
17.712
 70
192
 0
VERTEX
 8
GRIFF_2
 10
14.5788
 20
1.9388
 30
17.712
 70
192
 0
VERTEX
 8
GRIFF_2
 10
14.5777
 20
1.9391
 30
17.712
 70
192
 0
VERTEX
 8
GRIFF_2
 10
14.5765
 20
1.9391
 30
17.712
 70
192
 0
VERTEX
 8
GRIFF_2
 10
11.9165
 20
1.9391
 30
17.712
 70
192
 0
VERTEX
 8
GRIFF_2
 10
11.9153
 20
1.9391
 30
17.712
 70
192
 0
VERTEX
 8
GRIFF_2
 10
11.9141
 20
1.9388
 30
17.712
 70
192
 0
VERTEX
 8
GRIFF_2
 10
11.913
 20
1.9384
 30
17.712
 70
192
 0
VERTEX
 8
GRIFF_2
 10
11.9119
 20
1.9379
 30
17.712
 70
192
 0
VERTEX
 8
GRIFF_2
 10
11.9109
 20
1.9372
 30
17.712
 70
192
 0
VERTEX
 8
GRIFF_2
 10
11.91
 20
1.9365
 30
17.712
 70
192
 0
VERTEX
 8
GRIFF_2
 10
11.9092
 20
1.9356
 30
17.712
 70
192
 0
VERTEX
 8
GRIFF_2
 10
11.9086
 20
1.9346
 30
17.712
 70
192
 0
VERTEX
 8
GRIFF_2
 10
11.908
 20
1.9335
 30
17.712
 70
192
 0
VERTEX
 8
GRIFF_2
 10
11.9076
 20
1.9324
 30
17.712
 70
192
 0
VERTEX
 8
GRIFF_2
 10
11.9074
 20
1.9312
 30
17.712
 70
192
 0
VERTEX
 8
GRIFF_2
 10
11.9165
 20
1.93
 30
17.7126
 70
192
 0
VERTEX
 8
GRIFF_2
 10
11.9165
 20
-1.93
 30
17.7126
 70
192
 0
VERTEX
 8
GRIFF_2
 10
14.5765
 20
-1.93
 30
17.7126
 70
192
 0
VERTEX
 8
GRIFF_2
 10
14.5765
 20
1.93
 30
17.7126
 70
192
 0
VERTEX
 8
GRIFF_2
 10
0
 20
0
 30
0
 70
128
 71
577
 72
629
 73
630
 74
578
 0
VERTEX
 8
GRIFF_2
 10
0
 20
0
 30
0
 70
128
 71
629
 72
681
 73
682
 74
630
 0
VERTEX
 8
GRIFF_2
 10
0
 20
0
 30
0
 70
128
 71
590
 72
642
 73
643
 74
591
 0
VERTEX
 8
GRIFF_2
 10
0
 20
0
 30
0
 70
128
 71
642
 72
694
 73
695
 74
643
 0
VERTEX
 8
GRIFF_2
 10
0
 20
0
 30
0
 70
128
 71
603
 72
655
 73
656
 74
604
 0
VERTEX
 8
GRIFF_2
 10
0
 20
0
 30
0
 70
128
 71
655
 72
707
 73
708
 74
656
 0
VERTEX
 8
GRIFF_2
 10
0
 20
0
 30
0
 70
128
 71
616
 72
668
 73
669
 74
617
 0
VERTEX
 8
GRIFF_2
 10
0
 20
0
 30
0
 70
128
 71
668
 72
720
 73
721
 74
669
 0
VERTEX
 8
GRIFF_2
 10
0
 20
0
 30
0
 70
128
 71
1305
 72
1308
 73
1307
 74
1306
 0
VERTEX
 8
GRIFF_2
 10
0
 20
0
 30
0
 70
128
 71
1
 72
2
 73
3
 74
4
 0
VERTEX
 8
GRIFF_2
 10
0
 20
0
 30
0
 70
128
 71
1306
 72
1307
 73
695
 74
694
 0
VERTEX
 8
GRIFF_2
 10
0
 20
0
 30
0
 70
128
 71
656
 72
708
 73
720
 74
668
 0
VERTEX
 8
GRIFF_2
 10
0
 20
0
 30
0
 70
128
 71
604
 72
656
 73
668
 74
616
 0
VERTEX
 8
GRIFF_2
 10
0
 20
0
 30
0
 70
128
 71
707
 72
655
 73
643
 74
695
 0
VERTEX
 8
GRIFF_2
 10
0
 20
0
 30
0
 70
128
 71
655
 72
603
 73
591
 74
643
 0
VERTEX
 8
GRIFF_2
 10
0
 20
0
 30
0
 70
128
 71
590
 72
591
 73
3
 74
2
 0
VERTEX
 8
GRIFF_2
 10
0
 20
0
 30
0
 70
128
 71
617
 72
669
 73
629
 74
577
 0
VERTEX
 8
GRIFF_2
 10
0
 20
0
 30
0
 70
128
 71
577
 72
578
 73
2
 74
1
 0
VERTEX
 8
GRIFF_2
 10
0
 20
0
 30
0
 70
128
 71
669
 72
721
 73
681
 74
629
 0
VERTEX
 8
GRIFF_2
 10
0
 20
0
 30
0
 70
128
 71
630
 72
682
 73
694
 74
642
 0
VERTEX
 8
GRIFF_2
 10
0
 20
0
 30
0
 70
128
 71
578
 72
630
 73
642
 74
590
 0
VERTEX
 8
GRIFF_2
 10
0
 20
0
 30
0
 70
128
 71
590
 72
2
 73
578
 74
578
 0
VERTEX
 8
GRIFF_2
 10
0
 20
0
 30
0
 70
128
 71
617
 72
577
 73
1
 74
1
 0
VERTEX
 8
GRIFF_2
 10
0
 20
0
 30
0
 70
128
 71
591
 72
603
 73
3
 74
3
 0
VERTEX
 8
GRIFF_2
 10
0
 20
0
 30
0
 70
128
 71
616
 72
617
 73
1
 74
4
 0
VERTEX
 8
GRIFF_2
 10
0
 20
0
 30
0
 70
128
 71
604
 72
616
 73
4
 74
4
 0
VERTEX
 8
GRIFF_2
 10
0
 20
0
 30
0
 70
128
 71
604
 72
4
 73
3
 74
603
 0
VERTEX
 8
GRIFF_2
 10
0
 20
0
 30
0
 70
128
 71
708
 72
707
 73
1307
 74
1308
 0
VERTEX
 8
GRIFF_2
 10
0
 20
0
 30
0
 70
128
 71
720
 72
708
 73
1308
 74
1308
 0
VERTEX
 8
GRIFF_2
 10
0
 20
0
 30
0
 70
128
 71
707
 72
695
 73
1307
 74
1307
 0
VERTEX
 8
GRIFF_2
 10
0
 20
0
 30
0
 70
128
 71
1306
 72
694
 73
682
 74
682
 0
VERTEX
 8
GRIFF_2
 10
0
 20
0
 30
0
 70
128
 71
1305
 72
1306
 73
682
 74
681
 0
VERTEX
 8
GRIFF_2
 10
0
 20
0
 30
0
 70
128
 71
1305
 72
681
 73
721
 74
721
 0
VERTEX
 8
GRIFF_2
 10
0
 20
0
 30
0
 70
128
 71
720
 72
1308
 73
1305
 74
721
 0
SEQEND
 0
POLYLINE
 8
ROSETTE_1
 66
1
 10
0.0
 20
0.0
 30
0.0
 70
64
 71
8
 72
6
 0
VERTEX
 8
ROSETTE_1
 10
4.7542
 20
8.4611
 30
12.9626
 70
192
 0
VERTEX
 8
ROSETTE_1
 10
4.7542
 20
8.4611
 30
18.4626
 70
192
 0
VERTEX
 8
ROSETTE_1
 10
4.7542
 20
5.4611
 30
12.9626
 70
192
 0
VERTEX
 8
ROSETTE_1
 10
4.7542
 20
5.4611
 30
18.4626
 70
192
 0
VERTEX
 8
ROSETTE_1
 10
10.2542
 20
5.4611
 30
12.9626
 70
192
 0
VERTEX
 8
ROSETTE_1
 10
10.2542
 20
5.4611
 30
18.4626
 70
192
 0
VERTEX
 8
ROSETTE_1
 10
10.2542
 20
8.4611
 30
12.9626
 70
192
 0
VERTEX
 8
ROSETTE_1
 10
10.2542
 20
8.4611
 30
18.4626
 70
192
 0
VERTEX
 8
ROSETTE_1
 10
0
 20
0
 30
0
 70
128
 71
1
 72
2
 73
4
 74
3
 0
VERTEX
 8
ROSETTE_1
 10
0
 20
0
 30
0
 70
128
 71
3
 72
4
 73
6
 74
5
 0
VERTEX
 8
ROSETTE_1
 10
0
 20
0
 30
0
 70
128
 71
5
 72
6
 73
8
 74
7
 0
VERTEX
 8
ROSETTE_1
 10
0
 20
0
 30
0
 70
128
 71
7
 72
8
 73
2
 74
1
 0
VERTEX
 8
ROSETTE_1
 10
0
 20
0
 30
0
 70
128
 71
2
 72
8
 73
6
 74
4
 0
VERTEX
 8
ROSETTE_1
 10
0
 20
0
 30
0
 70
128
 71
7
 72
1
 73
3
 74
5
 0
SEQEND
 0
POLYLINE
 8
CYLIND44
 66
1
 10
0.0
 20
0.0
 30
0.0
 70
64
 71
24
 72
12
 0
VERTEX
 8
CYLIND44
 10
7.5046
 20
5.7745
 30
14.4274
 70
192
 0
VERTEX
 8
CYLIND44
 10
7.5046
 20
1.7745
 30
14.4274
 70
192
 0
VERTEX
 8
CYLIND44
 10
8.1546
 20
5.7745
 30
14.6015
 70
192
 0
VERTEX
 8
CYLIND44
 10
8.1546
 20
1.7745
 30
14.6015
 70
192
 0
VERTEX
 8
CYLIND44
 10
8.6304
 20
5.7745
 30
15.0774
 70
192
 0
VERTEX
 8
CYLIND44
 10
8.6304
 20
1.7745
 30
15.0774
 70
192
 0
VERTEX
 8
CYLIND44
 10
8.8046
 20
5.7745
 30
15.7274
 70
192
 0
VERTEX
 8
CYLIND44
 10
8.8046
 20
1.7745
 30
15.7274
 70
192
 0
VERTEX
 8
CYLIND44
 10
8.6304
 20
5.7745
 30
16.3774
 70
192
 0
VERTEX
 8
CYLIND44
 10
8.6304
 20
1.7745
 30
16.3774
 70
192
 0
VERTEX
 8
CYLIND44
 10
8.1546
 20
5.7745
 30
16.8532
 70
192
 0
VERTEX
 8
CYLIND44
 10
8.1546
 20
1.7745
 30
16.8532
 70
192
 0
VERTEX
 8
CYLIND44
 10
7.5046
 20
5.7745
 30
17.0274
 70
192
 0
VERTEX
 8
CYLIND44
 10
7.5046
 20
1.7745
 30
17.0274
 70
192
 0
VERTEX
 8
CYLIND44
 10
6.8546
 20
5.7745
 30
16.8532
 70
192
 0
VERTEX
 8
CYLIND44
 10
6.8546
 20
1.7745
 30
16.8532
 70
192
 0
VERTEX
 8
CYLIND44
 10
6.3788
 20
5.7745
 30
16.3774
 70
192
 0
VERTEX
 8
CYLIND44
 10
6.3788
 20
1.7745
 30
16.3774
 70
192
 0
VERTEX
 8
CYLIND44
 10
6.2046
 20
5.7745
 30
15.7274
 70
192
 0
VERTEX
 8
CYLIND44
 10
6.2046
 20
1.7745
 30
15.7274
 70
192
 0
VERTEX
 8
CYLIND44
 10
6.3788
 20
5.7745
 30
15.0774
 70
192
 0
VERTEX
 8
CYLIND44
 10
6.3788
 20
1.7745
 30
15.0774
 70
192
 0
VERTEX
 8
CYLIND44
 10
6.8546
 20
5.7745
 30
14.6015
 70
192
 0
VERTEX
 8
CYLIND44
 10
6.8546
 20
1.7745
 30
14.6015
 70
192
 0
VERTEX
 8
CYLIND44
 10
0
 20
0
 30
0
 70
128
 71
1
 72
2
 73
4
 74
3
 0
VERTEX
 8
CYLIND44
 10
0
 20
0
 30
0
 70
128
 71
3
 72
4
 73
6
 74
5
 0
VERTEX
 8
CYLIND44
 10
0
 20
0
 30
0
 70
128
 71
5
 72
6
 73
8
 74
7
 0
VERTEX
 8
CYLIND44
 10
0
 20
0
 30
0
 70
128
 71
7
 72
8
 73
10
 74
9
 0
VERTEX
 8
CYLIND44
 10
0
 20
0
 30
0
 70
128
 71
9
 72
10
 73
12
 74
11
 0
VERTEX
 8
CYLIND44
 10
0
 20
0
 30
0
 70
128
 71
11
 72
12
 73
14
 74
13
 0
VERTEX
 8
CYLIND44
 10
0
 20
0
 30
0
 70
128
 71
13
 72
14
 73
16
 74
15
 0
VERTEX
 8
CYLIND44
 10
0
 20
0
 30
0
 70
128
 71
15
 72
16
 73
18
 74
17
 0
VERTEX
 8
CYLIND44
 10
0
 20
0
 30
0
 70
128
 71
17
 72
18
 73
20
 74
19
 0
VERTEX
 8
CYLIND44
 10
0
 20
0
 30
0
 70
128
 71
19
 72
20
 73
22
 74
21
 0
VERTEX
 8
CYLIND44
 10
0
 20
0
 30
0
 70
128
 71
21
 72
22
 73
24
 74
23
 0
VERTEX
 8
CYLIND44
 10
0
 20
0
 30
0
 70
128
 71
23
 72
24
 73
2
 74
1
 0
SEQEND
 0
POLYLINE
 8
CYLINDER_1
 66
1
 10
0.0
 20
0.0
 30
0.0
 70
64
 71
41
 72
40
 0
VERTEX
 8
CYLINDER_1
 10
7.5046
 20
4.9988
 30
15.7274
 70
192
 0
VERTEX
 8
CYLINDER_1
 10
7.5046
 20
4.9988
 30
13.9774
 70
192
 0
VERTEX
 8
CYLINDER_1
 10
8.0454
 20
4.9988
 30
14.063
 70
192
 0
VERTEX
 8
CYLINDER_1
 10
8.5332
 20
4.9988
 30
14.3116
 70
192
 0
VERTEX
 8
CYLINDER_1
 10
8.9204
 20
4.9988
 30
14.6987
 70
192
 0
VERTEX
 8
CYLINDER_1
 10
9.169
 20
4.9988
 30
15.1866
 70
192
 0
VERTEX
 8
CYLINDER_1
 10
9.2546
 20
4.9988
 30
15.7274
 70
192
 0
VERTEX
 8
CYLINDER_1
 10
9.169
 20
4.9988
 30
16.2681
 70
192
 0
VERTEX
 8
CYLINDER_1
 10
8.9204
 20
4.9988
 30
16.756
 70
192
 0
VERTEX
 8
CYLINDER_1
 10
8.5332
 20
4.9988
 30
17.1431
 70
192
 0
VERTEX
 8
CYLINDER_1
 10
8.0454
 20
4.9988
 30
17.3917
 70
192
 0
VERTEX
 8
CYLINDER_1
 10
7.5046
 20
4.9988
 30
17.4774
 70
192
 0
VERTEX
 8
CYLINDER_1
 10
6.9638
 20
4.9988
 30
17.3917
 70
192
 0
VERTEX
 8
CYLINDER_1
 10
6.476
 20
4.9988
 30
17.1431
 70
192
 0
VERTEX
 8
CYLINDER_1
 10
6.0888
 20
4.9988
 30
16.756
 70
192
 0
VERTEX
 8
CYLINDER_1
 10
5.8403
 20
4.9988
 30
16.2681
 70
192
 0
VERTEX
 8
CYLINDER_1
 10
5.7546
 20
4.9988
 30
15.7274
 70
192
 0
VERTEX
 8
CYLINDER_1
 10
5.8403
 20
4.9988
 30
15.1866
 70
192
 0
VERTEX
 8
CYLINDER_1
 10
6.0888
 20
4.9988
 30
14.6987
 70
192
 0
VERTEX
 8
CYLINDER_1
 10
6.476
 20
4.9988
 30
14.3116
 70
192
 0
VERTEX
 8
CYLINDER_1
 10
6.9638
 20
4.9988
 30
14.063
 70
192
 0
VERTEX
 8
CYLINDER_1
 10
7.5046
 20
5.4611
 30
13.9774
 70
192
 0
VERTEX
 8
CYLINDER_1
 10
8.0454
 20
5.4611
 30
14.063
 70
192
 0
VERTEX
 8
CYLINDER_1
 10
8.5332
 20
5.4611
 30
14.3116
 70
192
 0
VERTEX
 8
CYLINDER_1
 10
8.9204
 20
5.4611
 30
14.6987
 70
192
 0
VERTEX
 8
CYLINDER_1
 10
9.169
 20
5.4611
 30
15.1866
 70
192
 0
VERTEX
 8
CYLINDER_1
 10
9.2546
 20
5.4611
 30
15.7274
 70
192
 0
VERTEX
 8
CYLINDER_1
 10
9.169
 20
5.4611
 30
16.2681
 70
192
 0
VERTEX
 8
CYLINDER_1
 10
8.9204
 20
5.4611
 30
16.756
 70
192
 0
VERTEX
 8
CYLINDER_1
 10
8.5332
 20
5.4611
 30
17.1431
 70
192
 0
VERTEX
 8
CYLINDER_1
 10
8.0454
 20
5.4611
 30
17.3917
 70
192
 0
VERTEX
 8
CYLINDER_1
 10
7.5046
 20
5.4611
 30
17.4774
 70
192
 0
VERTEX
 8
CYLINDER_1
 10
6.9638
 20
5.4611
 30
17.3917
 70
192
 0
VERTEX
 8
CYLINDER_1
 10
6.476
 20
5.4611
 30
17.1431
 70
192
 0
VERTEX
 8
CYLINDER_1
 10
6.0888
 20
5.4611
 30
16.756
 70
192
 0
VERTEX
 8
CYLINDER_1
 10
5.8403
 20
5.4611
 30
16.2681
 70
192
 0
VERTEX
 8
CYLINDER_1
 10
5.7546
 20
5.4611
 30
15.7274
 70
192
 0
VERTEX
 8
CYLINDER_1
 10
5.8403
 20
5.4611
 30
15.1866
 70
192
 0
VERTEX
 8
CYLINDER_1
 10
6.0888
 20
5.4611
 30
14.6987
 70
192
 0
VERTEX
 8
CYLINDER_1
 10
6.476
 20
5.4611
 30
14.3116
 70
192
 0
VERTEX
 8
CYLINDER_1
 10
6.9638
 20
5.4611
 30
14.063
 70
192
 0
VERTEX
 8
CYLINDER_1
 10
0
 20
0
 30
0
 70
128
 71
22
 72
2
 73
3
 74
23
 0
VERTEX
 8
CYLINDER_1
 10
0
 20
0
 30
0
 70
128
 71
2
 72
1
 73
3
 74
3
 0
VERTEX
 8
CYLINDER_1
 10
0
 20
0
 30
0
 70
128
 71
23
 72
3
 73
4
 74
24
 0
VERTEX
 8
CYLINDER_1
 10
0
 20
0
 30
0
 70
128
 71
3
 72
1
 73
4
 74
4
 0
VERTEX
 8
CYLINDER_1
 10
0
 20
0
 30
0
 70
128
 71
24
 72
4
 73
5
 74
25
 0
VERTEX
 8
CYLINDER_1
 10
0
 20
0
 30
0
 70
128
 71
4
 72
1
 73
5
 74
5
 0
VERTEX
 8
CYLINDER_1
 10
0
 20
0
 30
0
 70
128
 71
25
 72
5
 73
6
 74
26
 0
VERTEX
 8
CYLINDER_1
 10
0
 20
0
 30
0
 70
128
 71
5
 72
1
 73
6
 74
6
 0
VERTEX
 8
CYLINDER_1
 10
0
 20
0
 30
0
 70
128
 71
26
 72
6
 73
7
 74
27
 0
VERTEX
 8
CYLINDER_1
 10
0
 20
0
 30
0
 70
128
 71
6
 72
1
 73
7
 74
7
 0
VERTEX
 8
CYLINDER_1
 10
0
 20
0
 30
0
 70
128
 71
27
 72
7
 73
8
 74
28
 0
VERTEX
 8
CYLINDER_1
 10
0
 20
0
 30
0
 70
128
 71
7
 72
1
 73
8
 74
8
 0
VERTEX
 8
CYLINDER_1
 10
0
 20
0
 30
0
 70
128
 71
28
 72
8
 73
9
 74
29
 0
VERTEX
 8
CYLINDER_1
 10
0
 20
0
 30
0
 70
128
 71
8
 72
1
 73
9
 74
9
 0
VERTEX
 8
CYLINDER_1
 10
0
 20
0
 30
0
 70
128
 71
29
 72
9
 73
10
 74
30
 0
VERTEX
 8
CYLINDER_1
 10
0
 20
0
 30
0
 70
128
 71
9
 72
1
 73
10
 74
10
 0
VERTEX
 8
CYLINDER_1
 10
0
 20
0
 30
0
 70
128
 71
30
 72
10
 73
11
 74
31
 0
VERTEX
 8
CYLINDER_1
 10
0
 20
0
 30
0
 70
128
 71
10
 72
1
 73
11
 74
11
 0
VERTEX
 8
CYLINDER_1
 10
0
 20
0
 30
0
 70
128
 71
31
 72
11
 73
12
 74
32
 0
VERTEX
 8
CYLINDER_1
 10
0
 20
0
 30
0
 70
128
 71
11
 72
1
 73
12
 74
12
 0
VERTEX
 8
CYLINDER_1
 10
0
 20
0
 30
0
 70
128
 71
32
 72
12
 73
13
 74
33
 0
VERTEX
 8
CYLINDER_1
 10
0
 20
0
 30
0
 70
128
 71
12
 72
1
 73
13
 74
13
 0
VERTEX
 8
CYLINDER_1
 10
0
 20
0
 30
0
 70
128
 71
33
 72
13
 73
14
 74
34
 0
VERTEX
 8
CYLINDER_1
 10
0
 20
0
 30
0
 70
128
 71
13
 72
1
 73
14
 74
14
 0
VERTEX
 8
CYLINDER_1
 10
0
 20
0
 30
0
 70
128
 71
34
 72
14
 73
15
 74
35
 0
VERTEX
 8
CYLINDER_1
 10
0
 20
0
 30
0
 70
128
 71
14
 72
1
 73
15
 74
15
 0
VERTEX
 8
CYLINDER_1
 10
0
 20
0
 30
0
 70
128
 71
35
 72
15
 73
16
 74
36
 0
VERTEX
 8
CYLINDER_1
 10
0
 20
0
 30
0
 70
128
 71
15
 72
1
 73
16
 74
16
 0
VERTEX
 8
CYLINDER_1
 10
0
 20
0
 30
0
 70
128
 71
36
 72
16
 73
17
 74
37
 0
VERTEX
 8
CYLINDER_1
 10
0
 20
0
 30
0
 70
128
 71
16
 72
1
 73
17
 74
17
 0
VERTEX
 8
CYLINDER_1
 10
0
 20
0
 30
0
 70
128
 71
37
 72
17
 73
18
 74
38
 0
VERTEX
 8
CYLINDER_1
 10
0
 20
0
 30
0
 70
128
 71
17
 72
1
 73
18
 74
18
 0
VERTEX
 8
CYLINDER_1
 10
0
 20
0
 30
0
 70
128
 71
38
 72
18
 73
19
 74
39
 0
VERTEX
 8
CYLINDER_1
 10
0
 20
0
 30
0
 70
128
 71
18
 72
1
 73
19
 74
19
 0
VERTEX
 8
CYLINDER_1
 10
0
 20
0
 30
0
 70
128
 71
39
 72
19
 73
20
 74
40
 0
VERTEX
 8
CYLINDER_1
 10
0
 20
0
 30
0
 70
128
 71
19
 72
1
 73
20
 74
20
 0
VERTEX
 8
CYLINDER_1
 10
0
 20
0
 30
0
 70
128
 71
40
 72
20
 73
21
 74
41
 0
VERTEX
 8
CYLINDER_1
 10
0
 20
0
 30
0
 70
128
 71
20
 72
1
 73
21
 74
21
 0
VERTEX
 8
CYLINDER_1
 10
0
 20
0
 30
0
 70
128
 71
41
 72
21
 73
2
 74
22
 0
VERTEX
 8
CYLINDER_1
 10
0
 20
0
 30
0
 70
128
 71
21
 72
1
 73
2
 74
2
 0
SEQEND
 0
POLYLINE
 8
CYLINDE5
 66
1
 10
0.0
 20
0.0
 30
0.0
 70
64
 71
41
 72
40
 0
VERTEX
 8
CYLINDE5
 10
-7.4434
 20
4.9988
 30
15.7274
 70
192
 0
VERTEX
 8
CYLINDE5
 10
-7.4434
 20
4.9988
 30
13.9774
 70
192
 0
VERTEX
 8
CYLINDE5
 10
-6.9026
 20
4.9988
 30
14.063
 70
192
 0
VERTEX
 8
CYLINDE5
 10
-6.4148
 20
4.9988
 30
14.3116
 70
192
 0
VERTEX
 8
CYLINDE5
 10
-6.0276
 20
4.9988
 30
14.6987
 70
192
 0
VERTEX
 8
CYLINDE5
 10
-5.779
 20
4.9988
 30
15.1866
 70
192
 0
VERTEX
 8
CYLINDE5
 10
-5.6934
 20
4.9988
 30
15.7274
 70
192
 0
VERTEX
 8
CYLINDE5
 10
-5.779
 20
4.9988
 30
16.2681
 70
192
 0
VERTEX
 8
CYLINDE5
 10
-6.0276
 20
4.9988
 30
16.756
 70
192
 0
VERTEX
 8
CYLINDE5
 10
-6.4148
 20
4.9988
 30
17.1431
 70
192
 0
VERTEX
 8
CYLINDE5
 10
-6.9026
 20
4.9988
 30
17.3917
 70
192
 0
VERTEX
 8
CYLINDE5
 10
-7.4434
 20
4.9988
 30
17.4774
 70
192
 0
VERTEX
 8
CYLINDE5
 10
-7.9842
 20
4.9988
 30
17.3917
 70
192
 0
VERTEX
 8
CYLINDE5
 10
-8.472
 20
4.9988
 30
17.1431
 70
192
 0
VERTEX
 8
CYLINDE5
 10
-8.8592
 20
4.9988
 30
16.756
 70
192
 0
VERTEX
 8
CYLINDE5
 10
-9.1077
 20
4.9988
 30
16.2681
 70
192
 0
VERTEX
 8
CYLINDE5
 10
-9.1934
 20
4.9988
 30
15.7274
 70
192
 0
VERTEX
 8
CYLINDE5
 10
-9.1077
 20
4.9988
 30
15.1866
 70
192
 0
VERTEX
 8
CYLINDE5
 10
-8.8592
 20
4.9988
 30
14.6987
 70
192
 0
VERTEX
 8
CYLINDE5
 10
-8.472
 20
4.9988
 30
14.3116
 70
192
 0
VERTEX
 8
CYLINDE5
 10
-7.9842
 20
4.9988
 30
14.063
 70
192
 0
VERTEX
 8
CYLINDE5
 10
-7.4434
 20
5.4611
 30
13.9774
 70
192
 0
VERTEX
 8
CYLINDE5
 10
-6.9026
 20
5.4611
 30
14.063
 70
192
 0
VERTEX
 8
CYLINDE5
 10
-6.4148
 20
5.4611
 30
14.3116
 70
192
 0
VERTEX
 8
CYLINDE5
 10
-6.0276
 20
5.4611
 30
14.6987
 70
192
 0
VERTEX
 8
CYLINDE5
 10
-5.779
 20
5.4611
 30
15.1866
 70
192
 0
VERTEX
 8
CYLINDE5
 10
-5.6934
 20
5.4611
 30
15.7274
 70
192
 0
VERTEX
 8
CYLINDE5
 10
-5.779
 20
5.4611
 30
16.2681
 70
192
 0
VERTEX
 8
CYLINDE5
 10
-6.0276
 20
5.4611
 30
16.756
 70
192
 0
VERTEX
 8
CYLINDE5
 10
-6.4148
 20
5.4611
 30
17.1431
 70
192
 0
VERTEX
 8
CYLINDE5
 10
-6.9026
 20
5.4611
 30
17.3917
 70
192
 0
VERTEX
 8
CYLINDE5
 10
-7.4434
 20
5.4611
 30
17.4774
 70
192
 0
VERTEX
 8
CYLINDE5
 10
-7.9842
 20
5.4611
 30
17.3917
 70
192
 0
VERTEX
 8
CYLINDE5
 10
-8.472
 20
5.4611
 30
17.1431
 70
192
 0
VERTEX
 8
CYLINDE5
 10
-8.8592
 20
5.4611
 30
16.756
 70
192
 0
VERTEX
 8
CYLINDE5
 10
-9.1077
 20
5.4611
 30
16.2681
 70
192
 0
VERTEX
 8
CYLINDE5
 10
-9.1934
 20
5.4611
 30
15.7274
 70
192
 0
VERTEX
 8
CYLINDE5
 10
-9.1077
 20
5.4611
 30
15.1866
 70
192
 0
VERTEX
 8
CYLINDE5
 10
-8.8592
 20
5.4611
 30
14.6987
 70
192
 0
VERTEX
 8
CYLINDE5
 10
-8.472
 20
5.4611
 30
14.3116
 70
192
 0
VERTEX
 8
CYLINDE5
 10
-7.9842
 20
5.4611
 30
14.063
 70
192
 0
VERTEX
 8
CYLINDE5
 10
0
 20
0
 30
0
 70
128
 71
22
 72
2
 73
3
 74
23
 0
VERTEX
 8
CYLINDE5
 10
0
 20
0
 30
0
 70
128
 71
2
 72
1
 73
3
 74
3
 0
VERTEX
 8
CYLINDE5
 10
0
 20
0
 30
0
 70
128
 71
23
 72
3
 73
4
 74
24
 0
VERTEX
 8
CYLINDE5
 10
0
 20
0
 30
0
 70
128
 71
3
 72
1
 73
4
 74
4
 0
VERTEX
 8
CYLINDE5
 10
0
 20
0
 30
0
 70
128
 71
24
 72
4
 73
5
 74
25
 0
VERTEX
 8
CYLINDE5
 10
0
 20
0
 30
0
 70
128
 71
4
 72
1
 73
5
 74
5
 0
VERTEX
 8
CYLINDE5
 10
0
 20
0
 30
0
 70
128
 71
25
 72
5
 73
6
 74
26
 0
VERTEX
 8
CYLINDE5
 10
0
 20
0
 30
0
 70
128
 71
5
 72
1
 73
6
 74
6
 0
VERTEX
 8
CYLINDE5
 10
0
 20
0
 30
0
 70
128
 71
26
 72
6
 73
7
 74
27
 0
VERTEX
 8
CYLINDE5
 10
0
 20
0
 30
0
 70
128
 71
6
 72
1
 73
7
 74
7
 0
VERTEX
 8
CYLINDE5
 10
0
 20
0
 30
0
 70
128
 71
27
 72
7
 73
8
 74
28
 0
VERTEX
 8
CYLINDE5
 10
0
 20
0
 30
0
 70
128
 71
7
 72
1
 73
8
 74
8
 0
VERTEX
 8
CYLINDE5
 10
0
 20
0
 30
0
 70
128
 71
28
 72
8
 73
9
 74
29
 0
VERTEX
 8
CYLINDE5
 10
0
 20
0
 30
0
 70
128
 71
8
 72
1
 73
9
 74
9
 0
VERTEX
 8
CYLINDE5
 10
0
 20
0
 30
0
 70
128
 71
29
 72
9
 73
10
 74
30
 0
VERTEX
 8
CYLINDE5
 10
0
 20
0
 30
0
 70
128
 71
9
 72
1
 73
10
 74
10
 0
VERTEX
 8
CYLINDE5
 10
0
 20
0
 30
0
 70
128
 71
30
 72
10
 73
11
 74
31
 0
VERTEX
 8
CYLINDE5
 10
0
 20
0
 30
0
 70
128
 71
10
 72
1
 73
11
 74
11
 0
VERTEX
 8
CYLINDE5
 10
0
 20
0
 30
0
 70
128
 71
31
 72
11
 73
12
 74
32
 0
VERTEX
 8
CYLINDE5
 10
0
 20
0
 30
0
 70
128
 71
11
 72
1
 73
12
 74
12
 0
VERTEX
 8
CYLINDE5
 10
0
 20
0
 30
0
 70
128
 71
32
 72
12
 73
13
 74
33
 0
VERTEX
 8
CYLINDE5
 10
0
 20
0
 30
0
 70
128
 71
12
 72
1
 73
13
 74
13
 0
VERTEX
 8
CYLINDE5
 10
0
 20
0
 30
0
 70
128
 71
33
 72
13
 73
14
 74
34
 0
VERTEX
 8
CYLINDE5
 10
0
 20
0
 30
0
 70
128
 71
13
 72
1
 73
14
 74
14
 0
VERTEX
 8
CYLINDE5
 10
0
 20
0
 30
0
 70
128
 71
34
 72
14
 73
15
 74
35
 0
VERTEX
 8
CYLINDE5
 10
0
 20
0
 30
0
 70
128
 71
14
 72
1
 73
15
 74
15
 0
VERTEX
 8
CYLINDE5
 10
0
 20
0
 30
0
 70
128
 71
35
 72
15
 73
16
 74
36
 0
VERTEX
 8
CYLINDE5
 10
0
 20
0
 30
0
 70
128
 71
15
 72
1
 73
16
 74
16
 0
VERTEX
 8
CYLINDE5
 10
0
 20
0
 30
0
 70
128
 71
36
 72
16
 73
17
 74
37
 0
VERTEX
 8
CYLINDE5
 10
0
 20
0
 30
0
 70
128
 71
16
 72
1
 73
17
 74
17
 0
VERTEX
 8
CYLINDE5
 10
0
 20
0
 30
0
 70
128
 71
37
 72
17
 73
18
 74
38
 0
VERTEX
 8
CYLINDE5
 10
0
 20
0
 30
0
 70
128
 71
17
 72
1
 73
18
 74
18
 0
VERTEX
 8
CYLINDE5
 10
0
 20
0
 30
0
 70
128
 71
38
 72
18
 73
19
 74
39
 0
VERTEX
 8
CYLINDE5
 10
0
 20
0
 30
0
 70
128
 71
18
 72
1
 73
19
 74
19
 0
VERTEX
 8
CYLINDE5
 10
0
 20
0
 30
0
 70
128
 71
39
 72
19
 73
20
 74
40
 0
VERTEX
 8
CYLINDE5
 10
0
 20
0
 30
0
 70
128
 71
19
 72
1
 73
20
 74
20
 0
VERTEX
 8
CYLINDE5
 10
0
 20
0
 30
0
 70
128
 71
40
 72
20
 73
21
 74
41
 0
VERTEX
 8
CYLINDE5
 10
0
 20
0
 30
0
 70
128
 71
20
 72
1
 73
21
 74
21
 0
VERTEX
 8
CYLINDE5
 10
0
 20
0
 30
0
 70
128
 71
41
 72
21
 73
2
 74
22
 0
VERTEX
 8
CYLINDE5
 10
0
 20
0
 30
0
 70
128
 71
21
 72
1
 73
2
 74
2
 0
SEQEND
 0
POLYLINE
 8
ROSETTE_2
 66
1
 10
0.0
 20
0.0
 30
0.0
 70
64
 71
8
 72
6
 0
VERTEX
 8
ROSETTE_2
 10
-10.1938
 20
8.4611
 30
12.9626
 70
192
 0
VERTEX
 8
ROSETTE_2
 10
-10.1938
 20
8.4611
 30
18.4626
 70
192
 0
VERTEX
 8
ROSETTE_2
 10
-10.1938
 20
5.4611
 30
12.9626
 70
192
 0
VERTEX
 8
ROSETTE_2
 10
-10.1938
 20
5.4611
 30
18.4626
 70
192
 0
VERTEX
 8
ROSETTE_2
 10
-4.6938
 20
5.4611
 30
12.9626
 70
192
 0
VERTEX
 8
ROSETTE_2
 10
-4.6938
 20
5.4611
 30
18.4626
 70
192
 0
VERTEX
 8
ROSETTE_2
 10
-4.6938
 20
8.4611
 30
12.9626
 70
192
 0
VERTEX
 8
ROSETTE_2
 10
-4.6938
 20
8.4611
 30
18.4626
 70
192
 0
VERTEX
 8
ROSETTE_2
 10
0
 20
0
 30
0
 70
128
 71
1
 72
2
 73
4
 74
3
 0
VERTEX
 8
ROSETTE_2
 10
0
 20
0
 30
0
 70
128
 71
3
 72
4
 73
6
 74
5
 0
VERTEX
 8
ROSETTE_2
 10
0
 20
0
 30
0
 70
128
 71
5
 72
6
 73
8
 74
7
 0
VERTEX
 8
ROSETTE_2
 10
0
 20
0
 30
0
 70
128
 71
7
 72
8
 73
2
 74
1
 0
VERTEX
 8
ROSETTE_2
 10
0
 20
0
 30
0
 70
128
 71
2
 72
8
 73
6
 74
4
 0
VERTEX
 8
ROSETTE_2
 10
0
 20
0
 30
0
 70
128
 71
7
 72
1
 73
3
 74
5
 0
SEQEND
 0
POLYLINE
 8
CYLINDER_2
 66
1
 10
0.0
 20
0.0
 30
0.0
 70
64
 71
24
 72
12
 0
VERTEX
 8
CYLINDER_2
 10
-7.4434
 20
5.7745
 30
14.4274
 70
192
 0
VERTEX
 8
CYLINDER_2
 10
-7.4434
 20
1.7745
 30
14.4274
 70
192
 0
VERTEX
 8
CYLINDER_2
 10
-6.7934
 20
5.7745
 30
14.6015
 70
192
 0
VERTEX
 8
CYLINDER_2
 10
-6.7934
 20
1.7745
 30
14.6015
 70
192
 0
VERTEX
 8
CYLINDER_2
 10
-6.3176
 20
5.7745
 30
15.0774
 70
192
 0
VERTEX
 8
CYLINDER_2
 10
-6.3176
 20
1.7745
 30
15.0774
 70
192
 0
VERTEX
 8
CYLINDER_2
 10
-6.1434
 20
5.7745
 30
15.7274
 70
192
 0
VERTEX
 8
CYLINDER_2
 10
-6.1434
 20
1.7745
 30
15.7274
 70
192
 0
VERTEX
 8
CYLINDER_2
 10
-6.3176
 20
5.7745
 30
16.3774
 70
192
 0
VERTEX
 8
CYLINDER_2
 10
-6.3176
 20
1.7745
 30
16.3774
 70
192
 0
VERTEX
 8
CYLINDER_2
 10
-6.7934
 20
5.7745
 30
16.8532
 70
192
 0
VERTEX
 8
CYLINDER_2
 10
-6.7934
 20
1.7745
 30
16.8532
 70
192
 0
VERTEX
 8
CYLINDER_2
 10
-7.4434
 20
5.7745
 30
17.0274
 70
192
 0
VERTEX
 8
CYLINDER_2
 10
-7.4434
 20
1.7745
 30
17.0274
 70
192
 0
VERTEX
 8
CYLINDER_2
 10
-8.0934
 20
5.7745
 30
16.8532
 70
192
 0
VERTEX
 8
CYLINDER_2
 10
-8.0934
 20
1.7745
 30
16.8532
 70
192
 0
VERTEX
 8
CYLINDER_2
 10
-8.5692
 20
5.7745
 30
16.3774
 70
192
 0
VERTEX
 8
CYLINDER_2
 10
-8.5692
 20
1.7745
 30
16.3774
 70
192
 0
VERTEX
 8
CYLINDER_2
 10
-8.7434
 20
5.7745
 30
15.7274
 70
192
 0
VERTEX
 8
CYLINDER_2
 10
-8.7434
 20
1.7745
 30
15.7274
 70
192
 0
VERTEX
 8
CYLINDER_2
 10
-8.5692
 20
5.7745
 30
15.0774
 70
192
 0
VERTEX
 8
CYLINDER_2
 10
-8.5692
 20
1.7745
 30
15.0774
 70
192
 0
VERTEX
 8
CYLINDER_2
 10
-8.0934
 20
5.7745
 30
14.6015
 70
192
 0
VERTEX
 8
CYLINDER_2
 10
-8.0934
 20
1.7745
 30
14.6015
 70
192
 0
VERTEX
 8
CYLINDER_2
 10
0
 20
0
 30
0
 70
128
 71
1
 72
2
 73
4
 74
3
 0
VERTEX
 8
CYLINDER_2
 10
0
 20
0
 30
0
 70
128
 71
3
 72
4
 73
6
 74
5
 0
VERTEX
 8
CYLINDER_2
 10
0
 20
0
 30
0
 70
128
 71
5
 72
6
 73
8
 74
7
 0
VERTEX
 8
CYLINDER_2
 10
0
 20
0
 30
0
 70
128
 71
7
 72
8
 73
10
 74
9
 0
VERTEX
 8
CYLINDER_2
 10
0
 20
0
 30
0
 70
128
 71
9
 72
10
 73
12
 74
11
 0
VERTEX
 8
CYLINDER_2
 10
0
 20
0
 30
0
 70
128
 71
11
 72
12
 73
14
 74
13
 0
VERTEX
 8
CYLINDER_2
 10
0
 20
0
 30
0
 70
128
 71
13
 72
14
 73
16
 74
15
 0
VERTEX
 8
CYLINDER_2
 10
0
 20
0
 30
0
 70
128
 71
15
 72
16
 73
18
 74
17
 0
VERTEX
 8
CYLINDER_2
 10
0
 20
0
 30
0
 70
128
 71
17
 72
18
 73
20
 74
19
 0
VERTEX
 8
CYLINDER_2
 10
0
 20
0
 30
0
 70
128
 71
19
 72
20
 73
22
 74
21
 0
VERTEX
 8
CYLINDER_2
 10
0
 20
0
 30
0
 70
128
 71
21
 72
22
 73
24
 74
23
 0
VERTEX
 8
CYLINDER_2
 10
0
 20
0
 30
0
 70
128
 71
23
 72
24
 73
2
 74
1
 0
SEQEND
 0
POLYLINE
 8
K_RPER_1
 66
1
 10
0.0
 20
0.0
 30
0.0
 70
64
 71
24
 72
26
 0
VERTEX
 8
K_RPER_1
 10
-11.3823
 20
1.93
 30
13.7126
 70
192
 0
VERTEX
 8
K_RPER_1
 10
-11.3823
 20
-1.93
 30
13.7126
 70
192
 0
VERTEX
 8
K_RPER_1
 10
11.4777
 20
-1.93
 30
13.7126
 70
192
 0
VERTEX
 8
K_RPER_1
 10
11.4777
 20
1.93
 30
13.7126
 70
192
 0
VERTEX
 8
K_RPER_1
 10
-11.4523
 20
1.93
 30
13.7826
 70
192
 0
VERTEX
 8
K_RPER_1
 10
-11.4523
 20
-1.93
 30
13.7826
 70
192
 0
VERTEX
 8
K_RPER_1
 10
-11.3823
 20
-2
 30
13.7826
 70
192
 0
VERTEX
 8
K_RPER_1
 10
11.4777
 20
-2
 30
13.7826
 70
192
 0
VERTEX
 8
K_RPER_1
 10
11.5477
 20
-1.93
 30
13.7826
 70
192
 0
VERTEX
 8
K_RPER_1
 10
11.5477
 20
1.93
 30
13.7826
 70
192
 0
VERTEX
 8
K_RPER_1
 10
11.4777
 20
2
 30
13.7826
 70
192
 0
VERTEX
 8
K_RPER_1
 10
-11.3823
 20
2
 30
13.7826
 70
192
 0
VERTEX
 8
K_RPER_1
 10
-11.4523
 20
1.93
 30
17.6426
 70
192
 0
VERTEX
 8
K_RPER_1
 10
-11.4523
 20
-1.93
 30
17.6426
 70
192
 0
VERTEX
 8
K_RPER_1
 10
-11.3823
 20
-2
 30
17.6426
 70
192
 0
VERTEX
 8
K_RPER_1
 10
11.4777
 20
-2
 30
17.6426
 70
192
 0
VERTEX
 8
K_RPER_1
 10
11.5477
 20
-1.93
 30
17.6426
 70
192
 0
VERTEX
 8
K_RPER_1
 10
11.5477
 20
1.93
 30
17.6426
 70
192
 0
VERTEX
 8
K_RPER_1
 10
11.4777
 20
2
 30
17.6426
 70
192
 0
VERTEX
 8
K_RPER_1
 10
-11.3823
 20
2
 30
17.6426
 70
192
 0
VERTEX
 8
K_RPER_1
 10
-11.3823
 20
1.93
 30
17.7126
 70
192
 0
VERTEX
 8
K_RPER_1
 10
-11.3823
 20
-1.93
 30
17.7126
 70
192
 0
VERTEX
 8
K_RPER_1
 10
11.4777
 20
-1.93
 30
17.7126
 70
192
 0
VERTEX
 8
K_RPER_1
 10
11.4777
 20
1.93
 30
17.7126
 70
192
 0
VERTEX
 8
K_RPER_1
 10
0
 20
0
 30
0
 70
128
 71
1
 72
5
 73
6
 74
2
 0
VERTEX
 8
K_RPER_1
 10
0
 20
0
 30
0
 70
128
 71
5
 72
13
 73
14
 74
6
 0
VERTEX
 8
K_RPER_1
 10
0
 20
0
 30
0
 70
128
 71
13
 72
21
 73
22
 74
14
 0
VERTEX
 8
K_RPER_1
 10
0
 20
0
 30
0
 70
128
 71
2
 72
6
 73
7
 74
7
 0
VERTEX
 8
K_RPER_1
 10
0
 20
0
 30
0
 70
128
 71
6
 72
14
 73
15
 74
7
 0
VERTEX
 8
K_RPER_1
 10
0
 20
0
 30
0
 70
128
 71
14
 72
22
 73
15
 74
15
 0
VERTEX
 8
K_RPER_1
 10
0
 20
0
 30
0
 70
128
 71
2
 72
7
 73
8
 74
3
 0
VERTEX
 8
K_RPER_1
 10
0
 20
0
 30
0
 70
128
 71
7
 72
15
 73
16
 74
8
 0
VERTEX
 8
K_RPER_1
 10
0
 20
0
 30
0
 70
128
 71
15
 72
22
 73
23
 74
16
 0
VERTEX
 8
K_RPER_1
 10
0
 20
0
 30
0
 70
128
 71
3
 72
8
 73
9
 74
9
 0
VERTEX
 8
K_RPER_1
 10
0
 20
0
 30
0
 70
128
 71
8
 72
16
 73
17
 74
9
 0
VERTEX
 8
K_RPER_1
 10
0
 20
0
 30
0
 70
128
 71
16
 72
23
 73
17
 74
17
 0
VERTEX
 8
K_RPER_1
 10
0
 20
0
 30
0
 70
128
 71
3
 72
9
 73
10
 74
4
 0
VERTEX
 8
K_RPER_1
 10
0
 20
0
 30
0
 70
128
 71
9
 72
17
 73
18
 74
10
 0
VERTEX
 8
K_RPER_1
 10
0
 20
0
 30
0
 70
128
 71
17
 72
23
 73
24
 74
18
 0
VERTEX
 8
K_RPER_1
 10
0
 20
0
 30
0
 70
128
 71
4
 72
10
 73
11
 74
11
 0
VERTEX
 8
K_RPER_1
 10
0
 20
0
 30
0
 70
128
 71
10
 72
18
 73
19
 74
11
 0
VERTEX
 8
K_RPER_1
 10
0
 20
0
 30
0
 70
128
 71
18
 72
24
 73
19
 74
19
 0
VERTEX
 8
K_RPER_1
 10
0
 20
0
 30
0
 70
128
 71
4
 72
11
 73
12
 74
1
 0
VERTEX
 8
K_RPER_1
 10
0
 20
0
 30
0
 70
128
 71
11
 72
19
 73
20
 74
12
 0
VERTEX
 8
K_RPER_1
 10
0
 20
0
 30
0
 70
128
 71
19
 72
24
 73
21
 74
20
 0
VERTEX
 8
K_RPER_1
 10
0
 20
0
 30
0
 70
128
 71
1
 72
12
 73
5
 74
5
 0
VERTEX
 8
K_RPER_1
 10
0
 20
0
 30
0
 70
128
 71
12
 72
20
 73
13
 74
5
 0
VERTEX
 8
K_RPER_1
 10
0
 20
0
 30
0
 70
128
 71
20
 72
21
 73
13
 74
13
 0
VERTEX
 8
K_RPER_1
 10
0
 20
0
 30
0
 70
128
 71
21
 72
24
 73
23
 74
22
 0
VERTEX
 8
K_RPER_1
 10
0
 20
0
 30
0
 70
128
 71
1
 72
2
 73
3
 74
4
 0
SEQEND
 0
ENDSEC
 0
EOF
