 0
SECTION
 2
HEADER
 9
$ACADVER
 1
AC1009
 0
ENDSEC
 0
SECTION
 2
TABLES
 0
TABLE
 2
LTYPE
 70
1
 0
LTYPE
 2
CONTINUOUS
 70
64
 3
solid line
 72
65
 73
0
 40
0.0
 0
ENDTAB
 0
TABLE
 2
LAYER
 70
6
 0
LAYER
 2
0
 70
0
 62
7
 6
CONTINUOUS
 0
LAYER
 2
160_1300_M
 70
64
 62
7
 6
CONTINUOUS
 0
LAYER
 2
ROSETTE
 70
64
 62
250
 6
CONTINUOUS
 0
LAYER
 2
AUSLAUF_5
 70
64
 62
250
 6
CONTINUOUS
 0
LAYER
 2
AUSLAUF_4
 70
64
 62
250
 6
CONTINUOUS
 0
LAYER
 2
AUSLAUF_3
 70
64
 62
253
 6
CONTINUOUS
 0
LAYER
 2
AUSLAUF_2
 70
64
 62
250
 6
CONTINUOUS
 0
LAYER
 2
AUSLAUF_1
 70
64
 62
250
 6
CONTINUOUS
 0
LAYER
 2
GRIFFMINUS
 70
64
 62
250
 6
CONTINUOUS
 0
LAYER
 2
K_RPER
 70
64
 62
250
 6
CONTINUOUS
 0
LAYER
 2
EXENTER
 70
64
 62
250
 6
CONTINUOUS
 0
LAYER
 2
GRIFF_1
 70
64
 62
250
 6
CONTINUOUS
 0
LAYER
 2
KARTUSCHE
 70
64
 62
250
 6
CONTINUOUS
 0
LAYER
 2
HEBEL
 70
64
 62
250
 6
CONTINUOUS
 0
ENDTAB
 0
ENDSEC
 0
SECTION
 2
BLOCKS
 0
ENDSEC
 0
SECTION
 2
ENTITIES
 0
POLYLINE
 8
ROSETTE
 66
1
 10
0.0
 20
0.0
 30
0.0
 70
64
 71
8
 72
6
 0
VERTEX
 8
ROSETTE
 10
-2.488
 20
2.3512
 30
9.1068
 70
192
 0
VERTEX
 8
ROSETTE
 10
-2.488
 20
-2.6488
 30
9.1068
 70
192
 0
VERTEX
 8
ROSETTE
 10
2.512
 20
2.3512
 30
9.1068
 70
192
 0
VERTEX
 8
ROSETTE
 10
2.512
 20
-2.6488
 30
9.1068
 70
192
 0
VERTEX
 8
ROSETTE
 10
2.512
 20
2.3512
 30
9.6068
 70
192
 0
VERTEX
 8
ROSETTE
 10
2.512
 20
-2.6488
 30
9.6068
 70
192
 0
VERTEX
 8
ROSETTE
 10
-2.488
 20
2.3512
 30
9.6068
 70
192
 0
VERTEX
 8
ROSETTE
 10
-2.488
 20
-2.6488
 30
9.6068
 70
192
 0
VERTEX
 8
ROSETTE
 10
0
 20
0
 30
0
 70
128
 71
1
 72
2
 73
4
 74
3
 0
VERTEX
 8
ROSETTE
 10
0
 20
0
 30
0
 70
128
 71
3
 72
4
 73
6
 74
5
 0
VERTEX
 8
ROSETTE
 10
0
 20
0
 30
0
 70
128
 71
5
 72
6
 73
8
 74
7
 0
VERTEX
 8
ROSETTE
 10
0
 20
0
 30
0
 70
128
 71
7
 72
8
 73
2
 74
1
 0
VERTEX
 8
ROSETTE
 10
0
 20
0
 30
0
 70
128
 71
2
 72
8
 73
6
 74
4
 0
VERTEX
 8
ROSETTE
 10
0
 20
0
 30
0
 70
128
 71
7
 72
1
 73
3
 74
5
 0
SEQEND
 0
POLYLINE
 8
AUSLAUF_5
 66
1
 10
0.0
 20
0.0
 30
0.0
 70
64
 71
8
 72
3
 0
VERTEX
 8
AUSLAUF_5
 10
-1.1169
 20
-10.3706
 30
18.3713
 70
192
 0
VERTEX
 8
AUSLAUF_5
 10
-1.1169
 20
-10.3706
 30
16.8713
 70
192
 0
VERTEX
 8
AUSLAUF_5
 10
1.0831
 20
-10.3706
 30
18.3713
 70
192
 0
VERTEX
 8
AUSLAUF_5
 10
1.0831
 20
-10.3706
 30
16.8713
 70
192
 0
VERTEX
 8
AUSLAUF_5
 10
-1.1169
 20
-11.3237
 30
16.8713
 70
192
 0
VERTEX
 8
AUSLAUF_5
 10
-1.1169
 20
-11.3237
 30
18.3713
 70
192
 0
VERTEX
 8
AUSLAUF_5
 10
1.0831
 20
-11.3237
 30
18.3713
 70
192
 0
VERTEX
 8
AUSLAUF_5
 10
1.0831
 20
-11.3237
 30
16.8713
 70
192
 0
VERTEX
 8
AUSLAUF_5
 10
0
 20
0
 30
0
 70
128
 71
1
 72
2
 73
5
 74
6
 0
VERTEX
 8
AUSLAUF_5
 10
0
 20
0
 30
0
 70
128
 71
4
 72
3
 73
7
 74
8
 0
VERTEX
 8
AUSLAUF_5
 10
0
 20
0
 30
0
 70
128
 71
2
 72
1
 73
3
 74
4
 0
SEQEND
 0
POLYLINE
 8
AUSLAUF_4
 66
1
 10
0.0
 20
0.0
 30
0.0
 70
64
 71
16
 72
11
 0
VERTEX
 8
AUSLAUF_4
 10
-1.5615
 20
-2.1237
 30
16.8713
 70
192
 0
VERTEX
 8
AUSLAUF_4
 10
-1.5615
 20
-2.1237
 30
18.3713
 70
192
 0
VERTEX
 8
AUSLAUF_4
 10
-1.5615
 20
-11.3237
 30
16.8713
 70
192
 0
VERTEX
 8
AUSLAUF_4
 10
-1.5615
 20
-11.3237
 30
18.3713
 70
192
 0
VERTEX
 8
AUSLAUF_4
 10
1.5385
 20
-11.3237
 30
16.8713
 70
192
 0
VERTEX
 8
AUSLAUF_4
 10
1.5385
 20
-11.3237
 30
18.3713
 70
192
 0
VERTEX
 8
AUSLAUF_4
 10
1.5385
 20
-2.1237
 30
16.8713
 70
192
 0
VERTEX
 8
AUSLAUF_4
 10
1.5385
 20
-2.1237
 30
18.3713
 70
192
 0
VERTEX
 8
AUSLAUF_4
 10
-1.1169
 20
-11.3237
 30
18.3713
 70
192
 0
VERTEX
 8
AUSLAUF_4
 10
-1.1169
 20
-11.3237
 30
16.8713
 70
192
 0
VERTEX
 8
AUSLAUF_4
 10
1.0831
 20
-11.3237
 30
18.3713
 70
192
 0
VERTEX
 8
AUSLAUF_4
 10
1.0831
 20
-11.3237
 30
16.8713
 70
192
 0
VERTEX
 8
AUSLAUF_4
 10
-1.1169
 20
-10.3706
 30
18.3713
 70
192
 0
VERTEX
 8
AUSLAUF_4
 10
1.0831
 20
-10.3706
 30
18.3713
 70
192
 0
VERTEX
 8
AUSLAUF_4
 10
-1.1169
 20
-10.3706
 30
16.8713
 70
192
 0
VERTEX
 8
AUSLAUF_4
 10
1.0831
 20
-10.3706
 30
16.8713
 70
192
 0
VERTEX
 8
AUSLAUF_4
 10
0
 20
0
 30
0
 70
128
 71
1
 72
2
 73
4
 74
3
 0
VERTEX
 8
AUSLAUF_4
 10
0
 20
0
 30
0
 70
128
 71
10
 72
3
 73
4
 74
9
 0
VERTEX
 8
AUSLAUF_4
 10
0
 20
0
 30
0
 70
128
 71
11
 72
6
 73
5
 74
12
 0
VERTEX
 8
AUSLAUF_4
 10
0
 20
0
 30
0
 70
128
 71
5
 72
6
 73
8
 74
7
 0
VERTEX
 8
AUSLAUF_4
 10
0
 20
0
 30
0
 70
128
 71
7
 72
8
 73
2
 74
1
 0
VERTEX
 8
AUSLAUF_4
 10
0
 20
0
 30
0
 70
128
 71
9
 72
4
 73
2
 74
13
 0
VERTEX
 8
AUSLAUF_4
 10
0
 20
0
 30
0
 70
128
 71
6
 72
11
 73
14
 74
8
 0
VERTEX
 8
AUSLAUF_4
 10
0
 20
0
 30
0
 70
128
 71
2
 72
8
 73
14
 74
13
 0
VERTEX
 8
AUSLAUF_4
 10
0
 20
0
 30
0
 70
128
 71
5
 72
7
 73
16
 74
12
 0
VERTEX
 8
AUSLAUF_4
 10
0
 20
0
 30
0
 70
128
 71
1
 72
3
 73
10
 74
15
 0
VERTEX
 8
AUSLAUF_4
 10
0
 20
0
 30
0
 70
128
 71
15
 72
16
 73
7
 74
1
 0
SEQEND
 0
POLYLINE
 8
AUSLAUF_3
 66
1
 10
0.0
 20
0.0
 30
0.0
 70
64
 71
21
 72
20
 0
VERTEX
 8
AUSLAUF_3
 10
-0.0059
 20
-13.2883
 30
17.1179
 70
192
 0
VERTEX
 8
AUSLAUF_3
 10
-0.0059
 20
-13.1494
 30
16.3301
 70
192
 0
VERTEX
 8
AUSLAUF_3
 10
0.4643
 20
-13.1759
 30
16.4806
 70
192
 0
VERTEX
 8
AUSLAUF_3
 10
0.7549
 20
-13.2454
 30
16.8745
 70
192
 0
VERTEX
 8
AUSLAUF_3
 10
0.7549
 20
-13.3312
 30
17.3614
 70
192
 0
VERTEX
 8
AUSLAUF_3
 10
0.4643
 20
-13.4007
 30
17.7553
 70
192
 0
VERTEX
 8
AUSLAUF_3
 10
-0.0059
 20
-13.4272
 30
17.9058
 70
192
 0
VERTEX
 8
AUSLAUF_3
 10
-0.4761
 20
-13.4007
 30
17.7553
 70
192
 0
VERTEX
 8
AUSLAUF_3
 10
-0.7668
 20
-13.3312
 30
17.3614
 70
192
 0
VERTEX
 8
AUSLAUF_3
 10
-0.7668
 20
-13.2454
 30
16.8745
 70
192
 0
VERTEX
 8
AUSLAUF_3
 10
-0.4761
 20
-13.1759
 30
16.4806
 70
192
 0
VERTEX
 8
AUSLAUF_3
 10
-0.0059
 20
-13.4797
 30
16.2719
 70
192
 0
VERTEX
 8
AUSLAUF_3
 10
0.7549
 20
-13.6616
 30
17.3032
 70
192
 0
VERTEX
 8
AUSLAUF_3
 10
0.4643
 20
-13.5063
 30
16.4223
 70
192
 0
VERTEX
 8
AUSLAUF_3
 10
0.4643
 20
-13.731
 30
17.6971
 70
192
 0
VERTEX
 8
AUSLAUF_3
 10
0.7549
 20
-13.5757
 30
16.8162
 70
192
 0
VERTEX
 8
AUSLAUF_3
 10
-0.7668
 20
-13.5757
 30
16.8162
 70
192
 0
VERTEX
 8
AUSLAUF_3
 10
-0.0059
 20
-13.7576
 30
17.8475
 70
192
 0
VERTEX
 8
AUSLAUF_3
 10
-0.7668
 20
-13.6616
 30
17.3032
 70
192
 0
VERTEX
 8
AUSLAUF_3
 10
-0.4761
 20
-13.731
 30
17.6971
 70
192
 0
VERTEX
 8
AUSLAUF_3
 10
-0.4761
 20
-13.5063
 30
16.4223
 70
192
 0
VERTEX
 8
AUSLAUF_3
 10
0
 20
0
 30
0
 70
128
 71
2
 72
1
 73
3
 74
3
 0
VERTEX
 8
AUSLAUF_3
 10
0
 20
0
 30
0
 70
128
 71
3
 72
14
 73
12
 74
2
 0
VERTEX
 8
AUSLAUF_3
 10
0
 20
0
 30
0
 70
128
 71
3
 72
1
 73
4
 74
4
 0
VERTEX
 8
AUSLAUF_3
 10
0
 20
0
 30
0
 70
128
 71
4
 72
16
 73
14
 74
3
 0
VERTEX
 8
AUSLAUF_3
 10
0
 20
0
 30
0
 70
128
 71
4
 72
1
 73
5
 74
5
 0
VERTEX
 8
AUSLAUF_3
 10
0
 20
0
 30
0
 70
128
 71
5
 72
13
 73
16
 74
4
 0
VERTEX
 8
AUSLAUF_3
 10
0
 20
0
 30
0
 70
128
 71
5
 72
1
 73
6
 74
6
 0
VERTEX
 8
AUSLAUF_3
 10
0
 20
0
 30
0
 70
128
 71
6
 72
15
 73
13
 74
5
 0
VERTEX
 8
AUSLAUF_3
 10
0
 20
0
 30
0
 70
128
 71
6
 72
1
 73
7
 74
7
 0
VERTEX
 8
AUSLAUF_3
 10
0
 20
0
 30
0
 70
128
 71
7
 72
18
 73
15
 74
6
 0
VERTEX
 8
AUSLAUF_3
 10
0
 20
0
 30
0
 70
128
 71
7
 72
1
 73
8
 74
8
 0
VERTEX
 8
AUSLAUF_3
 10
0
 20
0
 30
0
 70
128
 71
8
 72
20
 73
18
 74
7
 0
VERTEX
 8
AUSLAUF_3
 10
0
 20
0
 30
0
 70
128
 71
8
 72
1
 73
9
 74
9
 0
VERTEX
 8
AUSLAUF_3
 10
0
 20
0
 30
0
 70
128
 71
9
 72
19
 73
20
 74
8
 0
VERTEX
 8
AUSLAUF_3
 10
0
 20
0
 30
0
 70
128
 71
9
 72
1
 73
10
 74
10
 0
VERTEX
 8
AUSLAUF_3
 10
0
 20
0
 30
0
 70
128
 71
10
 72
17
 73
19
 74
9
 0
VERTEX
 8
AUSLAUF_3
 10
0
 20
0
 30
0
 70
128
 71
10
 72
1
 73
11
 74
11
 0
VERTEX
 8
AUSLAUF_3
 10
0
 20
0
 30
0
 70
128
 71
11
 72
21
 73
17
 74
10
 0
VERTEX
 8
AUSLAUF_3
 10
0
 20
0
 30
0
 70
128
 71
11
 72
1
 73
2
 74
2
 0
VERTEX
 8
AUSLAUF_3
 10
0
 20
0
 30
0
 70
128
 71
2
 72
12
 73
21
 74
11
 0
SEQEND
 0
POLYLINE
 8
AUSLAUF_2
 66
1
 10
0.0
 20
0.0
 30
0.0
 70
64
 71
31
 72
30
 0
VERTEX
 8
AUSLAUF_2
 10
-0.0059
 20
-10.6642
 30
17.5806
 70
192
 0
VERTEX
 8
AUSLAUF_2
 10
-0.0059
 20
-10.5079
 30
16.6943
 70
192
 0
VERTEX
 8
AUSLAUF_2
 10
-0.0059
 20
-13.4624
 30
16.1734
 70
192
 0
VERTEX
 8
AUSLAUF_2
 10
0.5231
 20
-10.5378
 30
16.8636
 70
192
 0
VERTEX
 8
AUSLAUF_2
 10
0.5231
 20
-13.4922
 30
16.3426
 70
192
 0
VERTEX
 8
AUSLAUF_2
 10
0.85
 20
-10.6159
 30
17.3068
 70
192
 0
VERTEX
 8
AUSLAUF_2
 10
0.85
 20
-13.5704
 30
16.7858
 70
192
 0
VERTEX
 8
AUSLAUF_2
 10
0.85
 20
-10.7125
 30
17.8545
 70
192
 0
VERTEX
 8
AUSLAUF_2
 10
0.85
 20
-13.6669
 30
17.3336
 70
192
 0
VERTEX
 8
AUSLAUF_2
 10
0.5231
 20
-10.7907
 30
18.2977
 70
192
 0
VERTEX
 8
AUSLAUF_2
 10
0.5231
 20
-13.7451
 30
17.7767
 70
192
 0
VERTEX
 8
AUSLAUF_2
 10
-0.0059
 20
-10.8205
 30
18.467
 70
192
 0
VERTEX
 8
AUSLAUF_2
 10
-0.0059
 20
-13.7749
 30
17.946
 70
192
 0
VERTEX
 8
AUSLAUF_2
 10
-0.5349
 20
-10.7907
 30
18.2977
 70
192
 0
VERTEX
 8
AUSLAUF_2
 10
-0.5349
 20
-13.7451
 30
17.7767
 70
192
 0
VERTEX
 8
AUSLAUF_2
 10
-0.8619
 20
-10.7125
 30
17.8545
 70
192
 0
VERTEX
 8
AUSLAUF_2
 10
-0.8619
 20
-13.6669
 30
17.3336
 70
192
 0
VERTEX
 8
AUSLAUF_2
 10
-0.8619
 20
-10.6159
 30
17.3068
 70
192
 0
VERTEX
 8
AUSLAUF_2
 10
-0.8619
 20
-13.5704
 30
16.7858
 70
192
 0
VERTEX
 8
AUSLAUF_2
 10
-0.5349
 20
-10.5378
 30
16.8636
 70
192
 0
VERTEX
 8
AUSLAUF_2
 10
-0.5349
 20
-13.4922
 30
16.3426
 70
192
 0
VERTEX
 8
AUSLAUF_2
 10
-0.4761
 20
-13.731
 30
17.6971
 70
192
 0
VERTEX
 8
AUSLAUF_2
 10
0.4643
 20
-13.5063
 30
16.4223
 70
192
 0
VERTEX
 8
AUSLAUF_2
 10
-0.0059
 20
-13.4797
 30
16.2719
 70
192
 0
VERTEX
 8
AUSLAUF_2
 10
0.4643
 20
-13.731
 30
17.6971
 70
192
 0
VERTEX
 8
AUSLAUF_2
 10
-0.0059
 20
-13.7576
 30
17.8475
 70
192
 0
VERTEX
 8
AUSLAUF_2
 10
-0.7668
 20
-13.5757
 30
16.8162
 70
192
 0
VERTEX
 8
AUSLAUF_2
 10
0.7549
 20
-13.5757
 30
16.8162
 70
192
 0
VERTEX
 8
AUSLAUF_2
 10
0.7549
 20
-13.6616
 30
17.3032
 70
192
 0
VERTEX
 8
AUSLAUF_2
 10
-0.7668
 20
-13.6616
 30
17.3032
 70
192
 0
VERTEX
 8
AUSLAUF_2
 10
-0.4761
 20
-13.5063
 30
16.4223
 70
192
 0
VERTEX
 8
AUSLAUF_2
 10
0
 20
0
 30
0
 70
128
 71
1
 72
2
 73
4
 74
4
 0
VERTEX
 8
AUSLAUF_2
 10
0
 20
0
 30
0
 70
128
 71
2
 72
3
 73
5
 74
4
 0
VERTEX
 8
AUSLAUF_2
 10
0
 20
0
 30
0
 70
128
 71
3
 72
24
 73
23
 74
5
 0
VERTEX
 8
AUSLAUF_2
 10
0
 20
0
 30
0
 70
128
 71
1
 72
4
 73
6
 74
6
 0
VERTEX
 8
AUSLAUF_2
 10
0
 20
0
 30
0
 70
128
 71
4
 72
5
 73
7
 74
6
 0
VERTEX
 8
AUSLAUF_2
 10
0
 20
0
 30
0
 70
128
 71
5
 72
23
 73
28
 74
7
 0
VERTEX
 8
AUSLAUF_2
 10
0
 20
0
 30
0
 70
128
 71
1
 72
6
 73
8
 74
8
 0
VERTEX
 8
AUSLAUF_2
 10
0
 20
0
 30
0
 70
128
 71
6
 72
7
 73
9
 74
8
 0
VERTEX
 8
AUSLAUF_2
 10
0
 20
0
 30
0
 70
128
 71
7
 72
28
 73
29
 74
9
 0
VERTEX
 8
AUSLAUF_2
 10
0
 20
0
 30
0
 70
128
 71
1
 72
8
 73
10
 74
10
 0
VERTEX
 8
AUSLAUF_2
 10
0
 20
0
 30
0
 70
128
 71
8
 72
9
 73
11
 74
10
 0
VERTEX
 8
AUSLAUF_2
 10
0
 20
0
 30
0
 70
128
 71
9
 72
29
 73
25
 74
11
 0
VERTEX
 8
AUSLAUF_2
 10
0
 20
0
 30
0
 70
128
 71
1
 72
10
 73
12
 74
12
 0
VERTEX
 8
AUSLAUF_2
 10
0
 20
0
 30
0
 70
128
 71
10
 72
11
 73
13
 74
12
 0
VERTEX
 8
AUSLAUF_2
 10
0
 20
0
 30
0
 70
128
 71
11
 72
25
 73
26
 74
13
 0
VERTEX
 8
AUSLAUF_2
 10
0
 20
0
 30
0
 70
128
 71
1
 72
12
 73
14
 74
14
 0
VERTEX
 8
AUSLAUF_2
 10
0
 20
0
 30
0
 70
128
 71
12
 72
13
 73
15
 74
14
 0
VERTEX
 8
AUSLAUF_2
 10
0
 20
0
 30
0
 70
128
 71
26
 72
22
 73
15
 74
13
 0
VERTEX
 8
AUSLAUF_2
 10
0
 20
0
 30
0
 70
128
 71
1
 72
14
 73
16
 74
16
 0
VERTEX
 8
AUSLAUF_2
 10
0
 20
0
 30
0
 70
128
 71
14
 72
15
 73
17
 74
16
 0
VERTEX
 8
AUSLAUF_2
 10
0
 20
0
 30
0
 70
128
 71
22
 72
30
 73
17
 74
15
 0
VERTEX
 8
AUSLAUF_2
 10
0
 20
0
 30
0
 70
128
 71
1
 72
16
 73
18
 74
18
 0
VERTEX
 8
AUSLAUF_2
 10
0
 20
0
 30
0
 70
128
 71
16
 72
17
 73
19
 74
18
 0
VERTEX
 8
AUSLAUF_2
 10
0
 20
0
 30
0
 70
128
 71
30
 72
27
 73
19
 74
17
 0
VERTEX
 8
AUSLAUF_2
 10
0
 20
0
 30
0
 70
128
 71
1
 72
18
 73
20
 74
20
 0
VERTEX
 8
AUSLAUF_2
 10
0
 20
0
 30
0
 70
128
 71
18
 72
19
 73
21
 74
20
 0
VERTEX
 8
AUSLAUF_2
 10
0
 20
0
 30
0
 70
128
 71
27
 72
31
 73
21
 74
19
 0
VERTEX
 8
AUSLAUF_2
 10
0
 20
0
 30
0
 70
128
 71
1
 72
20
 73
2
 74
2
 0
VERTEX
 8
AUSLAUF_2
 10
0
 20
0
 30
0
 70
128
 71
20
 72
21
 73
3
 74
2
 0
VERTEX
 8
AUSLAUF_2
 10
0
 20
0
 30
0
 70
128
 71
31
 72
24
 73
3
 74
21
 0
SEQEND
 0
POLYLINE
 8
AUSLAUF_1
 66
1
 10
0.0
 20
0.0
 30
0.0
 70
64
 71
12
 72
6
 0
VERTEX
 8
AUSLAUF_1
 10
1.2941
 20
-11.133
 30
17.6567
 70
192
 0
VERTEX
 8
AUSLAUF_1
 10
-1.3059
 20
-11.133
 30
17.6567
 70
192
 0
VERTEX
 8
AUSLAUF_1
 10
1.2941
 20
-10.983
 30
17.9165
 70
192
 0
VERTEX
 8
AUSLAUF_1
 10
-1.3059
 20
-10.983
 30
17.9165
 70
192
 0
VERTEX
 8
AUSLAUF_1
 10
1.2941
 20
-10.683
 30
17.9165
 70
192
 0
VERTEX
 8
AUSLAUF_1
 10
-1.3059
 20
-10.683
 30
17.9165
 70
192
 0
VERTEX
 8
AUSLAUF_1
 10
1.2941
 20
-10.533
 30
17.6567
 70
192
 0
VERTEX
 8
AUSLAUF_1
 10
-1.3059
 20
-10.533
 30
17.6567
 70
192
 0
VERTEX
 8
AUSLAUF_1
 10
1.2941
 20
-10.683
 30
17.3969
 70
192
 0
VERTEX
 8
AUSLAUF_1
 10
-1.3059
 20
-10.683
 30
17.3969
 70
192
 0
VERTEX
 8
AUSLAUF_1
 10
1.2941
 20
-10.983
 30
17.3969
 70
192
 0
VERTEX
 8
AUSLAUF_1
 10
-1.3059
 20
-10.983
 30
17.3969
 70
192
 0
VERTEX
 8
AUSLAUF_1
 10
0
 20
0
 30
0
 70
128
 71
1
 72
2
 73
4
 74
3
 0
VERTEX
 8
AUSLAUF_1
 10
0
 20
0
 30
0
 70
128
 71
3
 72
4
 73
6
 74
5
 0
VERTEX
 8
AUSLAUF_1
 10
0
 20
0
 30
0
 70
128
 71
5
 72
6
 73
8
 74
7
 0
VERTEX
 8
AUSLAUF_1
 10
0
 20
0
 30
0
 70
128
 71
7
 72
8
 73
10
 74
9
 0
VERTEX
 8
AUSLAUF_1
 10
0
 20
0
 30
0
 70
128
 71
9
 72
10
 73
12
 74
11
 0
VERTEX
 8
AUSLAUF_1
 10
0
 20
0
 30
0
 70
128
 71
11
 72
12
 73
2
 74
1
 0
SEQEND
 0
POLYLINE
 8
GRIFFMINUS
 66
1
 10
0.0
 20
0.0
 30
0.0
 70
64
 71
8
 72
5
 0
VERTEX
 8
GRIFFMINUS
 10
-0.288
 20
0.3556
 30
10.4825
 70
192
 0
VERTEX
 8
GRIFFMINUS
 10
0.312
 20
0.3556
 30
10.4825
 70
192
 0
VERTEX
 8
GRIFFMINUS
 10
0.312
 20
0.3556
 30
13.9825
 70
192
 0
VERTEX
 8
GRIFFMINUS
 10
-0.288
 20
0.3556
 30
13.9825
 70
192
 0
VERTEX
 8
GRIFFMINUS
 10
-0.288
 20
1.8512
 30
10.4825
 70
192
 0
VERTEX
 8
GRIFFMINUS
 10
0.312
 20
1.8512
 30
10.4825
 70
192
 0
VERTEX
 8
GRIFFMINUS
 10
0.312
 20
1.8512
 30
13.9825
 70
192
 0
VERTEX
 8
GRIFFMINUS
 10
-0.288
 20
1.8512
 30
13.9825
 70
192
 0
VERTEX
 8
GRIFFMINUS
 10
0
 20
0
 30
0
 70
128
 71
1
 72
5
 73
6
 74
2
 0
VERTEX
 8
GRIFFMINUS
 10
0
 20
0
 30
0
 70
128
 71
2
 72
6
 73
7
 74
3
 0
VERTEX
 8
GRIFFMINUS
 10
0
 20
0
 30
0
 70
128
 71
3
 72
7
 73
8
 74
4
 0
VERTEX
 8
GRIFFMINUS
 10
0
 20
0
 30
0
 70
128
 71
4
 72
8
 73
5
 74
1
 0
VERTEX
 8
GRIFFMINUS
 10
0
 20
0
 30
0
 70
128
 71
4
 72
1
 73
2
 74
3
 0
SEQEND
 0
POLYLINE
 8
K_RPER
 66
1
 10
0.0
 20
0.0
 30
0.0
 70
64
 71
12
 72
9
 0
VERTEX
 8
K_RPER
 10
-1.988
 20
1.8512
 30
9.6057
 70
192
 0
VERTEX
 8
K_RPER
 10
-1.988
 20
-2.1488
 30
9.6057
 70
192
 0
VERTEX
 8
K_RPER
 10
2.012
 20
1.8512
 30
9.6057
 70
192
 0
VERTEX
 8
K_RPER
 10
2.012
 20
-2.1488
 30
9.6057
 70
192
 0
VERTEX
 8
K_RPER
 10
2.012
 20
1.8512
 30
20.9057
 70
192
 0
VERTEX
 8
K_RPER
 10
2.012
 20
-2.1488
 30
20.9057
 70
192
 0
VERTEX
 8
K_RPER
 10
-1.988
 20
1.8512
 30
20.9057
 70
192
 0
VERTEX
 8
K_RPER
 10
-1.988
 20
-2.1488
 30
20.9057
 70
192
 0
VERTEX
 8
K_RPER
 10
-0.288
 20
1.8512
 30
10.4825
 70
192
 0
VERTEX
 8
K_RPER
 10
0.312
 20
1.8512
 30
10.4825
 70
192
 0
VERTEX
 8
K_RPER
 10
0.312
 20
1.8512
 30
13.9825
 70
192
 0
VERTEX
 8
K_RPER
 10
-0.288
 20
1.8512
 30
13.9825
 70
192
 0
VERTEX
 8
K_RPER
 10
0
 20
0
 30
0
 70
128
 71
1
 72
2
 73
4
 74
3
 0
VERTEX
 8
K_RPER
 10
0
 20
0
 30
0
 70
128
 71
3
 72
4
 73
6
 74
5
 0
VERTEX
 8
K_RPER
 10
0
 20
0
 30
0
 70
128
 71
5
 72
6
 73
8
 74
7
 0
VERTEX
 8
K_RPER
 10
0
 20
0
 30
0
 70
128
 71
7
 72
8
 73
2
 74
1
 0
VERTEX
 8
K_RPER
 10
0
 20
0
 30
0
 70
128
 71
2
 72
8
 73
6
 74
4
 0
VERTEX
 8
K_RPER
 10
0
 20
0
 30
0
 70
128
 71
7
 72
1
 73
9
 74
12
 0
VERTEX
 8
K_RPER
 10
0
 20
0
 30
0
 70
128
 71
10
 72
9
 73
1
 74
3
 0
VERTEX
 8
K_RPER
 10
0
 20
0
 30
0
 70
128
 71
7
 72
12
 73
11
 74
5
 0
VERTEX
 8
K_RPER
 10
0
 20
0
 30
0
 70
128
 71
11
 72
10
 73
3
 74
5
 0
SEQEND
 0
POLYLINE
 8
EXENTER
 66
1
 10
0.0
 20
0.0
 30
0.0
 70
64
 71
8
 72
6
 0
VERTEX
 8
EXENTER
 10
-0.288
 20
3.3661
 30
11.0202
 70
192
 0
VERTEX
 8
EXENTER
 10
-0.288
 20
-0.1339
 30
11.0202
 70
192
 0
VERTEX
 8
EXENTER
 10
0.312
 20
3.3661
 30
11.0202
 70
192
 0
VERTEX
 8
EXENTER
 10
0.312
 20
-0.1339
 30
11.0202
 70
192
 0
VERTEX
 8
EXENTER
 10
0.312
 20
3.3661
 30
11.6202
 70
192
 0
VERTEX
 8
EXENTER
 10
0.312
 20
-0.1339
 30
11.6202
 70
192
 0
VERTEX
 8
EXENTER
 10
-0.288
 20
3.3661
 30
11.6202
 70
192
 0
VERTEX
 8
EXENTER
 10
-0.288
 20
-0.1339
 30
11.6202
 70
192
 0
VERTEX
 8
EXENTER
 10
0
 20
0
 30
0
 70
128
 71
1
 72
2
 73
4
 74
3
 0
VERTEX
 8
EXENTER
 10
0
 20
0
 30
0
 70
128
 71
3
 72
4
 73
6
 74
5
 0
VERTEX
 8
EXENTER
 10
0
 20
0
 30
0
 70
128
 71
5
 72
6
 73
8
 74
7
 0
VERTEX
 8
EXENTER
 10
0
 20
0
 30
0
 70
128
 71
7
 72
8
 73
2
 74
1
 0
VERTEX
 8
EXENTER
 10
0
 20
0
 30
0
 70
128
 71
2
 72
8
 73
6
 74
4
 0
VERTEX
 8
EXENTER
 10
0
 20
0
 30
0
 70
128
 71
7
 72
1
 73
3
 74
5
 0
SEQEND
 0
POLYLINE
 8
GRIFF_1
 66
1
 10
0.0
 20
0.0
 30
0.0
 70
64
 71
1992
 72
34
 0
VERTEX
 8
GRIFF_1
 10
-1.96
 20
1.7959
 30
21.9796
 70
192
 0
VERTEX
 8
GRIFF_1
 10
-1.96
 20
-2.1241
 30
21.218
 70
192
 0
VERTEX
 8
GRIFF_1
 10
1.96
 20
-2.1241
 30
21.218
 70
192
 0
VERTEX
 8
GRIFF_1
 10
1.96
 20
1.7959
 30
21.9796
 70
192
 0
VERTEX
 8
GRIFF_1
 10
-1.9642
 20
1.7959
 30
21.9798
 70
192
 0
VERTEX
 8
GRIFF_1
 10
-1.9642
 20
-2.1241
 30
21.2183
 70
192
 0
VERTEX
 8
GRIFF_1
 10
-1.9642
 20
-2.1245
 30
21.2183
 70
192
 0
VERTEX
 8
GRIFF_1
 10
-1.9641
 20
-2.1249
 30
21.2183
 70
192
 0
VERTEX
 8
GRIFF_1
 10
-1.964
 20
-2.1253
 30
21.2183
 70
192
 0
VERTEX
 8
GRIFF_1
 10
-1.9638
 20
-2.1258
 30
21.2183
 70
192
 0
VERTEX
 8
GRIFF_1
 10
-1.9636
 20
-2.1261
 30
21.2183
 70
192
 0
VERTEX
 8
GRIFF_1
 10
-1.9634
 20
-2.1265
 30
21.2183
 70
192
 0
VERTEX
 8
GRIFF_1
 10
-1.9631
 20
-2.1269
 30
21.2183
 70
192
 0
VERTEX
 8
GRIFF_1
 10
-1.9628
 20
-2.1272
 30
21.2183
 70
192
 0
VERTEX
 8
GRIFF_1
 10
-1.9625
 20
-2.1274
 30
21.2183
 70
192
 0
VERTEX
 8
GRIFF_1
 10
-1.9621
 20
-2.1277
 30
21.2183
 70
192
 0
VERTEX
 8
GRIFF_1
 10
-1.9617
 20
-2.1279
 30
21.2183
 70
192
 0
VERTEX
 8
GRIFF_1
 10
-1.9613
 20
-2.128
 30
21.2183
 70
192
 0
VERTEX
 8
GRIFF_1
 10
-1.9609
 20
-2.1281
 30
21.2183
 70
192
 0
VERTEX
 8
GRIFF_1
 10
-1.9604
 20
-2.1282
 30
21.2183
 70
192
 0
VERTEX
 8
GRIFF_1
 10
-1.96
 20
-2.1282
 30
21.2183
 70
192
 0
VERTEX
 8
GRIFF_1
 10
1.96
 20
-2.1282
 30
21.2183
 70
192
 0
VERTEX
 8
GRIFF_1
 10
1.9604
 20
-2.1282
 30
21.2183
 70
192
 0
VERTEX
 8
GRIFF_1
 10
1.9609
 20
-2.1281
 30
21.2183
 70
192
 0
VERTEX
 8
GRIFF_1
 10
1.9613
 20
-2.128
 30
21.2183
 70
192
 0
VERTEX
 8
GRIFF_1
 10
1.9617
 20
-2.1279
 30
21.2183
 70
192
 0
VERTEX
 8
GRIFF_1
 10
1.9621
 20
-2.1277
 30
21.2183
 70
192
 0
VERTEX
 8
GRIFF_1
 10
1.9625
 20
-2.1274
 30
21.2183
 70
192
 0
VERTEX
 8
GRIFF_1
 10
1.9628
 20
-2.1272
 30
21.2183
 70
192
 0
VERTEX
 8
GRIFF_1
 10
1.9631
 20
-2.1269
 30
21.2183
 70
192
 0
VERTEX
 8
GRIFF_1
 10
1.9634
 20
-2.1265
 30
21.2183
 70
192
 0
VERTEX
 8
GRIFF_1
 10
1.9636
 20
-2.1261
 30
21.2183
 70
192
 0
VERTEX
 8
GRIFF_1
 10
1.9638
 20
-2.1258
 30
21.2183
 70
192
 0
VERTEX
 8
GRIFF_1
 10
1.964
 20
-2.1253
 30
21.2183
 70
192
 0
VERTEX
 8
GRIFF_1
 10
1.9641
 20
-2.1249
 30
21.2183
 70
192
 0
VERTEX
 8
GRIFF_1
 10
1.9642
 20
-2.1245
 30
21.2183
 70
192
 0
VERTEX
 8
GRIFF_1
 10
1.9642
 20
-2.1241
 30
21.2183
 70
192
 0
VERTEX
 8
GRIFF_1
 10
1.9642
 20
1.7959
 30
21.9798
 70
192
 0
VERTEX
 8
GRIFF_1
 10
1.9642
 20
1.7964
 30
21.9798
 70
192
 0
VERTEX
 8
GRIFF_1
 10
1.9641
 20
1.7968
 30
21.9798
 70
192
 0
VERTEX
 8
GRIFF_1
 10
1.964
 20
1.7972
 30
21.9798
 70
192
 0
VERTEX
 8
GRIFF_1
 10
1.9638
 20
1.7976
 30
21.9798
 70
192
 0
VERTEX
 8
GRIFF_1
 10
1.9636
 20
1.798
 30
21.9798
 70
192
 0
VERTEX
 8
GRIFF_1
 10
1.9634
 20
1.7984
 30
21.9798
 70
192
 0
VERTEX
 8
GRIFF_1
 10
1.9631
 20
1.7987
 30
21.9798
 70
192
 0
VERTEX
 8
GRIFF_1
 10
1.9628
 20
1.7991
 30
21.9798
 70
192
 0
VERTEX
 8
GRIFF_1
 10
1.9625
 20
1.7993
 30
21.9798
 70
192
 0
VERTEX
 8
GRIFF_1
 10
1.9621
 20
1.7996
 30
21.9798
 70
192
 0
VERTEX
 8
GRIFF_1
 10
1.9617
 20
1.7998
 30
21.9798
 70
192
 0
VERTEX
 8
GRIFF_1
 10
1.9613
 20
1.7999
 30
21.9798
 70
192
 0
VERTEX
 8
GRIFF_1
 10
1.9609
 20
1.8
 30
21.9798
 70
192
 0
VERTEX
 8
GRIFF_1
 10
1.9604
 20
1.8001
 30
21.9798
 70
192
 0
VERTEX
 8
GRIFF_1
 10
1.96
 20
1.8001
 30
21.9798
 70
192
 0
VERTEX
 8
GRIFF_1
 10
-1.96
 20
1.8001
 30
21.9798
 70
192
 0
VERTEX
 8
GRIFF_1
 10
-1.9604
 20
1.8001
 30
21.9798
 70
192
 0
VERTEX
 8
GRIFF_1
 10
-1.9609
 20
1.8
 30
21.9798
 70
192
 0
VERTEX
 8
GRIFF_1
 10
-1.9613
 20
1.7999
 30
21.9798
 70
192
 0
VERTEX
 8
GRIFF_1
 10
-1.9617
 20
1.7998
 30
21.9798
 70
192
 0
VERTEX
 8
GRIFF_1
 10
-1.9621
 20
1.7996
 30
21.9798
 70
192
 0
VERTEX
 8
GRIFF_1
 10
-1.9625
 20
1.7993
 30
21.9798
 70
192
 0
VERTEX
 8
GRIFF_1
 10
-1.9628
 20
1.7991
 30
21.9798
 70
192
 0
VERTEX
 8
GRIFF_1
 10
-1.9631
 20
1.7987
 30
21.9798
 70
192
 0
VERTEX
 8
GRIFF_1
 10
-1.9634
 20
1.7984
 30
21.9798
 70
192
 0
VERTEX
 8
GRIFF_1
 10
-1.9636
 20
1.798
 30
21.9798
 70
192
 0
VERTEX
 8
GRIFF_1
 10
-1.9638
 20
1.7976
 30
21.9798
 70
192
 0
VERTEX
 8
GRIFF_1
 10
-1.964
 20
1.7972
 30
21.9798
 70
192
 0
VERTEX
 8
GRIFF_1
 10
-1.9641
 20
1.7968
 30
21.9798
 70
192
 0
VERTEX
 8
GRIFF_1
 10
-1.9642
 20
1.7964
 30
21.9798
 70
192
 0
VERTEX
 8
GRIFF_1
 10
-1.9683
 20
1.7959
 30
21.9805
 70
192
 0
VERTEX
 8
GRIFF_1
 10
-1.9683
 20
-2.1241
 30
21.2189
 70
192
 0
VERTEX
 8
GRIFF_1
 10
-1.9683
 20
-2.1249
 30
21.2189
 70
192
 0
VERTEX
 8
GRIFF_1
 10
-1.9681
 20
-2.1258
 30
21.2189
 70
192
 0
VERTEX
 8
GRIFF_1
 10
-1.9679
 20
-2.1266
 30
21.2189
 70
192
 0
VERTEX
 8
GRIFF_1
 10
-1.9676
 20
-2.1274
 30
21.2189
 70
192
 0
VERTEX
 8
GRIFF_1
 10
-1.9672
 20
-2.1282
 30
21.2189
 70
192
 0
VERTEX
 8
GRIFF_1
 10
-1.9667
 20
-2.1289
 30
21.2189
 70
192
 0
VERTEX
 8
GRIFF_1
 10
-1.9662
 20
-2.1296
 30
21.2189
 70
192
 0
VERTEX
 8
GRIFF_1
 10
-1.9656
 20
-2.1302
 30
21.2189
 70
192
 0
VERTEX
 8
GRIFF_1
 10
-1.9649
 20
-2.1308
 30
21.2189
 70
192
 0
VERTEX
 8
GRIFF_1
 10
-1.9642
 20
-2.1313
 30
21.2189
 70
192
 0
VERTEX
 8
GRIFF_1
 10
-1.9634
 20
-2.1317
 30
21.2189
 70
192
 0
VERTEX
 8
GRIFF_1
 10
-1.9626
 20
-2.132
 30
21.2189
 70
192
 0
VERTEX
 8
GRIFF_1
 10
-1.9617
 20
-2.1322
 30
21.2189
 70
192
 0
VERTEX
 8
GRIFF_1
 10
-1.9609
 20
-2.1323
 30
21.2189
 70
192
 0
VERTEX
 8
GRIFF_1
 10
-1.96
 20
-2.1324
 30
21.2189
 70
192
 0
VERTEX
 8
GRIFF_1
 10
1.96
 20
-2.1324
 30
21.2189
 70
192
 0
VERTEX
 8
GRIFF_1
 10
1.9609
 20
-2.1323
 30
21.2189
 70
192
 0
VERTEX
 8
GRIFF_1
 10
1.9617
 20
-2.1322
 30
21.2189
 70
192
 0
VERTEX
 8
GRIFF_1
 10
1.9626
 20
-2.132
 30
21.2189
 70
192
 0
VERTEX
 8
GRIFF_1
 10
1.9634
 20
-2.1317
 30
21.2189
 70
192
 0
VERTEX
 8
GRIFF_1
 10
1.9642
 20
-2.1313
 30
21.2189
 70
192
 0
VERTEX
 8
GRIFF_1
 10
1.9649
 20
-2.1308
 30
21.2189
 70
192
 0
VERTEX
 8
GRIFF_1
 10
1.9656
 20
-2.1302
 30
21.2189
 70
192
 0
VERTEX
 8
GRIFF_1
 10
1.9662
 20
-2.1296
 30
21.2189
 70
192
 0
VERTEX
 8
GRIFF_1
 10
1.9667
 20
-2.1289
 30
21.2189
 70
192
 0
VERTEX
 8
GRIFF_1
 10
1.9672
 20
-2.1282
 30
21.2189
 70
192
 0
VERTEX
 8
GRIFF_1
 10
1.9676
 20
-2.1274
 30
21.2189
 70
192
 0
VERTEX
 8
GRIFF_1
 10
1.9679
 20
-2.1266
 30
21.2189
 70
192
 0
VERTEX
 8
GRIFF_1
 10
1.9681
 20
-2.1258
 30
21.2189
 70
192
 0
VERTEX
 8
GRIFF_1
 10
1.9683
 20
-2.1249
 30
21.2189
 70
192
 0
VERTEX
 8
GRIFF_1
 10
1.9683
 20
-2.1241
 30
21.2189
 70
192
 0
VERTEX
 8
GRIFF_1
 10
1.9683
 20
1.7959
 30
21.9805
 70
192
 0
VERTEX
 8
GRIFF_1
 10
1.9683
 20
1.7968
 30
21.9805
 70
192
 0
VERTEX
 8
GRIFF_1
 10
1.9681
 20
1.7977
 30
21.9805
 70
192
 0
VERTEX
 8
GRIFF_1
 10
1.9679
 20
1.7985
 30
21.9805
 70
192
 0
VERTEX
 8
GRIFF_1
 10
1.9676
 20
1.7993
 30
21.9805
 70
192
 0
VERTEX
 8
GRIFF_1
 10
1.9672
 20
1.8001
 30
21.9805
 70
192
 0
VERTEX
 8
GRIFF_1
 10
1.9667
 20
1.8008
 30
21.9805
 70
192
 0
VERTEX
 8
GRIFF_1
 10
1.9662
 20
1.8015
 30
21.9805
 70
192
 0
VERTEX
 8
GRIFF_1
 10
1.9656
 20
1.8021
 30
21.9805
 70
192
 0
VERTEX
 8
GRIFF_1
 10
1.9649
 20
1.8027
 30
21.9805
 70
192
 0
VERTEX
 8
GRIFF_1
 10
1.9642
 20
1.8031
 30
21.9805
 70
192
 0
VERTEX
 8
GRIFF_1
 10
1.9634
 20
1.8035
 30
21.9805
 70
192
 0
VERTEX
 8
GRIFF_1
 10
1.9626
 20
1.8039
 30
21.9805
 70
192
 0
VERTEX
 8
GRIFF_1
 10
1.9617
 20
1.8041
 30
21.9805
 70
192
 0
VERTEX
 8
GRIFF_1
 10
1.9609
 20
1.8042
 30
21.9805
 70
192
 0
VERTEX
 8
GRIFF_1
 10
1.96
 20
1.8043
 30
21.9805
 70
192
 0
VERTEX
 8
GRIFF_1
 10
-1.96
 20
1.8043
 30
21.9805
 70
192
 0
VERTEX
 8
GRIFF_1
 10
-1.9609
 20
1.8042
 30
21.9805
 70
192
 0
VERTEX
 8
GRIFF_1
 10
-1.9617
 20
1.8041
 30
21.9805
 70
192
 0
VERTEX
 8
GRIFF_1
 10
-1.9626
 20
1.8039
 30
21.9805
 70
192
 0
VERTEX
 8
GRIFF_1
 10
-1.9634
 20
1.8035
 30
21.9805
 70
192
 0
VERTEX
 8
GRIFF_1
 10
-1.9642
 20
1.8031
 30
21.9805
 70
192
 0
VERTEX
 8
GRIFF_1
 10
-1.9649
 20
1.8027
 30
21.9805
 70
192
 0
VERTEX
 8
GRIFF_1
 10
-1.9656
 20
1.8021
 30
21.9805
 70
192
 0
VERTEX
 8
GRIFF_1
 10
-1.9662
 20
1.8015
 30
21.9805
 70
192
 0
VERTEX
 8
GRIFF_1
 10
-1.9667
 20
1.8008
 30
21.9805
 70
192
 0
VERTEX
 8
GRIFF_1
 10
-1.9672
 20
1.8001
 30
21.9805
 70
192
 0
VERTEX
 8
GRIFF_1
 10
-1.9676
 20
1.7993
 30
21.9805
 70
192
 0
VERTEX
 8
GRIFF_1
 10
-1.9679
 20
1.7985
 30
21.9805
 70
192
 0
VERTEX
 8
GRIFF_1
 10
-1.9681
 20
1.7977
 30
21.9805
 70
192
 0
VERTEX
 8
GRIFF_1
 10
-1.9683
 20
1.7968
 30
21.9805
 70
192
 0
VERTEX
 8
GRIFF_1
 10
-1.9724
 20
1.7959
 30
21.9815
 70
192
 0
VERTEX
 8
GRIFF_1
 10
-1.9724
 20
-2.1241
 30
21.22
 70
192
 0
VERTEX
 8
GRIFF_1
 10
-1.9723
 20
-2.1253
 30
21.22
 70
192
 0
VERTEX
 8
GRIFF_1
 10
-1.9721
 20
-2.1266
 30
21.22
 70
192
 0
VERTEX
 8
GRIFF_1
 10
-1.9718
 20
-2.1279
 30
21.22
 70
192
 0
VERTEX
 8
GRIFF_1
 10
-1.9713
 20
-2.1291
 30
21.22
 70
192
 0
VERTEX
 8
GRIFF_1
 10
-1.9707
 20
-2.1302
 30
21.22
 70
192
 0
VERTEX
 8
GRIFF_1
 10
-1.97
 20
-2.1313
 30
21.22
 70
192
 0
VERTEX
 8
GRIFF_1
 10
-1.9692
 20
-2.1323
 30
21.22
 70
192
 0
VERTEX
 8
GRIFF_1
 10
-1.9683
 20
-2.1332
 30
21.22
 70
192
 0
VERTEX
 8
GRIFF_1
 10
-1.9673
 20
-2.1341
 30
21.22
 70
192
 0
VERTEX
 8
GRIFF_1
 10
-1.9662
 20
-2.1348
 30
21.22
 70
192
 0
VERTEX
 8
GRIFF_1
 10
-1.965
 20
-2.1353
 30
21.22
 70
192
 0
VERTEX
 8
GRIFF_1
 10
-1.9638
 20
-2.1358
 30
21.22
 70
192
 0
VERTEX
 8
GRIFF_1
 10
-1.9626
 20
-2.1361
 30
21.22
 70
192
 0
VERTEX
 8
GRIFF_1
 10
-1.9613
 20
-2.1363
 30
21.22
 70
192
 0
VERTEX
 8
GRIFF_1
 10
-1.96
 20
-2.1364
 30
21.22
 70
192
 0
VERTEX
 8
GRIFF_1
 10
1.96
 20
-2.1364
 30
21.22
 70
192
 0
VERTEX
 8
GRIFF_1
 10
1.9613
 20
-2.1363
 30
21.22
 70
192
 0
VERTEX
 8
GRIFF_1
 10
1.9626
 20
-2.1361
 30
21.22
 70
192
 0
VERTEX
 8
GRIFF_1
 10
1.9638
 20
-2.1358
 30
21.22
 70
192
 0
VERTEX
 8
GRIFF_1
 10
1.965
 20
-2.1353
 30
21.22
 70
192
 0
VERTEX
 8
GRIFF_1
 10
1.9662
 20
-2.1348
 30
21.22
 70
192
 0
VERTEX
 8
GRIFF_1
 10
1.9673
 20
-2.1341
 30
21.22
 70
192
 0
VERTEX
 8
GRIFF_1
 10
1.9683
 20
-2.1332
 30
21.22
 70
192
 0
VERTEX
 8
GRIFF_1
 10
1.9692
 20
-2.1323
 30
21.22
 70
192
 0
VERTEX
 8
GRIFF_1
 10
1.97
 20
-2.1313
 30
21.22
 70
192
 0
VERTEX
 8
GRIFF_1
 10
1.9707
 20
-2.1302
 30
21.22
 70
192
 0
VERTEX
 8
GRIFF_1
 10
1.9713
 20
-2.1291
 30
21.22
 70
192
 0
VERTEX
 8
GRIFF_1
 10
1.9718
 20
-2.1279
 30
21.22
 70
192
 0
VERTEX
 8
GRIFF_1
 10
1.9721
 20
-2.1266
 30
21.22
 70
192
 0
VERTEX
 8
GRIFF_1
 10
1.9723
 20
-2.1253
 30
21.22
 70
192
 0
VERTEX
 8
GRIFF_1
 10
1.9724
 20
-2.1241
 30
21.22
 70
192
 0
VERTEX
 8
GRIFF_1
 10
1.9724
 20
1.7959
 30
21.9815
 70
192
 0
VERTEX
 8
GRIFF_1
 10
1.9723
 20
1.7972
 30
21.9815
 70
192
 0
VERTEX
 8
GRIFF_1
 10
1.9721
 20
1.7985
 30
21.9815
 70
192
 0
VERTEX
 8
GRIFF_1
 10
1.9718
 20
1.7998
 30
21.9815
 70
192
 0
VERTEX
 8
GRIFF_1
 10
1.9713
 20
1.801
 30
21.9815
 70
192
 0
VERTEX
 8
GRIFF_1
 10
1.9707
 20
1.8021
 30
21.9815
 70
192
 0
VERTEX
 8
GRIFF_1
 10
1.97
 20
1.8032
 30
21.9815
 70
192
 0
VERTEX
 8
GRIFF_1
 10
1.9692
 20
1.8042
 30
21.9815
 70
192
 0
VERTEX
 8
GRIFF_1
 10
1.9683
 20
1.8051
 30
21.9815
 70
192
 0
VERTEX
 8
GRIFF_1
 10
1.9673
 20
1.8059
 30
21.9815
 70
192
 0
VERTEX
 8
GRIFF_1
 10
1.9662
 20
1.8067
 30
21.9815
 70
192
 0
VERTEX
 8
GRIFF_1
 10
1.965
 20
1.8072
 30
21.9815
 70
192
 0
VERTEX
 8
GRIFF_1
 10
1.9638
 20
1.8077
 30
21.9815
 70
192
 0
VERTEX
 8
GRIFF_1
 10
1.9626
 20
1.808
 30
21.9815
 70
192
 0
VERTEX
 8
GRIFF_1
 10
1.9613
 20
1.8082
 30
21.9815
 70
192
 0
VERTEX
 8
GRIFF_1
 10
1.96
 20
1.8083
 30
21.9815
 70
192
 0
VERTEX
 8
GRIFF_1
 10
-1.96
 20
1.8083
 30
21.9815
 70
192
 0
VERTEX
 8
GRIFF_1
 10
-1.9613
 20
1.8082
 30
21.9815
 70
192
 0
VERTEX
 8
GRIFF_1
 10
-1.9626
 20
1.808
 30
21.9815
 70
192
 0
VERTEX
 8
GRIFF_1
 10
-1.9638
 20
1.8077
 30
21.9815
 70
192
 0
VERTEX
 8
GRIFF_1
 10
-1.965
 20
1.8072
 30
21.9815
 70
192
 0
VERTEX
 8
GRIFF_1
 10
-1.9662
 20
1.8067
 30
21.9815
 70
192
 0
VERTEX
 8
GRIFF_1
 10
-1.9673
 20
1.8059
 30
21.9815
 70
192
 0
VERTEX
 8
GRIFF_1
 10
-1.9683
 20
1.8051
 30
21.9815
 70
192
 0
VERTEX
 8
GRIFF_1
 10
-1.9692
 20
1.8042
 30
21.9815
 70
192
 0
VERTEX
 8
GRIFF_1
 10
-1.97
 20
1.8032
 30
21.9815
 70
192
 0
VERTEX
 8
GRIFF_1
 10
-1.9707
 20
1.8021
 30
21.9815
 70
192
 0
VERTEX
 8
GRIFF_1
 10
-1.9713
 20
1.801
 30
21.9815
 70
192
 0
VERTEX
 8
GRIFF_1
 10
-1.9718
 20
1.7998
 30
21.9815
 70
192
 0
VERTEX
 8
GRIFF_1
 10
-1.9721
 20
1.7985
 30
21.9815
 70
192
 0
VERTEX
 8
GRIFF_1
 10
-1.9723
 20
1.7972
 30
21.9815
 70
192
 0
VERTEX
 8
GRIFF_1
 10
-1.9763
 20
1.7959
 30
21.983
 70
192
 0
VERTEX
 8
GRIFF_1
 10
-1.9763
 20
-2.1241
 30
21.2215
 70
192
 0
VERTEX
 8
GRIFF_1
 10
-1.9762
 20
-2.1258
 30
21.2215
 70
192
 0
VERTEX
 8
GRIFF_1
 10
-1.9759
 20
-2.1274
 30
21.2215
 70
192
 0
VERTEX
 8
GRIFF_1
 10
-1.9755
 20
-2.1291
 30
21.2215
 70
192
 0
VERTEX
 8
GRIFF_1
 10
-1.9749
 20
-2.1307
 30
21.2215
 70
192
 0
VERTEX
 8
GRIFF_1
 10
-1.9741
 20
-2.1322
 30
21.2215
 70
192
 0
VERTEX
 8
GRIFF_1
 10
-1.9732
 20
-2.1336
 30
21.2215
 70
192
 0
VERTEX
 8
GRIFF_1
 10
-1.9721
 20
-2.1349
 30
21.2215
 70
192
 0
VERTEX
 8
GRIFF_1
 10
-1.9709
 20
-2.1361
 30
21.2215
 70
192
 0
VERTEX
 8
GRIFF_1
 10
-1.9696
 20
-2.1372
 30
21.2215
 70
192
 0
VERTEX
 8
GRIFF_1
 10
-1.9681
 20
-2.1381
 30
21.2215
 70
192
 0
VERTEX
 8
GRIFF_1
 10
-1.9666
 20
-2.1389
 30
21.2215
 70
192
 0
VERTEX
 8
GRIFF_1
 10
-1.965
 20
-2.1395
 30
21.2215
 70
192
 0
VERTEX
 8
GRIFF_1
 10
-1.9634
 20
-2.14
 30
21.2215
 70
192
 0
VERTEX
 8
GRIFF_1
 10
-1.9617
 20
-2.1402
 30
21.2215
 70
192
 0
VERTEX
 8
GRIFF_1
 10
-1.96
 20
-2.1403
 30
21.2215
 70
192
 0
VERTEX
 8
GRIFF_1
 10
1.96
 20
-2.1403
 30
21.2215
 70
192
 0
VERTEX
 8
GRIFF_1
 10
1.9617
 20
-2.1402
 30
21.2215
 70
192
 0
VERTEX
 8
GRIFF_1
 10
1.9634
 20
-2.14
 30
21.2215
 70
192
 0
VERTEX
 8
GRIFF_1
 10
1.965
 20
-2.1395
 30
21.2215
 70
192
 0
VERTEX
 8
GRIFF_1
 10
1.9666
 20
-2.1389
 30
21.2215
 70
192
 0
VERTEX
 8
GRIFF_1
 10
1.9681
 20
-2.1381
 30
21.2215
 70
192
 0
VERTEX
 8
GRIFF_1
 10
1.9696
 20
-2.1372
 30
21.2215
 70
192
 0
VERTEX
 8
GRIFF_1
 10
1.9709
 20
-2.1361
 30
21.2215
 70
192
 0
VERTEX
 8
GRIFF_1
 10
1.9721
 20
-2.1349
 30
21.2215
 70
192
 0
VERTEX
 8
GRIFF_1
 10
1.9732
 20
-2.1336
 30
21.2215
 70
192
 0
VERTEX
 8
GRIFF_1
 10
1.9741
 20
-2.1322
 30
21.2215
 70
192
 0
VERTEX
 8
GRIFF_1
 10
1.9749
 20
-2.1307
 30
21.2215
 70
192
 0
VERTEX
 8
GRIFF_1
 10
1.9755
 20
-2.1291
 30
21.2215
 70
192
 0
VERTEX
 8
GRIFF_1
 10
1.9759
 20
-2.1274
 30
21.2215
 70
192
 0
VERTEX
 8
GRIFF_1
 10
1.9762
 20
-2.1258
 30
21.2215
 70
192
 0
VERTEX
 8
GRIFF_1
 10
1.9763
 20
-2.1241
 30
21.2215
 70
192
 0
VERTEX
 8
GRIFF_1
 10
1.9763
 20
1.7959
 30
21.983
 70
192
 0
VERTEX
 8
GRIFF_1
 10
1.9762
 20
1.7976
 30
21.983
 70
192
 0
VERTEX
 8
GRIFF_1
 10
1.9759
 20
1.7993
 30
21.983
 70
192
 0
VERTEX
 8
GRIFF_1
 10
1.9755
 20
1.801
 30
21.983
 70
192
 0
VERTEX
 8
GRIFF_1
 10
1.9749
 20
1.8026
 30
21.983
 70
192
 0
VERTEX
 8
GRIFF_1
 10
1.9741
 20
1.8041
 30
21.983
 70
192
 0
VERTEX
 8
GRIFF_1
 10
1.9732
 20
1.8055
 30
21.983
 70
192
 0
VERTEX
 8
GRIFF_1
 10
1.9721
 20
1.8068
 30
21.983
 70
192
 0
VERTEX
 8
GRIFF_1
 10
1.9709
 20
1.808
 30
21.983
 70
192
 0
VERTEX
 8
GRIFF_1
 10
1.9696
 20
1.8091
 30
21.983
 70
192
 0
VERTEX
 8
GRIFF_1
 10
1.9681
 20
1.81
 30
21.983
 70
192
 0
VERTEX
 8
GRIFF_1
 10
1.9666
 20
1.8108
 30
21.983
 70
192
 0
VERTEX
 8
GRIFF_1
 10
1.965
 20
1.8114
 30
21.983
 70
192
 0
VERTEX
 8
GRIFF_1
 10
1.9634
 20
1.8119
 30
21.983
 70
192
 0
VERTEX
 8
GRIFF_1
 10
1.9617
 20
1.8121
 30
21.983
 70
192
 0
VERTEX
 8
GRIFF_1
 10
1.96
 20
1.8122
 30
21.983
 70
192
 0
VERTEX
 8
GRIFF_1
 10
-1.96
 20
1.8122
 30
21.983
 70
192
 0
VERTEX
 8
GRIFF_1
 10
-1.9617
 20
1.8121
 30
21.983
 70
192
 0
VERTEX
 8
GRIFF_1
 10
-1.9634
 20
1.8119
 30
21.983
 70
192
 0
VERTEX
 8
GRIFF_1
 10
-1.965
 20
1.8114
 30
21.983
 70
192
 0
VERTEX
 8
GRIFF_1
 10
-1.9666
 20
1.8108
 30
21.983
 70
192
 0
VERTEX
 8
GRIFF_1
 10
-1.9681
 20
1.81
 30
21.983
 70
192
 0
VERTEX
 8
GRIFF_1
 10
-1.9696
 20
1.8091
 30
21.983
 70
192
 0
VERTEX
 8
GRIFF_1
 10
-1.9709
 20
1.808
 30
21.983
 70
192
 0
VERTEX
 8
GRIFF_1
 10
-1.9721
 20
1.8068
 30
21.983
 70
192
 0
VERTEX
 8
GRIFF_1
 10
-1.9732
 20
1.8055
 30
21.983
 70
192
 0
VERTEX
 8
GRIFF_1
 10
-1.9741
 20
1.8041
 30
21.983
 70
192
 0
VERTEX
 8
GRIFF_1
 10
-1.9749
 20
1.8026
 30
21.983
 70
192
 0
VERTEX
 8
GRIFF_1
 10
-1.9755
 20
1.801
 30
21.983
 70
192
 0
VERTEX
 8
GRIFF_1
 10
-1.9759
 20
1.7993
 30
21.983
 70
192
 0
VERTEX
 8
GRIFF_1
 10
-1.9762
 20
1.7976
 30
21.983
 70
192
 0
VERTEX
 8
GRIFF_1
 10
-1.98
 20
1.7959
 30
21.9849
 70
192
 0
VERTEX
 8
GRIFF_1
 10
-1.98
 20
-2.1241
 30
21.2234
 70
192
 0
VERTEX
 8
GRIFF_1
 10
-1.9799
 20
-2.1261
 30
21.2234
 70
192
 0
VERTEX
 8
GRIFF_1
 10
-1.9796
 20
-2.1282
 30
21.2234
 70
192
 0
VERTEX
 8
GRIFF_1
 10
-1.979
 20
-2.1302
 30
21.2234
 70
192
 0
VERTEX
 8
GRIFF_1
 10
-1.9783
 20
-2.1322
 30
21.2234
 70
192
 0
VERTEX
 8
GRIFF_1
 10
-1.9773
 20
-2.1341
 30
21.2234
 70
192
 0
VERTEX
 8
GRIFF_1
 10
-1.9762
 20
-2.1358
 30
21.2234
 70
192
 0
VERTEX
 8
GRIFF_1
 10
-1.9749
 20
-2.1374
 30
21.2234
 70
192
 0
VERTEX
 8
GRIFF_1
 10
-1.9734
 20
-2.1389
 30
21.2234
 70
192
 0
VERTEX
 8
GRIFF_1
 10
-1.9718
 20
-2.1402
 30
21.2234
 70
192
 0
VERTEX
 8
GRIFF_1
 10
-1.97
 20
-2.1414
 30
21.2234
 70
192
 0
VERTEX
 8
GRIFF_1
 10
-1.9681
 20
-2.1423
 30
21.2234
 70
192
 0
VERTEX
 8
GRIFF_1
 10
-1.9662
 20
-2.1431
 30
21.2234
 70
192
 0
VERTEX
 8
GRIFF_1
 10
-1.9642
 20
-2.1436
 30
21.2234
 70
192
 0
VERTEX
 8
GRIFF_1
 10
-1.9621
 20
-2.1439
 30
21.2234
 70
192
 0
VERTEX
 8
GRIFF_1
 10
-1.96
 20
-2.1441
 30
21.2234
 70
192
 0
VERTEX
 8
GRIFF_1
 10
1.96
 20
-2.1441
 30
21.2234
 70
192
 0
VERTEX
 8
GRIFF_1
 10
1.9621
 20
-2.1439
 30
21.2234
 70
192
 0
VERTEX
 8
GRIFF_1
 10
1.9642
 20
-2.1436
 30
21.2234
 70
192
 0
VERTEX
 8
GRIFF_1
 10
1.9662
 20
-2.1431
 30
21.2234
 70
192
 0
VERTEX
 8
GRIFF_1
 10
1.9681
 20
-2.1423
 30
21.2234
 70
192
 0
VERTEX
 8
GRIFF_1
 10
1.97
 20
-2.1414
 30
21.2234
 70
192
 0
VERTEX
 8
GRIFF_1
 10
1.9718
 20
-2.1402
 30
21.2234
 70
192
 0
VERTEX
 8
GRIFF_1
 10
1.9734
 20
-2.1389
 30
21.2234
 70
192
 0
VERTEX
 8
GRIFF_1
 10
1.9749
 20
-2.1374
 30
21.2234
 70
192
 0
VERTEX
 8
GRIFF_1
 10
1.9762
 20
-2.1358
 30
21.2234
 70
192
 0
VERTEX
 8
GRIFF_1
 10
1.9773
 20
-2.1341
 30
21.2234
 70
192
 0
VERTEX
 8
GRIFF_1
 10
1.9783
 20
-2.1322
 30
21.2234
 70
192
 0
VERTEX
 8
GRIFF_1
 10
1.979
 20
-2.1302
 30
21.2234
 70
192
 0
VERTEX
 8
GRIFF_1
 10
1.9796
 20
-2.1282
 30
21.2234
 70
192
 0
VERTEX
 8
GRIFF_1
 10
1.9799
 20
-2.1261
 30
21.2234
 70
192
 0
VERTEX
 8
GRIFF_1
 10
1.98
 20
-2.1241
 30
21.2234
 70
192
 0
VERTEX
 8
GRIFF_1
 10
1.98
 20
1.7959
 30
21.9849
 70
192
 0
VERTEX
 8
GRIFF_1
 10
1.9799
 20
1.798
 30
21.9849
 70
192
 0
VERTEX
 8
GRIFF_1
 10
1.9796
 20
1.8001
 30
21.9849
 70
192
 0
VERTEX
 8
GRIFF_1
 10
1.979
 20
1.8021
 30
21.9849
 70
192
 0
VERTEX
 8
GRIFF_1
 10
1.9783
 20
1.8041
 30
21.9849
 70
192
 0
VERTEX
 8
GRIFF_1
 10
1.9773
 20
1.8059
 30
21.9849
 70
192
 0
VERTEX
 8
GRIFF_1
 10
1.9762
 20
1.8077
 30
21.9849
 70
192
 0
VERTEX
 8
GRIFF_1
 10
1.9749
 20
1.8093
 30
21.9849
 70
192
 0
VERTEX
 8
GRIFF_1
 10
1.9734
 20
1.8108
 30
21.9849
 70
192
 0
VERTEX
 8
GRIFF_1
 10
1.9718
 20
1.8121
 30
21.9849
 70
192
 0
VERTEX
 8
GRIFF_1
 10
1.97
 20
1.8133
 30
21.9849
 70
192
 0
VERTEX
 8
GRIFF_1
 10
1.9681
 20
1.8142
 30
21.9849
 70
192
 0
VERTEX
 8
GRIFF_1
 10
1.9662
 20
1.815
 30
21.9849
 70
192
 0
VERTEX
 8
GRIFF_1
 10
1.9642
 20
1.8155
 30
21.9849
 70
192
 0
VERTEX
 8
GRIFF_1
 10
1.9621
 20
1.8158
 30
21.9849
 70
192
 0
VERTEX
 8
GRIFF_1
 10
1.96
 20
1.8159
 30
21.9849
 70
192
 0
VERTEX
 8
GRIFF_1
 10
-1.96
 20
1.8159
 30
21.9849
 70
192
 0
VERTEX
 8
GRIFF_1
 10
-1.9621
 20
1.8158
 30
21.9849
 70
192
 0
VERTEX
 8
GRIFF_1
 10
-1.9642
 20
1.8155
 30
21.9849
 70
192
 0
VERTEX
 8
GRIFF_1
 10
-1.9662
 20
1.815
 30
21.9849
 70
192
 0
VERTEX
 8
GRIFF_1
 10
-1.9681
 20
1.8142
 30
21.9849
 70
192
 0
VERTEX
 8
GRIFF_1
 10
-1.97
 20
1.8133
 30
21.9849
 70
192
 0
VERTEX
 8
GRIFF_1
 10
-1.9718
 20
1.8121
 30
21.9849
 70
192
 0
VERTEX
 8
GRIFF_1
 10
-1.9734
 20
1.8108
 30
21.9849
 70
192
 0
VERTEX
 8
GRIFF_1
 10
-1.9749
 20
1.8093
 30
21.9849
 70
192
 0
VERTEX
 8
GRIFF_1
 10
-1.9762
 20
1.8077
 30
21.9849
 70
192
 0
VERTEX
 8
GRIFF_1
 10
-1.9773
 20
1.8059
 30
21.9849
 70
192
 0
VERTEX
 8
GRIFF_1
 10
-1.9783
 20
1.8041
 30
21.9849
 70
192
 0
VERTEX
 8
GRIFF_1
 10
-1.979
 20
1.8021
 30
21.9849
 70
192
 0
VERTEX
 8
GRIFF_1
 10
-1.9796
 20
1.8001
 30
21.9849
 70
192
 0
VERTEX
 8
GRIFF_1
 10
-1.9799
 20
1.798
 30
21.9849
 70
192
 0
VERTEX
 8
GRIFF_1
 10
-1.9835
 20
1.7959
 30
21.9872
 70
192
 0
VERTEX
 8
GRIFF_1
 10
-1.9835
 20
-2.1241
 30
21.2257
 70
192
 0
VERTEX
 8
GRIFF_1
 10
-1.9834
 20
-2.1265
 30
21.2257
 70
192
 0
VERTEX
 8
GRIFF_1
 10
-1.983
 20
-2.1289
 30
21.2257
 70
192
 0
VERTEX
 8
GRIFF_1
 10
-1.9824
 20
-2.1313
 30
21.2257
 70
192
 0
VERTEX
 8
GRIFF_1
 10
-1.9815
 20
-2.1336
 30
21.2257
 70
192
 0
VERTEX
 8
GRIFF_1
 10
-1.9804
 20
-2.1358
 30
21.2257
 70
192
 0
VERTEX
 8
GRIFF_1
 10
-1.979
 20
-2.1379
 30
21.2257
 70
192
 0
VERTEX
 8
GRIFF_1
 10
-1.9775
 20
-2.1398
 30
21.2257
 70
192
 0
VERTEX
 8
GRIFF_1
 10
-1.9757
 20
-2.1415
 30
21.2257
 70
192
 0
VERTEX
 8
GRIFF_1
 10
-1.9738
 20
-2.1431
 30
21.2257
 70
192
 0
VERTEX
 8
GRIFF_1
 10
-1.9718
 20
-2.1444
 30
21.2257
 70
192
 0
VERTEX
 8
GRIFF_1
 10
-1.9696
 20
-2.1455
 30
21.2257
 70
192
 0
VERTEX
 8
GRIFF_1
 10
-1.9673
 20
-2.1464
 30
21.2257
 70
192
 0
VERTEX
 8
GRIFF_1
 10
-1.9649
 20
-2.1471
 30
21.2257
 70
192
 0
VERTEX
 8
GRIFF_1
 10
-1.9625
 20
-2.1474
 30
21.2257
 70
192
 0
VERTEX
 8
GRIFF_1
 10
-1.96
 20
-2.1476
 30
21.2257
 70
192
 0
VERTEX
 8
GRIFF_1
 10
1.96
 20
-2.1476
 30
21.2257
 70
192
 0
VERTEX
 8
GRIFF_1
 10
1.9625
 20
-2.1474
 30
21.2257
 70
192
 0
VERTEX
 8
GRIFF_1
 10
1.9649
 20
-2.1471
 30
21.2257
 70
192
 0
VERTEX
 8
GRIFF_1
 10
1.9673
 20
-2.1464
 30
21.2257
 70
192
 0
VERTEX
 8
GRIFF_1
 10
1.9696
 20
-2.1455
 30
21.2257
 70
192
 0
VERTEX
 8
GRIFF_1
 10
1.9718
 20
-2.1444
 30
21.2257
 70
192
 0
VERTEX
 8
GRIFF_1
 10
1.9738
 20
-2.1431
 30
21.2257
 70
192
 0
VERTEX
 8
GRIFF_1
 10
1.9757
 20
-2.1415
 30
21.2257
 70
192
 0
VERTEX
 8
GRIFF_1
 10
1.9775
 20
-2.1398
 30
21.2257
 70
192
 0
VERTEX
 8
GRIFF_1
 10
1.979
 20
-2.1379
 30
21.2257
 70
192
 0
VERTEX
 8
GRIFF_1
 10
1.9804
 20
-2.1358
 30
21.2257
 70
192
 0
VERTEX
 8
GRIFF_1
 10
1.9815
 20
-2.1336
 30
21.2257
 70
192
 0
VERTEX
 8
GRIFF_1
 10
1.9824
 20
-2.1313
 30
21.2257
 70
192
 0
VERTEX
 8
GRIFF_1
 10
1.983
 20
-2.1289
 30
21.2257
 70
192
 0
VERTEX
 8
GRIFF_1
 10
1.9834
 20
-2.1265
 30
21.2257
 70
192
 0
VERTEX
 8
GRIFF_1
 10
1.9835
 20
-2.1241
 30
21.2257
 70
192
 0
VERTEX
 8
GRIFF_1
 10
1.9835
 20
1.7959
 30
21.9872
 70
192
 0
VERTEX
 8
GRIFF_1
 10
1.9834
 20
1.7984
 30
21.9872
 70
192
 0
VERTEX
 8
GRIFF_1
 10
1.983
 20
1.8008
 30
21.9872
 70
192
 0
VERTEX
 8
GRIFF_1
 10
1.9824
 20
1.8032
 30
21.9872
 70
192
 0
VERTEX
 8
GRIFF_1
 10
1.9815
 20
1.8055
 30
21.9872
 70
192
 0
VERTEX
 8
GRIFF_1
 10
1.9804
 20
1.8077
 30
21.9872
 70
192
 0
VERTEX
 8
GRIFF_1
 10
1.979
 20
1.8098
 30
21.9872
 70
192
 0
VERTEX
 8
GRIFF_1
 10
1.9775
 20
1.8117
 30
21.9872
 70
192
 0
VERTEX
 8
GRIFF_1
 10
1.9757
 20
1.8134
 30
21.9872
 70
192
 0
VERTEX
 8
GRIFF_1
 10
1.9738
 20
1.815
 30
21.9872
 70
192
 0
VERTEX
 8
GRIFF_1
 10
1.9718
 20
1.8163
 30
21.9872
 70
192
 0
VERTEX
 8
GRIFF_1
 10
1.9696
 20
1.8174
 30
21.9872
 70
192
 0
VERTEX
 8
GRIFF_1
 10
1.9673
 20
1.8183
 30
21.9872
 70
192
 0
VERTEX
 8
GRIFF_1
 10
1.9649
 20
1.8189
 30
21.9872
 70
192
 0
VERTEX
 8
GRIFF_1
 10
1.9625
 20
1.8193
 30
21.9872
 70
192
 0
VERTEX
 8
GRIFF_1
 10
1.96
 20
1.8195
 30
21.9872
 70
192
 0
VERTEX
 8
GRIFF_1
 10
-1.96
 20
1.8195
 30
21.9872
 70
192
 0
VERTEX
 8
GRIFF_1
 10
-1.9625
 20
1.8193
 30
21.9872
 70
192
 0
VERTEX
 8
GRIFF_1
 10
-1.9649
 20
1.8189
 30
21.9872
 70
192
 0
VERTEX
 8
GRIFF_1
 10
-1.9673
 20
1.8183
 30
21.9872
 70
192
 0
VERTEX
 8
GRIFF_1
 10
-1.9696
 20
1.8174
 30
21.9872
 70
192
 0
VERTEX
 8
GRIFF_1
 10
-1.9718
 20
1.8163
 30
21.9872
 70
192
 0
VERTEX
 8
GRIFF_1
 10
-1.9738
 20
1.815
 30
21.9872
 70
192
 0
VERTEX
 8
GRIFF_1
 10
-1.9757
 20
1.8134
 30
21.9872
 70
192
 0
VERTEX
 8
GRIFF_1
 10
-1.9775
 20
1.8117
 30
21.9872
 70
192
 0
VERTEX
 8
GRIFF_1
 10
-1.979
 20
1.8098
 30
21.9872
 70
192
 0
VERTEX
 8
GRIFF_1
 10
-1.9804
 20
1.8077
 30
21.9872
 70
192
 0
VERTEX
 8
GRIFF_1
 10
-1.9815
 20
1.8055
 30
21.9872
 70
192
 0
VERTEX
 8
GRIFF_1
 10
-1.9824
 20
1.8032
 30
21.9872
 70
192
 0
VERTEX
 8
GRIFF_1
 10
-1.983
 20
1.8008
 30
21.9872
 70
192
 0
VERTEX
 8
GRIFF_1
 10
-1.9834
 20
1.7984
 30
21.9872
 70
192
 0
VERTEX
 8
GRIFF_1
 10
-1.9868
 20
1.7959
 30
21.9899
 70
192
 0
VERTEX
 8
GRIFF_1
 10
-1.9868
 20
-2.1241
 30
21.2283
 70
192
 0
VERTEX
 8
GRIFF_1
 10
-1.9866
 20
-2.1269
 30
21.2283
 70
192
 0
VERTEX
 8
GRIFF_1
 10
-1.9862
 20
-2.1296
 30
21.2283
 70
192
 0
VERTEX
 8
GRIFF_1
 10
-1.9855
 20
-2.1323
 30
21.2283
 70
192
 0
VERTEX
 8
GRIFF_1
 10
-1.9845
 20
-2.1349
 30
21.2283
 70
192
 0
VERTEX
 8
GRIFF_1
 10
-1.9832
 20
-2.1374
 30
21.2283
 70
192
 0
VERTEX
 8
GRIFF_1
 10
-1.9817
 20
-2.1398
 30
21.2283
 70
192
 0
VERTEX
 8
GRIFF_1
 10
-1.9799
 20
-2.142
 30
21.2283
 70
192
 0
VERTEX
 8
GRIFF_1
 10
-1.9779
 20
-2.1439
 30
21.2283
 70
192
 0
VERTEX
 8
GRIFF_1
 10
-1.9757
 20
-2.1457
 30
21.2283
 70
192
 0
VERTEX
 8
GRIFF_1
 10
-1.9734
 20
-2.1472
 30
21.2283
 70
192
 0
VERTEX
 8
GRIFF_1
 10
-1.9709
 20
-2.1485
 30
21.2283
 70
192
 0
VERTEX
 8
GRIFF_1
 10
-1.9683
 20
-2.1495
 30
21.2283
 70
192
 0
VERTEX
 8
GRIFF_1
 10
-1.9656
 20
-2.1502
 30
21.2283
 70
192
 0
VERTEX
 8
GRIFF_1
 10
-1.9628
 20
-2.1507
 30
21.2283
 70
192
 0
VERTEX
 8
GRIFF_1
 10
-1.96
 20
-2.1508
 30
21.2283
 70
192
 0
VERTEX
 8
GRIFF_1
 10
1.96
 20
-2.1508
 30
21.2283
 70
192
 0
VERTEX
 8
GRIFF_1
 10
1.9628
 20
-2.1507
 30
21.2283
 70
192
 0
VERTEX
 8
GRIFF_1
 10
1.9656
 20
-2.1502
 30
21.2283
 70
192
 0
VERTEX
 8
GRIFF_1
 10
1.9683
 20
-2.1495
 30
21.2283
 70
192
 0
VERTEX
 8
GRIFF_1
 10
1.9709
 20
-2.1485
 30
21.2283
 70
192
 0
VERTEX
 8
GRIFF_1
 10
1.9734
 20
-2.1472
 30
21.2283
 70
192
 0
VERTEX
 8
GRIFF_1
 10
1.9757
 20
-2.1457
 30
21.2283
 70
192
 0
VERTEX
 8
GRIFF_1
 10
1.9779
 20
-2.1439
 30
21.2283
 70
192
 0
VERTEX
 8
GRIFF_1
 10
1.9799
 20
-2.142
 30
21.2283
 70
192
 0
VERTEX
 8
GRIFF_1
 10
1.9817
 20
-2.1398
 30
21.2283
 70
192
 0
VERTEX
 8
GRIFF_1
 10
1.9832
 20
-2.1374
 30
21.2283
 70
192
 0
VERTEX
 8
GRIFF_1
 10
1.9845
 20
-2.1349
 30
21.2283
 70
192
 0
VERTEX
 8
GRIFF_1
 10
1.9855
 20
-2.1323
 30
21.2283
 70
192
 0
VERTEX
 8
GRIFF_1
 10
1.9862
 20
-2.1296
 30
21.2283
 70
192
 0
VERTEX
 8
GRIFF_1
 10
1.9866
 20
-2.1269
 30
21.2283
 70
192
 0
VERTEX
 8
GRIFF_1
 10
1.9868
 20
-2.1241
 30
21.2283
 70
192
 0
VERTEX
 8
GRIFF_1
 10
1.9868
 20
1.7959
 30
21.9899
 70
192
 0
VERTEX
 8
GRIFF_1
 10
1.9866
 20
1.7987
 30
21.9899
 70
192
 0
VERTEX
 8
GRIFF_1
 10
1.9862
 20
1.8015
 30
21.9899
 70
192
 0
VERTEX
 8
GRIFF_1
 10
1.9855
 20
1.8042
 30
21.9899
 70
192
 0
VERTEX
 8
GRIFF_1
 10
1.9845
 20
1.8068
 30
21.9899
 70
192
 0
VERTEX
 8
GRIFF_1
 10
1.9832
 20
1.8093
 30
21.9899
 70
192
 0
VERTEX
 8
GRIFF_1
 10
1.9817
 20
1.8117
 30
21.9899
 70
192
 0
VERTEX
 8
GRIFF_1
 10
1.9799
 20
1.8139
 30
21.9899
 70
192
 0
VERTEX
 8
GRIFF_1
 10
1.9779
 20
1.8158
 30
21.9899
 70
192
 0
VERTEX
 8
GRIFF_1
 10
1.9757
 20
1.8176
 30
21.9899
 70
192
 0
VERTEX
 8
GRIFF_1
 10
1.9734
 20
1.8191
 30
21.9899
 70
192
 0
VERTEX
 8
GRIFF_1
 10
1.9709
 20
1.8204
 30
21.9899
 70
192
 0
VERTEX
 8
GRIFF_1
 10
1.9683
 20
1.8214
 30
21.9899
 70
192
 0
VERTEX
 8
GRIFF_1
 10
1.9656
 20
1.8221
 30
21.9899
 70
192
 0
VERTEX
 8
GRIFF_1
 10
1.9628
 20
1.8226
 30
21.9899
 70
192
 0
VERTEX
 8
GRIFF_1
 10
1.96
 20
1.8227
 30
21.9899
 70
192
 0
VERTEX
 8
GRIFF_1
 10
-1.96
 20
1.8227
 30
21.9899
 70
192
 0
VERTEX
 8
GRIFF_1
 10
-1.9628
 20
1.8226
 30
21.9899
 70
192
 0
VERTEX
 8
GRIFF_1
 10
-1.9656
 20
1.8221
 30
21.9899
 70
192
 0
VERTEX
 8
GRIFF_1
 10
-1.9683
 20
1.8214
 30
21.9899
 70
192
 0
VERTEX
 8
GRIFF_1
 10
-1.9709
 20
1.8204
 30
21.9899
 70
192
 0
VERTEX
 8
GRIFF_1
 10
-1.9734
 20
1.8191
 30
21.9899
 70
192
 0
VERTEX
 8
GRIFF_1
 10
-1.9757
 20
1.8176
 30
21.9899
 70
192
 0
VERTEX
 8
GRIFF_1
 10
-1.9779
 20
1.8158
 30
21.9899
 70
192
 0
VERTEX
 8
GRIFF_1
 10
-1.9799
 20
1.8139
 30
21.9899
 70
192
 0
VERTEX
 8
GRIFF_1
 10
-1.9817
 20
1.8117
 30
21.9899
 70
192
 0
VERTEX
 8
GRIFF_1
 10
-1.9832
 20
1.8093
 30
21.9899
 70
192
 0
VERTEX
 8
GRIFF_1
 10
-1.9845
 20
1.8068
 30
21.9899
 70
192
 0
VERTEX
 8
GRIFF_1
 10
-1.9855
 20
1.8042
 30
21.9899
 70
192
 0
VERTEX
 8
GRIFF_1
 10
-1.9862
 20
1.8015
 30
21.9899
 70
192
 0
VERTEX
 8
GRIFF_1
 10
-1.9866
 20
1.7987
 30
21.9899
 70
192
 0
VERTEX
 8
GRIFF_1
 10
-1.9897
 20
1.7959
 30
21.9928
 70
192
 0
VERTEX
 8
GRIFF_1
 10
-1.9897
 20
-2.1241
 30
21.2313
 70
192
 0
VERTEX
 8
GRIFF_1
 10
-1.9896
 20
-2.1272
 30
21.2313
 70
192
 0
VERTEX
 8
GRIFF_1
 10
-1.9891
 20
-2.1302
 30
21.2313
 70
192
 0
VERTEX
 8
GRIFF_1
 10
-1.9883
 20
-2.1332
 30
21.2313
 70
192
 0
VERTEX
 8
GRIFF_1
 10
-1.9872
 20
-2.1361
 30
21.2313
 70
192
 0
VERTEX
 8
GRIFF_1
 10
-1.9857
 20
-2.1389
 30
21.2313
 70
192
 0
VERTEX
 8
GRIFF_1
 10
-1.984
 20
-2.1415
 30
21.2313
 70
192
 0
VERTEX
 8
GRIFF_1
 10
-1.9821
 20
-2.1439
 30
21.2313
 70
192
 0
VERTEX
 8
GRIFF_1
 10
-1.9799
 20
-2.1461
 30
21.2313
 70
192
 0
VERTEX
 8
GRIFF_1
 10
-1.9775
 20
-2.1481
 30
21.2313
 70
192
 0
VERTEX
 8
GRIFF_1
 10
-1.9749
 20
-2.1498
 30
21.2313
 70
192
 0
VERTEX
 8
GRIFF_1
 10
-1.9721
 20
-2.1512
 30
21.2313
 70
192
 0
VERTEX
 8
GRIFF_1
 10
-1.9692
 20
-2.1523
 30
21.2313
 70
192
 0
VERTEX
 8
GRIFF_1
 10
-1.9662
 20
-2.1531
 30
21.2313
 70
192
 0
VERTEX
 8
GRIFF_1
 10
-1.9631
 20
-2.1536
 30
21.2313
 70
192
 0
VERTEX
 8
GRIFF_1
 10
-1.96
 20
-2.1538
 30
21.2313
 70
192
 0
VERTEX
 8
GRIFF_1
 10
1.96
 20
-2.1538
 30
21.2313
 70
192
 0
VERTEX
 8
GRIFF_1
 10
1.9631
 20
-2.1536
 30
21.2313
 70
192
 0
VERTEX
 8
GRIFF_1
 10
1.9662
 20
-2.1531
 30
21.2313
 70
192
 0
VERTEX
 8
GRIFF_1
 10
1.9692
 20
-2.1523
 30
21.2313
 70
192
 0
VERTEX
 8
GRIFF_1
 10
1.9721
 20
-2.1512
 30
21.2313
 70
192
 0
VERTEX
 8
GRIFF_1
 10
1.9749
 20
-2.1498
 30
21.2313
 70
192
 0
VERTEX
 8
GRIFF_1
 10
1.9775
 20
-2.1481
 30
21.2313
 70
192
 0
VERTEX
 8
GRIFF_1
 10
1.9799
 20
-2.1461
 30
21.2313
 70
192
 0
VERTEX
 8
GRIFF_1
 10
1.9821
 20
-2.1439
 30
21.2313
 70
192
 0
VERTEX
 8
GRIFF_1
 10
1.984
 20
-2.1415
 30
21.2313
 70
192
 0
VERTEX
 8
GRIFF_1
 10
1.9857
 20
-2.1389
 30
21.2313
 70
192
 0
VERTEX
 8
GRIFF_1
 10
1.9872
 20
-2.1361
 30
21.2313
 70
192
 0
VERTEX
 8
GRIFF_1
 10
1.9883
 20
-2.1332
 30
21.2313
 70
192
 0
VERTEX
 8
GRIFF_1
 10
1.9891
 20
-2.1302
 30
21.2313
 70
192
 0
VERTEX
 8
GRIFF_1
 10
1.9896
 20
-2.1272
 30
21.2313
 70
192
 0
VERTEX
 8
GRIFF_1
 10
1.9897
 20
-2.1241
 30
21.2313
 70
192
 0
VERTEX
 8
GRIFF_1
 10
1.9897
 20
1.7959
 30
21.9928
 70
192
 0
VERTEX
 8
GRIFF_1
 10
1.9896
 20
1.7991
 30
21.9928
 70
192
 0
VERTEX
 8
GRIFF_1
 10
1.9891
 20
1.8021
 30
21.9928
 70
192
 0
VERTEX
 8
GRIFF_1
 10
1.9883
 20
1.8051
 30
21.9928
 70
192
 0
VERTEX
 8
GRIFF_1
 10
1.9872
 20
1.808
 30
21.9928
 70
192
 0
VERTEX
 8
GRIFF_1
 10
1.9857
 20
1.8108
 30
21.9928
 70
192
 0
VERTEX
 8
GRIFF_1
 10
1.984
 20
1.8134
 30
21.9928
 70
192
 0
VERTEX
 8
GRIFF_1
 10
1.9821
 20
1.8158
 30
21.9928
 70
192
 0
VERTEX
 8
GRIFF_1
 10
1.9799
 20
1.818
 30
21.9928
 70
192
 0
VERTEX
 8
GRIFF_1
 10
1.9775
 20
1.82
 30
21.9928
 70
192
 0
VERTEX
 8
GRIFF_1
 10
1.9749
 20
1.8217
 30
21.9928
 70
192
 0
VERTEX
 8
GRIFF_1
 10
1.9721
 20
1.8231
 30
21.9928
 70
192
 0
VERTEX
 8
GRIFF_1
 10
1.9692
 20
1.8242
 30
21.9928
 70
192
 0
VERTEX
 8
GRIFF_1
 10
1.9662
 20
1.825
 30
21.9928
 70
192
 0
VERTEX
 8
GRIFF_1
 10
1.9631
 20
1.8255
 30
21.9928
 70
192
 0
VERTEX
 8
GRIFF_1
 10
1.96
 20
1.8257
 30
21.9928
 70
192
 0
VERTEX
 8
GRIFF_1
 10
-1.96
 20
1.8257
 30
21.9928
 70
192
 0
VERTEX
 8
GRIFF_1
 10
-1.9631
 20
1.8255
 30
21.9928
 70
192
 0
VERTEX
 8
GRIFF_1
 10
-1.9662
 20
1.825
 30
21.9928
 70
192
 0
VERTEX
 8
GRIFF_1
 10
-1.9692
 20
1.8242
 30
21.9928
 70
192
 0
VERTEX
 8
GRIFF_1
 10
-1.9721
 20
1.8231
 30
21.9928
 70
192
 0
VERTEX
 8
GRIFF_1
 10
-1.9749
 20
1.8217
 30
21.9928
 70
192
 0
VERTEX
 8
GRIFF_1
 10
-1.9775
 20
1.82
 30
21.9928
 70
192
 0
VERTEX
 8
GRIFF_1
 10
-1.9799
 20
1.818
 30
21.9928
 70
192
 0
VERTEX
 8
GRIFF_1
 10
-1.9821
 20
1.8158
 30
21.9928
 70
192
 0
VERTEX
 8
GRIFF_1
 10
-1.984
 20
1.8134
 30
21.9928
 70
192
 0
VERTEX
 8
GRIFF_1
 10
-1.9857
 20
1.8108
 30
21.9928
 70
192
 0
VERTEX
 8
GRIFF_1
 10
-1.9872
 20
1.808
 30
21.9928
 70
192
 0
VERTEX
 8
GRIFF_1
 10
-1.9883
 20
1.8051
 30
21.9928
 70
192
 0
VERTEX
 8
GRIFF_1
 10
-1.9891
 20
1.8021
 30
21.9928
 70
192
 0
VERTEX
 8
GRIFF_1
 10
-1.9896
 20
1.7991
 30
21.9928
 70
192
 0
VERTEX
 8
GRIFF_1
 10
-1.9924
 20
1.7959
 30
21.9961
 70
192
 0
VERTEX
 8
GRIFF_1
 10
-1.9924
 20
-2.1241
 30
21.2345
 70
192
 0
VERTEX
 8
GRIFF_1
 10
-1.9922
 20
-2.1274
 30
21.2345
 70
192
 0
VERTEX
 8
GRIFF_1
 10
-1.9917
 20
-2.1308
 30
21.2345
 70
192
 0
VERTEX
 8
GRIFF_1
 10
-1.9908
 20
-2.1341
 30
21.2345
 70
192
 0
VERTEX
 8
GRIFF_1
 10
-1.9896
 20
-2.1372
 30
21.2345
 70
192
 0
VERTEX
 8
GRIFF_1
 10
-1.988
 20
-2.1402
 30
21.2345
 70
192
 0
VERTEX
 8
GRIFF_1
 10
-1.9862
 20
-2.1431
 30
21.2345
 70
192
 0
VERTEX
 8
GRIFF_1
 10
-1.984
 20
-2.1457
 30
21.2345
 70
192
 0
VERTEX
 8
GRIFF_1
 10
-1.9817
 20
-2.1481
 30
21.2345
 70
192
 0
VERTEX
 8
GRIFF_1
 10
-1.979
 20
-2.1502
 30
21.2345
 70
192
 0
VERTEX
 8
GRIFF_1
 10
-1.9762
 20
-2.1521
 30
21.2345
 70
192
 0
VERTEX
 8
GRIFF_1
 10
-1.9732
 20
-2.1536
 30
21.2345
 70
192
 0
VERTEX
 8
GRIFF_1
 10
-1.97
 20
-2.1548
 30
21.2345
 70
192
 0
VERTEX
 8
GRIFF_1
 10
-1.9667
 20
-2.1557
 30
21.2345
 70
192
 0
VERTEX
 8
GRIFF_1
 10
-1.9634
 20
-2.1562
 30
21.2345
 70
192
 0
VERTEX
 8
GRIFF_1
 10
-1.96
 20
-2.1564
 30
21.2345
 70
192
 0
VERTEX
 8
GRIFF_1
 10
1.96
 20
-2.1564
 30
21.2345
 70
192
 0
VERTEX
 8
GRIFF_1
 10
1.9634
 20
-2.1562
 30
21.2345
 70
192
 0
VERTEX
 8
GRIFF_1
 10
1.9667
 20
-2.1557
 30
21.2345
 70
192
 0
VERTEX
 8
GRIFF_1
 10
1.97
 20
-2.1548
 30
21.2345
 70
192
 0
VERTEX
 8
GRIFF_1
 10
1.9732
 20
-2.1536
 30
21.2345
 70
192
 0
VERTEX
 8
GRIFF_1
 10
1.9762
 20
-2.1521
 30
21.2345
 70
192
 0
VERTEX
 8
GRIFF_1
 10
1.979
 20
-2.1502
 30
21.2345
 70
192
 0
VERTEX
 8
GRIFF_1
 10
1.9817
 20
-2.1481
 30
21.2345
 70
192
 0
VERTEX
 8
GRIFF_1
 10
1.984
 20
-2.1457
 30
21.2345
 70
192
 0
VERTEX
 8
GRIFF_1
 10
1.9862
 20
-2.1431
 30
21.2345
 70
192
 0
VERTEX
 8
GRIFF_1
 10
1.988
 20
-2.1402
 30
21.2345
 70
192
 0
VERTEX
 8
GRIFF_1
 10
1.9896
 20
-2.1372
 30
21.2345
 70
192
 0
VERTEX
 8
GRIFF_1
 10
1.9908
 20
-2.1341
 30
21.2345
 70
192
 0
VERTEX
 8
GRIFF_1
 10
1.9917
 20
-2.1308
 30
21.2345
 70
192
 0
VERTEX
 8
GRIFF_1
 10
1.9922
 20
-2.1274
 30
21.2345
 70
192
 0
VERTEX
 8
GRIFF_1
 10
1.9924
 20
-2.1241
 30
21.2345
 70
192
 0
VERTEX
 8
GRIFF_1
 10
1.9924
 20
1.7959
 30
21.9961
 70
192
 0
VERTEX
 8
GRIFF_1
 10
1.9922
 20
1.7993
 30
21.9961
 70
192
 0
VERTEX
 8
GRIFF_1
 10
1.9917
 20
1.8027
 30
21.9961
 70
192
 0
VERTEX
 8
GRIFF_1
 10
1.9908
 20
1.8059
 30
21.9961
 70
192
 0
VERTEX
 8
GRIFF_1
 10
1.9896
 20
1.8091
 30
21.9961
 70
192
 0
VERTEX
 8
GRIFF_1
 10
1.988
 20
1.8121
 30
21.9961
 70
192
 0
VERTEX
 8
GRIFF_1
 10
1.9862
 20
1.815
 30
21.9961
 70
192
 0
VERTEX
 8
GRIFF_1
 10
1.984
 20
1.8176
 30
21.9961
 70
192
 0
VERTEX
 8
GRIFF_1
 10
1.9817
 20
1.82
 30
21.9961
 70
192
 0
VERTEX
 8
GRIFF_1
 10
1.979
 20
1.8221
 30
21.9961
 70
192
 0
VERTEX
 8
GRIFF_1
 10
1.9762
 20
1.824
 30
21.9961
 70
192
 0
VERTEX
 8
GRIFF_1
 10
1.9732
 20
1.8255
 30
21.9961
 70
192
 0
VERTEX
 8
GRIFF_1
 10
1.97
 20
1.8267
 30
21.9961
 70
192
 0
VERTEX
 8
GRIFF_1
 10
1.9667
 20
1.8276
 30
21.9961
 70
192
 0
VERTEX
 8
GRIFF_1
 10
1.9634
 20
1.8281
 30
21.9961
 70
192
 0
VERTEX
 8
GRIFF_1
 10
1.96
 20
1.8283
 30
21.9961
 70
192
 0
VERTEX
 8
GRIFF_1
 10
-1.96
 20
1.8283
 30
21.9961
 70
192
 0
VERTEX
 8
GRIFF_1
 10
-1.9634
 20
1.8281
 30
21.9961
 70
192
 0
VERTEX
 8
GRIFF_1
 10
-1.9667
 20
1.8276
 30
21.9961
 70
192
 0
VERTEX
 8
GRIFF_1
 10
-1.97
 20
1.8267
 30
21.9961
 70
192
 0
VERTEX
 8
GRIFF_1
 10
-1.9732
 20
1.8255
 30
21.9961
 70
192
 0
VERTEX
 8
GRIFF_1
 10
-1.9762
 20
1.824
 30
21.9961
 70
192
 0
VERTEX
 8
GRIFF_1
 10
-1.979
 20
1.8221
 30
21.9961
 70
192
 0
VERTEX
 8
GRIFF_1
 10
-1.9817
 20
1.82
 30
21.9961
 70
192
 0
VERTEX
 8
GRIFF_1
 10
-1.984
 20
1.8176
 30
21.9961
 70
192
 0
VERTEX
 8
GRIFF_1
 10
-1.9862
 20
1.815
 30
21.9961
 70
192
 0
VERTEX
 8
GRIFF_1
 10
-1.988
 20
1.8121
 30
21.9961
 70
192
 0
VERTEX
 8
GRIFF_1
 10
-1.9896
 20
1.8091
 30
21.9961
 70
192
 0
VERTEX
 8
GRIFF_1
 10
-1.9908
 20
1.8059
 30
21.9961
 70
192
 0
VERTEX
 8
GRIFF_1
 10
-1.9917
 20
1.8027
 30
21.9961
 70
192
 0
VERTEX
 8
GRIFF_1
 10
-1.9922
 20
1.7993
 30
21.9961
 70
192
 0
VERTEX
 8
GRIFF_1
 10
-1.9946
 20
1.7959
 30
21.9996
 70
192
 0
VERTEX
 8
GRIFF_1
 10
-1.9946
 20
-2.1241
 30
21.238
 70
192
 0
VERTEX
 8
GRIFF_1
 10
-1.9945
 20
-2.1277
 30
21.238
 70
192
 0
VERTEX
 8
GRIFF_1
 10
-1.9939
 20
-2.1313
 30
21.238
 70
192
 0
VERTEX
 8
GRIFF_1
 10
-1.9929
 20
-2.1348
 30
21.238
 70
192
 0
VERTEX
 8
GRIFF_1
 10
-1.9916
 20
-2.1381
 30
21.238
 70
192
 0
VERTEX
 8
GRIFF_1
 10
-1.99
 20
-2.1414
 30
21.238
 70
192
 0
VERTEX
 8
GRIFF_1
 10
-1.988
 20
-2.1444
 30
21.238
 70
192
 0
VERTEX
 8
GRIFF_1
 10
-1.9857
 20
-2.1472
 30
21.238
 70
192
 0
VERTEX
 8
GRIFF_1
 10
-1.9832
 20
-2.1498
 30
21.238
 70
192
 0
VERTEX
 8
GRIFF_1
 10
-1.9804
 20
-2.1521
 30
21.238
 70
192
 0
VERTEX
 8
GRIFF_1
 10
-1.9773
 20
-2.1541
 30
21.238
 70
192
 0
VERTEX
 8
GRIFF_1
 10
-1.9741
 20
-2.1557
 30
21.238
 70
192
 0
VERTEX
 8
GRIFF_1
 10
-1.9707
 20
-2.157
 30
21.238
 70
192
 0
VERTEX
 8
GRIFF_1
 10
-1.9672
 20
-2.1579
 30
21.238
 70
192
 0
VERTEX
 8
GRIFF_1
 10
-1.9636
 20
-2.1585
 30
21.238
 70
192
 0
VERTEX
 8
GRIFF_1
 10
-1.96
 20
-2.1587
 30
21.238
 70
192
 0
VERTEX
 8
GRIFF_1
 10
1.96
 20
-2.1587
 30
21.238
 70
192
 0
VERTEX
 8
GRIFF_1
 10
1.9636
 20
-2.1585
 30
21.238
 70
192
 0
VERTEX
 8
GRIFF_1
 10
1.9672
 20
-2.1579
 30
21.238
 70
192
 0
VERTEX
 8
GRIFF_1
 10
1.9707
 20
-2.157
 30
21.238
 70
192
 0
VERTEX
 8
GRIFF_1
 10
1.9741
 20
-2.1557
 30
21.238
 70
192
 0
VERTEX
 8
GRIFF_1
 10
1.9773
 20
-2.1541
 30
21.238
 70
192
 0
VERTEX
 8
GRIFF_1
 10
1.9804
 20
-2.1521
 30
21.238
 70
192
 0
VERTEX
 8
GRIFF_1
 10
1.9832
 20
-2.1498
 30
21.238
 70
192
 0
VERTEX
 8
GRIFF_1
 10
1.9857
 20
-2.1472
 30
21.238
 70
192
 0
VERTEX
 8
GRIFF_1
 10
1.988
 20
-2.1444
 30
21.238
 70
192
 0
VERTEX
 8
GRIFF_1
 10
1.99
 20
-2.1414
 30
21.238
 70
192
 0
VERTEX
 8
GRIFF_1
 10
1.9916
 20
-2.1381
 30
21.238
 70
192
 0
VERTEX
 8
GRIFF_1
 10
1.9929
 20
-2.1348
 30
21.238
 70
192
 0
VERTEX
 8
GRIFF_1
 10
1.9939
 20
-2.1313
 30
21.238
 70
192
 0
VERTEX
 8
GRIFF_1
 10
1.9945
 20
-2.1277
 30
21.238
 70
192
 0
VERTEX
 8
GRIFF_1
 10
1.9946
 20
-2.1241
 30
21.238
 70
192
 0
VERTEX
 8
GRIFF_1
 10
1.9946
 20
1.7959
 30
21.9996
 70
192
 0
VERTEX
 8
GRIFF_1
 10
1.9945
 20
1.7996
 30
21.9996
 70
192
 0
VERTEX
 8
GRIFF_1
 10
1.9939
 20
1.8031
 30
21.9996
 70
192
 0
VERTEX
 8
GRIFF_1
 10
1.9929
 20
1.8067
 30
21.9996
 70
192
 0
VERTEX
 8
GRIFF_1
 10
1.9916
 20
1.81
 30
21.9996
 70
192
 0
VERTEX
 8
GRIFF_1
 10
1.99
 20
1.8133
 30
21.9996
 70
192
 0
VERTEX
 8
GRIFF_1
 10
1.988
 20
1.8163
 30
21.9996
 70
192
 0
VERTEX
 8
GRIFF_1
 10
1.9857
 20
1.8191
 30
21.9996
 70
192
 0
VERTEX
 8
GRIFF_1
 10
1.9832
 20
1.8217
 30
21.9996
 70
192
 0
VERTEX
 8
GRIFF_1
 10
1.9804
 20
1.824
 30
21.9996
 70
192
 0
VERTEX
 8
GRIFF_1
 10
1.9773
 20
1.8259
 30
21.9996
 70
192
 0
VERTEX
 8
GRIFF_1
 10
1.9741
 20
1.8276
 30
21.9996
 70
192
 0
VERTEX
 8
GRIFF_1
 10
1.9707
 20
1.8289
 30
21.9996
 70
192
 0
VERTEX
 8
GRIFF_1
 10
1.9672
 20
1.8298
 30
21.9996
 70
192
 0
VERTEX
 8
GRIFF_1
 10
1.9636
 20
1.8304
 30
21.9996
 70
192
 0
VERTEX
 8
GRIFF_1
 10
1.96
 20
1.8306
 30
21.9996
 70
192
 0
VERTEX
 8
GRIFF_1
 10
-1.96
 20
1.8306
 30
21.9996
 70
192
 0
VERTEX
 8
GRIFF_1
 10
-1.9636
 20
1.8304
 30
21.9996
 70
192
 0
VERTEX
 8
GRIFF_1
 10
-1.9672
 20
1.8298
 30
21.9996
 70
192
 0
VERTEX
 8
GRIFF_1
 10
-1.9707
 20
1.8289
 30
21.9996
 70
192
 0
VERTEX
 8
GRIFF_1
 10
-1.9741
 20
1.8276
 30
21.9996
 70
192
 0
VERTEX
 8
GRIFF_1
 10
-1.9773
 20
1.8259
 30
21.9996
 70
192
 0
VERTEX
 8
GRIFF_1
 10
-1.9804
 20
1.824
 30
21.9996
 70
192
 0
VERTEX
 8
GRIFF_1
 10
-1.9832
 20
1.8217
 30
21.9996
 70
192
 0
VERTEX
 8
GRIFF_1
 10
-1.9857
 20
1.8191
 30
21.9996
 70
192
 0
VERTEX
 8
GRIFF_1
 10
-1.988
 20
1.8163
 30
21.9996
 70
192
 0
VERTEX
 8
GRIFF_1
 10
-1.99
 20
1.8133
 30
21.9996
 70
192
 0
VERTEX
 8
GRIFF_1
 10
-1.9916
 20
1.81
 30
21.9996
 70
192
 0
VERTEX
 8
GRIFF_1
 10
-1.9929
 20
1.8067
 30
21.9996
 70
192
 0
VERTEX
 8
GRIFF_1
 10
-1.9939
 20
1.8031
 30
21.9996
 70
192
 0
VERTEX
 8
GRIFF_1
 10
-1.9945
 20
1.7996
 30
21.9996
 70
192
 0
VERTEX
 8
GRIFF_1
 10
-1.9965
 20
1.7959
 30
22.0033
 70
192
 0
VERTEX
 8
GRIFF_1
 10
-1.9965
 20
-2.1241
 30
21.2418
 70
192
 0
VERTEX
 8
GRIFF_1
 10
-1.9963
 20
-2.1279
 30
21.2418
 70
192
 0
VERTEX
 8
GRIFF_1
 10
-1.9957
 20
-2.1317
 30
21.2418
 70
192
 0
VERTEX
 8
GRIFF_1
 10
-1.9948
 20
-2.1353
 30
21.2418
 70
192
 0
VERTEX
 8
GRIFF_1
 10
-1.9934
 20
-2.1389
 30
21.2418
 70
192
 0
VERTEX
 8
GRIFF_1
 10
-1.9916
 20
-2.1423
 30
21.2418
 70
192
 0
VERTEX
 8
GRIFF_1
 10
-1.9896
 20
-2.1455
 30
21.2418
 70
192
 0
VERTEX
 8
GRIFF_1
 10
-1.9872
 20
-2.1485
 30
21.2418
 70
192
 0
VERTEX
 8
GRIFF_1
 10
-1.9845
 20
-2.1512
 30
21.2418
 70
192
 0
VERTEX
 8
GRIFF_1
 10
-1.9815
 20
-2.1536
 30
21.2418
 70
192
 0
VERTEX
 8
GRIFF_1
 10
-1.9783
 20
-2.1557
 30
21.2418
 70
192
 0
VERTEX
 8
GRIFF_1
 10
-1.9749
 20
-2.1574
 30
21.2418
 70
192
 0
VERTEX
 8
GRIFF_1
 10
-1.9713
 20
-2.1588
 30
21.2418
 70
192
 0
VERTEX
 8
GRIFF_1
 10
-1.9676
 20
-2.1598
 30
21.2418
 70
192
 0
VERTEX
 8
GRIFF_1
 10
-1.9638
 20
-2.1604
 30
21.2418
 70
192
 0
VERTEX
 8
GRIFF_1
 10
-1.96
 20
-2.1606
 30
21.2418
 70
192
 0
VERTEX
 8
GRIFF_1
 10
1.96
 20
-2.1606
 30
21.2418
 70
192
 0
VERTEX
 8
GRIFF_1
 10
1.9638
 20
-2.1604
 30
21.2418
 70
192
 0
VERTEX
 8
GRIFF_1
 10
1.9676
 20
-2.1598
 30
21.2418
 70
192
 0
VERTEX
 8
GRIFF_1
 10
1.9713
 20
-2.1588
 30
21.2418
 70
192
 0
VERTEX
 8
GRIFF_1
 10
1.9749
 20
-2.1574
 30
21.2418
 70
192
 0
VERTEX
 8
GRIFF_1
 10
1.9783
 20
-2.1557
 30
21.2418
 70
192
 0
VERTEX
 8
GRIFF_1
 10
1.9815
 20
-2.1536
 30
21.2418
 70
192
 0
VERTEX
 8
GRIFF_1
 10
1.9845
 20
-2.1512
 30
21.2418
 70
192
 0
VERTEX
 8
GRIFF_1
 10
1.9872
 20
-2.1485
 30
21.2418
 70
192
 0
VERTEX
 8
GRIFF_1
 10
1.9896
 20
-2.1455
 30
21.2418
 70
192
 0
VERTEX
 8
GRIFF_1
 10
1.9916
 20
-2.1423
 30
21.2418
 70
192
 0
VERTEX
 8
GRIFF_1
 10
1.9934
 20
-2.1389
 30
21.2418
 70
192
 0
VERTEX
 8
GRIFF_1
 10
1.9948
 20
-2.1353
 30
21.2418
 70
192
 0
VERTEX
 8
GRIFF_1
 10
1.9957
 20
-2.1317
 30
21.2418
 70
192
 0
VERTEX
 8
GRIFF_1
 10
1.9963
 20
-2.1279
 30
21.2418
 70
192
 0
VERTEX
 8
GRIFF_1
 10
1.9965
 20
-2.1241
 30
21.2418
 70
192
 0
VERTEX
 8
GRIFF_1
 10
1.9965
 20
1.7959
 30
22.0033
 70
192
 0
VERTEX
 8
GRIFF_1
 10
1.9963
 20
1.7998
 30
22.0033
 70
192
 0
VERTEX
 8
GRIFF_1
 10
1.9957
 20
1.8035
 30
22.0033
 70
192
 0
VERTEX
 8
GRIFF_1
 10
1.9948
 20
1.8072
 30
22.0033
 70
192
 0
VERTEX
 8
GRIFF_1
 10
1.9934
 20
1.8108
 30
22.0033
 70
192
 0
VERTEX
 8
GRIFF_1
 10
1.9916
 20
1.8142
 30
22.0033
 70
192
 0
VERTEX
 8
GRIFF_1
 10
1.9896
 20
1.8174
 30
22.0033
 70
192
 0
VERTEX
 8
GRIFF_1
 10
1.9872
 20
1.8204
 30
22.0033
 70
192
 0
VERTEX
 8
GRIFF_1
 10
1.9845
 20
1.8231
 30
22.0033
 70
192
 0
VERTEX
 8
GRIFF_1
 10
1.9815
 20
1.8255
 30
22.0033
 70
192
 0
VERTEX
 8
GRIFF_1
 10
1.9783
 20
1.8276
 30
22.0033
 70
192
 0
VERTEX
 8
GRIFF_1
 10
1.9749
 20
1.8293
 30
22.0033
 70
192
 0
VERTEX
 8
GRIFF_1
 10
1.9713
 20
1.8307
 30
22.0033
 70
192
 0
VERTEX
 8
GRIFF_1
 10
1.9676
 20
1.8317
 30
22.0033
 70
192
 0
VERTEX
 8
GRIFF_1
 10
1.9638
 20
1.8323
 30
22.0033
 70
192
 0
VERTEX
 8
GRIFF_1
 10
1.96
 20
1.8325
 30
22.0033
 70
192
 0
VERTEX
 8
GRIFF_1
 10
-1.96
 20
1.8325
 30
22.0033
 70
192
 0
VERTEX
 8
GRIFF_1
 10
-1.9638
 20
1.8323
 30
22.0033
 70
192
 0
VERTEX
 8
GRIFF_1
 10
-1.9676
 20
1.8317
 30
22.0033
 70
192
 0
VERTEX
 8
GRIFF_1
 10
-1.9713
 20
1.8307
 30
22.0033
 70
192
 0
VERTEX
 8
GRIFF_1
 10
-1.9749
 20
1.8293
 30
22.0033
 70
192
 0
VERTEX
 8
GRIFF_1
 10
-1.9783
 20
1.8276
 30
22.0033
 70
192
 0
VERTEX
 8
GRIFF_1
 10
-1.9815
 20
1.8255
 30
22.0033
 70
192
 0
VERTEX
 8
GRIFF_1
 10
-1.9845
 20
1.8231
 30
22.0033
 70
192
 0
VERTEX
 8
GRIFF_1
 10
-1.9872
 20
1.8204
 30
22.0033
 70
192
 0
VERTEX
 8
GRIFF_1
 10
-1.9896
 20
1.8174
 30
22.0033
 70
192
 0
VERTEX
 8
GRIFF_1
 10
-1.9916
 20
1.8142
 30
22.0033
 70
192
 0
VERTEX
 8
GRIFF_1
 10
-1.9934
 20
1.8108
 30
22.0033
 70
192
 0
VERTEX
 8
GRIFF_1
 10
-1.9948
 20
1.8072
 30
22.0033
 70
192
 0
VERTEX
 8
GRIFF_1
 10
-1.9957
 20
1.8035
 30
22.0033
 70
192
 0
VERTEX
 8
GRIFF_1
 10
-1.9963
 20
1.7998
 30
22.0033
 70
192
 0
VERTEX
 8
GRIFF_1
 10
-1.998
 20
1.7959
 30
22.0072
 70
192
 0
VERTEX
 8
GRIFF_1
 10
-1.998
 20
-2.1241
 30
21.2457
 70
192
 0
VERTEX
 8
GRIFF_1
 10
-1.9978
 20
-2.128
 30
21.2457
 70
192
 0
VERTEX
 8
GRIFF_1
 10
-1.9972
 20
-2.132
 30
21.2457
 70
192
 0
VERTEX
 8
GRIFF_1
 10
-1.9962
 20
-2.1358
 30
21.2457
 70
192
 0
VERTEX
 8
GRIFF_1
 10
-1.9948
 20
-2.1395
 30
21.2457
 70
192
 0
VERTEX
 8
GRIFF_1
 10
-1.9929
 20
-2.1431
 30
21.2457
 70
192
 0
VERTEX
 8
GRIFF_1
 10
-1.9908
 20
-2.1464
 30
21.2457
 70
192
 0
VERTEX
 8
GRIFF_1
 10
-1.9883
 20
-2.1495
 30
21.2457
 70
192
 0
VERTEX
 8
GRIFF_1
 10
-1.9855
 20
-2.1523
 30
21.2457
 70
192
 0
VERTEX
 8
GRIFF_1
 10
-1.9824
 20
-2.1548
 30
21.2457
 70
192
 0
VERTEX
 8
GRIFF_1
 10
-1.979
 20
-2.157
 30
21.2457
 70
192
 0
VERTEX
 8
GRIFF_1
 10
-1.9755
 20
-2.1588
 30
21.2457
 70
192
 0
VERTEX
 8
GRIFF_1
 10
-1.9718
 20
-2.1602
 30
21.2457
 70
192
 0
VERTEX
 8
GRIFF_1
 10
-1.9679
 20
-2.1613
 30
21.2457
 70
192
 0
VERTEX
 8
GRIFF_1
 10
-1.964
 20
-2.1619
 30
21.2457
 70
192
 0
VERTEX
 8
GRIFF_1
 10
-1.96
 20
-2.1621
 30
21.2457
 70
192
 0
VERTEX
 8
GRIFF_1
 10
1.96
 20
-2.1621
 30
21.2457
 70
192
 0
VERTEX
 8
GRIFF_1
 10
1.964
 20
-2.1619
 30
21.2457
 70
192
 0
VERTEX
 8
GRIFF_1
 10
1.9679
 20
-2.1613
 30
21.2457
 70
192
 0
VERTEX
 8
GRIFF_1
 10
1.9718
 20
-2.1602
 30
21.2457
 70
192
 0
VERTEX
 8
GRIFF_1
 10
1.9755
 20
-2.1588
 30
21.2457
 70
192
 0
VERTEX
 8
GRIFF_1
 10
1.979
 20
-2.157
 30
21.2457
 70
192
 0
VERTEX
 8
GRIFF_1
 10
1.9824
 20
-2.1548
 30
21.2457
 70
192
 0
VERTEX
 8
GRIFF_1
 10
1.9855
 20
-2.1523
 30
21.2457
 70
192
 0
VERTEX
 8
GRIFF_1
 10
1.9883
 20
-2.1495
 30
21.2457
 70
192
 0
VERTEX
 8
GRIFF_1
 10
1.9908
 20
-2.1464
 30
21.2457
 70
192
 0
VERTEX
 8
GRIFF_1
 10
1.9929
 20
-2.1431
 30
21.2457
 70
192
 0
VERTEX
 8
GRIFF_1
 10
1.9948
 20
-2.1395
 30
21.2457
 70
192
 0
VERTEX
 8
GRIFF_1
 10
1.9962
 20
-2.1358
 30
21.2457
 70
192
 0
VERTEX
 8
GRIFF_1
 10
1.9972
 20
-2.132
 30
21.2457
 70
192
 0
VERTEX
 8
GRIFF_1
 10
1.9978
 20
-2.128
 30
21.2457
 70
192
 0
VERTEX
 8
GRIFF_1
 10
1.998
 20
-2.1241
 30
21.2457
 70
192
 0
VERTEX
 8
GRIFF_1
 10
1.998
 20
1.7959
 30
22.0072
 70
192
 0
VERTEX
 8
GRIFF_1
 10
1.9978
 20
1.7999
 30
22.0072
 70
192
 0
VERTEX
 8
GRIFF_1
 10
1.9972
 20
1.8039
 30
22.0072
 70
192
 0
VERTEX
 8
GRIFF_1
 10
1.9962
 20
1.8077
 30
22.0072
 70
192
 0
VERTEX
 8
GRIFF_1
 10
1.9948
 20
1.8114
 30
22.0072
 70
192
 0
VERTEX
 8
GRIFF_1
 10
1.9929
 20
1.815
 30
22.0072
 70
192
 0
VERTEX
 8
GRIFF_1
 10
1.9908
 20
1.8183
 30
22.0072
 70
192
 0
VERTEX
 8
GRIFF_1
 10
1.9883
 20
1.8214
 30
22.0072
 70
192
 0
VERTEX
 8
GRIFF_1
 10
1.9855
 20
1.8242
 30
22.0072
 70
192
 0
VERTEX
 8
GRIFF_1
 10
1.9824
 20
1.8267
 30
22.0072
 70
192
 0
VERTEX
 8
GRIFF_1
 10
1.979
 20
1.8289
 30
22.0072
 70
192
 0
VERTEX
 8
GRIFF_1
 10
1.9755
 20
1.8307
 30
22.0072
 70
192
 0
VERTEX
 8
GRIFF_1
 10
1.9718
 20
1.8321
 30
22.0072
 70
192
 0
VERTEX
 8
GRIFF_1
 10
1.9679
 20
1.8332
 30
22.0072
 70
192
 0
VERTEX
 8
GRIFF_1
 10
1.964
 20
1.8338
 30
22.0072
 70
192
 0
VERTEX
 8
GRIFF_1
 10
1.96
 20
1.834
 30
22.0072
 70
192
 0
VERTEX
 8
GRIFF_1
 10
-1.96
 20
1.834
 30
22.0072
 70
192
 0
VERTEX
 8
GRIFF_1
 10
-1.964
 20
1.8338
 30
22.0072
 70
192
 0
VERTEX
 8
GRIFF_1
 10
-1.9679
 20
1.8332
 30
22.0072
 70
192
 0
VERTEX
 8
GRIFF_1
 10
-1.9718
 20
1.8321
 30
22.0072
 70
192
 0
VERTEX
 8
GRIFF_1
 10
-1.9755
 20
1.8307
 30
22.0072
 70
192
 0
VERTEX
 8
GRIFF_1
 10
-1.979
 20
1.8289
 30
22.0072
 70
192
 0
VERTEX
 8
GRIFF_1
 10
-1.9824
 20
1.8267
 30
22.0072
 70
192
 0
VERTEX
 8
GRIFF_1
 10
-1.9855
 20
1.8242
 30
22.0072
 70
192
 0
VERTEX
 8
GRIFF_1
 10
-1.9883
 20
1.8214
 30
22.0072
 70
192
 0
VERTEX
 8
GRIFF_1
 10
-1.9908
 20
1.8183
 30
22.0072
 70
192
 0
VERTEX
 8
GRIFF_1
 10
-1.9929
 20
1.815
 30
22.0072
 70
192
 0
VERTEX
 8
GRIFF_1
 10
-1.9948
 20
1.8114
 30
22.0072
 70
192
 0
VERTEX
 8
GRIFF_1
 10
-1.9962
 20
1.8077
 30
22.0072
 70
192
 0
VERTEX
 8
GRIFF_1
 10
-1.9972
 20
1.8039
 30
22.0072
 70
192
 0
VERTEX
 8
GRIFF_1
 10
-1.9978
 20
1.7999
 30
22.0072
 70
192
 0
VERTEX
 8
GRIFF_1
 10
-1.9991
 20
1.7959
 30
22.0113
 70
192
 0
VERTEX
 8
GRIFF_1
 10
-1.9991
 20
-2.1241
 30
21.2497
 70
192
 0
VERTEX
 8
GRIFF_1
 10
-1.9989
 20
-2.1281
 30
21.2497
 70
192
 0
VERTEX
 8
GRIFF_1
 10
-1.9983
 20
-2.1322
 30
21.2497
 70
192
 0
VERTEX
 8
GRIFF_1
 10
-1.9972
 20
-2.1361
 30
21.2497
 70
192
 0
VERTEX
 8
GRIFF_1
 10
-1.9957
 20
-2.14
 30
21.2497
 70
192
 0
VERTEX
 8
GRIFF_1
 10
-1.9939
 20
-2.1436
 30
21.2497
 70
192
 0
VERTEX
 8
GRIFF_1
 10
-1.9917
 20
-2.1471
 30
21.2497
 70
192
 0
VERTEX
 8
GRIFF_1
 10
-1.9891
 20
-2.1502
 30
21.2497
 70
192
 0
VERTEX
 8
GRIFF_1
 10
-1.9862
 20
-2.1531
 30
21.2497
 70
192
 0
VERTEX
 8
GRIFF_1
 10
-1.983
 20
-2.1557
 30
21.2497
 70
192
 0
VERTEX
 8
GRIFF_1
 10
-1.9796
 20
-2.1579
 30
21.2497
 70
192
 0
VERTEX
 8
GRIFF_1
 10
-1.9759
 20
-2.1598
 30
21.2497
 70
192
 0
VERTEX
 8
GRIFF_1
 10
-1.9721
 20
-2.1613
 30
21.2497
 70
192
 0
VERTEX
 8
GRIFF_1
 10
-1.9681
 20
-2.1623
 30
21.2497
 70
192
 0
VERTEX
 8
GRIFF_1
 10
-1.9641
 20
-2.163
 30
21.2497
 70
192
 0
VERTEX
 8
GRIFF_1
 10
-1.96
 20
-2.1632
 30
21.2497
 70
192
 0
VERTEX
 8
GRIFF_1
 10
1.96
 20
-2.1632
 30
21.2497
 70
192
 0
VERTEX
 8
GRIFF_1
 10
1.9641
 20
-2.163
 30
21.2497
 70
192
 0
VERTEX
 8
GRIFF_1
 10
1.9681
 20
-2.1623
 30
21.2497
 70
192
 0
VERTEX
 8
GRIFF_1
 10
1.9721
 20
-2.1613
 30
21.2497
 70
192
 0
VERTEX
 8
GRIFF_1
 10
1.9759
 20
-2.1598
 30
21.2497
 70
192
 0
VERTEX
 8
GRIFF_1
 10
1.9796
 20
-2.1579
 30
21.2497
 70
192
 0
VERTEX
 8
GRIFF_1
 10
1.983
 20
-2.1557
 30
21.2497
 70
192
 0
VERTEX
 8
GRIFF_1
 10
1.9862
 20
-2.1531
 30
21.2497
 70
192
 0
VERTEX
 8
GRIFF_1
 10
1.9891
 20
-2.1502
 30
21.2497
 70
192
 0
VERTEX
 8
GRIFF_1
 10
1.9917
 20
-2.1471
 30
21.2497
 70
192
 0
VERTEX
 8
GRIFF_1
 10
1.9939
 20
-2.1436
 30
21.2497
 70
192
 0
VERTEX
 8
GRIFF_1
 10
1.9957
 20
-2.14
 30
21.2497
 70
192
 0
VERTEX
 8
GRIFF_1
 10
1.9972
 20
-2.1361
 30
21.2497
 70
192
 0
VERTEX
 8
GRIFF_1
 10
1.9983
 20
-2.1322
 30
21.2497
 70
192
 0
VERTEX
 8
GRIFF_1
 10
1.9989
 20
-2.1281
 30
21.2497
 70
192
 0
VERTEX
 8
GRIFF_1
 10
1.9991
 20
-2.1241
 30
21.2497
 70
192
 0
VERTEX
 8
GRIFF_1
 10
1.9991
 20
1.7959
 30
22.0113
 70
192
 0
VERTEX
 8
GRIFF_1
 10
1.9989
 20
1.8
 30
22.0113
 70
192
 0
VERTEX
 8
GRIFF_1
 10
1.9983
 20
1.8041
 30
22.0113
 70
192
 0
VERTEX
 8
GRIFF_1
 10
1.9972
 20
1.808
 30
22.0113
 70
192
 0
VERTEX
 8
GRIFF_1
 10
1.9957
 20
1.8119
 30
22.0113
 70
192
 0
VERTEX
 8
GRIFF_1
 10
1.9939
 20
1.8155
 30
22.0113
 70
192
 0
VERTEX
 8
GRIFF_1
 10
1.9917
 20
1.8189
 30
22.0113
 70
192
 0
VERTEX
 8
GRIFF_1
 10
1.9891
 20
1.8221
 30
22.0113
 70
192
 0
VERTEX
 8
GRIFF_1
 10
1.9862
 20
1.825
 30
22.0113
 70
192
 0
VERTEX
 8
GRIFF_1
 10
1.983
 20
1.8276
 30
22.0113
 70
192
 0
VERTEX
 8
GRIFF_1
 10
1.9796
 20
1.8298
 30
22.0113
 70
192
 0
VERTEX
 8
GRIFF_1
 10
1.9759
 20
1.8317
 30
22.0113
 70
192
 0
VERTEX
 8
GRIFF_1
 10
1.9721
 20
1.8332
 30
22.0113
 70
192
 0
VERTEX
 8
GRIFF_1
 10
1.9681
 20
1.8342
 30
22.0113
 70
192
 0
VERTEX
 8
GRIFF_1
 10
1.9641
 20
1.8349
 30
22.0113
 70
192
 0
VERTEX
 8
GRIFF_1
 10
1.96
 20
1.8351
 30
22.0113
 70
192
 0
VERTEX
 8
GRIFF_1
 10
-1.96
 20
1.8351
 30
22.0113
 70
192
 0
VERTEX
 8
GRIFF_1
 10
-1.9641
 20
1.8349
 30
22.0113
 70
192
 0
VERTEX
 8
GRIFF_1
 10
-1.9681
 20
1.8342
 30
22.0113
 70
192
 0
VERTEX
 8
GRIFF_1
 10
-1.9721
 20
1.8332
 30
22.0113
 70
192
 0
VERTEX
 8
GRIFF_1
 10
-1.9759
 20
1.8317
 30
22.0113
 70
192
 0
VERTEX
 8
GRIFF_1
 10
-1.9796
 20
1.8298
 30
22.0113
 70
192
 0
VERTEX
 8
GRIFF_1
 10
-1.983
 20
1.8276
 30
22.0113
 70
192
 0
VERTEX
 8
GRIFF_1
 10
-1.9862
 20
1.825
 30
22.0113
 70
192
 0
VERTEX
 8
GRIFF_1
 10
-1.9891
 20
1.8221
 30
22.0113
 70
192
 0
VERTEX
 8
GRIFF_1
 10
-1.9917
 20
1.8189
 30
22.0113
 70
192
 0
VERTEX
 8
GRIFF_1
 10
-1.9939
 20
1.8155
 30
22.0113
 70
192
 0
VERTEX
 8
GRIFF_1
 10
-1.9957
 20
1.8119
 30
22.0113
 70
192
 0
VERTEX
 8
GRIFF_1
 10
-1.9972
 20
1.808
 30
22.0113
 70
192
 0
VERTEX
 8
GRIFF_1
 10
-1.9983
 20
1.8041
 30
22.0113
 70
192
 0
VERTEX
 8
GRIFF_1
 10
-1.9989
 20
1.8
 30
22.0113
 70
192
 0
VERTEX
 8
GRIFF_1
 10
-1.9998
 20
1.7959
 30
22.0154
 70
192
 0
VERTEX
 8
GRIFF_1
 10
-1.9998
 20
-2.1241
 30
21.2539
 70
192
 0
VERTEX
 8
GRIFF_1
 10
-1.9996
 20
-2.1282
 30
21.2539
 70
192
 0
VERTEX
 8
GRIFF_1
 10
-1.9989
 20
-2.1323
 30
21.2539
 70
192
 0
VERTEX
 8
GRIFF_1
 10
-1.9978
 20
-2.1363
 30
21.2539
 70
192
 0
VERTEX
 8
GRIFF_1
 10
-1.9963
 20
-2.1402
 30
21.2539
 70
192
 0
VERTEX
 8
GRIFF_1
 10
-1.9945
 20
-2.1439
 30
21.2539
 70
192
 0
VERTEX
 8
GRIFF_1
 10
-1.9922
 20
-2.1474
 30
21.2539
 70
192
 0
VERTEX
 8
GRIFF_1
 10
-1.9896
 20
-2.1507
 30
21.2539
 70
192
 0
VERTEX
 8
GRIFF_1
 10
-1.9866
 20
-2.1536
 30
21.2539
 70
192
 0
VERTEX
 8
GRIFF_1
 10
-1.9834
 20
-2.1562
 30
21.2539
 70
192
 0
VERTEX
 8
GRIFF_1
 10
-1.9799
 20
-2.1585
 30
21.2539
 70
192
 0
VERTEX
 8
GRIFF_1
 10
-1.9762
 20
-2.1604
 30
21.2539
 70
192
 0
VERTEX
 8
GRIFF_1
 10
-1.9723
 20
-2.1619
 30
21.2539
 70
192
 0
VERTEX
 8
GRIFF_1
 10
-1.9683
 20
-2.163
 30
21.2539
 70
192
 0
VERTEX
 8
GRIFF_1
 10
-1.9642
 20
-2.1636
 30
21.2539
 70
192
 0
VERTEX
 8
GRIFF_1
 10
-1.96
 20
-2.1638
 30
21.2539
 70
192
 0
VERTEX
 8
GRIFF_1
 10
1.96
 20
-2.1638
 30
21.2539
 70
192
 0
VERTEX
 8
GRIFF_1
 10
1.9642
 20
-2.1636
 30
21.2539
 70
192
 0
VERTEX
 8
GRIFF_1
 10
1.9683
 20
-2.163
 30
21.2539
 70
192
 0
VERTEX
 8
GRIFF_1
 10
1.9723
 20
-2.1619
 30
21.2539
 70
192
 0
VERTEX
 8
GRIFF_1
 10
1.9762
 20
-2.1604
 30
21.2539
 70
192
 0
VERTEX
 8
GRIFF_1
 10
1.9799
 20
-2.1585
 30
21.2539
 70
192
 0
VERTEX
 8
GRIFF_1
 10
1.9834
 20
-2.1562
 30
21.2539
 70
192
 0
VERTEX
 8
GRIFF_1
 10
1.9866
 20
-2.1536
 30
21.2539
 70
192
 0
VERTEX
 8
GRIFF_1
 10
1.9896
 20
-2.1507
 30
21.2539
 70
192
 0
VERTEX
 8
GRIFF_1
 10
1.9922
 20
-2.1474
 30
21.2539
 70
192
 0
VERTEX
 8
GRIFF_1
 10
1.9945
 20
-2.1439
 30
21.2539
 70
192
 0
VERTEX
 8
GRIFF_1
 10
1.9963
 20
-2.1402
 30
21.2539
 70
192
 0
VERTEX
 8
GRIFF_1
 10
1.9978
 20
-2.1363
 30
21.2539
 70
192
 0
VERTEX
 8
GRIFF_1
 10
1.9989
 20
-2.1323
 30
21.2539
 70
192
 0
VERTEX
 8
GRIFF_1
 10
1.9996
 20
-2.1282
 30
21.2539
 70
192
 0
VERTEX
 8
GRIFF_1
 10
1.9998
 20
-2.1241
 30
21.2539
 70
192
 0
VERTEX
 8
GRIFF_1
 10
1.9998
 20
1.7959
 30
22.0154
 70
192
 0
VERTEX
 8
GRIFF_1
 10
1.9996
 20
1.8001
 30
22.0154
 70
192
 0
VERTEX
 8
GRIFF_1
 10
1.9989
 20
1.8042
 30
22.0154
 70
192
 0
VERTEX
 8
GRIFF_1
 10
1.9978
 20
1.8082
 30
22.0154
 70
192
 0
VERTEX
 8
GRIFF_1
 10
1.9963
 20
1.8121
 30
22.0154
 70
192
 0
VERTEX
 8
GRIFF_1
 10
1.9945
 20
1.8158
 30
22.0154
 70
192
 0
VERTEX
 8
GRIFF_1
 10
1.9922
 20
1.8193
 30
22.0154
 70
192
 0
VERTEX
 8
GRIFF_1
 10
1.9896
 20
1.8226
 30
22.0154
 70
192
 0
VERTEX
 8
GRIFF_1
 10
1.9866
 20
1.8255
 30
22.0154
 70
192
 0
VERTEX
 8
GRIFF_1
 10
1.9834
 20
1.8281
 30
22.0154
 70
192
 0
VERTEX
 8
GRIFF_1
 10
1.9799
 20
1.8304
 30
22.0154
 70
192
 0
VERTEX
 8
GRIFF_1
 10
1.9762
 20
1.8323
 30
22.0154
 70
192
 0
VERTEX
 8
GRIFF_1
 10
1.9723
 20
1.8338
 30
22.0154
 70
192
 0
VERTEX
 8
GRIFF_1
 10
1.9683
 20
1.8349
 30
22.0154
 70
192
 0
VERTEX
 8
GRIFF_1
 10
1.9642
 20
1.8355
 30
22.0154
 70
192
 0
VERTEX
 8
GRIFF_1
 10
1.96
 20
1.8357
 30
22.0154
 70
192
 0
VERTEX
 8
GRIFF_1
 10
-1.96
 20
1.8357
 30
22.0154
 70
192
 0
VERTEX
 8
GRIFF_1
 10
-1.9642
 20
1.8355
 30
22.0154
 70
192
 0
VERTEX
 8
GRIFF_1
 10
-1.9683
 20
1.8349
 30
22.0154
 70
192
 0
VERTEX
 8
GRIFF_1
 10
-1.9723
 20
1.8338
 30
22.0154
 70
192
 0
VERTEX
 8
GRIFF_1
 10
-1.9762
 20
1.8323
 30
22.0154
 70
192
 0
VERTEX
 8
GRIFF_1
 10
-1.9799
 20
1.8304
 30
22.0154
 70
192
 0
VERTEX
 8
GRIFF_1
 10
-1.9834
 20
1.8281
 30
22.0154
 70
192
 0
VERTEX
 8
GRIFF_1
 10
-1.9866
 20
1.8255
 30
22.0154
 70
192
 0
VERTEX
 8
GRIFF_1
 10
-1.9896
 20
1.8226
 30
22.0154
 70
192
 0
VERTEX
 8
GRIFF_1
 10
-1.9922
 20
1.8193
 30
22.0154
 70
192
 0
VERTEX
 8
GRIFF_1
 10
-1.9945
 20
1.8158
 30
22.0154
 70
192
 0
VERTEX
 8
GRIFF_1
 10
-1.9963
 20
1.8121
 30
22.0154
 70
192
 0
VERTEX
 8
GRIFF_1
 10
-1.9978
 20
1.8082
 30
22.0154
 70
192
 0
VERTEX
 8
GRIFF_1
 10
-1.9989
 20
1.8042
 30
22.0154
 70
192
 0
VERTEX
 8
GRIFF_1
 10
-1.9996
 20
1.8001
 30
22.0154
 70
192
 0
VERTEX
 8
GRIFF_1
 10
-2
 20
1.7959
 30
22.0196
 70
192
 0
VERTEX
 8
GRIFF_1
 10
-2
 20
-2.1241
 30
21.258
 70
192
 0
VERTEX
 8
GRIFF_1
 10
-1.9998
 20
-2.1282
 30
21.258
 70
192
 0
VERTEX
 8
GRIFF_1
 10
-1.9991
 20
-2.1324
 30
21.258
 70
192
 0
VERTEX
 8
GRIFF_1
 10
-1.998
 20
-2.1364
 30
21.258
 70
192
 0
VERTEX
 8
GRIFF_1
 10
-1.9965
 20
-2.1403
 30
21.258
 70
192
 0
VERTEX
 8
GRIFF_1
 10
-1.9946
 20
-2.1441
 30
21.258
 70
192
 0
VERTEX
 8
GRIFF_1
 10
-1.9924
 20
-2.1476
 30
21.258
 70
192
 0
VERTEX
 8
GRIFF_1
 10
-1.9897
 20
-2.1508
 30
21.258
 70
192
 0
VERTEX
 8
GRIFF_1
 10
-1.9868
 20
-2.1538
 30
21.258
 70
192
 0
VERTEX
 8
GRIFF_1
 10
-1.9835
 20
-2.1564
 30
21.258
 70
192
 0
VERTEX
 8
GRIFF_1
 10
-1.98
 20
-2.1587
 30
21.258
 70
192
 0
VERTEX
 8
GRIFF_1
 10
-1.9763
 20
-2.1606
 30
21.258
 70
192
 0
VERTEX
 8
GRIFF_1
 10
-1.9724
 20
-2.1621
 30
21.258
 70
192
 0
VERTEX
 8
GRIFF_1
 10
-1.9683
 20
-2.1632
 30
21.258
 70
192
 0
VERTEX
 8
GRIFF_1
 10
-1.9642
 20
-2.1638
 30
21.258
 70
192
 0
VERTEX
 8
GRIFF_1
 10
-1.96
 20
-2.1641
 30
21.258
 70
192
 0
VERTEX
 8
GRIFF_1
 10
1.96
 20
-2.1641
 30
21.258
 70
192
 0
VERTEX
 8
GRIFF_1
 10
1.9642
 20
-2.1638
 30
21.258
 70
192
 0
VERTEX
 8
GRIFF_1
 10
1.9683
 20
-2.1632
 30
21.258
 70
192
 0
VERTEX
 8
GRIFF_1
 10
1.9724
 20
-2.1621
 30
21.258
 70
192
 0
VERTEX
 8
GRIFF_1
 10
1.9763
 20
-2.1606
 30
21.258
 70
192
 0
VERTEX
 8
GRIFF_1
 10
1.98
 20
-2.1587
 30
21.258
 70
192
 0
VERTEX
 8
GRIFF_1
 10
1.9835
 20
-2.1564
 30
21.258
 70
192
 0
VERTEX
 8
GRIFF_1
 10
1.9868
 20
-2.1538
 30
21.258
 70
192
 0
VERTEX
 8
GRIFF_1
 10
1.9897
 20
-2.1508
 30
21.258
 70
192
 0
VERTEX
 8
GRIFF_1
 10
1.9924
 20
-2.1476
 30
21.258
 70
192
 0
VERTEX
 8
GRIFF_1
 10
1.9946
 20
-2.1441
 30
21.258
 70
192
 0
VERTEX
 8
GRIFF_1
 10
1.9965
 20
-2.1403
 30
21.258
 70
192
 0
VERTEX
 8
GRIFF_1
 10
1.998
 20
-2.1364
 30
21.258
 70
192
 0
VERTEX
 8
GRIFF_1
 10
1.9991
 20
-2.1324
 30
21.258
 70
192
 0
VERTEX
 8
GRIFF_1
 10
1.9998
 20
-2.1282
 30
21.258
 70
192
 0
VERTEX
 8
GRIFF_1
 10
2
 20
-2.1241
 30
21.258
 70
192
 0
VERTEX
 8
GRIFF_1
 10
2
 20
1.7959
 30
22.0196
 70
192
 0
VERTEX
 8
GRIFF_1
 10
1.9998
 20
1.8001
 30
22.0196
 70
192
 0
VERTEX
 8
GRIFF_1
 10
1.9991
 20
1.8043
 30
22.0196
 70
192
 0
VERTEX
 8
GRIFF_1
 10
1.998
 20
1.8083
 30
22.0196
 70
192
 0
VERTEX
 8
GRIFF_1
 10
1.9965
 20
1.8122
 30
22.0196
 70
192
 0
VERTEX
 8
GRIFF_1
 10
1.9946
 20
1.8159
 30
22.0196
 70
192
 0
VERTEX
 8
GRIFF_1
 10
1.9924
 20
1.8195
 30
22.0196
 70
192
 0
VERTEX
 8
GRIFF_1
 10
1.9897
 20
1.8227
 30
22.0196
 70
192
 0
VERTEX
 8
GRIFF_1
 10
1.9868
 20
1.8257
 30
22.0196
 70
192
 0
VERTEX
 8
GRIFF_1
 10
1.9835
 20
1.8283
 30
22.0196
 70
192
 0
VERTEX
 8
GRIFF_1
 10
1.98
 20
1.8306
 30
22.0196
 70
192
 0
VERTEX
 8
GRIFF_1
 10
1.9763
 20
1.8325
 30
22.0196
 70
192
 0
VERTEX
 8
GRIFF_1
 10
1.9724
 20
1.834
 30
22.0196
 70
192
 0
VERTEX
 8
GRIFF_1
 10
1.9683
 20
1.8351
 30
22.0196
 70
192
 0
VERTEX
 8
GRIFF_1
 10
1.9642
 20
1.8357
 30
22.0196
 70
192
 0
VERTEX
 8
GRIFF_1
 10
1.96
 20
1.8359
 30
22.0196
 70
192
 0
VERTEX
 8
GRIFF_1
 10
-1.96
 20
1.8359
 30
22.0196
 70
192
 0
VERTEX
 8
GRIFF_1
 10
-1.9642
 20
1.8357
 30
22.0196
 70
192
 0
VERTEX
 8
GRIFF_1
 10
-1.9683
 20
1.8351
 30
22.0196
 70
192
 0
VERTEX
 8
GRIFF_1
 10
-1.9724
 20
1.834
 30
22.0196
 70
192
 0
VERTEX
 8
GRIFF_1
 10
-1.9763
 20
1.8325
 30
22.0196
 70
192
 0
VERTEX
 8
GRIFF_1
 10
-1.98
 20
1.8306
 30
22.0196
 70
192
 0
VERTEX
 8
GRIFF_1
 10
-1.9835
 20
1.8283
 30
22.0196
 70
192
 0
VERTEX
 8
GRIFF_1
 10
-1.9868
 20
1.8257
 30
22.0196
 70
192
 0
VERTEX
 8
GRIFF_1
 10
-1.9897
 20
1.8227
 30
22.0196
 70
192
 0
VERTEX
 8
GRIFF_1
 10
-1.9924
 20
1.8195
 30
22.0196
 70
192
 0
VERTEX
 8
GRIFF_1
 10
-1.9946
 20
1.8159
 30
22.0196
 70
192
 0
VERTEX
 8
GRIFF_1
 10
-1.9965
 20
1.8122
 30
22.0196
 70
192
 0
VERTEX
 8
GRIFF_1
 10
-1.998
 20
1.8083
 30
22.0196
 70
192
 0
VERTEX
 8
GRIFF_1
 10
-1.9991
 20
1.8043
 30
22.0196
 70
192
 0
VERTEX
 8
GRIFF_1
 10
-1.9998
 20
1.8001
 30
22.0196
 70
192
 0
VERTEX
 8
GRIFF_1
 10
-2
 20
1.7959
 30
23.478
 70
192
 0
VERTEX
 8
GRIFF_1
 10
-2
 20
-2.1241
 30
23.478
 70
192
 0
VERTEX
 8
GRIFF_1
 10
-1.9998
 20
-2.1282
 30
23.478
 70
192
 0
VERTEX
 8
GRIFF_1
 10
-1.9991
 20
-2.1324
 30
23.478
 70
192
 0
VERTEX
 8
GRIFF_1
 10
-1.998
 20
-2.1364
 30
23.478
 70
192
 0
VERTEX
 8
GRIFF_1
 10
-1.9965
 20
-2.1403
 30
23.478
 70
192
 0
VERTEX
 8
GRIFF_1
 10
-1.9946
 20
-2.1441
 30
23.478
 70
192
 0
VERTEX
 8
GRIFF_1
 10
-1.9924
 20
-2.1476
 30
23.478
 70
192
 0
VERTEX
 8
GRIFF_1
 10
-1.9897
 20
-2.1508
 30
23.478
 70
192
 0
VERTEX
 8
GRIFF_1
 10
-1.9868
 20
-2.1538
 30
23.478
 70
192
 0
VERTEX
 8
GRIFF_1
 10
-1.9835
 20
-2.1564
 30
23.478
 70
192
 0
VERTEX
 8
GRIFF_1
 10
-1.98
 20
-2.1587
 30
23.478
 70
192
 0
VERTEX
 8
GRIFF_1
 10
-1.9763
 20
-2.1606
 30
23.478
 70
192
 0
VERTEX
 8
GRIFF_1
 10
-1.9724
 20
-2.1621
 30
23.478
 70
192
 0
VERTEX
 8
GRIFF_1
 10
-1.9683
 20
-2.1632
 30
23.478
 70
192
 0
VERTEX
 8
GRIFF_1
 10
-1.9642
 20
-2.1638
 30
23.478
 70
192
 0
VERTEX
 8
GRIFF_1
 10
-1.96
 20
-2.1641
 30
23.478
 70
192
 0
VERTEX
 8
GRIFF_1
 10
1.96
 20
-2.1641
 30
23.478
 70
192
 0
VERTEX
 8
GRIFF_1
 10
1.9642
 20
-2.1638
 30
23.478
 70
192
 0
VERTEX
 8
GRIFF_1
 10
1.9683
 20
-2.1632
 30
23.478
 70
192
 0
VERTEX
 8
GRIFF_1
 10
1.9724
 20
-2.1621
 30
23.478
 70
192
 0
VERTEX
 8
GRIFF_1
 10
1.9763
 20
-2.1606
 30
23.478
 70
192
 0
VERTEX
 8
GRIFF_1
 10
1.98
 20
-2.1587
 30
23.478
 70
192
 0
VERTEX
 8
GRIFF_1
 10
1.9835
 20
-2.1564
 30
23.478
 70
192
 0
VERTEX
 8
GRIFF_1
 10
1.9868
 20
-2.1538
 30
23.478
 70
192
 0
VERTEX
 8
GRIFF_1
 10
1.9897
 20
-2.1508
 30
23.478
 70
192
 0
VERTEX
 8
GRIFF_1
 10
1.9924
 20
-2.1476
 30
23.478
 70
192
 0
VERTEX
 8
GRIFF_1
 10
1.9946
 20
-2.1441
 30
23.478
 70
192
 0
VERTEX
 8
GRIFF_1
 10
1.9965
 20
-2.1403
 30
23.478
 70
192
 0
VERTEX
 8
GRIFF_1
 10
1.998
 20
-2.1364
 30
23.478
 70
192
 0
VERTEX
 8
GRIFF_1
 10
1.9991
 20
-2.1324
 30
23.478
 70
192
 0
VERTEX
 8
GRIFF_1
 10
1.9998
 20
-2.1282
 30
23.478
 70
192
 0
VERTEX
 8
GRIFF_1
 10
2
 20
-2.1241
 30
23.478
 70
192
 0
VERTEX
 8
GRIFF_1
 10
2
 20
1.7959
 30
23.478
 70
192
 0
VERTEX
 8
GRIFF_1
 10
1.9998
 20
1.8001
 30
23.478
 70
192
 0
VERTEX
 8
GRIFF_1
 10
1.9991
 20
1.8043
 30
23.478
 70
192
 0
VERTEX
 8
GRIFF_1
 10
1.998
 20
1.8083
 30
23.478
 70
192
 0
VERTEX
 8
GRIFF_1
 10
1.9965
 20
1.8122
 30
23.478
 70
192
 0
VERTEX
 8
GRIFF_1
 10
1.9946
 20
1.8159
 30
23.478
 70
192
 0
VERTEX
 8
GRIFF_1
 10
1.9924
 20
1.8195
 30
23.478
 70
192
 0
VERTEX
 8
GRIFF_1
 10
1.9897
 20
1.8227
 30
23.478
 70
192
 0
VERTEX
 8
GRIFF_1
 10
1.9868
 20
1.8257
 30
23.478
 70
192
 0
VERTEX
 8
GRIFF_1
 10
1.9835
 20
1.8283
 30
23.478
 70
192
 0
VERTEX
 8
GRIFF_1
 10
1.98
 20
1.8306
 30
23.478
 70
192
 0
VERTEX
 8
GRIFF_1
 10
1.9763
 20
1.8325
 30
23.478
 70
192
 0
VERTEX
 8
GRIFF_1
 10
1.9724
 20
1.834
 30
23.478
 70
192
 0
VERTEX
 8
GRIFF_1
 10
1.9683
 20
1.8351
 30
23.478
 70
192
 0
VERTEX
 8
GRIFF_1
 10
1.9642
 20
1.8357
 30
23.478
 70
192
 0
VERTEX
 8
GRIFF_1
 10
1.96
 20
1.8359
 30
23.478
 70
192
 0
VERTEX
 8
GRIFF_1
 10
-1.96
 20
1.8359
 30
23.478
 70
192
 0
VERTEX
 8
GRIFF_1
 10
-1.9642
 20
1.8357
 30
23.478
 70
192
 0
VERTEX
 8
GRIFF_1
 10
-1.9683
 20
1.8351
 30
23.478
 70
192
 0
VERTEX
 8
GRIFF_1
 10
-1.9724
 20
1.834
 30
23.478
 70
192
 0
VERTEX
 8
GRIFF_1
 10
-1.9763
 20
1.8325
 30
23.478
 70
192
 0
VERTEX
 8
GRIFF_1
 10
-1.98
 20
1.8306
 30
23.478
 70
192
 0
VERTEX
 8
GRIFF_1
 10
-1.9835
 20
1.8283
 30
23.478
 70
192
 0
VERTEX
 8
GRIFF_1
 10
-1.9868
 20
1.8257
 30
23.478
 70
192
 0
VERTEX
 8
GRIFF_1
 10
-1.9897
 20
1.8227
 30
23.478
 70
192
 0
VERTEX
 8
GRIFF_1
 10
-1.9924
 20
1.8195
 30
23.478
 70
192
 0
VERTEX
 8
GRIFF_1
 10
-1.9946
 20
1.8159
 30
23.478
 70
192
 0
VERTEX
 8
GRIFF_1
 10
-1.9965
 20
1.8122
 30
23.478
 70
192
 0
VERTEX
 8
GRIFF_1
 10
-1.998
 20
1.8083
 30
23.478
 70
192
 0
VERTEX
 8
GRIFF_1
 10
-1.9991
 20
1.8043
 30
23.478
 70
192
 0
VERTEX
 8
GRIFF_1
 10
-1.9998
 20
1.8001
 30
23.478
 70
192
 0
VERTEX
 8
GRIFF_1
 10
-1.9998
 20
1.7959
 30
23.4822
 70
192
 0
VERTEX
 8
GRIFF_1
 10
-1.9998
 20
-2.1241
 30
23.4822
 70
192
 0
VERTEX
 8
GRIFF_1
 10
-1.9996
 20
-2.1282
 30
23.4822
 70
192
 0
VERTEX
 8
GRIFF_1
 10
-1.9989
 20
-2.1323
 30
23.4822
 70
192
 0
VERTEX
 8
GRIFF_1
 10
-1.9978
 20
-2.1363
 30
23.4822
 70
192
 0
VERTEX
 8
GRIFF_1
 10
-1.9963
 20
-2.1402
 30
23.4822
 70
192
 0
VERTEX
 8
GRIFF_1
 10
-1.9945
 20
-2.1439
 30
23.4822
 70
192
 0
VERTEX
 8
GRIFF_1
 10
-1.9922
 20
-2.1474
 30
23.4822
 70
192
 0
VERTEX
 8
GRIFF_1
 10
-1.9896
 20
-2.1507
 30
23.4822
 70
192
 0
VERTEX
 8
GRIFF_1
 10
-1.9866
 20
-2.1536
 30
23.4822
 70
192
 0
VERTEX
 8
GRIFF_1
 10
-1.9834
 20
-2.1562
 30
23.4822
 70
192
 0
VERTEX
 8
GRIFF_1
 10
-1.9799
 20
-2.1585
 30
23.4822
 70
192
 0
VERTEX
 8
GRIFF_1
 10
-1.9762
 20
-2.1604
 30
23.4822
 70
192
 0
VERTEX
 8
GRIFF_1
 10
-1.9723
 20
-2.1619
 30
23.4822
 70
192
 0
VERTEX
 8
GRIFF_1
 10
-1.9683
 20
-2.163
 30
23.4822
 70
192
 0
VERTEX
 8
GRIFF_1
 10
-1.9642
 20
-2.1636
 30
23.4822
 70
192
 0
VERTEX
 8
GRIFF_1
 10
-1.96
 20
-2.1638
 30
23.4822
 70
192
 0
VERTEX
 8
GRIFF_1
 10
1.96
 20
-2.1638
 30
23.4822
 70
192
 0
VERTEX
 8
GRIFF_1
 10
1.9642
 20
-2.1636
 30
23.4822
 70
192
 0
VERTEX
 8
GRIFF_1
 10
1.9683
 20
-2.163
 30
23.4822
 70
192
 0
VERTEX
 8
GRIFF_1
 10
1.9723
 20
-2.1619
 30
23.4822
 70
192
 0
VERTEX
 8
GRIFF_1
 10
1.9762
 20
-2.1604
 30
23.4822
 70
192
 0
VERTEX
 8
GRIFF_1
 10
1.9799
 20
-2.1585
 30
23.4822
 70
192
 0
VERTEX
 8
GRIFF_1
 10
1.9834
 20
-2.1562
 30
23.4822
 70
192
 0
VERTEX
 8
GRIFF_1
 10
1.9866
 20
-2.1536
 30
23.4822
 70
192
 0
VERTEX
 8
GRIFF_1
 10
1.9896
 20
-2.1507
 30
23.4822
 70
192
 0
VERTEX
 8
GRIFF_1
 10
1.9922
 20
-2.1474
 30
23.4822
 70
192
 0
VERTEX
 8
GRIFF_1
 10
1.9945
 20
-2.1439
 30
23.4822
 70
192
 0
VERTEX
 8
GRIFF_1
 10
1.9963
 20
-2.1402
 30
23.4822
 70
192
 0
VERTEX
 8
GRIFF_1
 10
1.9978
 20
-2.1363
 30
23.4822
 70
192
 0
VERTEX
 8
GRIFF_1
 10
1.9989
 20
-2.1323
 30
23.4822
 70
192
 0
VERTEX
 8
GRIFF_1
 10
1.9996
 20
-2.1282
 30
23.4822
 70
192
 0
VERTEX
 8
GRIFF_1
 10
1.9998
 20
-2.1241
 30
23.4822
 70
192
 0
VERTEX
 8
GRIFF_1
 10
1.9998
 20
1.7959
 30
23.4822
 70
192
 0
VERTEX
 8
GRIFF_1
 10
1.9996
 20
1.8001
 30
23.4822
 70
192
 0
VERTEX
 8
GRIFF_1
 10
1.9989
 20
1.8042
 30
23.4822
 70
192
 0
VERTEX
 8
GRIFF_1
 10
1.9978
 20
1.8082
 30
23.4822
 70
192
 0
VERTEX
 8
GRIFF_1
 10
1.9963
 20
1.8121
 30
23.4822
 70
192
 0
VERTEX
 8
GRIFF_1
 10
1.9945
 20
1.8158
 30
23.4822
 70
192
 0
VERTEX
 8
GRIFF_1
 10
1.9922
 20
1.8193
 30
23.4822
 70
192
 0
VERTEX
 8
GRIFF_1
 10
1.9896
 20
1.8226
 30
23.4822
 70
192
 0
VERTEX
 8
GRIFF_1
 10
1.9866
 20
1.8255
 30
23.4822
 70
192
 0
VERTEX
 8
GRIFF_1
 10
1.9834
 20
1.8281
 30
23.4822
 70
192
 0
VERTEX
 8
GRIFF_1
 10
1.9799
 20
1.8304
 30
23.4822
 70
192
 0
VERTEX
 8
GRIFF_1
 10
1.9762
 20
1.8323
 30
23.4822
 70
192
 0
VERTEX
 8
GRIFF_1
 10
1.9723
 20
1.8338
 30
23.4822
 70
192
 0
VERTEX
 8
GRIFF_1
 10
1.9683
 20
1.8349
 30
23.4822
 70
192
 0
VERTEX
 8
GRIFF_1
 10
1.9642
 20
1.8355
 30
23.4822
 70
192
 0
VERTEX
 8
GRIFF_1
 10
1.96
 20
1.8357
 30
23.4822
 70
192
 0
VERTEX
 8
GRIFF_1
 10
-1.96
 20
1.8357
 30
23.4822
 70
192
 0
VERTEX
 8
GRIFF_1
 10
-1.9642
 20
1.8355
 30
23.4822
 70
192
 0
VERTEX
 8
GRIFF_1
 10
-1.9683
 20
1.8349
 30
23.4822
 70
192
 0
VERTEX
 8
GRIFF_1
 10
-1.9723
 20
1.8338
 30
23.4822
 70
192
 0
VERTEX
 8
GRIFF_1
 10
-1.9762
 20
1.8323
 30
23.4822
 70
192
 0
VERTEX
 8
GRIFF_1
 10
-1.9799
 20
1.8304
 30
23.4822
 70
192
 0
VERTEX
 8
GRIFF_1
 10
-1.9834
 20
1.8281
 30
23.4822
 70
192
 0
VERTEX
 8
GRIFF_1
 10
-1.9866
 20
1.8255
 30
23.4822
 70
192
 0
VERTEX
 8
GRIFF_1
 10
-1.9896
 20
1.8226
 30
23.4822
 70
192
 0
VERTEX
 8
GRIFF_1
 10
-1.9922
 20
1.8193
 30
23.4822
 70
192
 0
VERTEX
 8
GRIFF_1
 10
-1.9945
 20
1.8158
 30
23.4822
 70
192
 0
VERTEX
 8
GRIFF_1
 10
-1.9963
 20
1.8121
 30
23.4822
 70
192
 0
VERTEX
 8
GRIFF_1
 10
-1.9978
 20
1.8082
 30
23.4822
 70
192
 0
VERTEX
 8
GRIFF_1
 10
-1.9989
 20
1.8042
 30
23.4822
 70
192
 0
VERTEX
 8
GRIFF_1
 10
-1.9996
 20
1.8001
 30
23.4822
 70
192
 0
VERTEX
 8
GRIFF_1
 10
-1.9991
 20
1.7959
 30
23.4863
 70
192
 0
VERTEX
 8
GRIFF_1
 10
-1.9991
 20
-2.1241
 30
23.4863
 70
192
 0
VERTEX
 8
GRIFF_1
 10
-1.9989
 20
-2.1281
 30
23.4863
 70
192
 0
VERTEX
 8
GRIFF_1
 10
-1.9983
 20
-2.1322
 30
23.4863
 70
192
 0
VERTEX
 8
GRIFF_1
 10
-1.9972
 20
-2.1361
 30
23.4863
 70
192
 0
VERTEX
 8
GRIFF_1
 10
-1.9957
 20
-2.14
 30
23.4863
 70
192
 0
VERTEX
 8
GRIFF_1
 10
-1.9939
 20
-2.1436
 30
23.4863
 70
192
 0
VERTEX
 8
GRIFF_1
 10
-1.9917
 20
-2.1471
 30
23.4863
 70
192
 0
VERTEX
 8
GRIFF_1
 10
-1.9891
 20
-2.1502
 30
23.4863
 70
192
 0
VERTEX
 8
GRIFF_1
 10
-1.9862
 20
-2.1531
 30
23.4863
 70
192
 0
VERTEX
 8
GRIFF_1
 10
-1.983
 20
-2.1557
 30
23.4863
 70
192
 0
VERTEX
 8
GRIFF_1
 10
-1.9796
 20
-2.1579
 30
23.4863
 70
192
 0
VERTEX
 8
GRIFF_1
 10
-1.9759
 20
-2.1598
 30
23.4863
 70
192
 0
VERTEX
 8
GRIFF_1
 10
-1.9721
 20
-2.1613
 30
23.4863
 70
192
 0
VERTEX
 8
GRIFF_1
 10
-1.9681
 20
-2.1623
 30
23.4863
 70
192
 0
VERTEX
 8
GRIFF_1
 10
-1.9641
 20
-2.163
 30
23.4863
 70
192
 0
VERTEX
 8
GRIFF_1
 10
-1.96
 20
-2.1632
 30
23.4863
 70
192
 0
VERTEX
 8
GRIFF_1
 10
1.96
 20
-2.1632
 30
23.4863
 70
192
 0
VERTEX
 8
GRIFF_1
 10
1.9641
 20
-2.163
 30
23.4863
 70
192
 0
VERTEX
 8
GRIFF_1
 10
1.9681
 20
-2.1623
 30
23.4863
 70
192
 0
VERTEX
 8
GRIFF_1
 10
1.9721
 20
-2.1613
 30
23.4863
 70
192
 0
VERTEX
 8
GRIFF_1
 10
1.9759
 20
-2.1598
 30
23.4863
 70
192
 0
VERTEX
 8
GRIFF_1
 10
1.9796
 20
-2.1579
 30
23.4863
 70
192
 0
VERTEX
 8
GRIFF_1
 10
1.983
 20
-2.1557
 30
23.4863
 70
192
 0
VERTEX
 8
GRIFF_1
 10
1.9862
 20
-2.1531
 30
23.4863
 70
192
 0
VERTEX
 8
GRIFF_1
 10
1.9891
 20
-2.1502
 30
23.4863
 70
192
 0
VERTEX
 8
GRIFF_1
 10
1.9917
 20
-2.1471
 30
23.4863
 70
192
 0
VERTEX
 8
GRIFF_1
 10
1.9939
 20
-2.1436
 30
23.4863
 70
192
 0
VERTEX
 8
GRIFF_1
 10
1.9957
 20
-2.14
 30
23.4863
 70
192
 0
VERTEX
 8
GRIFF_1
 10
1.9972
 20
-2.1361
 30
23.4863
 70
192
 0
VERTEX
 8
GRIFF_1
 10
1.9983
 20
-2.1322
 30
23.4863
 70
192
 0
VERTEX
 8
GRIFF_1
 10
1.9989
 20
-2.1281
 30
23.4863
 70
192
 0
VERTEX
 8
GRIFF_1
 10
1.9991
 20
-2.1241
 30
23.4863
 70
192
 0
VERTEX
 8
GRIFF_1
 10
1.9991
 20
1.7959
 30
23.4863
 70
192
 0
VERTEX
 8
GRIFF_1
 10
1.9989
 20
1.8
 30
23.4863
 70
192
 0
VERTEX
 8
GRIFF_1
 10
1.9983
 20
1.8041
 30
23.4863
 70
192
 0
VERTEX
 8
GRIFF_1
 10
1.9972
 20
1.808
 30
23.4863
 70
192
 0
VERTEX
 8
GRIFF_1
 10
1.9957
 20
1.8119
 30
23.4863
 70
192
 0
VERTEX
 8
GRIFF_1
 10
1.9939
 20
1.8155
 30
23.4863
 70
192
 0
VERTEX
 8
GRIFF_1
 10
1.9917
 20
1.8189
 30
23.4863
 70
192
 0
VERTEX
 8
GRIFF_1
 10
1.9891
 20
1.8221
 30
23.4863
 70
192
 0
VERTEX
 8
GRIFF_1
 10
1.9862
 20
1.825
 30
23.4863
 70
192
 0
VERTEX
 8
GRIFF_1
 10
1.983
 20
1.8276
 30
23.4863
 70
192
 0
VERTEX
 8
GRIFF_1
 10
1.9796
 20
1.8298
 30
23.4863
 70
192
 0
VERTEX
 8
GRIFF_1
 10
1.9759
 20
1.8317
 30
23.4863
 70
192
 0
VERTEX
 8
GRIFF_1
 10
1.9721
 20
1.8332
 30
23.4863
 70
192
 0
VERTEX
 8
GRIFF_1
 10
1.9681
 20
1.8342
 30
23.4863
 70
192
 0
VERTEX
 8
GRIFF_1
 10
1.9641
 20
1.8349
 30
23.4863
 70
192
 0
VERTEX
 8
GRIFF_1
 10
1.96
 20
1.8351
 30
23.4863
 70
192
 0
VERTEX
 8
GRIFF_1
 10
-1.96
 20
1.8351
 30
23.4863
 70
192
 0
VERTEX
 8
GRIFF_1
 10
-1.9641
 20
1.8349
 30
23.4863
 70
192
 0
VERTEX
 8
GRIFF_1
 10
-1.9681
 20
1.8342
 30
23.4863
 70
192
 0
VERTEX
 8
GRIFF_1
 10
-1.9721
 20
1.8332
 30
23.4863
 70
192
 0
VERTEX
 8
GRIFF_1
 10
-1.9759
 20
1.8317
 30
23.4863
 70
192
 0
VERTEX
 8
GRIFF_1
 10
-1.9796
 20
1.8298
 30
23.4863
 70
192
 0
VERTEX
 8
GRIFF_1
 10
-1.983
 20
1.8276
 30
23.4863
 70
192
 0
VERTEX
 8
GRIFF_1
 10
-1.9862
 20
1.825
 30
23.4863
 70
192
 0
VERTEX
 8
GRIFF_1
 10
-1.9891
 20
1.8221
 30
23.4863
 70
192
 0
VERTEX
 8
GRIFF_1
 10
-1.9917
 20
1.8189
 30
23.4863
 70
192
 0
VERTEX
 8
GRIFF_1
 10
-1.9939
 20
1.8155
 30
23.4863
 70
192
 0
VERTEX
 8
GRIFF_1
 10
-1.9957
 20
1.8119
 30
23.4863
 70
192
 0
VERTEX
 8
GRIFF_1
 10
-1.9972
 20
1.808
 30
23.4863
 70
192
 0
VERTEX
 8
GRIFF_1
 10
-1.9983
 20
1.8041
 30
23.4863
 70
192
 0
VERTEX
 8
GRIFF_1
 10
-1.9989
 20
1.8
 30
23.4863
 70
192
 0
VERTEX
 8
GRIFF_1
 10
-1.998
 20
1.7959
 30
23.4904
 70
192
 0
VERTEX
 8
GRIFF_1
 10
-1.998
 20
-2.1241
 30
23.4904
 70
192
 0
VERTEX
 8
GRIFF_1
 10
-1.9978
 20
-2.128
 30
23.4904
 70
192
 0
VERTEX
 8
GRIFF_1
 10
-1.9972
 20
-2.132
 30
23.4904
 70
192
 0
VERTEX
 8
GRIFF_1
 10
-1.9962
 20
-2.1358
 30
23.4904
 70
192
 0
VERTEX
 8
GRIFF_1
 10
-1.9948
 20
-2.1395
 30
23.4904
 70
192
 0
VERTEX
 8
GRIFF_1
 10
-1.9929
 20
-2.1431
 30
23.4904
 70
192
 0
VERTEX
 8
GRIFF_1
 10
-1.9908
 20
-2.1464
 30
23.4904
 70
192
 0
VERTEX
 8
GRIFF_1
 10
-1.9883
 20
-2.1495
 30
23.4904
 70
192
 0
VERTEX
 8
GRIFF_1
 10
-1.9855
 20
-2.1523
 30
23.4904
 70
192
 0
VERTEX
 8
GRIFF_1
 10
-1.9824
 20
-2.1548
 30
23.4904
 70
192
 0
VERTEX
 8
GRIFF_1
 10
-1.979
 20
-2.157
 30
23.4904
 70
192
 0
VERTEX
 8
GRIFF_1
 10
-1.9755
 20
-2.1588
 30
23.4904
 70
192
 0
VERTEX
 8
GRIFF_1
 10
-1.9718
 20
-2.1602
 30
23.4904
 70
192
 0
VERTEX
 8
GRIFF_1
 10
-1.9679
 20
-2.1613
 30
23.4904
 70
192
 0
VERTEX
 8
GRIFF_1
 10
-1.964
 20
-2.1619
 30
23.4904
 70
192
 0
VERTEX
 8
GRIFF_1
 10
-1.96
 20
-2.1621
 30
23.4904
 70
192
 0
VERTEX
 8
GRIFF_1
 10
1.96
 20
-2.1621
 30
23.4904
 70
192
 0
VERTEX
 8
GRIFF_1
 10
1.964
 20
-2.1619
 30
23.4904
 70
192
 0
VERTEX
 8
GRIFF_1
 10
1.9679
 20
-2.1613
 30
23.4904
 70
192
 0
VERTEX
 8
GRIFF_1
 10
1.9718
 20
-2.1602
 30
23.4904
 70
192
 0
VERTEX
 8
GRIFF_1
 10
1.9755
 20
-2.1588
 30
23.4904
 70
192
 0
VERTEX
 8
GRIFF_1
 10
1.979
 20
-2.157
 30
23.4904
 70
192
 0
VERTEX
 8
GRIFF_1
 10
1.9824
 20
-2.1548
 30
23.4904
 70
192
 0
VERTEX
 8
GRIFF_1
 10
1.9855
 20
-2.1523
 30
23.4904
 70
192
 0
VERTEX
 8
GRIFF_1
 10
1.9883
 20
-2.1495
 30
23.4904
 70
192
 0
VERTEX
 8
GRIFF_1
 10
1.9908
 20
-2.1464
 30
23.4904
 70
192
 0
VERTEX
 8
GRIFF_1
 10
1.9929
 20
-2.1431
 30
23.4904
 70
192
 0
VERTEX
 8
GRIFF_1
 10
1.9948
 20
-2.1395
 30
23.4904
 70
192
 0
VERTEX
 8
GRIFF_1
 10
1.9962
 20
-2.1358
 30
23.4904
 70
192
 0
VERTEX
 8
GRIFF_1
 10
1.9972
 20
-2.132
 30
23.4904
 70
192
 0
VERTEX
 8
GRIFF_1
 10
1.9978
 20
-2.128
 30
23.4904
 70
192
 0
VERTEX
 8
GRIFF_1
 10
1.998
 20
-2.1241
 30
23.4904
 70
192
 0
VERTEX
 8
GRIFF_1
 10
1.998
 20
1.7959
 30
23.4904
 70
192
 0
VERTEX
 8
GRIFF_1
 10
1.9978
 20
1.7999
 30
23.4904
 70
192
 0
VERTEX
 8
GRIFF_1
 10
1.9972
 20
1.8039
 30
23.4904
 70
192
 0
VERTEX
 8
GRIFF_1
 10
1.9962
 20
1.8077
 30
23.4904
 70
192
 0
VERTEX
 8
GRIFF_1
 10
1.9948
 20
1.8114
 30
23.4904
 70
192
 0
VERTEX
 8
GRIFF_1
 10
1.9929
 20
1.815
 30
23.4904
 70
192
 0
VERTEX
 8
GRIFF_1
 10
1.9908
 20
1.8183
 30
23.4904
 70
192
 0
VERTEX
 8
GRIFF_1
 10
1.9883
 20
1.8214
 30
23.4904
 70
192
 0
VERTEX
 8
GRIFF_1
 10
1.9855
 20
1.8242
 30
23.4904
 70
192
 0
VERTEX
 8
GRIFF_1
 10
1.9824
 20
1.8267
 30
23.4904
 70
192
 0
VERTEX
 8
GRIFF_1
 10
1.979
 20
1.8289
 30
23.4904
 70
192
 0
VERTEX
 8
GRIFF_1
 10
1.9755
 20
1.8307
 30
23.4904
 70
192
 0
VERTEX
 8
GRIFF_1
 10
1.9718
 20
1.8321
 30
23.4904
 70
192
 0
VERTEX
 8
GRIFF_1
 10
1.9679
 20
1.8332
 30
23.4904
 70
192
 0
VERTEX
 8
GRIFF_1
 10
1.964
 20
1.8338
 30
23.4904
 70
192
 0
VERTEX
 8
GRIFF_1
 10
1.96
 20
1.834
 30
23.4904
 70
192
 0
VERTEX
 8
GRIFF_1
 10
-1.96
 20
1.834
 30
23.4904
 70
192
 0
VERTEX
 8
GRIFF_1
 10
-1.964
 20
1.8338
 30
23.4904
 70
192
 0
VERTEX
 8
GRIFF_1
 10
-1.9679
 20
1.8332
 30
23.4904
 70
192
 0
VERTEX
 8
GRIFF_1
 10
-1.9718
 20
1.8321
 30
23.4904
 70
192
 0
VERTEX
 8
GRIFF_1
 10
-1.9755
 20
1.8307
 30
23.4904
 70
192
 0
VERTEX
 8
GRIFF_1
 10
-1.979
 20
1.8289
 30
23.4904
 70
192
 0
VERTEX
 8
GRIFF_1
 10
-1.9824
 20
1.8267
 30
23.4904
 70
192
 0
VERTEX
 8
GRIFF_1
 10
-1.9855
 20
1.8242
 30
23.4904
 70
192
 0
VERTEX
 8
GRIFF_1
 10
-1.9883
 20
1.8214
 30
23.4904
 70
192
 0
VERTEX
 8
GRIFF_1
 10
-1.9908
 20
1.8183
 30
23.4904
 70
192
 0
VERTEX
 8
GRIFF_1
 10
-1.9929
 20
1.815
 30
23.4904
 70
192
 0
VERTEX
 8
GRIFF_1
 10
-1.9948
 20
1.8114
 30
23.4904
 70
192
 0
VERTEX
 8
GRIFF_1
 10
-1.9962
 20
1.8077
 30
23.4904
 70
192
 0
VERTEX
 8
GRIFF_1
 10
-1.9972
 20
1.8039
 30
23.4904
 70
192
 0
VERTEX
 8
GRIFF_1
 10
-1.9978
 20
1.7999
 30
23.4904
 70
192
 0
VERTEX
 8
GRIFF_1
 10
-1.9965
 20
1.7959
 30
23.4943
 70
192
 0
VERTEX
 8
GRIFF_1
 10
-1.9965
 20
-2.1241
 30
23.4943
 70
192
 0
VERTEX
 8
GRIFF_1
 10
-1.9963
 20
-2.1279
 30
23.4943
 70
192
 0
VERTEX
 8
GRIFF_1
 10
-1.9957
 20
-2.1317
 30
23.4943
 70
192
 0
VERTEX
 8
GRIFF_1
 10
-1.9948
 20
-2.1353
 30
23.4943
 70
192
 0
VERTEX
 8
GRIFF_1
 10
-1.9934
 20
-2.1389
 30
23.4943
 70
192
 0
VERTEX
 8
GRIFF_1
 10
-1.9916
 20
-2.1423
 30
23.4943
 70
192
 0
VERTEX
 8
GRIFF_1
 10
-1.9896
 20
-2.1455
 30
23.4943
 70
192
 0
VERTEX
 8
GRIFF_1
 10
-1.9872
 20
-2.1485
 30
23.4943
 70
192
 0
VERTEX
 8
GRIFF_1
 10
-1.9845
 20
-2.1512
 30
23.4943
 70
192
 0
VERTEX
 8
GRIFF_1
 10
-1.9815
 20
-2.1536
 30
23.4943
 70
192
 0
VERTEX
 8
GRIFF_1
 10
-1.9783
 20
-2.1557
 30
23.4943
 70
192
 0
VERTEX
 8
GRIFF_1
 10
-1.9749
 20
-2.1574
 30
23.4943
 70
192
 0
VERTEX
 8
GRIFF_1
 10
-1.9713
 20
-2.1588
 30
23.4943
 70
192
 0
VERTEX
 8
GRIFF_1
 10
-1.9676
 20
-2.1598
 30
23.4943
 70
192
 0
VERTEX
 8
GRIFF_1
 10
-1.9638
 20
-2.1604
 30
23.4943
 70
192
 0
VERTEX
 8
GRIFF_1
 10
-1.96
 20
-2.1606
 30
23.4943
 70
192
 0
VERTEX
 8
GRIFF_1
 10
1.96
 20
-2.1606
 30
23.4943
 70
192
 0
VERTEX
 8
GRIFF_1
 10
1.9638
 20
-2.1604
 30
23.4943
 70
192
 0
VERTEX
 8
GRIFF_1
 10
1.9676
 20
-2.1598
 30
23.4943
 70
192
 0
VERTEX
 8
GRIFF_1
 10
1.9713
 20
-2.1588
 30
23.4943
 70
192
 0
VERTEX
 8
GRIFF_1
 10
1.9749
 20
-2.1574
 30
23.4943
 70
192
 0
VERTEX
 8
GRIFF_1
 10
1.9783
 20
-2.1557
 30
23.4943
 70
192
 0
VERTEX
 8
GRIFF_1
 10
1.9815
 20
-2.1536
 30
23.4943
 70
192
 0
VERTEX
 8
GRIFF_1
 10
1.9845
 20
-2.1512
 30
23.4943
 70
192
 0
VERTEX
 8
GRIFF_1
 10
1.9872
 20
-2.1485
 30
23.4943
 70
192
 0
VERTEX
 8
GRIFF_1
 10
1.9896
 20
-2.1455
 30
23.4943
 70
192
 0
VERTEX
 8
GRIFF_1
 10
1.9916
 20
-2.1423
 30
23.4943
 70
192
 0
VERTEX
 8
GRIFF_1
 10
1.9934
 20
-2.1389
 30
23.4943
 70
192
 0
VERTEX
 8
GRIFF_1
 10
1.9948
 20
-2.1353
 30
23.4943
 70
192
 0
VERTEX
 8
GRIFF_1
 10
1.9957
 20
-2.1317
 30
23.4943
 70
192
 0
VERTEX
 8
GRIFF_1
 10
1.9963
 20
-2.1279
 30
23.4943
 70
192
 0
VERTEX
 8
GRIFF_1
 10
1.9965
 20
-2.1241
 30
23.4943
 70
192
 0
VERTEX
 8
GRIFF_1
 10
1.9965
 20
1.7959
 30
23.4943
 70
192
 0
VERTEX
 8
GRIFF_1
 10
1.9963
 20
1.7998
 30
23.4943
 70
192
 0
VERTEX
 8
GRIFF_1
 10
1.9957
 20
1.8035
 30
23.4943
 70
192
 0
VERTEX
 8
GRIFF_1
 10
1.9948
 20
1.8072
 30
23.4943
 70
192
 0
VERTEX
 8
GRIFF_1
 10
1.9934
 20
1.8108
 30
23.4943
 70
192
 0
VERTEX
 8
GRIFF_1
 10
1.9916
 20
1.8142
 30
23.4943
 70
192
 0
VERTEX
 8
GRIFF_1
 10
1.9896
 20
1.8174
 30
23.4943
 70
192
 0
VERTEX
 8
GRIFF_1
 10
1.9872
 20
1.8204
 30
23.4943
 70
192
 0
VERTEX
 8
GRIFF_1
 10
1.9845
 20
1.8231
 30
23.4943
 70
192
 0
VERTEX
 8
GRIFF_1
 10
1.9815
 20
1.8255
 30
23.4943
 70
192
 0
VERTEX
 8
GRIFF_1
 10
1.9783
 20
1.8276
 30
23.4943
 70
192
 0
VERTEX
 8
GRIFF_1
 10
1.9749
 20
1.8293
 30
23.4943
 70
192
 0
VERTEX
 8
GRIFF_1
 10
1.9713
 20
1.8307
 30
23.4943
 70
192
 0
VERTEX
 8
GRIFF_1
 10
1.9676
 20
1.8317
 30
23.4943
 70
192
 0
VERTEX
 8
GRIFF_1
 10
1.9638
 20
1.8323
 30
23.4943
 70
192
 0
VERTEX
 8
GRIFF_1
 10
1.96
 20
1.8325
 30
23.4943
 70
192
 0
VERTEX
 8
GRIFF_1
 10
-1.96
 20
1.8325
 30
23.4943
 70
192
 0
VERTEX
 8
GRIFF_1
 10
-1.9638
 20
1.8323
 30
23.4943
 70
192
 0
VERTEX
 8
GRIFF_1
 10
-1.9676
 20
1.8317
 30
23.4943
 70
192
 0
VERTEX
 8
GRIFF_1
 10
-1.9713
 20
1.8307
 30
23.4943
 70
192
 0
VERTEX
 8
GRIFF_1
 10
-1.9749
 20
1.8293
 30
23.4943
 70
192
 0
VERTEX
 8
GRIFF_1
 10
-1.9783
 20
1.8276
 30
23.4943
 70
192
 0
VERTEX
 8
GRIFF_1
 10
-1.9815
 20
1.8255
 30
23.4943
 70
192
 0
VERTEX
 8
GRIFF_1
 10
-1.9845
 20
1.8231
 30
23.4943
 70
192
 0
VERTEX
 8
GRIFF_1
 10
-1.9872
 20
1.8204
 30
23.4943
 70
192
 0
VERTEX
 8
GRIFF_1
 10
-1.9896
 20
1.8174
 30
23.4943
 70
192
 0
VERTEX
 8
GRIFF_1
 10
-1.9916
 20
1.8142
 30
23.4943
 70
192
 0
VERTEX
 8
GRIFF_1
 10
-1.9934
 20
1.8108
 30
23.4943
 70
192
 0
VERTEX
 8
GRIFF_1
 10
-1.9948
 20
1.8072
 30
23.4943
 70
192
 0
VERTEX
 8
GRIFF_1
 10
-1.9957
 20
1.8035
 30
23.4943
 70
192
 0
VERTEX
 8
GRIFF_1
 10
-1.9963
 20
1.7998
 30
23.4943
 70
192
 0
VERTEX
 8
GRIFF_1
 10
-1.9946
 20
1.7959
 30
23.498
 70
192
 0
VERTEX
 8
GRIFF_1
 10
-1.9946
 20
-2.1241
 30
23.498
 70
192
 0
VERTEX
 8
GRIFF_1
 10
-1.9945
 20
-2.1277
 30
23.498
 70
192
 0
VERTEX
 8
GRIFF_1
 10
-1.9939
 20
-2.1313
 30
23.498
 70
192
 0
VERTEX
 8
GRIFF_1
 10
-1.9929
 20
-2.1348
 30
23.498
 70
192
 0
VERTEX
 8
GRIFF_1
 10
-1.9916
 20
-2.1381
 30
23.498
 70
192
 0
VERTEX
 8
GRIFF_1
 10
-1.99
 20
-2.1414
 30
23.498
 70
192
 0
VERTEX
 8
GRIFF_1
 10
-1.988
 20
-2.1444
 30
23.498
 70
192
 0
VERTEX
 8
GRIFF_1
 10
-1.9857
 20
-2.1472
 30
23.498
 70
192
 0
VERTEX
 8
GRIFF_1
 10
-1.9832
 20
-2.1498
 30
23.498
 70
192
 0
VERTEX
 8
GRIFF_1
 10
-1.9804
 20
-2.1521
 30
23.498
 70
192
 0
VERTEX
 8
GRIFF_1
 10
-1.9773
 20
-2.1541
 30
23.498
 70
192
 0
VERTEX
 8
GRIFF_1
 10
-1.9741
 20
-2.1557
 30
23.498
 70
192
 0
VERTEX
 8
GRIFF_1
 10
-1.9707
 20
-2.157
 30
23.498
 70
192
 0
VERTEX
 8
GRIFF_1
 10
-1.9672
 20
-2.1579
 30
23.498
 70
192
 0
VERTEX
 8
GRIFF_1
 10
-1.9636
 20
-2.1585
 30
23.498
 70
192
 0
VERTEX
 8
GRIFF_1
 10
-1.96
 20
-2.1587
 30
23.498
 70
192
 0
VERTEX
 8
GRIFF_1
 10
1.96
 20
-2.1587
 30
23.498
 70
192
 0
VERTEX
 8
GRIFF_1
 10
1.9636
 20
-2.1585
 30
23.498
 70
192
 0
VERTEX
 8
GRIFF_1
 10
1.9672
 20
-2.1579
 30
23.498
 70
192
 0
VERTEX
 8
GRIFF_1
 10
1.9707
 20
-2.157
 30
23.498
 70
192
 0
VERTEX
 8
GRIFF_1
 10
1.9741
 20
-2.1557
 30
23.498
 70
192
 0
VERTEX
 8
GRIFF_1
 10
1.9773
 20
-2.1541
 30
23.498
 70
192
 0
VERTEX
 8
GRIFF_1
 10
1.9804
 20
-2.1521
 30
23.498
 70
192
 0
VERTEX
 8
GRIFF_1
 10
1.9832
 20
-2.1498
 30
23.498
 70
192
 0
VERTEX
 8
GRIFF_1
 10
1.9857
 20
-2.1472
 30
23.498
 70
192
 0
VERTEX
 8
GRIFF_1
 10
1.988
 20
-2.1444
 30
23.498
 70
192
 0
VERTEX
 8
GRIFF_1
 10
1.99
 20
-2.1414
 30
23.498
 70
192
 0
VERTEX
 8
GRIFF_1
 10
1.9916
 20
-2.1381
 30
23.498
 70
192
 0
VERTEX
 8
GRIFF_1
 10
1.9929
 20
-2.1348
 30
23.498
 70
192
 0
VERTEX
 8
GRIFF_1
 10
1.9939
 20
-2.1313
 30
23.498
 70
192
 0
VERTEX
 8
GRIFF_1
 10
1.9945
 20
-2.1277
 30
23.498
 70
192
 0
VERTEX
 8
GRIFF_1
 10
1.9946
 20
-2.1241
 30
23.498
 70
192
 0
VERTEX
 8
GRIFF_1
 10
1.9946
 20
1.7959
 30
23.498
 70
192
 0
VERTEX
 8
GRIFF_1
 10
1.9945
 20
1.7996
 30
23.498
 70
192
 0
VERTEX
 8
GRIFF_1
 10
1.9939
 20
1.8031
 30
23.498
 70
192
 0
VERTEX
 8
GRIFF_1
 10
1.9929
 20
1.8067
 30
23.498
 70
192
 0
VERTEX
 8
GRIFF_1
 10
1.9916
 20
1.81
 30
23.498
 70
192
 0
VERTEX
 8
GRIFF_1
 10
1.99
 20
1.8133
 30
23.498
 70
192
 0
VERTEX
 8
GRIFF_1
 10
1.988
 20
1.8163
 30
23.498
 70
192
 0
VERTEX
 8
GRIFF_1
 10
1.9857
 20
1.8191
 30
23.498
 70
192
 0
VERTEX
 8
GRIFF_1
 10
1.9832
 20
1.8217
 30
23.498
 70
192
 0
VERTEX
 8
GRIFF_1
 10
1.9804
 20
1.824
 30
23.498
 70
192
 0
VERTEX
 8
GRIFF_1
 10
1.9773
 20
1.8259
 30
23.498
 70
192
 0
VERTEX
 8
GRIFF_1
 10
1.9741
 20
1.8276
 30
23.498
 70
192
 0
VERTEX
 8
GRIFF_1
 10
1.9707
 20
1.8289
 30
23.498
 70
192
 0
VERTEX
 8
GRIFF_1
 10
1.9672
 20
1.8298
 30
23.498
 70
192
 0
VERTEX
 8
GRIFF_1
 10
1.9636
 20
1.8304
 30
23.498
 70
192
 0
VERTEX
 8
GRIFF_1
 10
1.96
 20
1.8306
 30
23.498
 70
192
 0
VERTEX
 8
GRIFF_1
 10
-1.96
 20
1.8306
 30
23.498
 70
192
 0
VERTEX
 8
GRIFF_1
 10
-1.9636
 20
1.8304
 30
23.498
 70
192
 0
VERTEX
 8
GRIFF_1
 10
-1.9672
 20
1.8298
 30
23.498
 70
192
 0
VERTEX
 8
GRIFF_1
 10
-1.9707
 20
1.8289
 30
23.498
 70
192
 0
VERTEX
 8
GRIFF_1
 10
-1.9741
 20
1.8276
 30
23.498
 70
192
 0
VERTEX
 8
GRIFF_1
 10
-1.9773
 20
1.8259
 30
23.498
 70
192
 0
VERTEX
 8
GRIFF_1
 10
-1.9804
 20
1.824
 30
23.498
 70
192
 0
VERTEX
 8
GRIFF_1
 10
-1.9832
 20
1.8217
 30
23.498
 70
192
 0
VERTEX
 8
GRIFF_1
 10
-1.9857
 20
1.8191
 30
23.498
 70
192
 0
VERTEX
 8
GRIFF_1
 10
-1.988
 20
1.8163
 30
23.498
 70
192
 0
VERTEX
 8
GRIFF_1
 10
-1.99
 20
1.8133
 30
23.498
 70
192
 0
VERTEX
 8
GRIFF_1
 10
-1.9916
 20
1.81
 30
23.498
 70
192
 0
VERTEX
 8
GRIFF_1
 10
-1.9929
 20
1.8067
 30
23.498
 70
192
 0
VERTEX
 8
GRIFF_1
 10
-1.9939
 20
1.8031
 30
23.498
 70
192
 0
VERTEX
 8
GRIFF_1
 10
-1.9945
 20
1.7996
 30
23.498
 70
192
 0
VERTEX
 8
GRIFF_1
 10
-1.9924
 20
1.7959
 30
23.5015
 70
192
 0
VERTEX
 8
GRIFF_1
 10
-1.9924
 20
-2.1241
 30
23.5015
 70
192
 0
VERTEX
 8
GRIFF_1
 10
-1.9922
 20
-2.1274
 30
23.5015
 70
192
 0
VERTEX
 8
GRIFF_1
 10
-1.9917
 20
-2.1308
 30
23.5015
 70
192
 0
VERTEX
 8
GRIFF_1
 10
-1.9908
 20
-2.1341
 30
23.5015
 70
192
 0
VERTEX
 8
GRIFF_1
 10
-1.9896
 20
-2.1372
 30
23.5015
 70
192
 0
VERTEX
 8
GRIFF_1
 10
-1.988
 20
-2.1402
 30
23.5015
 70
192
 0
VERTEX
 8
GRIFF_1
 10
-1.9862
 20
-2.1431
 30
23.5015
 70
192
 0
VERTEX
 8
GRIFF_1
 10
-1.984
 20
-2.1457
 30
23.5015
 70
192
 0
VERTEX
 8
GRIFF_1
 10
-1.9817
 20
-2.1481
 30
23.5015
 70
192
 0
VERTEX
 8
GRIFF_1
 10
-1.979
 20
-2.1502
 30
23.5015
 70
192
 0
VERTEX
 8
GRIFF_1
 10
-1.9762
 20
-2.1521
 30
23.5015
 70
192
 0
VERTEX
 8
GRIFF_1
 10
-1.9732
 20
-2.1536
 30
23.5015
 70
192
 0
VERTEX
 8
GRIFF_1
 10
-1.97
 20
-2.1548
 30
23.5015
 70
192
 0
VERTEX
 8
GRIFF_1
 10
-1.9667
 20
-2.1557
 30
23.5015
 70
192
 0
VERTEX
 8
GRIFF_1
 10
-1.9634
 20
-2.1562
 30
23.5015
 70
192
 0
VERTEX
 8
GRIFF_1
 10
-1.96
 20
-2.1564
 30
23.5015
 70
192
 0
VERTEX
 8
GRIFF_1
 10
1.96
 20
-2.1564
 30
23.5015
 70
192
 0
VERTEX
 8
GRIFF_1
 10
1.9634
 20
-2.1562
 30
23.5015
 70
192
 0
VERTEX
 8
GRIFF_1
 10
1.9667
 20
-2.1557
 30
23.5015
 70
192
 0
VERTEX
 8
GRIFF_1
 10
1.97
 20
-2.1548
 30
23.5015
 70
192
 0
VERTEX
 8
GRIFF_1
 10
1.9732
 20
-2.1536
 30
23.5015
 70
192
 0
VERTEX
 8
GRIFF_1
 10
1.9762
 20
-2.1521
 30
23.5015
 70
192
 0
VERTEX
 8
GRIFF_1
 10
1.979
 20
-2.1502
 30
23.5015
 70
192
 0
VERTEX
 8
GRIFF_1
 10
1.9817
 20
-2.1481
 30
23.5015
 70
192
 0
VERTEX
 8
GRIFF_1
 10
1.984
 20
-2.1457
 30
23.5015
 70
192
 0
VERTEX
 8
GRIFF_1
 10
1.9862
 20
-2.1431
 30
23.5015
 70
192
 0
VERTEX
 8
GRIFF_1
 10
1.988
 20
-2.1402
 30
23.5015
 70
192
 0
VERTEX
 8
GRIFF_1
 10
1.9896
 20
-2.1372
 30
23.5015
 70
192
 0
VERTEX
 8
GRIFF_1
 10
1.9908
 20
-2.1341
 30
23.5015
 70
192
 0
VERTEX
 8
GRIFF_1
 10
1.9917
 20
-2.1308
 30
23.5015
 70
192
 0
VERTEX
 8
GRIFF_1
 10
1.9922
 20
-2.1274
 30
23.5015
 70
192
 0
VERTEX
 8
GRIFF_1
 10
1.9924
 20
-2.1241
 30
23.5015
 70
192
 0
VERTEX
 8
GRIFF_1
 10
1.9924
 20
1.7959
 30
23.5015
 70
192
 0
VERTEX
 8
GRIFF_1
 10
1.9922
 20
1.7993
 30
23.5015
 70
192
 0
VERTEX
 8
GRIFF_1
 10
1.9917
 20
1.8027
 30
23.5015
 70
192
 0
VERTEX
 8
GRIFF_1
 10
1.9908
 20
1.8059
 30
23.5015
 70
192
 0
VERTEX
 8
GRIFF_1
 10
1.9896
 20
1.8091
 30
23.5015
 70
192
 0
VERTEX
 8
GRIFF_1
 10
1.988
 20
1.8121
 30
23.5015
 70
192
 0
VERTEX
 8
GRIFF_1
 10
1.9862
 20
1.815
 30
23.5015
 70
192
 0
VERTEX
 8
GRIFF_1
 10
1.984
 20
1.8176
 30
23.5015
 70
192
 0
VERTEX
 8
GRIFF_1
 10
1.9817
 20
1.82
 30
23.5015
 70
192
 0
VERTEX
 8
GRIFF_1
 10
1.979
 20
1.8221
 30
23.5015
 70
192
 0
VERTEX
 8
GRIFF_1
 10
1.9762
 20
1.824
 30
23.5015
 70
192
 0
VERTEX
 8
GRIFF_1
 10
1.9732
 20
1.8255
 30
23.5015
 70
192
 0
VERTEX
 8
GRIFF_1
 10
1.97
 20
1.8267
 30
23.5015
 70
192
 0
VERTEX
 8
GRIFF_1
 10
1.9667
 20
1.8276
 30
23.5015
 70
192
 0
VERTEX
 8
GRIFF_1
 10
1.9634
 20
1.8281
 30
23.5015
 70
192
 0
VERTEX
 8
GRIFF_1
 10
1.96
 20
1.8283
 30
23.5015
 70
192
 0
VERTEX
 8
GRIFF_1
 10
-1.96
 20
1.8283
 30
23.5015
 70
192
 0
VERTEX
 8
GRIFF_1
 10
-1.9634
 20
1.8281
 30
23.5015
 70
192
 0
VERTEX
 8
GRIFF_1
 10
-1.9667
 20
1.8276
 30
23.5015
 70
192
 0
VERTEX
 8
GRIFF_1
 10
-1.97
 20
1.8267
 30
23.5015
 70
192
 0
VERTEX
 8
GRIFF_1
 10
-1.9732
 20
1.8255
 30
23.5015
 70
192
 0
VERTEX
 8
GRIFF_1
 10
-1.9762
 20
1.824
 30
23.5015
 70
192
 0
VERTEX
 8
GRIFF_1
 10
-1.979
 20
1.8221
 30
23.5015
 70
192
 0
VERTEX
 8
GRIFF_1
 10
-1.9817
 20
1.82
 30
23.5015
 70
192
 0
VERTEX
 8
GRIFF_1
 10
-1.984
 20
1.8176
 30
23.5015
 70
192
 0
VERTEX
 8
GRIFF_1
 10
-1.9862
 20
1.815
 30
23.5015
 70
192
 0
VERTEX
 8
GRIFF_1
 10
-1.988
 20
1.8121
 30
23.5015
 70
192
 0
VERTEX
 8
GRIFF_1
 10
-1.9896
 20
1.8091
 30
23.5015
 70
192
 0
VERTEX
 8
GRIFF_1
 10
-1.9908
 20
1.8059
 30
23.5015
 70
192
 0
VERTEX
 8
GRIFF_1
 10
-1.9917
 20
1.8027
 30
23.5015
 70
192
 0
VERTEX
 8
GRIFF_1
 10
-1.9922
 20
1.7993
 30
23.5015
 70
192
 0
VERTEX
 8
GRIFF_1
 10
-1.9897
 20
1.7959
 30
23.5048
 70
192
 0
VERTEX
 8
GRIFF_1
 10
-1.9897
 20
-2.1241
 30
23.5048
 70
192
 0
VERTEX
 8
GRIFF_1
 10
-1.9896
 20
-2.1272
 30
23.5048
 70
192
 0
VERTEX
 8
GRIFF_1
 10
-1.9891
 20
-2.1302
 30
23.5048
 70
192
 0
VERTEX
 8
GRIFF_1
 10
-1.9883
 20
-2.1332
 30
23.5048
 70
192
 0
VERTEX
 8
GRIFF_1
 10
-1.9872
 20
-2.1361
 30
23.5048
 70
192
 0
VERTEX
 8
GRIFF_1
 10
-1.9857
 20
-2.1389
 30
23.5048
 70
192
 0
VERTEX
 8
GRIFF_1
 10
-1.984
 20
-2.1415
 30
23.5048
 70
192
 0
VERTEX
 8
GRIFF_1
 10
-1.9821
 20
-2.1439
 30
23.5048
 70
192
 0
VERTEX
 8
GRIFF_1
 10
-1.9799
 20
-2.1461
 30
23.5048
 70
192
 0
VERTEX
 8
GRIFF_1
 10
-1.9775
 20
-2.1481
 30
23.5048
 70
192
 0
VERTEX
 8
GRIFF_1
 10
-1.9749
 20
-2.1498
 30
23.5048
 70
192
 0
VERTEX
 8
GRIFF_1
 10
-1.9721
 20
-2.1512
 30
23.5048
 70
192
 0
VERTEX
 8
GRIFF_1
 10
-1.9692
 20
-2.1523
 30
23.5048
 70
192
 0
VERTEX
 8
GRIFF_1
 10
-1.9662
 20
-2.1531
 30
23.5048
 70
192
 0
VERTEX
 8
GRIFF_1
 10
-1.9631
 20
-2.1536
 30
23.5048
 70
192
 0
VERTEX
 8
GRIFF_1
 10
-1.96
 20
-2.1538
 30
23.5048
 70
192
 0
VERTEX
 8
GRIFF_1
 10
1.96
 20
-2.1538
 30
23.5048
 70
192
 0
VERTEX
 8
GRIFF_1
 10
1.9631
 20
-2.1536
 30
23.5048
 70
192
 0
VERTEX
 8
GRIFF_1
 10
1.9662
 20
-2.1531
 30
23.5048
 70
192
 0
VERTEX
 8
GRIFF_1
 10
1.9692
 20
-2.1523
 30
23.5048
 70
192
 0
VERTEX
 8
GRIFF_1
 10
1.9721
 20
-2.1512
 30
23.5048
 70
192
 0
VERTEX
 8
GRIFF_1
 10
1.9749
 20
-2.1498
 30
23.5048
 70
192
 0
VERTEX
 8
GRIFF_1
 10
1.9775
 20
-2.1481
 30
23.5048
 70
192
 0
VERTEX
 8
GRIFF_1
 10
1.9799
 20
-2.1461
 30
23.5048
 70
192
 0
VERTEX
 8
GRIFF_1
 10
1.9821
 20
-2.1439
 30
23.5048
 70
192
 0
VERTEX
 8
GRIFF_1
 10
1.984
 20
-2.1415
 30
23.5048
 70
192
 0
VERTEX
 8
GRIFF_1
 10
1.9857
 20
-2.1389
 30
23.5048
 70
192
 0
VERTEX
 8
GRIFF_1
 10
1.9872
 20
-2.1361
 30
23.5048
 70
192
 0
VERTEX
 8
GRIFF_1
 10
1.9883
 20
-2.1332
 30
23.5048
 70
192
 0
VERTEX
 8
GRIFF_1
 10
1.9891
 20
-2.1302
 30
23.5048
 70
192
 0
VERTEX
 8
GRIFF_1
 10
1.9896
 20
-2.1272
 30
23.5048
 70
192
 0
VERTEX
 8
GRIFF_1
 10
1.9897
 20
-2.1241
 30
23.5048
 70
192
 0
VERTEX
 8
GRIFF_1
 10
1.9897
 20
1.7959
 30
23.5048
 70
192
 0
VERTEX
 8
GRIFF_1
 10
1.9896
 20
1.7991
 30
23.5048
 70
192
 0
VERTEX
 8
GRIFF_1
 10
1.9891
 20
1.8021
 30
23.5048
 70
192
 0
VERTEX
 8
GRIFF_1
 10
1.9883
 20
1.8051
 30
23.5048
 70
192
 0
VERTEX
 8
GRIFF_1
 10
1.9872
 20
1.808
 30
23.5048
 70
192
 0
VERTEX
 8
GRIFF_1
 10
1.9857
 20
1.8108
 30
23.5048
 70
192
 0
VERTEX
 8
GRIFF_1
 10
1.984
 20
1.8134
 30
23.5048
 70
192
 0
VERTEX
 8
GRIFF_1
 10
1.9821
 20
1.8158
 30
23.5048
 70
192
 0
VERTEX
 8
GRIFF_1
 10
1.9799
 20
1.818
 30
23.5048
 70
192
 0
VERTEX
 8
GRIFF_1
 10
1.9775
 20
1.82
 30
23.5048
 70
192
 0
VERTEX
 8
GRIFF_1
 10
1.9749
 20
1.8217
 30
23.5048
 70
192
 0
VERTEX
 8
GRIFF_1
 10
1.9721
 20
1.8231
 30
23.5048
 70
192
 0
VERTEX
 8
GRIFF_1
 10
1.9692
 20
1.8242
 30
23.5048
 70
192
 0
VERTEX
 8
GRIFF_1
 10
1.9662
 20
1.825
 30
23.5048
 70
192
 0
VERTEX
 8
GRIFF_1
 10
1.9631
 20
1.8255
 30
23.5048
 70
192
 0
VERTEX
 8
GRIFF_1
 10
1.96
 20
1.8257
 30
23.5048
 70
192
 0
VERTEX
 8
GRIFF_1
 10
-1.96
 20
1.8257
 30
23.5048
 70
192
 0
VERTEX
 8
GRIFF_1
 10
-1.9631
 20
1.8255
 30
23.5048
 70
192
 0
VERTEX
 8
GRIFF_1
 10
-1.9662
 20
1.825
 30
23.5048
 70
192
 0
VERTEX
 8
GRIFF_1
 10
-1.9692
 20
1.8242
 30
23.5048
 70
192
 0
VERTEX
 8
GRIFF_1
 10
-1.9721
 20
1.8231
 30
23.5048
 70
192
 0
VERTEX
 8
GRIFF_1
 10
-1.9749
 20
1.8217
 30
23.5048
 70
192
 0
VERTEX
 8
GRIFF_1
 10
-1.9775
 20
1.82
 30
23.5048
 70
192
 0
VERTEX
 8
GRIFF_1
 10
-1.9799
 20
1.818
 30
23.5048
 70
192
 0
VERTEX
 8
GRIFF_1
 10
-1.9821
 20
1.8158
 30
23.5048
 70
192
 0
VERTEX
 8
GRIFF_1
 10
-1.984
 20
1.8134
 30
23.5048
 70
192
 0
VERTEX
 8
GRIFF_1
 10
-1.9857
 20
1.8108
 30
23.5048
 70
192
 0
VERTEX
 8
GRIFF_1
 10
-1.9872
 20
1.808
 30
23.5048
 70
192
 0
VERTEX
 8
GRIFF_1
 10
-1.9883
 20
1.8051
 30
23.5048
 70
192
 0
VERTEX
 8
GRIFF_1
 10
-1.9891
 20
1.8021
 30
23.5048
 70
192
 0
VERTEX
 8
GRIFF_1
 10
-1.9896
 20
1.7991
 30
23.5048
 70
192
 0
VERTEX
 8
GRIFF_1
 10
-1.9868
 20
1.7959
 30
23.5078
 70
192
 0
VERTEX
 8
GRIFF_1
 10
-1.9868
 20
-2.1241
 30
23.5078
 70
192
 0
VERTEX
 8
GRIFF_1
 10
-1.9866
 20
-2.1269
 30
23.5078
 70
192
 0
VERTEX
 8
GRIFF_1
 10
-1.9862
 20
-2.1296
 30
23.5078
 70
192
 0
VERTEX
 8
GRIFF_1
 10
-1.9855
 20
-2.1323
 30
23.5078
 70
192
 0
VERTEX
 8
GRIFF_1
 10
-1.9845
 20
-2.1349
 30
23.5078
 70
192
 0
VERTEX
 8
GRIFF_1
 10
-1.9832
 20
-2.1374
 30
23.5078
 70
192
 0
VERTEX
 8
GRIFF_1
 10
-1.9817
 20
-2.1398
 30
23.5078
 70
192
 0
VERTEX
 8
GRIFF_1
 10
-1.9799
 20
-2.142
 30
23.5078
 70
192
 0
VERTEX
 8
GRIFF_1
 10
-1.9779
 20
-2.1439
 30
23.5078
 70
192
 0
VERTEX
 8
GRIFF_1
 10
-1.9757
 20
-2.1457
 30
23.5078
 70
192
 0
VERTEX
 8
GRIFF_1
 10
-1.9734
 20
-2.1472
 30
23.5078
 70
192
 0
VERTEX
 8
GRIFF_1
 10
-1.9709
 20
-2.1485
 30
23.5078
 70
192
 0
VERTEX
 8
GRIFF_1
 10
-1.9683
 20
-2.1495
 30
23.5078
 70
192
 0
VERTEX
 8
GRIFF_1
 10
-1.9656
 20
-2.1502
 30
23.5078
 70
192
 0
VERTEX
 8
GRIFF_1
 10
-1.9628
 20
-2.1507
 30
23.5078
 70
192
 0
VERTEX
 8
GRIFF_1
 10
-1.96
 20
-2.1508
 30
23.5078
 70
192
 0
VERTEX
 8
GRIFF_1
 10
1.96
 20
-2.1508
 30
23.5078
 70
192
 0
VERTEX
 8
GRIFF_1
 10
1.9628
 20
-2.1507
 30
23.5078
 70
192
 0
VERTEX
 8
GRIFF_1
 10
1.9656
 20
-2.1502
 30
23.5078
 70
192
 0
VERTEX
 8
GRIFF_1
 10
1.9683
 20
-2.1495
 30
23.5078
 70
192
 0
VERTEX
 8
GRIFF_1
 10
1.9709
 20
-2.1485
 30
23.5078
 70
192
 0
VERTEX
 8
GRIFF_1
 10
1.9734
 20
-2.1472
 30
23.5078
 70
192
 0
VERTEX
 8
GRIFF_1
 10
1.9757
 20
-2.1457
 30
23.5078
 70
192
 0
VERTEX
 8
GRIFF_1
 10
1.9779
 20
-2.1439
 30
23.5078
 70
192
 0
VERTEX
 8
GRIFF_1
 10
1.9799
 20
-2.142
 30
23.5078
 70
192
 0
VERTEX
 8
GRIFF_1
 10
1.9817
 20
-2.1398
 30
23.5078
 70
192
 0
VERTEX
 8
GRIFF_1
 10
1.9832
 20
-2.1374
 30
23.5078
 70
192
 0
VERTEX
 8
GRIFF_1
 10
1.9845
 20
-2.1349
 30
23.5078
 70
192
 0
VERTEX
 8
GRIFF_1
 10
1.9855
 20
-2.1323
 30
23.5078
 70
192
 0
VERTEX
 8
GRIFF_1
 10
1.9862
 20
-2.1296
 30
23.5078
 70
192
 0
VERTEX
 8
GRIFF_1
 10
1.9866
 20
-2.1269
 30
23.5078
 70
192
 0
VERTEX
 8
GRIFF_1
 10
1.9868
 20
-2.1241
 30
23.5078
 70
192
 0
VERTEX
 8
GRIFF_1
 10
1.9868
 20
1.7959
 30
23.5078
 70
192
 0
VERTEX
 8
GRIFF_1
 10
1.9866
 20
1.7987
 30
23.5078
 70
192
 0
VERTEX
 8
GRIFF_1
 10
1.9862
 20
1.8015
 30
23.5078
 70
192
 0
VERTEX
 8
GRIFF_1
 10
1.9855
 20
1.8042
 30
23.5078
 70
192
 0
VERTEX
 8
GRIFF_1
 10
1.9845
 20
1.8068
 30
23.5078
 70
192
 0
VERTEX
 8
GRIFF_1
 10
1.9832
 20
1.8093
 30
23.5078
 70
192
 0
VERTEX
 8
GRIFF_1
 10
1.9817
 20
1.8117
 30
23.5078
 70
192
 0
VERTEX
 8
GRIFF_1
 10
1.9799
 20
1.8139
 30
23.5078
 70
192
 0
VERTEX
 8
GRIFF_1
 10
1.9779
 20
1.8158
 30
23.5078
 70
192
 0
VERTEX
 8
GRIFF_1
 10
1.9757
 20
1.8176
 30
23.5078
 70
192
 0
VERTEX
 8
GRIFF_1
 10
1.9734
 20
1.8191
 30
23.5078
 70
192
 0
VERTEX
 8
GRIFF_1
 10
1.9709
 20
1.8204
 30
23.5078
 70
192
 0
VERTEX
 8
GRIFF_1
 10
1.9683
 20
1.8214
 30
23.5078
 70
192
 0
VERTEX
 8
GRIFF_1
 10
1.9656
 20
1.8221
 30
23.5078
 70
192
 0
VERTEX
 8
GRIFF_1
 10
1.9628
 20
1.8226
 30
23.5078
 70
192
 0
VERTEX
 8
GRIFF_1
 10
1.96
 20
1.8227
 30
23.5078
 70
192
 0
VERTEX
 8
GRIFF_1
 10
-1.96
 20
1.8227
 30
23.5078
 70
192
 0
VERTEX
 8
GRIFF_1
 10
-1.9628
 20
1.8226
 30
23.5078
 70
192
 0
VERTEX
 8
GRIFF_1
 10
-1.9656
 20
1.8221
 30
23.5078
 70
192
 0
VERTEX
 8
GRIFF_1
 10
-1.9683
 20
1.8214
 30
23.5078
 70
192
 0
VERTEX
 8
GRIFF_1
 10
-1.9709
 20
1.8204
 30
23.5078
 70
192
 0
VERTEX
 8
GRIFF_1
 10
-1.9734
 20
1.8191
 30
23.5078
 70
192
 0
VERTEX
 8
GRIFF_1
 10
-1.9757
 20
1.8176
 30
23.5078
 70
192
 0
VERTEX
 8
GRIFF_1
 10
-1.9779
 20
1.8158
 30
23.5078
 70
192
 0
VERTEX
 8
GRIFF_1
 10
-1.9799
 20
1.8139
 30
23.5078
 70
192
 0
VERTEX
 8
GRIFF_1
 10
-1.9817
 20
1.8117
 30
23.5078
 70
192
 0
VERTEX
 8
GRIFF_1
 10
-1.9832
 20
1.8093
 30
23.5078
 70
192
 0
VERTEX
 8
GRIFF_1
 10
-1.9845
 20
1.8068
 30
23.5078
 70
192
 0
VERTEX
 8
GRIFF_1
 10
-1.9855
 20
1.8042
 30
23.5078
 70
192
 0
VERTEX
 8
GRIFF_1
 10
-1.9862
 20
1.8015
 30
23.5078
 70
192
 0
VERTEX
 8
GRIFF_1
 10
-1.9866
 20
1.7987
 30
23.5078
 70
192
 0
VERTEX
 8
GRIFF_1
 10
-1.9835
 20
1.7959
 30
23.5104
 70
192
 0
VERTEX
 8
GRIFF_1
 10
-1.9835
 20
-2.1241
 30
23.5104
 70
192
 0
VERTEX
 8
GRIFF_1
 10
-1.9834
 20
-2.1265
 30
23.5104
 70
192
 0
VERTEX
 8
GRIFF_1
 10
-1.983
 20
-2.1289
 30
23.5104
 70
192
 0
VERTEX
 8
GRIFF_1
 10
-1.9824
 20
-2.1313
 30
23.5104
 70
192
 0
VERTEX
 8
GRIFF_1
 10
-1.9815
 20
-2.1336
 30
23.5104
 70
192
 0
VERTEX
 8
GRIFF_1
 10
-1.9804
 20
-2.1358
 30
23.5104
 70
192
 0
VERTEX
 8
GRIFF_1
 10
-1.979
 20
-2.1379
 30
23.5104
 70
192
 0
VERTEX
 8
GRIFF_1
 10
-1.9775
 20
-2.1398
 30
23.5104
 70
192
 0
VERTEX
 8
GRIFF_1
 10
-1.9757
 20
-2.1415
 30
23.5104
 70
192
 0
VERTEX
 8
GRIFF_1
 10
-1.9738
 20
-2.1431
 30
23.5104
 70
192
 0
VERTEX
 8
GRIFF_1
 10
-1.9718
 20
-2.1444
 30
23.5104
 70
192
 0
VERTEX
 8
GRIFF_1
 10
-1.9696
 20
-2.1455
 30
23.5104
 70
192
 0
VERTEX
 8
GRIFF_1
 10
-1.9673
 20
-2.1464
 30
23.5104
 70
192
 0
VERTEX
 8
GRIFF_1
 10
-1.9649
 20
-2.1471
 30
23.5104
 70
192
 0
VERTEX
 8
GRIFF_1
 10
-1.9625
 20
-2.1474
 30
23.5104
 70
192
 0
VERTEX
 8
GRIFF_1
 10
-1.96
 20
-2.1476
 30
23.5104
 70
192
 0
VERTEX
 8
GRIFF_1
 10
1.96
 20
-2.1476
 30
23.5104
 70
192
 0
VERTEX
 8
GRIFF_1
 10
1.9625
 20
-2.1474
 30
23.5104
 70
192
 0
VERTEX
 8
GRIFF_1
 10
1.9649
 20
-2.1471
 30
23.5104
 70
192
 0
VERTEX
 8
GRIFF_1
 10
1.9673
 20
-2.1464
 30
23.5104
 70
192
 0
VERTEX
 8
GRIFF_1
 10
1.9696
 20
-2.1455
 30
23.5104
 70
192
 0
VERTEX
 8
GRIFF_1
 10
1.9718
 20
-2.1444
 30
23.5104
 70
192
 0
VERTEX
 8
GRIFF_1
 10
1.9738
 20
-2.1431
 30
23.5104
 70
192
 0
VERTEX
 8
GRIFF_1
 10
1.9757
 20
-2.1415
 30
23.5104
 70
192
 0
VERTEX
 8
GRIFF_1
 10
1.9775
 20
-2.1398
 30
23.5104
 70
192
 0
VERTEX
 8
GRIFF_1
 10
1.979
 20
-2.1379
 30
23.5104
 70
192
 0
VERTEX
 8
GRIFF_1
 10
1.9804
 20
-2.1358
 30
23.5104
 70
192
 0
VERTEX
 8
GRIFF_1
 10
1.9815
 20
-2.1336
 30
23.5104
 70
192
 0
VERTEX
 8
GRIFF_1
 10
1.9824
 20
-2.1313
 30
23.5104
 70
192
 0
VERTEX
 8
GRIFF_1
 10
1.983
 20
-2.1289
 30
23.5104
 70
192
 0
VERTEX
 8
GRIFF_1
 10
1.9834
 20
-2.1265
 30
23.5104
 70
192
 0
VERTEX
 8
GRIFF_1
 10
1.9835
 20
-2.1241
 30
23.5104
 70
192
 0
VERTEX
 8
GRIFF_1
 10
1.9835
 20
1.7959
 30
23.5104
 70
192
 0
VERTEX
 8
GRIFF_1
 10
1.9834
 20
1.7984
 30
23.5104
 70
192
 0
VERTEX
 8
GRIFF_1
 10
1.983
 20
1.8008
 30
23.5104
 70
192
 0
VERTEX
 8
GRIFF_1
 10
1.9824
 20
1.8032
 30
23.5104
 70
192
 0
VERTEX
 8
GRIFF_1
 10
1.9815
 20
1.8055
 30
23.5104
 70
192
 0
VERTEX
 8
GRIFF_1
 10
1.9804
 20
1.8077
 30
23.5104
 70
192
 0
VERTEX
 8
GRIFF_1
 10
1.979
 20
1.8098
 30
23.5104
 70
192
 0
VERTEX
 8
GRIFF_1
 10
1.9775
 20
1.8117
 30
23.5104
 70
192
 0
VERTEX
 8
GRIFF_1
 10
1.9757
 20
1.8134
 30
23.5104
 70
192
 0
VERTEX
 8
GRIFF_1
 10
1.9738
 20
1.815
 30
23.5104
 70
192
 0
VERTEX
 8
GRIFF_1
 10
1.9718
 20
1.8163
 30
23.5104
 70
192
 0
VERTEX
 8
GRIFF_1
 10
1.9696
 20
1.8174
 30
23.5104
 70
192
 0
VERTEX
 8
GRIFF_1
 10
1.9673
 20
1.8183
 30
23.5104
 70
192
 0
VERTEX
 8
GRIFF_1
 10
1.9649
 20
1.8189
 30
23.5104
 70
192
 0
VERTEX
 8
GRIFF_1
 10
1.9625
 20
1.8193
 30
23.5104
 70
192
 0
VERTEX
 8
GRIFF_1
 10
1.96
 20
1.8195
 30
23.5104
 70
192
 0
VERTEX
 8
GRIFF_1
 10
-1.96
 20
1.8195
 30
23.5104
 70
192
 0
VERTEX
 8
GRIFF_1
 10
-1.9625
 20
1.8193
 30
23.5104
 70
192
 0
VERTEX
 8
GRIFF_1
 10
-1.9649
 20
1.8189
 30
23.5104
 70
192
 0
VERTEX
 8
GRIFF_1
 10
-1.9673
 20
1.8183
 30
23.5104
 70
192
 0
VERTEX
 8
GRIFF_1
 10
-1.9696
 20
1.8174
 30
23.5104
 70
192
 0
VERTEX
 8
GRIFF_1
 10
-1.9718
 20
1.8163
 30
23.5104
 70
192
 0
VERTEX
 8
GRIFF_1
 10
-1.9738
 20
1.815
 30
23.5104
 70
192
 0
VERTEX
 8
GRIFF_1
 10
-1.9757
 20
1.8134
 30
23.5104
 70
192
 0
VERTEX
 8
GRIFF_1
 10
-1.9775
 20
1.8117
 30
23.5104
 70
192
 0
VERTEX
 8
GRIFF_1
 10
-1.979
 20
1.8098
 30
23.5104
 70
192
 0
VERTEX
 8
GRIFF_1
 10
-1.9804
 20
1.8077
 30
23.5104
 70
192
 0
VERTEX
 8
GRIFF_1
 10
-1.9815
 20
1.8055
 30
23.5104
 70
192
 0
VERTEX
 8
GRIFF_1
 10
-1.9824
 20
1.8032
 30
23.5104
 70
192
 0
VERTEX
 8
GRIFF_1
 10
-1.983
 20
1.8008
 30
23.5104
 70
192
 0
VERTEX
 8
GRIFF_1
 10
-1.9834
 20
1.7984
 30
23.5104
 70
192
 0
VERTEX
 8
GRIFF_1
 10
-1.98
 20
1.7959
 30
23.5127
 70
192
 0
VERTEX
 8
GRIFF_1
 10
-1.98
 20
-2.1241
 30
23.5127
 70
192
 0
VERTEX
 8
GRIFF_1
 10
-1.9799
 20
-2.1261
 30
23.5127
 70
192
 0
VERTEX
 8
GRIFF_1
 10
-1.9796
 20
-2.1282
 30
23.5127
 70
192
 0
VERTEX
 8
GRIFF_1
 10
-1.979
 20
-2.1302
 30
23.5127
 70
192
 0
VERTEX
 8
GRIFF_1
 10
-1.9783
 20
-2.1322
 30
23.5127
 70
192
 0
VERTEX
 8
GRIFF_1
 10
-1.9773
 20
-2.1341
 30
23.5127
 70
192
 0
VERTEX
 8
GRIFF_1
 10
-1.9762
 20
-2.1358
 30
23.5127
 70
192
 0
VERTEX
 8
GRIFF_1
 10
-1.9749
 20
-2.1374
 30
23.5127
 70
192
 0
VERTEX
 8
GRIFF_1
 10
-1.9734
 20
-2.1389
 30
23.5127
 70
192
 0
VERTEX
 8
GRIFF_1
 10
-1.9718
 20
-2.1402
 30
23.5127
 70
192
 0
VERTEX
 8
GRIFF_1
 10
-1.97
 20
-2.1414
 30
23.5127
 70
192
 0
VERTEX
 8
GRIFF_1
 10
-1.9681
 20
-2.1423
 30
23.5127
 70
192
 0
VERTEX
 8
GRIFF_1
 10
-1.9662
 20
-2.1431
 30
23.5127
 70
192
 0
VERTEX
 8
GRIFF_1
 10
-1.9642
 20
-2.1436
 30
23.5127
 70
192
 0
VERTEX
 8
GRIFF_1
 10
-1.9621
 20
-2.1439
 30
23.5127
 70
192
 0
VERTEX
 8
GRIFF_1
 10
-1.96
 20
-2.1441
 30
23.5127
 70
192
 0
VERTEX
 8
GRIFF_1
 10
1.96
 20
-2.1441
 30
23.5127
 70
192
 0
VERTEX
 8
GRIFF_1
 10
1.9621
 20
-2.1439
 30
23.5127
 70
192
 0
VERTEX
 8
GRIFF_1
 10
1.9642
 20
-2.1436
 30
23.5127
 70
192
 0
VERTEX
 8
GRIFF_1
 10
1.9662
 20
-2.1431
 30
23.5127
 70
192
 0
VERTEX
 8
GRIFF_1
 10
1.9681
 20
-2.1423
 30
23.5127
 70
192
 0
VERTEX
 8
GRIFF_1
 10
1.97
 20
-2.1414
 30
23.5127
 70
192
 0
VERTEX
 8
GRIFF_1
 10
1.9718
 20
-2.1402
 30
23.5127
 70
192
 0
VERTEX
 8
GRIFF_1
 10
1.9734
 20
-2.1389
 30
23.5127
 70
192
 0
VERTEX
 8
GRIFF_1
 10
1.9749
 20
-2.1374
 30
23.5127
 70
192
 0
VERTEX
 8
GRIFF_1
 10
1.9762
 20
-2.1358
 30
23.5127
 70
192
 0
VERTEX
 8
GRIFF_1
 10
1.9773
 20
-2.1341
 30
23.5127
 70
192
 0
VERTEX
 8
GRIFF_1
 10
1.9783
 20
-2.1322
 30
23.5127
 70
192
 0
VERTEX
 8
GRIFF_1
 10
1.979
 20
-2.1302
 30
23.5127
 70
192
 0
VERTEX
 8
GRIFF_1
 10
1.9796
 20
-2.1282
 30
23.5127
 70
192
 0
VERTEX
 8
GRIFF_1
 10
1.9799
 20
-2.1261
 30
23.5127
 70
192
 0
VERTEX
 8
GRIFF_1
 10
1.98
 20
-2.1241
 30
23.5127
 70
192
 0
VERTEX
 8
GRIFF_1
 10
1.98
 20
1.7959
 30
23.5127
 70
192
 0
VERTEX
 8
GRIFF_1
 10
1.9799
 20
1.798
 30
23.5127
 70
192
 0
VERTEX
 8
GRIFF_1
 10
1.9796
 20
1.8001
 30
23.5127
 70
192
 0
VERTEX
 8
GRIFF_1
 10
1.979
 20
1.8021
 30
23.5127
 70
192
 0
VERTEX
 8
GRIFF_1
 10
1.9783
 20
1.8041
 30
23.5127
 70
192
 0
VERTEX
 8
GRIFF_1
 10
1.9773
 20
1.8059
 30
23.5127
 70
192
 0
VERTEX
 8
GRIFF_1
 10
1.9762
 20
1.8077
 30
23.5127
 70
192
 0
VERTEX
 8
GRIFF_1
 10
1.9749
 20
1.8093
 30
23.5127
 70
192
 0
VERTEX
 8
GRIFF_1
 10
1.9734
 20
1.8108
 30
23.5127
 70
192
 0
VERTEX
 8
GRIFF_1
 10
1.9718
 20
1.8121
 30
23.5127
 70
192
 0
VERTEX
 8
GRIFF_1
 10
1.97
 20
1.8133
 30
23.5127
 70
192
 0
VERTEX
 8
GRIFF_1
 10
1.9681
 20
1.8142
 30
23.5127
 70
192
 0
VERTEX
 8
GRIFF_1
 10
1.9662
 20
1.815
 30
23.5127
 70
192
 0
VERTEX
 8
GRIFF_1
 10
1.9642
 20
1.8155
 30
23.5127
 70
192
 0
VERTEX
 8
GRIFF_1
 10
1.9621
 20
1.8158
 30
23.5127
 70
192
 0
VERTEX
 8
GRIFF_1
 10
1.96
 20
1.8159
 30
23.5127
 70
192
 0
VERTEX
 8
GRIFF_1
 10
-1.96
 20
1.8159
 30
23.5127
 70
192
 0
VERTEX
 8
GRIFF_1
 10
-1.9621
 20
1.8158
 30
23.5127
 70
192
 0
VERTEX
 8
GRIFF_1
 10
-1.9642
 20
1.8155
 30
23.5127
 70
192
 0
VERTEX
 8
GRIFF_1
 10
-1.9662
 20
1.815
 30
23.5127
 70
192
 0
VERTEX
 8
GRIFF_1
 10
-1.9681
 20
1.8142
 30
23.5127
 70
192
 0
VERTEX
 8
GRIFF_1
 10
-1.97
 20
1.8133
 30
23.5127
 70
192
 0
VERTEX
 8
GRIFF_1
 10
-1.9718
 20
1.8121
 30
23.5127
 70
192
 0
VERTEX
 8
GRIFF_1
 10
-1.9734
 20
1.8108
 30
23.5127
 70
192
 0
VERTEX
 8
GRIFF_1
 10
-1.9749
 20
1.8093
 30
23.5127
 70
192
 0
VERTEX
 8
GRIFF_1
 10
-1.9762
 20
1.8077
 30
23.5127
 70
192
 0
VERTEX
 8
GRIFF_1
 10
-1.9773
 20
1.8059
 30
23.5127
 70
192
 0
VERTEX
 8
GRIFF_1
 10
-1.9783
 20
1.8041
 30
23.5127
 70
192
 0
VERTEX
 8
GRIFF_1
 10
-1.979
 20
1.8021
 30
23.5127
 70
192
 0
VERTEX
 8
GRIFF_1
 10
-1.9796
 20
1.8001
 30
23.5127
 70
192
 0
VERTEX
 8
GRIFF_1
 10
-1.9799
 20
1.798
 30
23.5127
 70
192
 0
VERTEX
 8
GRIFF_1
 10
-1.9763
 20
1.7959
 30
23.5146
 70
192
 0
VERTEX
 8
GRIFF_1
 10
-1.9763
 20
-2.1241
 30
23.5146
 70
192
 0
VERTEX
 8
GRIFF_1
 10
-1.9762
 20
-2.1258
 30
23.5146
 70
192
 0
VERTEX
 8
GRIFF_1
 10
-1.9759
 20
-2.1274
 30
23.5146
 70
192
 0
VERTEX
 8
GRIFF_1
 10
-1.9755
 20
-2.1291
 30
23.5146
 70
192
 0
VERTEX
 8
GRIFF_1
 10
-1.9749
 20
-2.1307
 30
23.5146
 70
192
 0
VERTEX
 8
GRIFF_1
 10
-1.9741
 20
-2.1322
 30
23.5146
 70
192
 0
VERTEX
 8
GRIFF_1
 10
-1.9732
 20
-2.1336
 30
23.5146
 70
192
 0
VERTEX
 8
GRIFF_1
 10
-1.9721
 20
-2.1349
 30
23.5146
 70
192
 0
VERTEX
 8
GRIFF_1
 10
-1.9709
 20
-2.1361
 30
23.5146
 70
192
 0
VERTEX
 8
GRIFF_1
 10
-1.9696
 20
-2.1372
 30
23.5146
 70
192
 0
VERTEX
 8
GRIFF_1
 10
-1.9681
 20
-2.1381
 30
23.5146
 70
192
 0
VERTEX
 8
GRIFF_1
 10
-1.9666
 20
-2.1389
 30
23.5146
 70
192
 0
VERTEX
 8
GRIFF_1
 10
-1.965
 20
-2.1395
 30
23.5146
 70
192
 0
VERTEX
 8
GRIFF_1
 10
-1.9634
 20
-2.14
 30
23.5146
 70
192
 0
VERTEX
 8
GRIFF_1
 10
-1.9617
 20
-2.1402
 30
23.5146
 70
192
 0
VERTEX
 8
GRIFF_1
 10
-1.96
 20
-2.1403
 30
23.5146
 70
192
 0
VERTEX
 8
GRIFF_1
 10
1.96
 20
-2.1403
 30
23.5146
 70
192
 0
VERTEX
 8
GRIFF_1
 10
1.9617
 20
-2.1402
 30
23.5146
 70
192
 0
VERTEX
 8
GRIFF_1
 10
1.9634
 20
-2.14
 30
23.5146
 70
192
 0
VERTEX
 8
GRIFF_1
 10
1.965
 20
-2.1395
 30
23.5146
 70
192
 0
VERTEX
 8
GRIFF_1
 10
1.9666
 20
-2.1389
 30
23.5146
 70
192
 0
VERTEX
 8
GRIFF_1
 10
1.9681
 20
-2.1381
 30
23.5146
 70
192
 0
VERTEX
 8
GRIFF_1
 10
1.9696
 20
-2.1372
 30
23.5146
 70
192
 0
VERTEX
 8
GRIFF_1
 10
1.9709
 20
-2.1361
 30
23.5146
 70
192
 0
VERTEX
 8
GRIFF_1
 10
1.9721
 20
-2.1349
 30
23.5146
 70
192
 0
VERTEX
 8
GRIFF_1
 10
1.9732
 20
-2.1336
 30
23.5146
 70
192
 0
VERTEX
 8
GRIFF_1
 10
1.9741
 20
-2.1322
 30
23.5146
 70
192
 0
VERTEX
 8
GRIFF_1
 10
1.9749
 20
-2.1307
 30
23.5146
 70
192
 0
VERTEX
 8
GRIFF_1
 10
1.9755
 20
-2.1291
 30
23.5146
 70
192
 0
VERTEX
 8
GRIFF_1
 10
1.9759
 20
-2.1274
 30
23.5146
 70
192
 0
VERTEX
 8
GRIFF_1
 10
1.9762
 20
-2.1258
 30
23.5146
 70
192
 0
VERTEX
 8
GRIFF_1
 10
1.9763
 20
-2.1241
 30
23.5146
 70
192
 0
VERTEX
 8
GRIFF_1
 10
1.9763
 20
1.7959
 30
23.5146
 70
192
 0
VERTEX
 8
GRIFF_1
 10
1.9762
 20
1.7976
 30
23.5146
 70
192
 0
VERTEX
 8
GRIFF_1
 10
1.9759
 20
1.7993
 30
23.5146
 70
192
 0
VERTEX
 8
GRIFF_1
 10
1.9755
 20
1.801
 30
23.5146
 70
192
 0
VERTEX
 8
GRIFF_1
 10
1.9749
 20
1.8026
 30
23.5146
 70
192
 0
VERTEX
 8
GRIFF_1
 10
1.9741
 20
1.8041
 30
23.5146
 70
192
 0
VERTEX
 8
GRIFF_1
 10
1.9732
 20
1.8055
 30
23.5146
 70
192
 0
VERTEX
 8
GRIFF_1
 10
1.9721
 20
1.8068
 30
23.5146
 70
192
 0
VERTEX
 8
GRIFF_1
 10
1.9709
 20
1.808
 30
23.5146
 70
192
 0
VERTEX
 8
GRIFF_1
 10
1.9696
 20
1.8091
 30
23.5146
 70
192
 0
VERTEX
 8
GRIFF_1
 10
1.9681
 20
1.81
 30
23.5146
 70
192
 0
VERTEX
 8
GRIFF_1
 10
1.9666
 20
1.8108
 30
23.5146
 70
192
 0
VERTEX
 8
GRIFF_1
 10
1.965
 20
1.8114
 30
23.5146
 70
192
 0
VERTEX
 8
GRIFF_1
 10
1.9634
 20
1.8119
 30
23.5146
 70
192
 0
VERTEX
 8
GRIFF_1
 10
1.9617
 20
1.8121
 30
23.5146
 70
192
 0
VERTEX
 8
GRIFF_1
 10
1.96
 20
1.8122
 30
23.5146
 70
192
 0
VERTEX
 8
GRIFF_1
 10
-1.96
 20
1.8122
 30
23.5146
 70
192
 0
VERTEX
 8
GRIFF_1
 10
-1.9617
 20
1.8121
 30
23.5146
 70
192
 0
VERTEX
 8
GRIFF_1
 10
-1.9634
 20
1.8119
 30
23.5146
 70
192
 0
VERTEX
 8
GRIFF_1
 10
-1.965
 20
1.8114
 30
23.5146
 70
192
 0
VERTEX
 8
GRIFF_1
 10
-1.9666
 20
1.8108
 30
23.5146
 70
192
 0
VERTEX
 8
GRIFF_1
 10
-1.9681
 20
1.81
 30
23.5146
 70
192
 0
VERTEX
 8
GRIFF_1
 10
-1.9696
 20
1.8091
 30
23.5146
 70
192
 0
VERTEX
 8
GRIFF_1
 10
-1.9709
 20
1.808
 30
23.5146
 70
192
 0
VERTEX
 8
GRIFF_1
 10
-1.9721
 20
1.8068
 30
23.5146
 70
192
 0
VERTEX
 8
GRIFF_1
 10
-1.9732
 20
1.8055
 30
23.5146
 70
192
 0
VERTEX
 8
GRIFF_1
 10
-1.9741
 20
1.8041
 30
23.5146
 70
192
 0
VERTEX
 8
GRIFF_1
 10
-1.9749
 20
1.8026
 30
23.5146
 70
192
 0
VERTEX
 8
GRIFF_1
 10
-1.9755
 20
1.801
 30
23.5146
 70
192
 0
VERTEX
 8
GRIFF_1
 10
-1.9759
 20
1.7993
 30
23.5146
 70
192
 0
VERTEX
 8
GRIFF_1
 10
-1.9762
 20
1.7976
 30
23.5146
 70
192
 0
VERTEX
 8
GRIFF_1
 10
-1.9724
 20
1.7959
 30
23.5161
 70
192
 0
VERTEX
 8
GRIFF_1
 10
-1.9724
 20
-2.1241
 30
23.5161
 70
192
 0
VERTEX
 8
GRIFF_1
 10
-1.9723
 20
-2.1253
 30
23.5161
 70
192
 0
VERTEX
 8
GRIFF_1
 10
-1.9721
 20
-2.1266
 30
23.5161
 70
192
 0
VERTEX
 8
GRIFF_1
 10
-1.9718
 20
-2.1279
 30
23.5161
 70
192
 0
VERTEX
 8
GRIFF_1
 10
-1.9713
 20
-2.1291
 30
23.5161
 70
192
 0
VERTEX
 8
GRIFF_1
 10
-1.9707
 20
-2.1302
 30
23.5161
 70
192
 0
VERTEX
 8
GRIFF_1
 10
-1.97
 20
-2.1313
 30
23.5161
 70
192
 0
VERTEX
 8
GRIFF_1
 10
-1.9692
 20
-2.1323
 30
23.5161
 70
192
 0
VERTEX
 8
GRIFF_1
 10
-1.9683
 20
-2.1332
 30
23.5161
 70
192
 0
VERTEX
 8
GRIFF_1
 10
-1.9673
 20
-2.1341
 30
23.5161
 70
192
 0
VERTEX
 8
GRIFF_1
 10
-1.9662
 20
-2.1348
 30
23.5161
 70
192
 0
VERTEX
 8
GRIFF_1
 10
-1.965
 20
-2.1353
 30
23.5161
 70
192
 0
VERTEX
 8
GRIFF_1
 10
-1.9638
 20
-2.1358
 30
23.5161
 70
192
 0
VERTEX
 8
GRIFF_1
 10
-1.9626
 20
-2.1361
 30
23.5161
 70
192
 0
VERTEX
 8
GRIFF_1
 10
-1.9613
 20
-2.1363
 30
23.5161
 70
192
 0
VERTEX
 8
GRIFF_1
 10
-1.96
 20
-2.1364
 30
23.5161
 70
192
 0
VERTEX
 8
GRIFF_1
 10
1.96
 20
-2.1364
 30
23.5161
 70
192
 0
VERTEX
 8
GRIFF_1
 10
1.9613
 20
-2.1363
 30
23.5161
 70
192
 0
VERTEX
 8
GRIFF_1
 10
1.9626
 20
-2.1361
 30
23.5161
 70
192
 0
VERTEX
 8
GRIFF_1
 10
1.9638
 20
-2.1358
 30
23.5161
 70
192
 0
VERTEX
 8
GRIFF_1
 10
1.965
 20
-2.1353
 30
23.5161
 70
192
 0
VERTEX
 8
GRIFF_1
 10
1.9662
 20
-2.1348
 30
23.5161
 70
192
 0
VERTEX
 8
GRIFF_1
 10
1.9673
 20
-2.1341
 30
23.5161
 70
192
 0
VERTEX
 8
GRIFF_1
 10
1.9683
 20
-2.1332
 30
23.5161
 70
192
 0
VERTEX
 8
GRIFF_1
 10
1.9692
 20
-2.1323
 30
23.5161
 70
192
 0
VERTEX
 8
GRIFF_1
 10
1.97
 20
-2.1313
 30
23.5161
 70
192
 0
VERTEX
 8
GRIFF_1
 10
1.9707
 20
-2.1302
 30
23.5161
 70
192
 0
VERTEX
 8
GRIFF_1
 10
1.9713
 20
-2.1291
 30
23.5161
 70
192
 0
VERTEX
 8
GRIFF_1
 10
1.9718
 20
-2.1279
 30
23.5161
 70
192
 0
VERTEX
 8
GRIFF_1
 10
1.9721
 20
-2.1266
 30
23.5161
 70
192
 0
VERTEX
 8
GRIFF_1
 10
1.9723
 20
-2.1253
 30
23.5161
 70
192
 0
VERTEX
 8
GRIFF_1
 10
1.9724
 20
-2.1241
 30
23.5161
 70
192
 0
VERTEX
 8
GRIFF_1
 10
1.9724
 20
1.7959
 30
23.5161
 70
192
 0
VERTEX
 8
GRIFF_1
 10
1.9723
 20
1.7972
 30
23.5161
 70
192
 0
VERTEX
 8
GRIFF_1
 10
1.9721
 20
1.7985
 30
23.5161
 70
192
 0
VERTEX
 8
GRIFF_1
 10
1.9718
 20
1.7998
 30
23.5161
 70
192
 0
VERTEX
 8
GRIFF_1
 10
1.9713
 20
1.801
 30
23.5161
 70
192
 0
VERTEX
 8
GRIFF_1
 10
1.9707
 20
1.8021
 30
23.5161
 70
192
 0
VERTEX
 8
GRIFF_1
 10
1.97
 20
1.8032
 30
23.5161
 70
192
 0
VERTEX
 8
GRIFF_1
 10
1.9692
 20
1.8042
 30
23.5161
 70
192
 0
VERTEX
 8
GRIFF_1
 10
1.9683
 20
1.8051
 30
23.5161
 70
192
 0
VERTEX
 8
GRIFF_1
 10
1.9673
 20
1.8059
 30
23.5161
 70
192
 0
VERTEX
 8
GRIFF_1
 10
1.9662
 20
1.8067
 30
23.5161
 70
192
 0
VERTEX
 8
GRIFF_1
 10
1.965
 20
1.8072
 30
23.5161
 70
192
 0
VERTEX
 8
GRIFF_1
 10
1.9638
 20
1.8077
 30
23.5161
 70
192
 0
VERTEX
 8
GRIFF_1
 10
1.9626
 20
1.808
 30
23.5161
 70
192
 0
VERTEX
 8
GRIFF_1
 10
1.9613
 20
1.8082
 30
23.5161
 70
192
 0
VERTEX
 8
GRIFF_1
 10
1.96
 20
1.8083
 30
23.5161
 70
192
 0
VERTEX
 8
GRIFF_1
 10
-1.96
 20
1.8083
 30
23.5161
 70
192
 0
VERTEX
 8
GRIFF_1
 10
-1.9613
 20
1.8082
 30
23.5161
 70
192
 0
VERTEX
 8
GRIFF_1
 10
-1.9626
 20
1.808
 30
23.5161
 70
192
 0
VERTEX
 8
GRIFF_1
 10
-1.9638
 20
1.8077
 30
23.5161
 70
192
 0
VERTEX
 8
GRIFF_1
 10
-1.965
 20
1.8072
 30
23.5161
 70
192
 0
VERTEX
 8
GRIFF_1
 10
-1.9662
 20
1.8067
 30
23.5161
 70
192
 0
VERTEX
 8
GRIFF_1
 10
-1.9673
 20
1.8059
 30
23.5161
 70
192
 0
VERTEX
 8
GRIFF_1
 10
-1.9683
 20
1.8051
 30
23.5161
 70
192
 0
VERTEX
 8
GRIFF_1
 10
-1.9692
 20
1.8042
 30
23.5161
 70
192
 0
VERTEX
 8
GRIFF_1
 10
-1.97
 20
1.8032
 30
23.5161
 70
192
 0
VERTEX
 8
GRIFF_1
 10
-1.9707
 20
1.8021
 30
23.5161
 70
192
 0
VERTEX
 8
GRIFF_1
 10
-1.9713
 20
1.801
 30
23.5161
 70
192
 0
VERTEX
 8
GRIFF_1
 10
-1.9718
 20
1.7998
 30
23.5161
 70
192
 0
VERTEX
 8
GRIFF_1
 10
-1.9721
 20
1.7985
 30
23.5161
 70
192
 0
VERTEX
 8
GRIFF_1
 10
-1.9723
 20
1.7972
 30
23.5161
 70
192
 0
VERTEX
 8
GRIFF_1
 10
-1.9683
 20
1.7959
 30
23.5172
 70
192
 0
VERTEX
 8
GRIFF_1
 10
-1.9683
 20
-2.1241
 30
23.5172
 70
192
 0
VERTEX
 8
GRIFF_1
 10
-1.9683
 20
-2.1249
 30
23.5172
 70
192
 0
VERTEX
 8
GRIFF_1
 10
-1.9681
 20
-2.1258
 30
23.5172
 70
192
 0
VERTEX
 8
GRIFF_1
 10
-1.9679
 20
-2.1266
 30
23.5172
 70
192
 0
VERTEX
 8
GRIFF_1
 10
-1.9676
 20
-2.1274
 30
23.5172
 70
192
 0
VERTEX
 8
GRIFF_1
 10
-1.9672
 20
-2.1282
 30
23.5172
 70
192
 0
VERTEX
 8
GRIFF_1
 10
-1.9667
 20
-2.1289
 30
23.5172
 70
192
 0
VERTEX
 8
GRIFF_1
 10
-1.9662
 20
-2.1296
 30
23.5172
 70
192
 0
VERTEX
 8
GRIFF_1
 10
-1.9656
 20
-2.1302
 30
23.5172
 70
192
 0
VERTEX
 8
GRIFF_1
 10
-1.9649
 20
-2.1308
 30
23.5172
 70
192
 0
VERTEX
 8
GRIFF_1
 10
-1.9642
 20
-2.1313
 30
23.5172
 70
192
 0
VERTEX
 8
GRIFF_1
 10
-1.9634
 20
-2.1317
 30
23.5172
 70
192
 0
VERTEX
 8
GRIFF_1
 10
-1.9626
 20
-2.132
 30
23.5172
 70
192
 0
VERTEX
 8
GRIFF_1
 10
-1.9617
 20
-2.1322
 30
23.5172
 70
192
 0
VERTEX
 8
GRIFF_1
 10
-1.9609
 20
-2.1323
 30
23.5172
 70
192
 0
VERTEX
 8
GRIFF_1
 10
-1.96
 20
-2.1324
 30
23.5172
 70
192
 0
VERTEX
 8
GRIFF_1
 10
1.96
 20
-2.1324
 30
23.5172
 70
192
 0
VERTEX
 8
GRIFF_1
 10
1.9609
 20
-2.1323
 30
23.5172
 70
192
 0
VERTEX
 8
GRIFF_1
 10
1.9617
 20
-2.1322
 30
23.5172
 70
192
 0
VERTEX
 8
GRIFF_1
 10
1.9626
 20
-2.132
 30
23.5172
 70
192
 0
VERTEX
 8
GRIFF_1
 10
1.9634
 20
-2.1317
 30
23.5172
 70
192
 0
VERTEX
 8
GRIFF_1
 10
1.9642
 20
-2.1313
 30
23.5172
 70
192
 0
VERTEX
 8
GRIFF_1
 10
1.9649
 20
-2.1308
 30
23.5172
 70
192
 0
VERTEX
 8
GRIFF_1
 10
1.9656
 20
-2.1302
 30
23.5172
 70
192
 0
VERTEX
 8
GRIFF_1
 10
1.9662
 20
-2.1296
 30
23.5172
 70
192
 0
VERTEX
 8
GRIFF_1
 10
1.9667
 20
-2.1289
 30
23.5172
 70
192
 0
VERTEX
 8
GRIFF_1
 10
1.9672
 20
-2.1282
 30
23.5172
 70
192
 0
VERTEX
 8
GRIFF_1
 10
1.9676
 20
-2.1274
 30
23.5172
 70
192
 0
VERTEX
 8
GRIFF_1
 10
1.9679
 20
-2.1266
 30
23.5172
 70
192
 0
VERTEX
 8
GRIFF_1
 10
1.9681
 20
-2.1258
 30
23.5172
 70
192
 0
VERTEX
 8
GRIFF_1
 10
1.9683
 20
-2.1249
 30
23.5172
 70
192
 0
VERTEX
 8
GRIFF_1
 10
1.9683
 20
-2.1241
 30
23.5172
 70
192
 0
VERTEX
 8
GRIFF_1
 10
1.9683
 20
1.7959
 30
23.5172
 70
192
 0
VERTEX
 8
GRIFF_1
 10
1.9683
 20
1.7968
 30
23.5172
 70
192
 0
VERTEX
 8
GRIFF_1
 10
1.9681
 20
1.7977
 30
23.5172
 70
192
 0
VERTEX
 8
GRIFF_1
 10
1.9679
 20
1.7985
 30
23.5172
 70
192
 0
VERTEX
 8
GRIFF_1
 10
1.9676
 20
1.7993
 30
23.5172
 70
192
 0
VERTEX
 8
GRIFF_1
 10
1.9672
 20
1.8001
 30
23.5172
 70
192
 0
VERTEX
 8
GRIFF_1
 10
1.9667
 20
1.8008
 30
23.5172
 70
192
 0
VERTEX
 8
GRIFF_1
 10
1.9662
 20
1.8015
 30
23.5172
 70
192
 0
VERTEX
 8
GRIFF_1
 10
1.9656
 20
1.8021
 30
23.5172
 70
192
 0
VERTEX
 8
GRIFF_1
 10
1.9649
 20
1.8027
 30
23.5172
 70
192
 0
VERTEX
 8
GRIFF_1
 10
1.9642
 20
1.8031
 30
23.5172
 70
192
 0
VERTEX
 8
GRIFF_1
 10
1.9634
 20
1.8035
 30
23.5172
 70
192
 0
VERTEX
 8
GRIFF_1
 10
1.9626
 20
1.8039
 30
23.5172
 70
192
 0
VERTEX
 8
GRIFF_1
 10
1.9617
 20
1.8041
 30
23.5172
 70
192
 0
VERTEX
 8
GRIFF_1
 10
1.9609
 20
1.8042
 30
23.5172
 70
192
 0
VERTEX
 8
GRIFF_1
 10
1.96
 20
1.8043
 30
23.5172
 70
192
 0
VERTEX
 8
GRIFF_1
 10
-1.96
 20
1.8043
 30
23.5172
 70
192
 0
VERTEX
 8
GRIFF_1
 10
-1.9609
 20
1.8042
 30
23.5172
 70
192
 0
VERTEX
 8
GRIFF_1
 10
-1.9617
 20
1.8041
 30
23.5172
 70
192
 0
VERTEX
 8
GRIFF_1
 10
-1.9626
 20
1.8039
 30
23.5172
 70
192
 0
VERTEX
 8
GRIFF_1
 10
-1.9634
 20
1.8035
 30
23.5172
 70
192
 0
VERTEX
 8
GRIFF_1
 10
-1.9642
 20
1.8031
 30
23.5172
 70
192
 0
VERTEX
 8
GRIFF_1
 10
-1.9649
 20
1.8027
 30
23.5172
 70
192
 0
VERTEX
 8
GRIFF_1
 10
-1.9656
 20
1.8021
 30
23.5172
 70
192
 0
VERTEX
 8
GRIFF_1
 10
-1.9662
 20
1.8015
 30
23.5172
 70
192
 0
VERTEX
 8
GRIFF_1
 10
-1.9667
 20
1.8008
 30
23.5172
 70
192
 0
VERTEX
 8
GRIFF_1
 10
-1.9672
 20
1.8001
 30
23.5172
 70
192
 0
VERTEX
 8
GRIFF_1
 10
-1.9676
 20
1.7993
 30
23.5172
 70
192
 0
VERTEX
 8
GRIFF_1
 10
-1.9679
 20
1.7985
 30
23.5172
 70
192
 0
VERTEX
 8
GRIFF_1
 10
-1.9681
 20
1.7977
 30
23.5172
 70
192
 0
VERTEX
 8
GRIFF_1
 10
-1.9683
 20
1.7968
 30
23.5172
 70
192
 0
VERTEX
 8
GRIFF_1
 10
-1.9642
 20
1.7959
 30
23.5178
 70
192
 0
VERTEX
 8
GRIFF_1
 10
-1.9642
 20
-2.1241
 30
23.5178
 70
192
 0
VERTEX
 8
GRIFF_1
 10
-1.9642
 20
-2.1245
 30
23.5178
 70
192
 0
VERTEX
 8
GRIFF_1
 10
-1.9641
 20
-2.1249
 30
23.5178
 70
192
 0
VERTEX
 8
GRIFF_1
 10
-1.964
 20
-2.1253
 30
23.5178
 70
192
 0
VERTEX
 8
GRIFF_1
 10
-1.9638
 20
-2.1258
 30
23.5178
 70
192
 0
VERTEX
 8
GRIFF_1
 10
-1.9636
 20
-2.1261
 30
23.5178
 70
192
 0
VERTEX
 8
GRIFF_1
 10
-1.9634
 20
-2.1265
 30
23.5178
 70
192
 0
VERTEX
 8
GRIFF_1
 10
-1.9631
 20
-2.1269
 30
23.5178
 70
192
 0
VERTEX
 8
GRIFF_1
 10
-1.9628
 20
-2.1272
 30
23.5178
 70
192
 0
VERTEX
 8
GRIFF_1
 10
-1.9625
 20
-2.1274
 30
23.5178
 70
192
 0
VERTEX
 8
GRIFF_1
 10
-1.9621
 20
-2.1277
 30
23.5178
 70
192
 0
VERTEX
 8
GRIFF_1
 10
-1.9617
 20
-2.1279
 30
23.5178
 70
192
 0
VERTEX
 8
GRIFF_1
 10
-1.9613
 20
-2.128
 30
23.5178
 70
192
 0
VERTEX
 8
GRIFF_1
 10
-1.9609
 20
-2.1281
 30
23.5178
 70
192
 0
VERTEX
 8
GRIFF_1
 10
-1.9604
 20
-2.1282
 30
23.5178
 70
192
 0
VERTEX
 8
GRIFF_1
 10
-1.96
 20
-2.1282
 30
23.5178
 70
192
 0
VERTEX
 8
GRIFF_1
 10
1.96
 20
-2.1282
 30
23.5178
 70
192
 0
VERTEX
 8
GRIFF_1
 10
1.9604
 20
-2.1282
 30
23.5178
 70
192
 0
VERTEX
 8
GRIFF_1
 10
1.9609
 20
-2.1281
 30
23.5178
 70
192
 0
VERTEX
 8
GRIFF_1
 10
1.9613
 20
-2.128
 30
23.5178
 70
192
 0
VERTEX
 8
GRIFF_1
 10
1.9617
 20
-2.1279
 30
23.5178
 70
192
 0
VERTEX
 8
GRIFF_1
 10
1.9621
 20
-2.1277
 30
23.5178
 70
192
 0
VERTEX
 8
GRIFF_1
 10
1.9625
 20
-2.1274
 30
23.5178
 70
192
 0
VERTEX
 8
GRIFF_1
 10
1.9628
 20
-2.1272
 30
23.5178
 70
192
 0
VERTEX
 8
GRIFF_1
 10
1.9631
 20
-2.1269
 30
23.5178
 70
192
 0
VERTEX
 8
GRIFF_1
 10
1.9634
 20
-2.1265
 30
23.5178
 70
192
 0
VERTEX
 8
GRIFF_1
 10
1.9636
 20
-2.1261
 30
23.5178
 70
192
 0
VERTEX
 8
GRIFF_1
 10
1.9638
 20
-2.1258
 30
23.5178
 70
192
 0
VERTEX
 8
GRIFF_1
 10
1.964
 20
-2.1253
 30
23.5178
 70
192
 0
VERTEX
 8
GRIFF_1
 10
1.9641
 20
-2.1249
 30
23.5178
 70
192
 0
VERTEX
 8
GRIFF_1
 10
1.9642
 20
-2.1245
 30
23.5178
 70
192
 0
VERTEX
 8
GRIFF_1
 10
1.9642
 20
-2.1241
 30
23.5178
 70
192
 0
VERTEX
 8
GRIFF_1
 10
1.9642
 20
1.7959
 30
23.5178
 70
192
 0
VERTEX
 8
GRIFF_1
 10
1.9642
 20
1.7964
 30
23.5178
 70
192
 0
VERTEX
 8
GRIFF_1
 10
1.9641
 20
1.7968
 30
23.5178
 70
192
 0
VERTEX
 8
GRIFF_1
 10
1.964
 20
1.7972
 30
23.5178
 70
192
 0
VERTEX
 8
GRIFF_1
 10
1.9638
 20
1.7976
 30
23.5178
 70
192
 0
VERTEX
 8
GRIFF_1
 10
1.9636
 20
1.798
 30
23.5178
 70
192
 0
VERTEX
 8
GRIFF_1
 10
1.9634
 20
1.7984
 30
23.5178
 70
192
 0
VERTEX
 8
GRIFF_1
 10
1.9631
 20
1.7987
 30
23.5178
 70
192
 0
VERTEX
 8
GRIFF_1
 10
1.9628
 20
1.7991
 30
23.5178
 70
192
 0
VERTEX
 8
GRIFF_1
 10
1.9625
 20
1.7993
 30
23.5178
 70
192
 0
VERTEX
 8
GRIFF_1
 10
1.9621
 20
1.7996
 30
23.5178
 70
192
 0
VERTEX
 8
GRIFF_1
 10
1.9617
 20
1.7998
 30
23.5178
 70
192
 0
VERTEX
 8
GRIFF_1
 10
1.9613
 20
1.7999
 30
23.5178
 70
192
 0
VERTEX
 8
GRIFF_1
 10
1.9609
 20
1.8
 30
23.5178
 70
192
 0
VERTEX
 8
GRIFF_1
 10
1.9604
 20
1.8001
 30
23.5178
 70
192
 0
VERTEX
 8
GRIFF_1
 10
1.96
 20
1.8001
 30
23.5178
 70
192
 0
VERTEX
 8
GRIFF_1
 10
-1.96
 20
1.8001
 30
23.5178
 70
192
 0
VERTEX
 8
GRIFF_1
 10
-1.9604
 20
1.8001
 30
23.5178
 70
192
 0
VERTEX
 8
GRIFF_1
 10
-1.9609
 20
1.8
 30
23.5178
 70
192
 0
VERTEX
 8
GRIFF_1
 10
-1.9613
 20
1.7999
 30
23.5178
 70
192
 0
VERTEX
 8
GRIFF_1
 10
-1.9617
 20
1.7998
 30
23.5178
 70
192
 0
VERTEX
 8
GRIFF_1
 10
-1.9621
 20
1.7996
 30
23.5178
 70
192
 0
VERTEX
 8
GRIFF_1
 10
-1.9625
 20
1.7993
 30
23.5178
 70
192
 0
VERTEX
 8
GRIFF_1
 10
-1.9628
 20
1.7991
 30
23.5178
 70
192
 0
VERTEX
 8
GRIFF_1
 10
-1.9631
 20
1.7987
 30
23.5178
 70
192
 0
VERTEX
 8
GRIFF_1
 10
-1.9634
 20
1.7984
 30
23.5178
 70
192
 0
VERTEX
 8
GRIFF_1
 10
-1.9636
 20
1.798
 30
23.5178
 70
192
 0
VERTEX
 8
GRIFF_1
 10
-1.9638
 20
1.7976
 30
23.5178
 70
192
 0
VERTEX
 8
GRIFF_1
 10
-1.964
 20
1.7972
 30
23.5178
 70
192
 0
VERTEX
 8
GRIFF_1
 10
-1.9641
 20
1.7968
 30
23.5178
 70
192
 0
VERTEX
 8
GRIFF_1
 10
-1.9642
 20
1.7964
 30
23.5178
 70
192
 0
VERTEX
 8
GRIFF_1
 10
-1.96
 20
1.7959
 30
23.518
 70
192
 0
VERTEX
 8
GRIFF_1
 10
-1.96
 20
-2.1241
 30
23.518
 70
192
 0
VERTEX
 8
GRIFF_1
 10
1.96
 20
-2.1241
 30
23.518
 70
192
 0
VERTEX
 8
GRIFF_1
 10
1.96
 20
1.7959
 30
23.518
 70
192
 0
VERTEX
 8
GRIFF_1
 10
-1.96
 20
0.0088
 30
21.218
 70
192
 0
VERTEX
 8
GRIFF_1
 10
1.96
 20
0.0088
 30
21.218
 70
192
 0
VERTEX
 8
GRIFF_1
 10
-1.9642
 20
0.0088
 30
21.2183
 70
192
 0
VERTEX
 8
GRIFF_1
 10
1.9642
 20
0.0088
 30
21.2183
 70
192
 0
VERTEX
 8
GRIFF_1
 10
-1.9683
 20
0.0088
 30
21.2189
 70
192
 0
VERTEX
 8
GRIFF_1
 10
1.9683
 20
0.0088
 30
21.2189
 70
192
 0
VERTEX
 8
GRIFF_1
 10
-1.9724
 20
0.0088
 30
21.22
 70
192
 0
VERTEX
 8
GRIFF_1
 10
1.9724
 20
0.0088
 30
21.22
 70
192
 0
VERTEX
 8
GRIFF_1
 10
-1.9763
 20
0.0088
 30
21.2215
 70
192
 0
VERTEX
 8
GRIFF_1
 10
1.9763
 20
0.0088
 30
21.2215
 70
192
 0
VERTEX
 8
GRIFF_1
 10
-1.98
 20
0.0088
 30
21.2234
 70
192
 0
VERTEX
 8
GRIFF_1
 10
1.98
 20
0.0088
 30
21.2234
 70
192
 0
VERTEX
 8
GRIFF_1
 10
-1.9835
 20
0.0088
 30
21.2257
 70
192
 0
VERTEX
 8
GRIFF_1
 10
1.9835
 20
0.0088
 30
21.2257
 70
192
 0
VERTEX
 8
GRIFF_1
 10
-1.9868
 20
0.0088
 30
21.2283
 70
192
 0
VERTEX
 8
GRIFF_1
 10
1.9868
 20
0.0088
 30
21.2283
 70
192
 0
VERTEX
 8
GRIFF_1
 10
-1.9897
 20
0.0088
 30
21.2313
 70
192
 0
VERTEX
 8
GRIFF_1
 10
1.9897
 20
0.0088
 30
21.2313
 70
192
 0
VERTEX
 8
GRIFF_1
 10
-1.9924
 20
0.0088
 30
21.2345
 70
192
 0
VERTEX
 8
GRIFF_1
 10
1.9924
 20
0.0088
 30
21.2345
 70
192
 0
VERTEX
 8
GRIFF_1
 10
-1.9946
 20
0.0088
 30
21.238
 70
192
 0
VERTEX
 8
GRIFF_1
 10
1.9946
 20
0.0088
 30
21.238
 70
192
 0
VERTEX
 8
GRIFF_1
 10
-1.9965
 20
0.0088
 30
21.2418
 70
192
 0
VERTEX
 8
GRIFF_1
 10
1.9965
 20
0.0088
 30
21.2418
 70
192
 0
VERTEX
 8
GRIFF_1
 10
-1.998
 20
0.0088
 30
21.2457
 70
192
 0
VERTEX
 8
GRIFF_1
 10
1.998
 20
0.0088
 30
21.2457
 70
192
 0
VERTEX
 8
GRIFF_1
 10
-1.9991
 20
0.0088
 30
21.2497
 70
192
 0
VERTEX
 8
GRIFF_1
 10
1.9991
 20
0.0088
 30
21.2497
 70
192
 0
VERTEX
 8
GRIFF_1
 10
-1.9998
 20
0.0088
 30
21.2539
 70
192
 0
VERTEX
 8
GRIFF_1
 10
1.9998
 20
0.0088
 30
21.2539
 70
192
 0
VERTEX
 8
GRIFF_1
 10
-2
 20
0.0088
 30
21.258
 70
192
 0
VERTEX
 8
GRIFF_1
 10
2
 20
0.0088
 30
21.258
 70
192
 0
VERTEX
 8
GRIFF_1
 10
-2
 20
0.0088
 30
23.478
 70
192
 0
VERTEX
 8
GRIFF_1
 10
2
 20
0.0088
 30
23.478
 70
192
 0
VERTEX
 8
GRIFF_1
 10
-1.9998
 20
0.0088
 30
23.4822
 70
192
 0
VERTEX
 8
GRIFF_1
 10
1.9998
 20
0.0088
 30
23.4822
 70
192
 0
VERTEX
 8
GRIFF_1
 10
-1.9991
 20
0.0088
 30
23.4863
 70
192
 0
VERTEX
 8
GRIFF_1
 10
1.9991
 20
0.0088
 30
23.4863
 70
192
 0
VERTEX
 8
GRIFF_1
 10
-1.998
 20
0.0088
 30
23.4904
 70
192
 0
VERTEX
 8
GRIFF_1
 10
1.998
 20
0.0088
 30
23.4904
 70
192
 0
VERTEX
 8
GRIFF_1
 10
-1.9965
 20
0.0088
 30
23.4943
 70
192
 0
VERTEX
 8
GRIFF_1
 10
1.9965
 20
0.0088
 30
23.4943
 70
192
 0
VERTEX
 8
GRIFF_1
 10
-1.9946
 20
0.0088
 30
23.498
 70
192
 0
VERTEX
 8
GRIFF_1
 10
1.9946
 20
0.0088
 30
23.498
 70
192
 0
VERTEX
 8
GRIFF_1
 10
-1.9924
 20
0.0088
 30
23.5015
 70
192
 0
VERTEX
 8
GRIFF_1
 10
1.9924
 20
0.0088
 30
23.5015
 70
192
 0
VERTEX
 8
GRIFF_1
 10
-1.9897
 20
0.0088
 30
23.5048
 70
192
 0
VERTEX
 8
GRIFF_1
 10
1.9897
 20
0.0088
 30
23.5048
 70
192
 0
VERTEX
 8
GRIFF_1
 10
-1.9868
 20
0.0088
 30
23.5078
 70
192
 0
VERTEX
 8
GRIFF_1
 10
1.9868
 20
0.0088
 30
23.5078
 70
192
 0
VERTEX
 8
GRIFF_1
 10
-1.9835
 20
0.0088
 30
23.5104
 70
192
 0
VERTEX
 8
GRIFF_1
 10
1.9835
 20
0.0088
 30
23.5104
 70
192
 0
VERTEX
 8
GRIFF_1
 10
-1.98
 20
0.0088
 30
23.5127
 70
192
 0
VERTEX
 8
GRIFF_1
 10
1.98
 20
0.0088
 30
23.5127
 70
192
 0
VERTEX
 8
GRIFF_1
 10
-1.9763
 20
0.0088
 30
23.5146
 70
192
 0
VERTEX
 8
GRIFF_1
 10
1.9763
 20
0.0088
 30
23.5146
 70
192
 0
VERTEX
 8
GRIFF_1
 10
-1.9724
 20
0.0088
 30
23.5161
 70
192
 0
VERTEX
 8
GRIFF_1
 10
1.9724
 20
0.0088
 30
23.5161
 70
192
 0
VERTEX
 8
GRIFF_1
 10
-1.9683
 20
0.0088
 30
23.5172
 70
192
 0
VERTEX
 8
GRIFF_1
 10
1.9683
 20
0.0088
 30
23.5172
 70
192
 0
VERTEX
 8
GRIFF_1
 10
-1.9642
 20
0.0088
 30
23.5178
 70
192
 0
VERTEX
 8
GRIFF_1
 10
1.9642
 20
0.0088
 30
23.5178
 70
192
 0
VERTEX
 8
GRIFF_1
 10
-1.96
 20
0.0088
 30
23.518
 70
192
 0
VERTEX
 8
GRIFF_1
 10
1.96
 20
0.0088
 30
23.518
 70
192
 0
VERTEX
 8
GRIFF_1
 10
0
 20
0
 30
0
 70
128
 71
1961
 72
966
 73
902
 74
1959
 0
VERTEX
 8
GRIFF_1
 10
0
 20
0
 30
0
 70
128
 71
917
 72
981
 73
982
 74
918
 0
VERTEX
 8
GRIFF_1
 10
0
 20
0
 30
0
 70
128
 71
1962
 72
998
 73
934
 74
1960
 0
VERTEX
 8
GRIFF_1
 10
0
 20
0
 30
0
 70
128
 71
949
 72
1013
 73
1014
 74
950
 0
VERTEX
 8
GRIFF_1
 10
0
 20
0
 30
0
 70
128
 71
1992
 72
1927
 73
1926
 74
1991
 0
VERTEX
 8
GRIFF_1
 10
0
 20
0
 30
0
 70
128
 71
1
 72
1929
 73
1930
 74
4
 0
VERTEX
 8
GRIFF_1
 10
0
 20
0
 30
0
 70
128
 71
1959
 72
901
 73
965
 74
1961
 0
VERTEX
 8
GRIFF_1
 10
0
 20
0
 30
0
 70
128
 71
1960
 72
933
 73
997
 74
1962
 0
VERTEX
 8
GRIFF_1
 10
0
 20
0
 30
0
 70
128
 71
1991
 72
1925
 73
1928
 74
1992
 0
VERTEX
 8
GRIFF_1
 10
0
 20
0
 30
0
 70
128
 71
1929
 72
2
 73
3
 74
1930
 0
VERTEX
 8
GRIFF_1
 10
0
 20
0
 30
0
 70
128
 71
1926
 72
1927
 73
982
 74
981
 0
VERTEX
 8
GRIFF_1
 10
0
 20
0
 30
0
 70
128
 71
981
 72
917
 73
902
 74
966
 0
VERTEX
 8
GRIFF_1
 10
0
 20
0
 30
0
 70
128
 71
966
 72
1961
 73
1991
 74
1926
 0
VERTEX
 8
GRIFF_1
 10
0
 20
0
 30
0
 70
128
 71
1961
 72
965
 73
1925
 74
1991
 0
VERTEX
 8
GRIFF_1
 10
0
 20
0
 30
0
 70
128
 71
918
 72
982
 73
997
 74
933
 0
VERTEX
 8
GRIFF_1
 10
0
 20
0
 30
0
 70
128
 71
1927
 72
1992
 73
1962
 74
997
 0
VERTEX
 8
GRIFF_1
 10
0
 20
0
 30
0
 70
128
 71
1992
 72
1928
 73
998
 74
1962
 0
VERTEX
 8
GRIFF_1
 10
0
 20
0
 30
0
 70
128
 71
917
 72
918
 73
3
 74
2
 0
VERTEX
 8
GRIFF_1
 10
0
 20
0
 30
0
 70
128
 71
1959
 72
902
 73
2
 74
1929
 0
VERTEX
 8
GRIFF_1
 10
0
 20
0
 30
0
 70
128
 71
901
 72
1959
 73
1929
 74
1
 0
VERTEX
 8
GRIFF_1
 10
0
 20
0
 30
0
 70
128
 71
933
 72
1960
 73
1930
 74
3
 0
VERTEX
 8
GRIFF_1
 10
0
 20
0
 30
0
 70
128
 71
1960
 72
934
 73
4
 74
1930
 0
VERTEX
 8
GRIFF_1
 10
0
 20
0
 30
0
 70
128
 71
934
 72
998
 73
1013
 74
949
 0
VERTEX
 8
GRIFF_1
 10
0
 20
0
 30
0
 70
128
 71
949
 72
950
 73
1
 74
4
 0
VERTEX
 8
GRIFF_1
 10
0
 20
0
 30
0
 70
128
 71
1928
 72
1925
 73
1014
 74
1013
 0
VERTEX
 8
GRIFF_1
 10
0
 20
0
 30
0
 70
128
 71
950
 72
1014
 73
965
 74
901
 0
VERTEX
 8
GRIFF_1
 10
0
 20
0
 30
0
 70
128
 71
981
 72
966
 73
1926
 74
1926
 0
VERTEX
 8
GRIFF_1
 10
0
 20
0
 30
0
 70
128
 71
902
 72
917
 73
2
 74
2
 0
VERTEX
 8
GRIFF_1
 10
0
 20
0
 30
0
 70
128
 71
3
 72
918
 73
933
 74
933
 0
VERTEX
 8
GRIFF_1
 10
0
 20
0
 30
0
 70
128
 71
1927
 72
997
 73
982
 74
982
 0
VERTEX
 8
GRIFF_1
 10
0
 20
0
 30
0
 70
128
 71
1013
 72
998
 73
1928
 74
1928
 0
VERTEX
 8
GRIFF_1
 10
0
 20
0
 30
0
 70
128
 71
1014
 72
1925
 73
965
 74
965
 0
VERTEX
 8
GRIFF_1
 10
0
 20
0
 30
0
 70
128
 71
901
 72
1
 73
950
 74
950
 0
VERTEX
 8
GRIFF_1
 10
0
 20
0
 30
0
 70
128
 71
4
 72
934
 73
949
 74
949
 0
SEQEND
 0
POLYLINE
 8
KARTUSCHE
 66
1
 10
0.0
 20
0.0
 30
0.0
 70
64
 71
36
 72
24
 0
VERTEX
 8
KARTUSCHE
 10
0.783
 20
1.1833
 30
21.9297
 70
192
 0
VERTEX
 8
KARTUSCHE
 10
0.0036
 20
1.6333
 30
20.5743
 70
192
 0
VERTEX
 8
KARTUSCHE
 10
0.0036
 20
1.6333
 30
21.0297
 70
192
 0
VERTEX
 8
KARTUSCHE
 10
0.0036
 20
1.3922
 30
21.9297
 70
192
 0
VERTEX
 8
KARTUSCHE
 10
0.0036
 20
-1.9667
 30
20.5743
 70
192
 0
VERTEX
 8
KARTUSCHE
 10
0.0036
 20
-1.9667
 30
21.0297
 70
192
 0
VERTEX
 8
KARTUSCHE
 10
0.0036
 20
-1.7255
 30
21.9297
 70
192
 0
VERTEX
 8
KARTUSCHE
 10
-0.8964
 20
-1.7255
 30
20.5743
 70
192
 0
VERTEX
 8
KARTUSCHE
 10
-0.8964
 20
1.3922
 30
20.5743
 70
192
 0
VERTEX
 8
KARTUSCHE
 10
-0.8964
 20
1.3922
 30
21.0297
 70
192
 0
VERTEX
 8
KARTUSCHE
 10
0.9036
 20
-1.7255
 30
20.5743
 70
192
 0
VERTEX
 8
KARTUSCHE
 10
0.9036
 20
-1.7255
 30
21.0297
 70
192
 0
VERTEX
 8
KARTUSCHE
 10
0.783
 20
-1.5167
 30
21.9297
 70
192
 0
VERTEX
 8
KARTUSCHE
 10
-1.5552
 20
-1.0667
 30
20.5743
 70
192
 0
VERTEX
 8
KARTUSCHE
 10
-0.7758
 20
1.1833
 30
21.9297
 70
192
 0
VERTEX
 8
KARTUSCHE
 10
-0.8964
 20
-1.7255
 30
21.0297
 70
192
 0
VERTEX
 8
KARTUSCHE
 10
1.5624
 20
-1.0667
 30
20.5743
 70
192
 0
VERTEX
 8
KARTUSCHE
 10
1.5624
 20
-1.0667
 30
21.0297
 70
192
 0
VERTEX
 8
KARTUSCHE
 10
1.3536
 20
-0.9461
 30
21.9297
 70
192
 0
VERTEX
 8
KARTUSCHE
 10
-1.5552
 20
-1.0667
 30
21.0297
 70
192
 0
VERTEX
 8
KARTUSCHE
 10
-1.5552
 20
0.7333
 30
20.5743
 70
192
 0
VERTEX
 8
KARTUSCHE
 10
-1.5552
 20
0.7333
 30
21.0297
 70
192
 0
VERTEX
 8
KARTUSCHE
 10
1.8036
 20
-0.1667
 30
20.5743
 70
192
 0
VERTEX
 8
KARTUSCHE
 10
1.8036
 20
-0.1667
 30
21.0297
 70
192
 0
VERTEX
 8
KARTUSCHE
 10
1.5624
 20
-0.1667
 30
21.9297
 70
192
 0
VERTEX
 8
KARTUSCHE
 10
-1.3464
 20
-0.9461
 30
21.9297
 70
192
 0
VERTEX
 8
KARTUSCHE
 10
-1.3464
 20
0.6127
 30
21.9297
 70
192
 0
VERTEX
 8
KARTUSCHE
 10
-0.7758
 20
-1.5167
 30
21.9297
 70
192
 0
VERTEX
 8
KARTUSCHE
 10
1.5624
 20
0.7333
 30
20.5743
 70
192
 0
VERTEX
 8
KARTUSCHE
 10
1.5624
 20
0.7333
 30
21.0297
 70
192
 0
VERTEX
 8
KARTUSCHE
 10
1.3536
 20
0.6127
 30
21.9297
 70
192
 0
VERTEX
 8
KARTUSCHE
 10
-1.7964
 20
-0.1667
 30
20.5743
 70
192
 0
VERTEX
 8
KARTUSCHE
 10
-1.7964
 20
-0.1667
 30
21.0297
 70
192
 0
VERTEX
 8
KARTUSCHE
 10
-1.5552
 20
-0.1667
 30
21.9297
 70
192
 0
VERTEX
 8
KARTUSCHE
 10
0.9036
 20
1.3922
 30
20.5743
 70
192
 0
VERTEX
 8
KARTUSCHE
 10
0.9036
 20
1.3922
 30
21.0297
 70
192
 0
VERTEX
 8
KARTUSCHE
 10
0
 20
0
 30
0
 70
128
 71
23
 72
24
 73
30
 74
29
 0
VERTEX
 8
KARTUSCHE
 10
0
 20
0
 30
0
 70
128
 71
24
 72
25
 73
31
 74
30
 0
VERTEX
 8
KARTUSCHE
 10
0
 20
0
 30
0
 70
128
 71
29
 72
30
 73
36
 74
35
 0
VERTEX
 8
KARTUSCHE
 10
0
 20
0
 30
0
 70
128
 71
5
 72
6
 73
12
 74
11
 0
VERTEX
 8
KARTUSCHE
 10
0
 20
0
 30
0
 70
128
 71
6
 72
7
 73
13
 74
12
 0
VERTEX
 8
KARTUSCHE
 10
0
 20
0
 30
0
 70
128
 71
22
 72
27
 73
34
 74
33
 0
VERTEX
 8
KARTUSCHE
 10
0
 20
0
 30
0
 70
128
 71
30
 72
31
 73
1
 74
36
 0
VERTEX
 8
KARTUSCHE
 10
0
 20
0
 30
0
 70
128
 71
14
 72
20
 73
16
 74
8
 0
VERTEX
 8
KARTUSCHE
 10
0
 20
0
 30
0
 70
128
 71
35
 72
36
 73
3
 74
2
 0
VERTEX
 8
KARTUSCHE
 10
0
 20
0
 30
0
 70
128
 71
36
 72
1
 73
4
 74
3
 0
VERTEX
 8
KARTUSCHE
 10
0
 20
0
 30
0
 70
128
 71
11
 72
12
 73
18
 74
17
 0
VERTEX
 8
KARTUSCHE
 10
0
 20
0
 30
0
 70
128
 71
12
 72
13
 73
19
 74
18
 0
VERTEX
 8
KARTUSCHE
 10
0
 20
0
 30
0
 70
128
 71
20
 72
26
 73
28
 74
16
 0
VERTEX
 8
KARTUSCHE
 10
0
 20
0
 30
0
 70
128
 71
2
 72
3
 73
10
 74
9
 0
VERTEX
 8
KARTUSCHE
 10
0
 20
0
 30
0
 70
128
 71
3
 72
4
 73
15
 74
10
 0
VERTEX
 8
KARTUSCHE
 10
0
 20
0
 30
0
 70
128
 71
9
 72
10
 73
22
 74
21
 0
VERTEX
 8
KARTUSCHE
 10
0
 20
0
 30
0
 70
128
 71
10
 72
15
 73
27
 74
22
 0
VERTEX
 8
KARTUSCHE
 10
0
 20
0
 30
0
 70
128
 71
17
 72
18
 73
24
 74
23
 0
VERTEX
 8
KARTUSCHE
 10
0
 20
0
 30
0
 70
128
 71
18
 72
19
 73
25
 74
24
 0
VERTEX
 8
KARTUSCHE
 10
0
 20
0
 30
0
 70
128
 71
32
 72
33
 73
20
 74
14
 0
VERTEX
 8
KARTUSCHE
 10
0
 20
0
 30
0
 70
128
 71
33
 72
34
 73
26
 74
20
 0
VERTEX
 8
KARTUSCHE
 10
0
 20
0
 30
0
 70
128
 71
8
 72
16
 73
6
 74
5
 0
VERTEX
 8
KARTUSCHE
 10
0
 20
0
 30
0
 70
128
 71
16
 72
28
 73
7
 74
6
 0
VERTEX
 8
KARTUSCHE
 10
0
 20
0
 30
0
 70
128
 71
21
 72
22
 73
33
 74
32
 0
SEQEND
 0
POLYLINE
 8
HEBEL
 66
1
 10
0.0
 20
0.0
 30
0.0
 70
64
 71
8
 72
6
 0
VERTEX
 8
HEBEL
 10
-1.9964
 20
1.8451
 30
23.5474
 70
192
 0
VERTEX
 8
HEBEL
 10
-1.9964
 20
1.8451
 30
23.8474
 70
192
 0
VERTEX
 8
HEBEL
 10
-1.9964
 20
-7.1549
 30
23.5474
 70
192
 0
VERTEX
 8
HEBEL
 10
-1.9964
 20
-7.1549
 30
23.8474
 70
192
 0
VERTEX
 8
HEBEL
 10
2.0036
 20
-7.1549
 30
23.5474
 70
192
 0
VERTEX
 8
HEBEL
 10
2.0036
 20
-7.1549
 30
23.8474
 70
192
 0
VERTEX
 8
HEBEL
 10
2.0036
 20
1.8451
 30
23.5474
 70
192
 0
VERTEX
 8
HEBEL
 10
2.0036
 20
1.8451
 30
23.8474
 70
192
 0
VERTEX
 8
HEBEL
 10
0
 20
0
 30
0
 70
128
 71
1
 72
2
 73
4
 74
3
 0
VERTEX
 8
HEBEL
 10
0
 20
0
 30
0
 70
128
 71
3
 72
4
 73
6
 74
5
 0
VERTEX
 8
HEBEL
 10
0
 20
0
 30
0
 70
128
 71
5
 72
6
 73
8
 74
7
 0
VERTEX
 8
HEBEL
 10
0
 20
0
 30
0
 70
128
 71
7
 72
8
 73
2
 74
1
 0
VERTEX
 8
HEBEL
 10
0
 20
0
 30
0
 70
128
 71
2
 72
8
 73
6
 74
4
 0
VERTEX
 8
HEBEL
 10
0
 20
0
 30
0
 70
128
 71
7
 72
1
 73
3
 74
5
 0
SEQEND
 0
ENDSEC
 0
EOF
