 0
SECTION
 2
HEADER
 9
$ACADVER
 1
AC1009
 0
ENDSEC
 0
SECTION
 2
TABLES
 0
TABLE
 2
LTYPE
 70
1
 0
LTYPE
 2
CONTINUOUS
 70
64
 3
solid line
 72
65
 73
0
 40
0.0
 0
ENDTAB
 0
TABLE
 2
LAYER
 70
6
 0
LAYER
 2
0
 70
0
 62
7
 6
CONTINUOUS
 0
LAYER
 2
160_1400_M
 70
64
 62
7
 6
CONTINUOUS
 0
LAYER
 2
K_RPER
 70
64
 62
250
 6
CONTINUOUS
 0
LAYER
 2
TUBE
 70
64
 62
253
 6
CONTINUOUS
 0
LAYER
 2
PELATOR
 70
64
 62
250
 6
CONTINUOUS
 0
LAYER
 2
AUSLAUF_1
 70
64
 62
250
 6
CONTINUOUS
 0
LAYER
 2
AUSLAUF_2
 70
64
 62
250
 6
CONTINUOUS
 0
LAYER
 2
CYLINDER
 70
64
 62
250
 6
CONTINUOUS
 0
LAYER
 2
ROSETTE
 70
64
 62
250
 6
CONTINUOUS
 0
LAYER
 2
GRIFF_1
 70
64
 62
250
 6
CONTINUOUS
 0
LAYER
 2
CAPSULE
 70
64
 62
250
 6
CONTINUOUS
 0
LAYER
 2
GRIFF_2
 70
64
 62
250
 6
CONTINUOUS
 0
LAYER
 2
GRIFF_3
 70
64
 62
250
 6
CONTINUOUS
 0
ENDTAB
 0
ENDSEC
 0
SECTION
 2
BLOCKS
 0
ENDSEC
 0
SECTION
 2
ENTITIES
 0
POLYLINE
 8
K_RPER
 66
1
 10
0.0
 20
0.0
 30
0.0
 70
64
 71
8
 72
6
 0
VERTEX
 8
K_RPER
 10
-2.1635
 20
2.2
 30
4.7578
 70
192
 0
VERTEX
 8
K_RPER
 10
-2.1635
 20
2.2
 30
14.7578
 70
192
 0
VERTEX
 8
K_RPER
 10
-2.1635
 20
-2.2
 30
4.7578
 70
192
 0
VERTEX
 8
K_RPER
 10
-2.1635
 20
-2.2
 30
14.7578
 70
192
 0
VERTEX
 8
K_RPER
 10
2.2365
 20
-2.2
 30
4.7578
 70
192
 0
VERTEX
 8
K_RPER
 10
2.2365
 20
-2.2
 30
14.7578
 70
192
 0
VERTEX
 8
K_RPER
 10
2.2365
 20
2.2
 30
4.7578
 70
192
 0
VERTEX
 8
K_RPER
 10
2.2365
 20
2.2
 30
14.7578
 70
192
 0
VERTEX
 8
K_RPER
 10
0
 20
0
 30
0
 70
128
 71
1
 72
2
 73
4
 74
3
 0
VERTEX
 8
K_RPER
 10
0
 20
0
 30
0
 70
128
 71
3
 72
4
 73
6
 74
5
 0
VERTEX
 8
K_RPER
 10
0
 20
0
 30
0
 70
128
 71
5
 72
6
 73
8
 74
7
 0
VERTEX
 8
K_RPER
 10
0
 20
0
 30
0
 70
128
 71
2
 72
8
 73
6
 74
4
 0
VERTEX
 8
K_RPER
 10
0
 20
0
 30
0
 70
128
 71
7
 72
1
 73
3
 74
5
 0
VERTEX
 8
K_RPER
 10
0
 20
0
 30
0
 70
128
 71
7
 72
8
 73
2
 74
1
 0
SEQEND
 0
POLYLINE
 8
TUBE
 66
1
 10
0.0
 20
0.0
 30
0.0
 70
64
 71
80
 72
30
 0
VERTEX
 8
TUBE
 10
0.0593
 20
-17.0857
 30
30.6742
 70
192
 0
VERTEX
 8
TUBE
 10
0.0593
 20
-16.0979
 30
30.5354
 70
192
 0
VERTEX
 8
TUBE
 10
0.0593
 20
-16.0979
 30
30.5354
 70
192
 0
VERTEX
 8
TUBE
 10
0.0593
 20
-16.171
 30
30.0155
 70
192
 0
VERTEX
 8
TUBE
 10
0.0593
 20
-16.171
 30
30.0155
 70
192
 0
VERTEX
 8
TUBE
 10
0.0593
 20
-17.1587
 30
30.1543
 70
192
 0
VERTEX
 8
TUBE
 10
0.0593
 20
-17.1587
 30
30.1543
 70
192
 0
VERTEX
 8
TUBE
 10
0.0593
 20
-17.0857
 30
30.6742
 70
192
 0
VERTEX
 8
TUBE
 10
0.0593
 20
-17.0857
 30
30.6742
 70
192
 0
VERTEX
 8
TUBE
 10
0.6456
 20
-16.2865
 30
30.5619
 70
192
 0
VERTEX
 8
TUBE
 10
0.6456
 20
-16.2865
 30
30.5619
 70
192
 0
VERTEX
 8
TUBE
 10
0.6456
 20
-16.3596
 30
30.042
 70
192
 0
VERTEX
 8
TUBE
 10
0.6456
 20
-16.3596
 30
30.042
 70
192
 0
VERTEX
 8
TUBE
 10
0.0593
 20
-17.1587
 30
30.1543
 70
192
 0
VERTEX
 8
TUBE
 10
0.0593
 20
-17.1587
 30
30.1543
 70
192
 0
VERTEX
 8
TUBE
 10
0.0593
 20
-17.0857
 30
30.6742
 70
192
 0
VERTEX
 8
TUBE
 10
0.0593
 20
-17.0857
 30
30.6742
 70
192
 0
VERTEX
 8
TUBE
 10
1.008
 20
-16.7804
 30
30.6313
 70
192
 0
VERTEX
 8
TUBE
 10
1.008
 20
-16.7804
 30
30.6313
 70
192
 0
VERTEX
 8
TUBE
 10
1.008
 20
-16.8535
 30
30.1114
 70
192
 0
VERTEX
 8
TUBE
 10
1.008
 20
-16.8535
 30
30.1114
 70
192
 0
VERTEX
 8
TUBE
 10
0.0593
 20
-17.1587
 30
30.1543
 70
192
 0
VERTEX
 8
TUBE
 10
0.0593
 20
-17.1587
 30
30.1543
 70
192
 0
VERTEX
 8
TUBE
 10
0.0593
 20
-17.0857
 30
30.6742
 70
192
 0
VERTEX
 8
TUBE
 10
0.0593
 20
-17.0857
 30
30.6742
 70
192
 0
VERTEX
 8
TUBE
 10
1.008
 20
-17.3909
 30
30.7171
 70
192
 0
VERTEX
 8
TUBE
 10
1.008
 20
-17.3909
 30
30.7171
 70
192
 0
VERTEX
 8
TUBE
 10
1.008
 20
-17.464
 30
30.1972
 70
192
 0
VERTEX
 8
TUBE
 10
1.008
 20
-17.464
 30
30.1972
 70
192
 0
VERTEX
 8
TUBE
 10
0.0593
 20
-17.1587
 30
30.1543
 70
192
 0
VERTEX
 8
TUBE
 10
0.0593
 20
-17.1587
 30
30.1543
 70
192
 0
VERTEX
 8
TUBE
 10
0.0593
 20
-17.0857
 30
30.6742
 70
192
 0
VERTEX
 8
TUBE
 10
0.0593
 20
-17.0857
 30
30.6742
 70
192
 0
VERTEX
 8
TUBE
 10
0.6456
 20
-17.8848
 30
30.7866
 70
192
 0
VERTEX
 8
TUBE
 10
0.6456
 20
-17.8848
 30
30.7866
 70
192
 0
VERTEX
 8
TUBE
 10
0.6456
 20
-17.9579
 30
30.2667
 70
192
 0
VERTEX
 8
TUBE
 10
0.6456
 20
-17.9579
 30
30.2667
 70
192
 0
VERTEX
 8
TUBE
 10
0.0593
 20
-17.1587
 30
30.1543
 70
192
 0
VERTEX
 8
TUBE
 10
0.0593
 20
-17.1587
 30
30.1543
 70
192
 0
VERTEX
 8
TUBE
 10
0.0593
 20
-17.0857
 30
30.6742
 70
192
 0
VERTEX
 8
TUBE
 10
0.0593
 20
-17.0857
 30
30.6742
 70
192
 0
VERTEX
 8
TUBE
 10
0.0593
 20
-18.0735
 30
30.8131
 70
192
 0
VERTEX
 8
TUBE
 10
0.0593
 20
-18.0735
 30
30.8131
 70
192
 0
VERTEX
 8
TUBE
 10
0.0593
 20
-18.1465
 30
30.2932
 70
192
 0
VERTEX
 8
TUBE
 10
0.0593
 20
-18.1465
 30
30.2932
 70
192
 0
VERTEX
 8
TUBE
 10
0.0593
 20
-17.1587
 30
30.1543
 70
192
 0
VERTEX
 8
TUBE
 10
0.0593
 20
-17.1587
 30
30.1543
 70
192
 0
VERTEX
 8
TUBE
 10
0.0593
 20
-17.0857
 30
30.6742
 70
192
 0
VERTEX
 8
TUBE
 10
0.0593
 20
-17.0857
 30
30.6742
 70
192
 0
VERTEX
 8
TUBE
 10
-0.527
 20
-17.8848
 30
30.7866
 70
192
 0
VERTEX
 8
TUBE
 10
-0.527
 20
-17.8848
 30
30.7866
 70
192
 0
VERTEX
 8
TUBE
 10
-0.527
 20
-17.9579
 30
30.2667
 70
192
 0
VERTEX
 8
TUBE
 10
-0.527
 20
-17.9579
 30
30.2667
 70
192
 0
VERTEX
 8
TUBE
 10
0.0593
 20
-17.1587
 30
30.1543
 70
192
 0
VERTEX
 8
TUBE
 10
0.0593
 20
-17.1587
 30
30.1543
 70
192
 0
VERTEX
 8
TUBE
 10
0.0593
 20
-17.0857
 30
30.6742
 70
192
 0
VERTEX
 8
TUBE
 10
0.0593
 20
-17.0857
 30
30.6742
 70
192
 0
VERTEX
 8
TUBE
 10
-0.8894
 20
-17.3909
 30
30.7171
 70
192
 0
VERTEX
 8
TUBE
 10
-0.8894
 20
-17.3909
 30
30.7171
 70
192
 0
VERTEX
 8
TUBE
 10
-0.8894
 20
-17.464
 30
30.1972
 70
192
 0
VERTEX
 8
TUBE
 10
-0.8894
 20
-17.464
 30
30.1972
 70
192
 0
VERTEX
 8
TUBE
 10
0.0593
 20
-17.1587
 30
30.1543
 70
192
 0
VERTEX
 8
TUBE
 10
0.0593
 20
-17.1587
 30
30.1543
 70
192
 0
VERTEX
 8
TUBE
 10
0.0593
 20
-17.0857
 30
30.6742
 70
192
 0
VERTEX
 8
TUBE
 10
0.0593
 20
-17.0857
 30
30.6742
 70
192
 0
VERTEX
 8
TUBE
 10
-0.8894
 20
-16.7804
 30
30.6313
 70
192
 0
VERTEX
 8
TUBE
 10
-0.8894
 20
-16.7804
 30
30.6313
 70
192
 0
VERTEX
 8
TUBE
 10
-0.8894
 20
-16.8535
 30
30.1114
 70
192
 0
VERTEX
 8
TUBE
 10
-0.8894
 20
-16.8535
 30
30.1114
 70
192
 0
VERTEX
 8
TUBE
 10
0.0593
 20
-17.1587
 30
30.1543
 70
192
 0
VERTEX
 8
TUBE
 10
0.0593
 20
-17.1587
 30
30.1543
 70
192
 0
VERTEX
 8
TUBE
 10
0.0593
 20
-17.0857
 30
30.6742
 70
192
 0
VERTEX
 8
TUBE
 10
0.0593
 20
-17.0857
 30
30.6742
 70
192
 0
VERTEX
 8
TUBE
 10
-0.527
 20
-16.2865
 30
30.5619
 70
192
 0
VERTEX
 8
TUBE
 10
-0.527
 20
-16.2865
 30
30.5619
 70
192
 0
VERTEX
 8
TUBE
 10
-0.527
 20
-16.3596
 30
30.042
 70
192
 0
VERTEX
 8
TUBE
 10
-0.527
 20
-16.3596
 30
30.042
 70
192
 0
VERTEX
 8
TUBE
 10
0.0593
 20
-17.1587
 30
30.1543
 70
192
 0
VERTEX
 8
TUBE
 10
0.0593
 20
-17.1587
 30
30.1543
 70
192
 0
VERTEX
 8
TUBE
 10
0.0593
 20
-17.0857
 30
30.6742
 70
192
 0
VERTEX
 8
TUBE
 10
0
 20
0
 30
0
 70
128
 71
1
 72
2
 73
10
 74
10
 0
VERTEX
 8
TUBE
 10
0
 20
0
 30
0
 70
128
 71
3
 72
4
 73
12
 74
11
 0
VERTEX
 8
TUBE
 10
0
 20
0
 30
0
 70
128
 71
5
 72
14
 73
13
 74
13
 0
VERTEX
 8
TUBE
 10
0
 20
0
 30
0
 70
128
 71
9
 72
10
 73
18
 74
18
 0
VERTEX
 8
TUBE
 10
0
 20
0
 30
0
 70
128
 71
11
 72
12
 73
20
 74
19
 0
VERTEX
 8
TUBE
 10
0
 20
0
 30
0
 70
128
 71
13
 72
22
 73
21
 74
21
 0
VERTEX
 8
TUBE
 10
0
 20
0
 30
0
 70
128
 71
17
 72
18
 73
26
 74
26
 0
VERTEX
 8
TUBE
 10
0
 20
0
 30
0
 70
128
 71
19
 72
20
 73
28
 74
27
 0
VERTEX
 8
TUBE
 10
0
 20
0
 30
0
 70
128
 71
21
 72
30
 73
29
 74
29
 0
VERTEX
 8
TUBE
 10
0
 20
0
 30
0
 70
128
 71
25
 72
26
 73
34
 74
34
 0
VERTEX
 8
TUBE
 10
0
 20
0
 30
0
 70
128
 71
27
 72
28
 73
36
 74
35
 0
VERTEX
 8
TUBE
 10
0
 20
0
 30
0
 70
128
 71
29
 72
38
 73
37
 74
37
 0
VERTEX
 8
TUBE
 10
0
 20
0
 30
0
 70
128
 71
33
 72
34
 73
42
 74
42
 0
VERTEX
 8
TUBE
 10
0
 20
0
 30
0
 70
128
 71
35
 72
36
 73
44
 74
43
 0
VERTEX
 8
TUBE
 10
0
 20
0
 30
0
 70
128
 71
37
 72
46
 73
45
 74
45
 0
VERTEX
 8
TUBE
 10
0
 20
0
 30
0
 70
128
 71
41
 72
42
 73
50
 74
50
 0
VERTEX
 8
TUBE
 10
0
 20
0
 30
0
 70
128
 71
43
 72
44
 73
52
 74
51
 0
VERTEX
 8
TUBE
 10
0
 20
0
 30
0
 70
128
 71
45
 72
54
 73
53
 74
53
 0
VERTEX
 8
TUBE
 10
0
 20
0
 30
0
 70
128
 71
49
 72
50
 73
58
 74
58
 0
VERTEX
 8
TUBE
 10
0
 20
0
 30
0
 70
128
 71
51
 72
52
 73
60
 74
59
 0
VERTEX
 8
TUBE
 10
0
 20
0
 30
0
 70
128
 71
53
 72
62
 73
61
 74
61
 0
VERTEX
 8
TUBE
 10
0
 20
0
 30
0
 70
128
 71
57
 72
58
 73
66
 74
66
 0
VERTEX
 8
TUBE
 10
0
 20
0
 30
0
 70
128
 71
59
 72
60
 73
68
 74
67
 0
VERTEX
 8
TUBE
 10
0
 20
0
 30
0
 70
128
 71
61
 72
70
 73
69
 74
69
 0
VERTEX
 8
TUBE
 10
0
 20
0
 30
0
 70
128
 71
65
 72
66
 73
74
 74
74
 0
VERTEX
 8
TUBE
 10
0
 20
0
 30
0
 70
128
 71
67
 72
68
 73
76
 74
75
 0
VERTEX
 8
TUBE
 10
0
 20
0
 30
0
 70
128
 71
69
 72
78
 73
77
 74
77
 0
VERTEX
 8
TUBE
 10
0
 20
0
 30
0
 70
128
 71
73
 72
74
 73
2
 74
2
 0
VERTEX
 8
TUBE
 10
0
 20
0
 30
0
 70
128
 71
75
 72
76
 73
4
 74
3
 0
VERTEX
 8
TUBE
 10
0
 20
0
 30
0
 70
128
 71
77
 72
6
 73
5
 74
5
 0
SEQEND
 0
POLYLINE
 8
PELATOR
 66
1
 10
0.0
 20
0.0
 30
0.0
 70
64
 71
80
 72
40
 0
VERTEX
 8
PELATOR
 10
1.0592
 20
-17.1528
 30
30.1307
 70
192
 0
VERTEX
 8
PELATOR
 10
1.3092
 20
-17.1528
 30
30.1307
 70
192
 0
VERTEX
 8
PELATOR
 10
1.3092
 20
-17.1528
 30
30.1307
 70
192
 0
VERTEX
 8
PELATOR
 10
1.3092
 20
-16.944
 30
31.6161
 70
192
 0
VERTEX
 8
PELATOR
 10
1.3092
 20
-16.944
 30
31.6161
 70
192
 0
VERTEX
 8
PELATOR
 10
1.0592
 20
-16.944
 30
31.6161
 70
192
 0
VERTEX
 8
PELATOR
 10
1.0592
 20
-16.944
 30
31.6161
 70
192
 0
VERTEX
 8
PELATOR
 10
1.0592
 20
-17.1528
 30
30.1307
 70
192
 0
VERTEX
 8
PELATOR
 10
0.8682
 20
-16.5707
 30
30.0489
 70
192
 0
VERTEX
 8
PELATOR
 10
1.0705
 20
-16.4252
 30
30.0285
 70
192
 0
VERTEX
 8
PELATOR
 10
1.0705
 20
-16.4252
 30
30.0285
 70
192
 0
VERTEX
 8
PELATOR
 10
1.0705
 20
-16.2164
 30
31.5139
 70
192
 0
VERTEX
 8
PELATOR
 10
1.0705
 20
-16.2164
 30
31.5139
 70
192
 0
VERTEX
 8
PELATOR
 10
0.8682
 20
-16.3619
 30
31.5343
 70
192
 0
VERTEX
 8
PELATOR
 10
0.8682
 20
-16.3619
 30
31.5343
 70
192
 0
VERTEX
 8
PELATOR
 10
0.8682
 20
-16.5707
 30
30.0489
 70
192
 0
VERTEX
 8
PELATOR
 10
0.3682
 20
-16.211
 30
29.9984
 70
192
 0
VERTEX
 8
PELATOR
 10
0.4455
 20
-15.9755
 30
29.9653
 70
192
 0
VERTEX
 8
PELATOR
 10
0.4455
 20
-15.9755
 30
29.9653
 70
192
 0
VERTEX
 8
PELATOR
 10
0.4455
 20
-15.7668
 30
31.4507
 70
192
 0
VERTEX
 8
PELATOR
 10
0.4455
 20
-15.7668
 30
31.4507
 70
192
 0
VERTEX
 8
PELATOR
 10
0.3682
 20
-16.0022
 30
31.4838
 70
192
 0
VERTEX
 8
PELATOR
 10
0.3682
 20
-16.0022
 30
31.4838
 70
192
 0
VERTEX
 8
PELATOR
 10
0.3682
 20
-16.211
 30
29.9984
 70
192
 0
VERTEX
 8
PELATOR
 10
-0.2498
 20
-16.211
 30
29.9984
 70
192
 0
VERTEX
 8
PELATOR
 10
-0.3271
 20
-15.9755
 30
29.9653
 70
192
 0
VERTEX
 8
PELATOR
 10
-0.3271
 20
-15.9755
 30
29.9653
 70
192
 0
VERTEX
 8
PELATOR
 10
-0.3271
 20
-15.7668
 30
31.4507
 70
192
 0
VERTEX
 8
PELATOR
 10
-0.3271
 20
-15.7668
 30
31.4507
 70
192
 0
VERTEX
 8
PELATOR
 10
-0.2498
 20
-16.0022
 30
31.4838
 70
192
 0
VERTEX
 8
PELATOR
 10
-0.2498
 20
-16.0022
 30
31.4838
 70
192
 0
VERTEX
 8
PELATOR
 10
-0.2498
 20
-16.211
 30
29.9984
 70
192
 0
VERTEX
 8
PELATOR
 10
-0.7498
 20
-16.5707
 30
30.0489
 70
192
 0
VERTEX
 8
PELATOR
 10
-0.9521
 20
-16.4252
 30
30.0285
 70
192
 0
VERTEX
 8
PELATOR
 10
-0.9521
 20
-16.4252
 30
30.0285
 70
192
 0
VERTEX
 8
PELATOR
 10
-0.9521
 20
-16.2164
 30
31.5139
 70
192
 0
VERTEX
 8
PELATOR
 10
-0.9521
 20
-16.2164
 30
31.5139
 70
192
 0
VERTEX
 8
PELATOR
 10
-0.7498
 20
-16.3619
 30
31.5343
 70
192
 0
VERTEX
 8
PELATOR
 10
-0.7498
 20
-16.3619
 30
31.5343
 70
192
 0
VERTEX
 8
PELATOR
 10
-0.7498
 20
-16.5707
 30
30.0489
 70
192
 0
VERTEX
 8
PELATOR
 10
-0.9408
 20
-17.1528
 30
30.1307
 70
192
 0
VERTEX
 8
PELATOR
 10
-1.1908
 20
-17.1528
 30
30.1307
 70
192
 0
VERTEX
 8
PELATOR
 10
-1.1908
 20
-17.1528
 30
30.1307
 70
192
 0
VERTEX
 8
PELATOR
 10
-1.1908
 20
-16.944
 30
31.6161
 70
192
 0
VERTEX
 8
PELATOR
 10
-1.1908
 20
-16.944
 30
31.6161
 70
192
 0
VERTEX
 8
PELATOR
 10
-0.9408
 20
-16.944
 30
31.6161
 70
192
 0
VERTEX
 8
PELATOR
 10
-0.9408
 20
-16.944
 30
31.6161
 70
192
 0
VERTEX
 8
PELATOR
 10
-0.9408
 20
-17.1528
 30
30.1307
 70
192
 0
VERTEX
 8
PELATOR
 10
-0.7498
 20
-17.7348
 30
30.2125
 70
192
 0
VERTEX
 8
PELATOR
 10
-0.9521
 20
-17.8804
 30
30.233
 70
192
 0
VERTEX
 8
PELATOR
 10
-0.9521
 20
-17.8804
 30
30.233
 70
192
 0
VERTEX
 8
PELATOR
 10
-0.9521
 20
-17.6716
 30
31.7184
 70
192
 0
VERTEX
 8
PELATOR
 10
-0.9521
 20
-17.6716
 30
31.7184
 70
192
 0
VERTEX
 8
PELATOR
 10
-0.7498
 20
-17.5261
 30
31.6979
 70
192
 0
VERTEX
 8
PELATOR
 10
-0.7498
 20
-17.5261
 30
31.6979
 70
192
 0
VERTEX
 8
PELATOR
 10
-0.7498
 20
-17.7348
 30
30.2125
 70
192
 0
VERTEX
 8
PELATOR
 10
-0.2498
 20
-18.0946
 30
30.2631
 70
192
 0
VERTEX
 8
PELATOR
 10
-0.3271
 20
-18.33
 30
30.2962
 70
192
 0
VERTEX
 8
PELATOR
 10
-0.3271
 20
-18.33
 30
30.2962
 70
192
 0
VERTEX
 8
PELATOR
 10
-0.3271
 20
-18.1213
 30
31.7816
 70
192
 0
VERTEX
 8
PELATOR
 10
-0.3271
 20
-18.1213
 30
31.7816
 70
192
 0
VERTEX
 8
PELATOR
 10
-0.2498
 20
-17.8858
 30
31.7485
 70
192
 0
VERTEX
 8
PELATOR
 10
-0.2498
 20
-17.8858
 30
31.7485
 70
192
 0
VERTEX
 8
PELATOR
 10
-0.2498
 20
-18.0946
 30
30.2631
 70
192
 0
VERTEX
 8
PELATOR
 10
0.3682
 20
-18.0946
 30
30.2631
 70
192
 0
VERTEX
 8
PELATOR
 10
0.4455
 20
-18.33
 30
30.2962
 70
192
 0
VERTEX
 8
PELATOR
 10
0.4455
 20
-18.33
 30
30.2962
 70
192
 0
VERTEX
 8
PELATOR
 10
0.4455
 20
-18.1213
 30
31.7816
 70
192
 0
VERTEX
 8
PELATOR
 10
0.4455
 20
-18.1213
 30
31.7816
 70
192
 0
VERTEX
 8
PELATOR
 10
0.3682
 20
-17.8858
 30
31.7485
 70
192
 0
VERTEX
 8
PELATOR
 10
0.3682
 20
-17.8858
 30
31.7485
 70
192
 0
VERTEX
 8
PELATOR
 10
0.3682
 20
-18.0946
 30
30.2631
 70
192
 0
VERTEX
 8
PELATOR
 10
0.8682
 20
-17.7348
 30
30.2125
 70
192
 0
VERTEX
 8
PELATOR
 10
1.0705
 20
-17.8804
 30
30.233
 70
192
 0
VERTEX
 8
PELATOR
 10
1.0705
 20
-17.8804
 30
30.233
 70
192
 0
VERTEX
 8
PELATOR
 10
1.0705
 20
-17.6716
 30
31.7184
 70
192
 0
VERTEX
 8
PELATOR
 10
1.0705
 20
-17.6716
 30
31.7184
 70
192
 0
VERTEX
 8
PELATOR
 10
0.8682
 20
-17.5261
 30
31.6979
 70
192
 0
VERTEX
 8
PELATOR
 10
0.8682
 20
-17.5261
 30
31.6979
 70
192
 0
VERTEX
 8
PELATOR
 10
0.8682
 20
-17.7348
 30
30.2125
 70
192
 0
VERTEX
 8
PELATOR
 10
0
 20
0
 30
0
 70
128
 71
1
 72
2
 73
10
 74
9
 0
VERTEX
 8
PELATOR
 10
0
 20
0
 30
0
 70
128
 71
3
 72
4
 73
12
 74
11
 0
VERTEX
 8
PELATOR
 10
0
 20
0
 30
0
 70
128
 71
5
 72
6
 73
14
 74
13
 0
VERTEX
 8
PELATOR
 10
0
 20
0
 30
0
 70
128
 71
7
 72
8
 73
16
 74
15
 0
VERTEX
 8
PELATOR
 10
0
 20
0
 30
0
 70
128
 71
9
 72
10
 73
18
 74
17
 0
VERTEX
 8
PELATOR
 10
0
 20
0
 30
0
 70
128
 71
11
 72
12
 73
20
 74
19
 0
VERTEX
 8
PELATOR
 10
0
 20
0
 30
0
 70
128
 71
13
 72
14
 73
22
 74
21
 0
VERTEX
 8
PELATOR
 10
0
 20
0
 30
0
 70
128
 71
15
 72
16
 73
24
 74
23
 0
VERTEX
 8
PELATOR
 10
0
 20
0
 30
0
 70
128
 71
17
 72
18
 73
26
 74
25
 0
VERTEX
 8
PELATOR
 10
0
 20
0
 30
0
 70
128
 71
19
 72
20
 73
28
 74
27
 0
VERTEX
 8
PELATOR
 10
0
 20
0
 30
0
 70
128
 71
21
 72
22
 73
30
 74
29
 0
VERTEX
 8
PELATOR
 10
0
 20
0
 30
0
 70
128
 71
23
 72
24
 73
32
 74
31
 0
VERTEX
 8
PELATOR
 10
0
 20
0
 30
0
 70
128
 71
25
 72
26
 73
34
 74
33
 0
VERTEX
 8
PELATOR
 10
0
 20
0
 30
0
 70
128
 71
27
 72
28
 73
36
 74
35
 0
VERTEX
 8
PELATOR
 10
0
 20
0
 30
0
 70
128
 71
29
 72
30
 73
38
 74
37
 0
VERTEX
 8
PELATOR
 10
0
 20
0
 30
0
 70
128
 71
31
 72
32
 73
40
 74
39
 0
VERTEX
 8
PELATOR
 10
0
 20
0
 30
0
 70
128
 71
33
 72
34
 73
42
 74
41
 0
VERTEX
 8
PELATOR
 10
0
 20
0
 30
0
 70
128
 71
35
 72
36
 73
44
 74
43
 0
VERTEX
 8
PELATOR
 10
0
 20
0
 30
0
 70
128
 71
37
 72
38
 73
46
 74
45
 0
VERTEX
 8
PELATOR
 10
0
 20
0
 30
0
 70
128
 71
39
 72
40
 73
48
 74
47
 0
VERTEX
 8
PELATOR
 10
0
 20
0
 30
0
 70
128
 71
41
 72
42
 73
50
 74
49
 0
VERTEX
 8
PELATOR
 10
0
 20
0
 30
0
 70
128
 71
43
 72
44
 73
52
 74
51
 0
VERTEX
 8
PELATOR
 10
0
 20
0
 30
0
 70
128
 71
45
 72
46
 73
54
 74
53
 0
VERTEX
 8
PELATOR
 10
0
 20
0
 30
0
 70
128
 71
47
 72
48
 73
56
 74
55
 0
VERTEX
 8
PELATOR
 10
0
 20
0
 30
0
 70
128
 71
49
 72
50
 73
58
 74
57
 0
VERTEX
 8
PELATOR
 10
0
 20
0
 30
0
 70
128
 71
51
 72
52
 73
60
 74
59
 0
VERTEX
 8
PELATOR
 10
0
 20
0
 30
0
 70
128
 71
53
 72
54
 73
62
 74
61
 0
VERTEX
 8
PELATOR
 10
0
 20
0
 30
0
 70
128
 71
55
 72
56
 73
64
 74
63
 0
VERTEX
 8
PELATOR
 10
0
 20
0
 30
0
 70
128
 71
57
 72
58
 73
66
 74
65
 0
VERTEX
 8
PELATOR
 10
0
 20
0
 30
0
 70
128
 71
59
 72
60
 73
68
 74
67
 0
VERTEX
 8
PELATOR
 10
0
 20
0
 30
0
 70
128
 71
61
 72
62
 73
70
 74
69
 0
VERTEX
 8
PELATOR
 10
0
 20
0
 30
0
 70
128
 71
63
 72
64
 73
72
 74
71
 0
VERTEX
 8
PELATOR
 10
0
 20
0
 30
0
 70
128
 71
65
 72
66
 73
74
 74
73
 0
VERTEX
 8
PELATOR
 10
0
 20
0
 30
0
 70
128
 71
67
 72
68
 73
76
 74
75
 0
VERTEX
 8
PELATOR
 10
0
 20
0
 30
0
 70
128
 71
69
 72
70
 73
78
 74
77
 0
VERTEX
 8
PELATOR
 10
0
 20
0
 30
0
 70
128
 71
71
 72
72
 73
80
 74
79
 0
VERTEX
 8
PELATOR
 10
0
 20
0
 30
0
 70
128
 71
73
 72
74
 73
2
 74
1
 0
VERTEX
 8
PELATOR
 10
0
 20
0
 30
0
 70
128
 71
75
 72
76
 73
4
 74
3
 0
VERTEX
 8
PELATOR
 10
0
 20
0
 30
0
 70
128
 71
77
 72
78
 73
6
 74
5
 0
VERTEX
 8
PELATOR
 10
0
 20
0
 30
0
 70
128
 71
79
 72
80
 73
8
 74
7
 0
SEQEND
 0
POLYLINE
 8
AUSLAUF_1
 66
1
 10
0.0
 20
0.0
 30
0.0
 70
64
 71
8
 72
6
 0
VERTEX
 8
AUSLAUF_1
 10
-1.6135
 20
-0.7912
 30
30.7173
 70
192
 0
VERTEX
 8
AUSLAUF_1
 10
-1.6135
 20
-0.7912
 30
32.3173
 70
192
 0
VERTEX
 8
AUSLAUF_1
 10
-1.6135
 20
-18.7912
 30
30.7173
 70
192
 0
VERTEX
 8
AUSLAUF_1
 10
-1.6135
 20
-18.7912
 30
32.3173
 70
192
 0
VERTEX
 8
AUSLAUF_1
 10
1.6865
 20
-18.7912
 30
30.7173
 70
192
 0
VERTEX
 8
AUSLAUF_1
 10
1.6865
 20
-18.7912
 30
32.3173
 70
192
 0
VERTEX
 8
AUSLAUF_1
 10
1.6865
 20
-0.7912
 30
30.7173
 70
192
 0
VERTEX
 8
AUSLAUF_1
 10
1.6865
 20
-0.7912
 30
32.3173
 70
192
 0
VERTEX
 8
AUSLAUF_1
 10
0
 20
0
 30
0
 70
128
 71
1
 72
2
 73
4
 74
3
 0
VERTEX
 8
AUSLAUF_1
 10
0
 20
0
 30
0
 70
128
 71
3
 72
4
 73
6
 74
5
 0
VERTEX
 8
AUSLAUF_1
 10
0
 20
0
 30
0
 70
128
 71
5
 72
6
 73
8
 74
7
 0
VERTEX
 8
AUSLAUF_1
 10
0
 20
0
 30
0
 70
128
 71
7
 72
8
 73
2
 74
1
 0
VERTEX
 8
AUSLAUF_1
 10
0
 20
0
 30
0
 70
128
 71
2
 72
8
 73
6
 74
4
 0
VERTEX
 8
AUSLAUF_1
 10
0
 20
0
 30
0
 70
128
 71
7
 72
1
 73
3
 74
5
 0
SEQEND
 0
POLYLINE
 8
AUSLAUF_2
 66
1
 10
0.0
 20
0.0
 30
0.0
 70
64
 71
8
 72
6
 0
VERTEX
 8
AUSLAUF_2
 10
-1.6135
 20
0.8
 30
14.8173
 70
192
 0
VERTEX
 8
AUSLAUF_2
 10
-1.6135
 20
0.8
 30
32.3173
 70
192
 0
VERTEX
 8
AUSLAUF_2
 10
-1.6135
 20
-0.8
 30
14.8173
 70
192
 0
VERTEX
 8
AUSLAUF_2
 10
-1.6135
 20
-0.8
 30
32.3173
 70
192
 0
VERTEX
 8
AUSLAUF_2
 10
1.6865
 20
-0.8
 30
14.8173
 70
192
 0
VERTEX
 8
AUSLAUF_2
 10
1.6865
 20
-0.8
 30
32.3173
 70
192
 0
VERTEX
 8
AUSLAUF_2
 10
1.6865
 20
0.8
 30
14.8173
 70
192
 0
VERTEX
 8
AUSLAUF_2
 10
1.6865
 20
0.8
 30
32.3173
 70
192
 0
VERTEX
 8
AUSLAUF_2
 10
0
 20
0
 30
0
 70
128
 71
1
 72
2
 73
4
 74
3
 0
VERTEX
 8
AUSLAUF_2
 10
0
 20
0
 30
0
 70
128
 71
3
 72
4
 73
6
 74
5
 0
VERTEX
 8
AUSLAUF_2
 10
0
 20
0
 30
0
 70
128
 71
5
 72
6
 73
8
 74
7
 0
VERTEX
 8
AUSLAUF_2
 10
0
 20
0
 30
0
 70
128
 71
7
 72
8
 73
2
 74
1
 0
VERTEX
 8
AUSLAUF_2
 10
0
 20
0
 30
0
 70
128
 71
2
 72
8
 73
6
 74
4
 0
VERTEX
 8
AUSLAUF_2
 10
0
 20
0
 30
0
 70
128
 71
7
 72
1
 73
3
 74
5
 0
SEQEND
 0
POLYLINE
 8
CYLINDER
 66
1
 10
0.0
 20
0.0
 30
0.0
 70
64
 71
31
 72
30
 0
VERTEX
 8
CYLINDER
 10
-0.0049
 20
0
 30
14.8124
 70
192
 0
VERTEX
 8
CYLINDER
 10
-0.0049
 20
-1.95
 30
14.8124
 70
192
 0
VERTEX
 8
CYLINDER
 10
0.7882
 20
-1.7814
 30
14.8124
 70
192
 0
VERTEX
 8
CYLINDER
 10
1.4442
 20
-1.3048
 30
14.8124
 70
192
 0
VERTEX
 8
CYLINDER
 10
1.8496
 20
-0.6026
 30
14.8124
 70
192
 0
VERTEX
 8
CYLINDER
 10
1.9344
 20
0.2038
 30
14.8124
 70
192
 0
VERTEX
 8
CYLINDER
 10
1.6838
 20
0.975
 30
14.8124
 70
192
 0
VERTEX
 8
CYLINDER
 10
1.1412
 20
1.5776
 30
14.8124
 70
192
 0
VERTEX
 8
CYLINDER
 10
0.4005
 20
1.9074
 30
14.8124
 70
192
 0
VERTEX
 8
CYLINDER
 10
-0.4104
 20
1.9074
 30
14.8124
 70
192
 0
VERTEX
 8
CYLINDER
 10
-1.1511
 20
1.5776
 30
14.8124
 70
192
 0
VERTEX
 8
CYLINDER
 10
-1.6937
 20
0.975
 30
14.8124
 70
192
 0
VERTEX
 8
CYLINDER
 10
-1.9443
 20
0.2038
 30
14.8124
 70
192
 0
VERTEX
 8
CYLINDER
 10
-1.8595
 20
-0.6026
 30
14.8124
 70
192
 0
VERTEX
 8
CYLINDER
 10
-1.4541
 20
-1.3048
 30
14.8124
 70
192
 0
VERTEX
 8
CYLINDER
 10
-0.7981
 20
-1.7814
 30
14.8124
 70
192
 0
VERTEX
 8
CYLINDER
 10
-0.0049
 20
-1.95
 30
14.492
 70
192
 0
VERTEX
 8
CYLINDER
 10
0.7882
 20
-1.7814
 30
14.492
 70
192
 0
VERTEX
 8
CYLINDER
 10
1.4442
 20
-1.3048
 30
14.492
 70
192
 0
VERTEX
 8
CYLINDER
 10
1.8496
 20
-0.6026
 30
14.492
 70
192
 0
VERTEX
 8
CYLINDER
 10
1.9344
 20
0.2038
 30
14.492
 70
192
 0
VERTEX
 8
CYLINDER
 10
1.6838
 20
0.975
 30
14.492
 70
192
 0
VERTEX
 8
CYLINDER
 10
1.1412
 20
1.5776
 30
14.492
 70
192
 0
VERTEX
 8
CYLINDER
 10
0.4005
 20
1.9074
 30
14.492
 70
192
 0
VERTEX
 8
CYLINDER
 10
-0.4104
 20
1.9074
 30
14.492
 70
192
 0
VERTEX
 8
CYLINDER
 10
-1.1511
 20
1.5776
 30
14.492
 70
192
 0
VERTEX
 8
CYLINDER
 10
-1.6937
 20
0.975
 30
14.492
 70
192
 0
VERTEX
 8
CYLINDER
 10
-1.9443
 20
0.2038
 30
14.492
 70
192
 0
VERTEX
 8
CYLINDER
 10
-1.8595
 20
-0.6026
 30
14.492
 70
192
 0
VERTEX
 8
CYLINDER
 10
-1.4541
 20
-1.3048
 30
14.492
 70
192
 0
VERTEX
 8
CYLINDER
 10
-0.7981
 20
-1.7814
 30
14.492
 70
192
 0
VERTEX
 8
CYLINDER
 10
0
 20
0
 30
0
 70
128
 71
17
 72
2
 73
3
 74
18
 0
VERTEX
 8
CYLINDER
 10
0
 20
0
 30
0
 70
128
 71
2
 72
1
 73
3
 74
3
 0
VERTEX
 8
CYLINDER
 10
0
 20
0
 30
0
 70
128
 71
18
 72
3
 73
4
 74
19
 0
VERTEX
 8
CYLINDER
 10
0
 20
0
 30
0
 70
128
 71
3
 72
1
 73
4
 74
4
 0
VERTEX
 8
CYLINDER
 10
0
 20
0
 30
0
 70
128
 71
19
 72
4
 73
5
 74
20
 0
VERTEX
 8
CYLINDER
 10
0
 20
0
 30
0
 70
128
 71
4
 72
1
 73
5
 74
5
 0
VERTEX
 8
CYLINDER
 10
0
 20
0
 30
0
 70
128
 71
20
 72
5
 73
6
 74
21
 0
VERTEX
 8
CYLINDER
 10
0
 20
0
 30
0
 70
128
 71
5
 72
1
 73
6
 74
6
 0
VERTEX
 8
CYLINDER
 10
0
 20
0
 30
0
 70
128
 71
21
 72
6
 73
7
 74
22
 0
VERTEX
 8
CYLINDER
 10
0
 20
0
 30
0
 70
128
 71
6
 72
1
 73
7
 74
7
 0
VERTEX
 8
CYLINDER
 10
0
 20
0
 30
0
 70
128
 71
22
 72
7
 73
8
 74
23
 0
VERTEX
 8
CYLINDER
 10
0
 20
0
 30
0
 70
128
 71
7
 72
1
 73
8
 74
8
 0
VERTEX
 8
CYLINDER
 10
0
 20
0
 30
0
 70
128
 71
23
 72
8
 73
9
 74
24
 0
VERTEX
 8
CYLINDER
 10
0
 20
0
 30
0
 70
128
 71
8
 72
1
 73
9
 74
9
 0
VERTEX
 8
CYLINDER
 10
0
 20
0
 30
0
 70
128
 71
24
 72
9
 73
10
 74
25
 0
VERTEX
 8
CYLINDER
 10
0
 20
0
 30
0
 70
128
 71
9
 72
1
 73
10
 74
10
 0
VERTEX
 8
CYLINDER
 10
0
 20
0
 30
0
 70
128
 71
25
 72
10
 73
11
 74
26
 0
VERTEX
 8
CYLINDER
 10
0
 20
0
 30
0
 70
128
 71
10
 72
1
 73
11
 74
11
 0
VERTEX
 8
CYLINDER
 10
0
 20
0
 30
0
 70
128
 71
26
 72
11
 73
12
 74
27
 0
VERTEX
 8
CYLINDER
 10
0
 20
0
 30
0
 70
128
 71
11
 72
1
 73
12
 74
12
 0
VERTEX
 8
CYLINDER
 10
0
 20
0
 30
0
 70
128
 71
27
 72
12
 73
13
 74
28
 0
VERTEX
 8
CYLINDER
 10
0
 20
0
 30
0
 70
128
 71
12
 72
1
 73
13
 74
13
 0
VERTEX
 8
CYLINDER
 10
0
 20
0
 30
0
 70
128
 71
28
 72
13
 73
14
 74
29
 0
VERTEX
 8
CYLINDER
 10
0
 20
0
 30
0
 70
128
 71
13
 72
1
 73
14
 74
14
 0
VERTEX
 8
CYLINDER
 10
0
 20
0
 30
0
 70
128
 71
29
 72
14
 73
15
 74
30
 0
VERTEX
 8
CYLINDER
 10
0
 20
0
 30
0
 70
128
 71
14
 72
1
 73
15
 74
15
 0
VERTEX
 8
CYLINDER
 10
0
 20
0
 30
0
 70
128
 71
30
 72
15
 73
16
 74
31
 0
VERTEX
 8
CYLINDER
 10
0
 20
0
 30
0
 70
128
 71
15
 72
1
 73
16
 74
16
 0
VERTEX
 8
CYLINDER
 10
0
 20
0
 30
0
 70
128
 71
31
 72
16
 73
2
 74
17
 0
VERTEX
 8
CYLINDER
 10
0
 20
0
 30
0
 70
128
 71
16
 72
1
 73
2
 74
2
 0
SEQEND
 0
POLYLINE
 8
ROSETTE
 66
1
 10
0.0
 20
0.0
 30
0.0
 70
64
 71
8
 72
6
 0
VERTEX
 8
ROSETTE
 10
-2.7135
 20
2.75
 30
4.2773
 70
192
 0
VERTEX
 8
ROSETTE
 10
-2.7135
 20
2.75
 30
4.7773
 70
192
 0
VERTEX
 8
ROSETTE
 10
-2.7135
 20
-2.75
 30
4.2773
 70
192
 0
VERTEX
 8
ROSETTE
 10
-2.7135
 20
-2.75
 30
4.7773
 70
192
 0
VERTEX
 8
ROSETTE
 10
2.7865
 20
-2.75
 30
4.2773
 70
192
 0
VERTEX
 8
ROSETTE
 10
2.7865
 20
-2.75
 30
4.7773
 70
192
 0
VERTEX
 8
ROSETTE
 10
2.7865
 20
2.75
 30
4.2773
 70
192
 0
VERTEX
 8
ROSETTE
 10
2.7865
 20
2.75
 30
4.7773
 70
192
 0
VERTEX
 8
ROSETTE
 10
0
 20
0
 30
0
 70
128
 71
1
 72
2
 73
4
 74
3
 0
VERTEX
 8
ROSETTE
 10
0
 20
0
 30
0
 70
128
 71
3
 72
4
 73
6
 74
5
 0
VERTEX
 8
ROSETTE
 10
0
 20
0
 30
0
 70
128
 71
5
 72
6
 73
8
 74
7
 0
VERTEX
 8
ROSETTE
 10
0
 20
0
 30
0
 70
128
 71
7
 72
8
 73
2
 74
1
 0
VERTEX
 8
ROSETTE
 10
0
 20
0
 30
0
 70
128
 71
2
 72
8
 73
6
 74
4
 0
VERTEX
 8
ROSETTE
 10
0
 20
0
 30
0
 70
128
 71
7
 72
1
 73
3
 74
5
 0
SEQEND
 0
POLYLINE
 8
GRIFF_1
 66
1
 10
0.0
 20
0.0
 30
0.0
 70
64
 71
8
 72
6
 0
VERTEX
 8
GRIFF_1
 10
8.0274
 20
2
 30
7.7484
 70
192
 0
VERTEX
 8
GRIFF_1
 10
8.0274
 20
2
 30
16.7484
 70
192
 0
VERTEX
 8
GRIFF_1
 10
8.0274
 20
-2
 30
7.7484
 70
192
 0
VERTEX
 8
GRIFF_1
 10
8.0274
 20
-2
 30
16.7484
 70
192
 0
VERTEX
 8
GRIFF_1
 10
8.5274
 20
-2
 30
7.7484
 70
192
 0
VERTEX
 8
GRIFF_1
 10
8.5274
 20
-2
 30
16.7484
 70
192
 0
VERTEX
 8
GRIFF_1
 10
8.5274
 20
2
 30
7.7484
 70
192
 0
VERTEX
 8
GRIFF_1
 10
8.5274
 20
2
 30
16.7484
 70
192
 0
VERTEX
 8
GRIFF_1
 10
0
 20
0
 30
0
 70
128
 71
1
 72
2
 73
4
 74
3
 0
VERTEX
 8
GRIFF_1
 10
0
 20
0
 30
0
 70
128
 71
3
 72
4
 73
6
 74
5
 0
VERTEX
 8
GRIFF_1
 10
0
 20
0
 30
0
 70
128
 71
5
 72
6
 73
8
 74
7
 0
VERTEX
 8
GRIFF_1
 10
0
 20
0
 30
0
 70
128
 71
7
 72
8
 73
2
 74
1
 0
VERTEX
 8
GRIFF_1
 10
0
 20
0
 30
0
 70
128
 71
2
 72
8
 73
6
 74
4
 0
VERTEX
 8
GRIFF_1
 10
0
 20
0
 30
0
 70
128
 71
7
 72
1
 73
3
 74
5
 0
SEQEND
 0
POLYLINE
 8
CAPSULE
 66
1
 10
0.0
 20
0.0
 30
0.0
 70
64
 71
36
 72
24
 0
VERTEX
 8
CAPSULE
 10
5.5197
 20
-1.4289
 30
8.9511
 70
192
 0
VERTEX
 8
CAPSULE
 10
6.3447
 20
1.4289
 30
9.7761
 70
192
 0
VERTEX
 8
CAPSULE
 10
6.3447
 20
-0.7145
 30
8.5386
 70
192
 0
VERTEX
 8
CAPSULE
 10
6.3447
 20
-1.4289
 30
9.7761
 70
192
 0
VERTEX
 8
CAPSULE
 10
5.5197
 20
-1.65
 30
9.7761
 70
192
 0
VERTEX
 8
CAPSULE
 10
4.9367
 20
-1.65
 30
9.7761
 70
192
 0
VERTEX
 8
CAPSULE
 10
5.5197
 20
1.65
 30
9.7761
 70
192
 0
VERTEX
 8
CAPSULE
 10
4.9367
 20
1.65
 30
9.7761
 70
192
 0
VERTEX
 8
CAPSULE
 10
5.5197
 20
-0.825
 30
8.3471
 70
192
 0
VERTEX
 8
CAPSULE
 10
6.3447
 20
-1.2375
 30
10.4905
 70
192
 0
VERTEX
 8
CAPSULE
 10
5.5197
 20
-1.4289
 30
10.6011
 70
192
 0
VERTEX
 8
CAPSULE
 10
4.9367
 20
-1.4289
 30
10.6011
 70
192
 0
VERTEX
 8
CAPSULE
 10
4.9367
 20
-1.4289
 30
8.9511
 70
192
 0
VERTEX
 8
CAPSULE
 10
6.3447
 20
1.2375
 30
9.0616
 70
192
 0
VERTEX
 8
CAPSULE
 10
4.9367
 20
-0.825
 30
8.3471
 70
192
 0
VERTEX
 8
CAPSULE
 10
6.3447
 20
-0.7145
 30
11.0136
 70
192
 0
VERTEX
 8
CAPSULE
 10
5.5197
 20
-0.825
 30
11.205
 70
192
 0
VERTEX
 8
CAPSULE
 10
4.9367
 20
-0.825
 30
11.205
 70
192
 0
VERTEX
 8
CAPSULE
 10
5.5197
 20
1.4289
 30
8.9511
 70
192
 0
VERTEX
 8
CAPSULE
 10
4.9367
 20
1.4289
 30
8.9511
 70
192
 0
VERTEX
 8
CAPSULE
 10
6.3447
 20
0.7145
 30
8.5386
 70
192
 0
VERTEX
 8
CAPSULE
 10
6.3447
 20
0
 30
11.205
 70
192
 0
VERTEX
 8
CAPSULE
 10
5.5197
 20
0
 30
11.4261
 70
192
 0
VERTEX
 8
CAPSULE
 10
4.9367
 20
0
 30
11.4261
 70
192
 0
VERTEX
 8
CAPSULE
 10
5.5197
 20
0.825
 30
8.3471
 70
192
 0
VERTEX
 8
CAPSULE
 10
4.9367
 20
0.825
 30
8.3471
 70
192
 0
VERTEX
 8
CAPSULE
 10
6.3447
 20
0
 30
8.3471
 70
192
 0
VERTEX
 8
CAPSULE
 10
6.3447
 20
0.7145
 30
11.0136
 70
192
 0
VERTEX
 8
CAPSULE
 10
5.5197
 20
0.825
 30
11.205
 70
192
 0
VERTEX
 8
CAPSULE
 10
4.9367
 20
0.825
 30
11.205
 70
192
 0
VERTEX
 8
CAPSULE
 10
5.5197
 20
0
 30
8.1261
 70
192
 0
VERTEX
 8
CAPSULE
 10
4.9367
 20
0
 30
8.1261
 70
192
 0
VERTEX
 8
CAPSULE
 10
6.3447
 20
-1.2375
 30
9.0616
 70
192
 0
VERTEX
 8
CAPSULE
 10
6.3447
 20
1.2375
 30
10.4905
 70
192
 0
VERTEX
 8
CAPSULE
 10
5.5197
 20
1.4289
 30
10.6011
 70
192
 0
VERTEX
 8
CAPSULE
 10
4.9367
 20
1.4289
 30
10.6011
 70
192
 0
VERTEX
 8
CAPSULE
 10
0
 20
0
 30
0
 70
128
 71
23
 72
24
 73
30
 74
29
 0
VERTEX
 8
CAPSULE
 10
0
 20
0
 30
0
 70
128
 71
3
 72
9
 73
1
 74
33
 0
VERTEX
 8
CAPSULE
 10
0
 20
0
 30
0
 70
128
 71
4
 72
5
 73
11
 74
10
 0
VERTEX
 8
CAPSULE
 10
0
 20
0
 30
0
 70
128
 71
5
 72
6
 73
12
 74
11
 0
VERTEX
 8
CAPSULE
 10
0
 20
0
 30
0
 70
128
 71
9
 72
15
 73
13
 74
1
 0
VERTEX
 8
CAPSULE
 10
0
 20
0
 30
0
 70
128
 71
28
 72
29
 73
35
 74
34
 0
VERTEX
 8
CAPSULE
 10
0
 20
0
 30
0
 70
128
 71
29
 72
30
 73
36
 74
35
 0
VERTEX
 8
CAPSULE
 10
0
 20
0
 30
0
 70
128
 71
34
 72
35
 73
7
 74
2
 0
VERTEX
 8
CAPSULE
 10
0
 20
0
 30
0
 70
128
 71
27
 72
31
 73
9
 74
3
 0
VERTEX
 8
CAPSULE
 10
0
 20
0
 30
0
 70
128
 71
10
 72
11
 73
17
 74
16
 0
VERTEX
 8
CAPSULE
 10
0
 20
0
 30
0
 70
128
 71
11
 72
12
 73
18
 74
17
 0
VERTEX
 8
CAPSULE
 10
0
 20
0
 30
0
 70
128
 71
35
 72
36
 73
8
 74
7
 0
VERTEX
 8
CAPSULE
 10
0
 20
0
 30
0
 70
128
 71
33
 72
1
 73
5
 74
4
 0
VERTEX
 8
CAPSULE
 10
0
 20
0
 30
0
 70
128
 71
2
 72
7
 73
19
 74
14
 0
VERTEX
 8
CAPSULE
 10
0
 20
0
 30
0
 70
128
 71
31
 72
32
 73
15
 74
9
 0
VERTEX
 8
CAPSULE
 10
0
 20
0
 30
0
 70
128
 71
7
 72
8
 73
20
 74
19
 0
VERTEX
 8
CAPSULE
 10
0
 20
0
 30
0
 70
128
 71
16
 72
17
 73
23
 74
22
 0
VERTEX
 8
CAPSULE
 10
0
 20
0
 30
0
 70
128
 71
17
 72
18
 73
24
 74
23
 0
VERTEX
 8
CAPSULE
 10
0
 20
0
 30
0
 70
128
 71
1
 72
13
 73
6
 74
5
 0
VERTEX
 8
CAPSULE
 10
0
 20
0
 30
0
 70
128
 71
14
 72
19
 73
25
 74
21
 0
VERTEX
 8
CAPSULE
 10
0
 20
0
 30
0
 70
128
 71
19
 72
20
 73
26
 74
25
 0
VERTEX
 8
CAPSULE
 10
0
 20
0
 30
0
 70
128
 71
21
 72
25
 73
31
 74
27
 0
VERTEX
 8
CAPSULE
 10
0
 20
0
 30
0
 70
128
 71
25
 72
26
 73
32
 74
31
 0
VERTEX
 8
CAPSULE
 10
0
 20
0
 30
0
 70
128
 71
22
 72
23
 73
29
 74
28
 0
SEQEND
 0
POLYLINE
 8
GRIFF_2
 66
1
 10
0.0
 20
0.0
 30
0.0
 70
64
 71
8
 72
6
 0
VERTEX
 8
GRIFF_2
 10
2.2235
 20
2
 30
7.7578
 70
192
 0
VERTEX
 8
GRIFF_2
 10
2.2235
 20
2
 30
11.7578
 70
192
 0
VERTEX
 8
GRIFF_2
 10
2.2235
 20
-2
 30
7.7578
 70
192
 0
VERTEX
 8
GRIFF_2
 10
2.2235
 20
-2
 30
11.7578
 70
192
 0
VERTEX
 8
GRIFF_2
 10
5.2235
 20
-2
 30
7.7578
 70
192
 0
VERTEX
 8
GRIFF_2
 10
5.2235
 20
-2
 30
11.7578
 70
192
 0
VERTEX
 8
GRIFF_2
 10
5.2235
 20
2
 30
7.7578
 70
192
 0
VERTEX
 8
GRIFF_2
 10
5.2235
 20
2
 30
11.7578
 70
192
 0
VERTEX
 8
GRIFF_2
 10
0
 20
0
 30
0
 70
128
 71
1
 72
2
 73
4
 74
3
 0
VERTEX
 8
GRIFF_2
 10
0
 20
0
 30
0
 70
128
 71
3
 72
4
 73
6
 74
5
 0
VERTEX
 8
GRIFF_2
 10
0
 20
0
 30
0
 70
128
 71
5
 72
6
 73
8
 74
7
 0
VERTEX
 8
GRIFF_2
 10
0
 20
0
 30
0
 70
128
 71
7
 72
8
 73
2
 74
1
 0
VERTEX
 8
GRIFF_2
 10
0
 20
0
 30
0
 70
128
 71
2
 72
8
 73
6
 74
4
 0
VERTEX
 8
GRIFF_2
 10
0
 20
0
 30
0
 70
128
 71
7
 72
1
 73
3
 74
5
 0
SEQEND
 0
POLYLINE
 8
GRIFF_3
 66
1
 10
0.0
 20
0.0
 30
0.0
 70
64
 71
1308
 72
34
 0
VERTEX
 8
GRIFF_3
 10
6.329
 20
1.93
 30
7.7622
 70
192
 0
VERTEX
 8
GRIFF_3
 10
6.329
 20
-1.93
 30
7.7622
 70
192
 0
VERTEX
 8
GRIFF_3
 10
7.9903
 20
-1.93
 30
7.7622
 70
192
 0
VERTEX
 8
GRIFF_3
 10
7.9903
 20
1.93
 30
7.7622
 70
192
 0
VERTEX
 8
GRIFF_3
 10
6.3199
 20
1.93
 30
7.7628
 70
192
 0
VERTEX
 8
GRIFF_3
 10
6.3199
 20
-1.93
 30
7.7628
 70
192
 0
VERTEX
 8
GRIFF_3
 10
6.32
 20
-1.9312
 30
7.7628
 70
192
 0
VERTEX
 8
GRIFF_3
 10
6.3202
 20
-1.9324
 30
7.7628
 70
192
 0
VERTEX
 8
GRIFF_3
 10
6.3206
 20
-1.9335
 30
7.7628
 70
192
 0
VERTEX
 8
GRIFF_3
 10
6.3211
 20
-1.9346
 30
7.7628
 70
192
 0
VERTEX
 8
GRIFF_3
 10
6.3218
 20
-1.9356
 30
7.7628
 70
192
 0
VERTEX
 8
GRIFF_3
 10
6.3226
 20
-1.9365
 30
7.7628
 70
192
 0
VERTEX
 8
GRIFF_3
 10
6.3235
 20
-1.9372
 30
7.7628
 70
192
 0
VERTEX
 8
GRIFF_3
 10
6.3245
 20
-1.9379
 30
7.7628
 70
192
 0
VERTEX
 8
GRIFF_3
 10
6.3256
 20
-1.9384
 30
7.7628
 70
192
 0
VERTEX
 8
GRIFF_3
 10
6.3267
 20
-1.9388
 30
7.7628
 70
192
 0
VERTEX
 8
GRIFF_3
 10
6.3279
 20
-1.9391
 30
7.7628
 70
192
 0
VERTEX
 8
GRIFF_3
 10
6.329
 20
-1.9391
 30
7.7628
 70
192
 0
VERTEX
 8
GRIFF_3
 10
7.9903
 20
-1.9391
 30
7.7628
 70
192
 0
VERTEX
 8
GRIFF_3
 10
7.9915
 20
-1.9391
 30
7.7628
 70
192
 0
VERTEX
 8
GRIFF_3
 10
7.9927
 20
-1.9388
 30
7.7628
 70
192
 0
VERTEX
 8
GRIFF_3
 10
7.9938
 20
-1.9384
 30
7.7628
 70
192
 0
VERTEX
 8
GRIFF_3
 10
7.9949
 20
-1.9379
 30
7.7628
 70
192
 0
VERTEX
 8
GRIFF_3
 10
7.9959
 20
-1.9372
 30
7.7628
 70
192
 0
VERTEX
 8
GRIFF_3
 10
7.9968
 20
-1.9365
 30
7.7628
 70
192
 0
VERTEX
 8
GRIFF_3
 10
7.9976
 20
-1.9356
 30
7.7628
 70
192
 0
VERTEX
 8
GRIFF_3
 10
7.9983
 20
-1.9346
 30
7.7628
 70
192
 0
VERTEX
 8
GRIFF_3
 10
7.9988
 20
-1.9335
 30
7.7628
 70
192
 0
VERTEX
 8
GRIFF_3
 10
7.9992
 20
-1.9324
 30
7.7628
 70
192
 0
VERTEX
 8
GRIFF_3
 10
7.9994
 20
-1.9312
 30
7.7628
 70
192
 0
VERTEX
 8
GRIFF_3
 10
7.9995
 20
-1.93
 30
7.7628
 70
192
 0
VERTEX
 8
GRIFF_3
 10
7.9995
 20
1.93
 30
7.7628
 70
192
 0
VERTEX
 8
GRIFF_3
 10
7.9994
 20
1.9312
 30
7.7628
 70
192
 0
VERTEX
 8
GRIFF_3
 10
7.9992
 20
1.9324
 30
7.7628
 70
192
 0
VERTEX
 8
GRIFF_3
 10
7.9988
 20
1.9335
 30
7.7628
 70
192
 0
VERTEX
 8
GRIFF_3
 10
7.9983
 20
1.9346
 30
7.7628
 70
192
 0
VERTEX
 8
GRIFF_3
 10
7.9976
 20
1.9356
 30
7.7628
 70
192
 0
VERTEX
 8
GRIFF_3
 10
7.9968
 20
1.9365
 30
7.7628
 70
192
 0
VERTEX
 8
GRIFF_3
 10
7.9959
 20
1.9372
 30
7.7628
 70
192
 0
VERTEX
 8
GRIFF_3
 10
7.9949
 20
1.9379
 30
7.7628
 70
192
 0
VERTEX
 8
GRIFF_3
 10
7.9938
 20
1.9384
 30
7.7628
 70
192
 0
VERTEX
 8
GRIFF_3
 10
7.9927
 20
1.9388
 30
7.7628
 70
192
 0
VERTEX
 8
GRIFF_3
 10
7.9915
 20
1.9391
 30
7.7628
 70
192
 0
VERTEX
 8
GRIFF_3
 10
7.9903
 20
1.9391
 30
7.7628
 70
192
 0
VERTEX
 8
GRIFF_3
 10
6.329
 20
1.9391
 30
7.7628
 70
192
 0
VERTEX
 8
GRIFF_3
 10
6.3279
 20
1.9391
 30
7.7628
 70
192
 0
VERTEX
 8
GRIFF_3
 10
6.3267
 20
1.9388
 30
7.7628
 70
192
 0
VERTEX
 8
GRIFF_3
 10
6.3256
 20
1.9384
 30
7.7628
 70
192
 0
VERTEX
 8
GRIFF_3
 10
6.3245
 20
1.9379
 30
7.7628
 70
192
 0
VERTEX
 8
GRIFF_3
 10
6.3235
 20
1.9372
 30
7.7628
 70
192
 0
VERTEX
 8
GRIFF_3
 10
6.3226
 20
1.9365
 30
7.7628
 70
192
 0
VERTEX
 8
GRIFF_3
 10
6.3218
 20
1.9356
 30
7.7628
 70
192
 0
VERTEX
 8
GRIFF_3
 10
6.3211
 20
1.9346
 30
7.7628
 70
192
 0
VERTEX
 8
GRIFF_3
 10
6.3206
 20
1.9335
 30
7.7628
 70
192
 0
VERTEX
 8
GRIFF_3
 10
6.3202
 20
1.9324
 30
7.7628
 70
192
 0
VERTEX
 8
GRIFF_3
 10
6.32
 20
1.9312
 30
7.7628
 70
192
 0
VERTEX
 8
GRIFF_3
 10
6.3109
 20
1.93
 30
7.7646
 70
192
 0
VERTEX
 8
GRIFF_3
 10
6.3109
 20
-1.93
 30
7.7646
 70
192
 0
VERTEX
 8
GRIFF_3
 10
6.3111
 20
-1.9324
 30
7.7646
 70
192
 0
VERTEX
 8
GRIFF_3
 10
6.3115
 20
-1.9347
 30
7.7646
 70
192
 0
VERTEX
 8
GRIFF_3
 10
6.3123
 20
-1.9369
 30
7.7646
 70
192
 0
VERTEX
 8
GRIFF_3
 10
6.3134
 20
-1.9391
 30
7.7646
 70
192
 0
VERTEX
 8
GRIFF_3
 10
6.3147
 20
-1.941
 30
7.7646
 70
192
 0
VERTEX
 8
GRIFF_3
 10
6.3162
 20
-1.9428
 30
7.7646
 70
192
 0
VERTEX
 8
GRIFF_3
 10
6.318
 20
-1.9444
 30
7.7646
 70
192
 0
VERTEX
 8
GRIFF_3
 10
6.32
 20
-1.9457
 30
7.7646
 70
192
 0
VERTEX
 8
GRIFF_3
 10
6.3221
 20
-1.9467
 30
7.7646
 70
192
 0
VERTEX
 8
GRIFF_3
 10
6.3244
 20
-1.9475
 30
7.7646
 70
192
 0
VERTEX
 8
GRIFF_3
 10
6.3267
 20
-1.948
 30
7.7646
 70
192
 0
VERTEX
 8
GRIFF_3
 10
6.329
 20
-1.9481
 30
7.7646
 70
192
 0
VERTEX
 8
GRIFF_3
 10
7.9903
 20
-1.9481
 30
7.7646
 70
192
 0
VERTEX
 8
GRIFF_3
 10
7.9927
 20
-1.948
 30
7.7646
 70
192
 0
VERTEX
 8
GRIFF_3
 10
7.995
 20
-1.9475
 30
7.7646
 70
192
 0
VERTEX
 8
GRIFF_3
 10
7.9973
 20
-1.9467
 30
7.7646
 70
192
 0
VERTEX
 8
GRIFF_3
 10
7.9994
 20
-1.9457
 30
7.7646
 70
192
 0
VERTEX
 8
GRIFF_3
 10
8.0014
 20
-1.9444
 30
7.7646
 70
192
 0
VERTEX
 8
GRIFF_3
 10
8.0032
 20
-1.9428
 30
7.7646
 70
192
 0
VERTEX
 8
GRIFF_3
 10
8.0047
 20
-1.941
 30
7.7646
 70
192
 0
VERTEX
 8
GRIFF_3
 10
8.006
 20
-1.9391
 30
7.7646
 70
192
 0
VERTEX
 8
GRIFF_3
 10
8.0071
 20
-1.9369
 30
7.7646
 70
192
 0
VERTEX
 8
GRIFF_3
 10
8.0078
 20
-1.9347
 30
7.7646
 70
192
 0
VERTEX
 8
GRIFF_3
 10
8.0083
 20
-1.9324
 30
7.7646
 70
192
 0
VERTEX
 8
GRIFF_3
 10
8.0085
 20
-1.93
 30
7.7646
 70
192
 0
VERTEX
 8
GRIFF_3
 10
8.0085
 20
1.93
 30
7.7646
 70
192
 0
VERTEX
 8
GRIFF_3
 10
8.0083
 20
1.9324
 30
7.7646
 70
192
 0
VERTEX
 8
GRIFF_3
 10
8.0078
 20
1.9347
 30
7.7646
 70
192
 0
VERTEX
 8
GRIFF_3
 10
8.0071
 20
1.9369
 30
7.7646
 70
192
 0
VERTEX
 8
GRIFF_3
 10
8.006
 20
1.9391
 30
7.7646
 70
192
 0
VERTEX
 8
GRIFF_3
 10
8.0047
 20
1.941
 30
7.7646
 70
192
 0
VERTEX
 8
GRIFF_3
 10
8.0032
 20
1.9428
 30
7.7646
 70
192
 0
VERTEX
 8
GRIFF_3
 10
8.0014
 20
1.9444
 30
7.7646
 70
192
 0
VERTEX
 8
GRIFF_3
 10
7.9994
 20
1.9457
 30
7.7646
 70
192
 0
VERTEX
 8
GRIFF_3
 10
7.9973
 20
1.9467
 30
7.7646
 70
192
 0
VERTEX
 8
GRIFF_3
 10
7.995
 20
1.9475
 30
7.7646
 70
192
 0
VERTEX
 8
GRIFF_3
 10
7.9927
 20
1.948
 30
7.7646
 70
192
 0
VERTEX
 8
GRIFF_3
 10
7.9903
 20
1.9481
 30
7.7646
 70
192
 0
VERTEX
 8
GRIFF_3
 10
6.329
 20
1.9481
 30
7.7646
 70
192
 0
VERTEX
 8
GRIFF_3
 10
6.3267
 20
1.948
 30
7.7646
 70
192
 0
VERTEX
 8
GRIFF_3
 10
6.3244
 20
1.9475
 30
7.7646
 70
192
 0
VERTEX
 8
GRIFF_3
 10
6.3221
 20
1.9467
 30
7.7646
 70
192
 0
VERTEX
 8
GRIFF_3
 10
6.32
 20
1.9457
 30
7.7646
 70
192
 0
VERTEX
 8
GRIFF_3
 10
6.318
 20
1.9444
 30
7.7646
 70
192
 0
VERTEX
 8
GRIFF_3
 10
6.3162
 20
1.9428
 30
7.7646
 70
192
 0
VERTEX
 8
GRIFF_3
 10
6.3147
 20
1.941
 30
7.7646
 70
192
 0
VERTEX
 8
GRIFF_3
 10
6.3134
 20
1.9391
 30
7.7646
 70
192
 0
VERTEX
 8
GRIFF_3
 10
6.3123
 20
1.9369
 30
7.7646
 70
192
 0
VERTEX
 8
GRIFF_3
 10
6.3115
 20
1.9347
 30
7.7646
 70
192
 0
VERTEX
 8
GRIFF_3
 10
6.3111
 20
1.9324
 30
7.7646
 70
192
 0
VERTEX
 8
GRIFF_3
 10
6.3023
 20
1.93
 30
7.7675
 70
192
 0
VERTEX
 8
GRIFF_3
 10
6.3023
 20
-1.93
 30
7.7675
 70
192
 0
VERTEX
 8
GRIFF_3
 10
6.3025
 20
-1.9335
 30
7.7675
 70
192
 0
VERTEX
 8
GRIFF_3
 10
6.3032
 20
-1.9369
 30
7.7675
 70
192
 0
VERTEX
 8
GRIFF_3
 10
6.3043
 20
-1.9403
 30
7.7675
 70
192
 0
VERTEX
 8
GRIFF_3
 10
6.3058
 20
-1.9434
 30
7.7675
 70
192
 0
VERTEX
 8
GRIFF_3
 10
6.3078
 20
-1.9463
 30
7.7675
 70
192
 0
VERTEX
 8
GRIFF_3
 10
6.3101
 20
-1.9489
 30
7.7675
 70
192
 0
VERTEX
 8
GRIFF_3
 10
6.3127
 20
-1.9513
 30
7.7675
 70
192
 0
VERTEX
 8
GRIFF_3
 10
6.3157
 20
-1.9532
 30
7.7675
 70
192
 0
VERTEX
 8
GRIFF_3
 10
6.3188
 20
-1.9547
 30
7.7675
 70
192
 0
VERTEX
 8
GRIFF_3
 10
6.3221
 20
-1.9559
 30
7.7675
 70
192
 0
VERTEX
 8
GRIFF_3
 10
6.3256
 20
-1.9566
 30
7.7675
 70
192
 0
VERTEX
 8
GRIFF_3
 10
6.329
 20
-1.9568
 30
7.7675
 70
192
 0
VERTEX
 8
GRIFF_3
 10
7.9903
 20
-1.9568
 30
7.7675
 70
192
 0
VERTEX
 8
GRIFF_3
 10
7.9938
 20
-1.9566
 30
7.7675
 70
192
 0
VERTEX
 8
GRIFF_3
 10
7.9973
 20
-1.9559
 30
7.7675
 70
192
 0
VERTEX
 8
GRIFF_3
 10
8.0006
 20
-1.9547
 30
7.7675
 70
192
 0
VERTEX
 8
GRIFF_3
 10
8.0037
 20
-1.9532
 30
7.7675
 70
192
 0
VERTEX
 8
GRIFF_3
 10
8.0067
 20
-1.9513
 30
7.7675
 70
192
 0
VERTEX
 8
GRIFF_3
 10
8.0093
 20
-1.9489
 30
7.7675
 70
192
 0
VERTEX
 8
GRIFF_3
 10
8.0116
 20
-1.9463
 30
7.7675
 70
192
 0
VERTEX
 8
GRIFF_3
 10
8.0135
 20
-1.9434
 30
7.7675
 70
192
 0
VERTEX
 8
GRIFF_3
 10
8.0151
 20
-1.9403
 30
7.7675
 70
192
 0
VERTEX
 8
GRIFF_3
 10
8.0162
 20
-1.9369
 30
7.7675
 70
192
 0
VERTEX
 8
GRIFF_3
 10
8.0169
 20
-1.9335
 30
7.7675
 70
192
 0
VERTEX
 8
GRIFF_3
 10
8.0171
 20
-1.93
 30
7.7675
 70
192
 0
VERTEX
 8
GRIFF_3
 10
8.0171
 20
1.93
 30
7.7675
 70
192
 0
VERTEX
 8
GRIFF_3
 10
8.0169
 20
1.9335
 30
7.7675
 70
192
 0
VERTEX
 8
GRIFF_3
 10
8.0162
 20
1.9369
 30
7.7675
 70
192
 0
VERTEX
 8
GRIFF_3
 10
8.0151
 20
1.9403
 30
7.7675
 70
192
 0
VERTEX
 8
GRIFF_3
 10
8.0135
 20
1.9434
 30
7.7675
 70
192
 0
VERTEX
 8
GRIFF_3
 10
8.0116
 20
1.9463
 30
7.7675
 70
192
 0
VERTEX
 8
GRIFF_3
 10
8.0093
 20
1.9489
 30
7.7675
 70
192
 0
VERTEX
 8
GRIFF_3
 10
8.0067
 20
1.9513
 30
7.7675
 70
192
 0
VERTEX
 8
GRIFF_3
 10
8.0037
 20
1.9532
 30
7.7675
 70
192
 0
VERTEX
 8
GRIFF_3
 10
8.0006
 20
1.9547
 30
7.7675
 70
192
 0
VERTEX
 8
GRIFF_3
 10
7.9973
 20
1.9559
 30
7.7675
 70
192
 0
VERTEX
 8
GRIFF_3
 10
7.9938
 20
1.9566
 30
7.7675
 70
192
 0
VERTEX
 8
GRIFF_3
 10
7.9903
 20
1.9568
 30
7.7675
 70
192
 0
VERTEX
 8
GRIFF_3
 10
6.329
 20
1.9568
 30
7.7675
 70
192
 0
VERTEX
 8
GRIFF_3
 10
6.3256
 20
1.9566
 30
7.7675
 70
192
 0
VERTEX
 8
GRIFF_3
 10
6.3221
 20
1.9559
 30
7.7675
 70
192
 0
VERTEX
 8
GRIFF_3
 10
6.3188
 20
1.9547
 30
7.7675
 70
192
 0
VERTEX
 8
GRIFF_3
 10
6.3157
 20
1.9532
 30
7.7675
 70
192
 0
VERTEX
 8
GRIFF_3
 10
6.3127
 20
1.9513
 30
7.7675
 70
192
 0
VERTEX
 8
GRIFF_3
 10
6.3101
 20
1.9489
 30
7.7675
 70
192
 0
VERTEX
 8
GRIFF_3
 10
6.3078
 20
1.9463
 30
7.7675
 70
192
 0
VERTEX
 8
GRIFF_3
 10
6.3058
 20
1.9434
 30
7.7675
 70
192
 0
VERTEX
 8
GRIFF_3
 10
6.3043
 20
1.9403
 30
7.7675
 70
192
 0
VERTEX
 8
GRIFF_3
 10
6.3032
 20
1.9369
 30
7.7675
 70
192
 0
VERTEX
 8
GRIFF_3
 10
6.3025
 20
1.9335
 30
7.7675
 70
192
 0
VERTEX
 8
GRIFF_3
 10
6.294
 20
1.93
 30
7.7716
 70
192
 0
VERTEX
 8
GRIFF_3
 10
6.294
 20
-1.93
 30
7.7716
 70
192
 0
VERTEX
 8
GRIFF_3
 10
6.2943
 20
-1.9346
 30
7.7716
 70
192
 0
VERTEX
 8
GRIFF_3
 10
6.2952
 20
-1.9391
 30
7.7716
 70
192
 0
VERTEX
 8
GRIFF_3
 10
6.2967
 20
-1.9434
 30
7.7716
 70
192
 0
VERTEX
 8
GRIFF_3
 10
6.2987
 20
-1.9475
 30
7.7716
 70
192
 0
VERTEX
 8
GRIFF_3
 10
6.3013
 20
-1.9513
 30
7.7716
 70
192
 0
VERTEX
 8
GRIFF_3
 10
6.3043
 20
-1.9547
 30
7.7716
 70
192
 0
VERTEX
 8
GRIFF_3
 10
6.3077
 20
-1.9578
 30
7.7716
 70
192
 0
VERTEX
 8
GRIFF_3
 10
6.3115
 20
-1.9603
 30
7.7716
 70
192
 0
VERTEX
 8
GRIFF_3
 10
6.3157
 20
-1.9623
 30
7.7716
 70
192
 0
VERTEX
 8
GRIFF_3
 10
6.32
 20
-1.9638
 30
7.7716
 70
192
 0
VERTEX
 8
GRIFF_3
 10
6.3245
 20
-1.9647
 30
7.7716
 70
192
 0
VERTEX
 8
GRIFF_3
 10
6.329
 20
-1.965
 30
7.7716
 70
192
 0
VERTEX
 8
GRIFF_3
 10
7.9903
 20
-1.965
 30
7.7716
 70
192
 0
VERTEX
 8
GRIFF_3
 10
7.9949
 20
-1.9647
 30
7.7716
 70
192
 0
VERTEX
 8
GRIFF_3
 10
7.9994
 20
-1.9638
 30
7.7716
 70
192
 0
VERTEX
 8
GRIFF_3
 10
8.0037
 20
-1.9623
 30
7.7716
 70
192
 0
VERTEX
 8
GRIFF_3
 10
8.0078
 20
-1.9603
 30
7.7716
 70
192
 0
VERTEX
 8
GRIFF_3
 10
8.0117
 20
-1.9578
 30
7.7716
 70
192
 0
VERTEX
 8
GRIFF_3
 10
8.0151
 20
-1.9547
 30
7.7716
 70
192
 0
VERTEX
 8
GRIFF_3
 10
8.0181
 20
-1.9513
 30
7.7716
 70
192
 0
VERTEX
 8
GRIFF_3
 10
8.0207
 20
-1.9475
 30
7.7716
 70
192
 0
VERTEX
 8
GRIFF_3
 10
8.0227
 20
-1.9434
 30
7.7716
 70
192
 0
VERTEX
 8
GRIFF_3
 10
8.0242
 20
-1.9391
 30
7.7716
 70
192
 0
VERTEX
 8
GRIFF_3
 10
8.025
 20
-1.9346
 30
7.7716
 70
192
 0
VERTEX
 8
GRIFF_3
 10
8.0253
 20
-1.93
 30
7.7716
 70
192
 0
VERTEX
 8
GRIFF_3
 10
8.0253
 20
1.93
 30
7.7716
 70
192
 0
VERTEX
 8
GRIFF_3
 10
8.025
 20
1.9346
 30
7.7716
 70
192
 0
VERTEX
 8
GRIFF_3
 10
8.0242
 20
1.9391
 30
7.7716
 70
192
 0
VERTEX
 8
GRIFF_3
 10
8.0227
 20
1.9434
 30
7.7716
 70
192
 0
VERTEX
 8
GRIFF_3
 10
8.0207
 20
1.9475
 30
7.7716
 70
192
 0
VERTEX
 8
GRIFF_3
 10
8.0181
 20
1.9513
 30
7.7716
 70
192
 0
VERTEX
 8
GRIFF_3
 10
8.0151
 20
1.9547
 30
7.7716
 70
192
 0
VERTEX
 8
GRIFF_3
 10
8.0117
 20
1.9578
 30
7.7716
 70
192
 0
VERTEX
 8
GRIFF_3
 10
8.0078
 20
1.9603
 30
7.7716
 70
192
 0
VERTEX
 8
GRIFF_3
 10
8.0037
 20
1.9623
 30
7.7716
 70
192
 0
VERTEX
 8
GRIFF_3
 10
7.9994
 20
1.9638
 30
7.7716
 70
192
 0
VERTEX
 8
GRIFF_3
 10
7.9949
 20
1.9647
 30
7.7716
 70
192
 0
VERTEX
 8
GRIFF_3
 10
7.9903
 20
1.965
 30
7.7716
 70
192
 0
VERTEX
 8
GRIFF_3
 10
6.329
 20
1.965
 30
7.7716
 70
192
 0
VERTEX
 8
GRIFF_3
 10
6.3245
 20
1.9647
 30
7.7716
 70
192
 0
VERTEX
 8
GRIFF_3
 10
6.32
 20
1.9638
 30
7.7716
 70
192
 0
VERTEX
 8
GRIFF_3
 10
6.3157
 20
1.9623
 30
7.7716
 70
192
 0
VERTEX
 8
GRIFF_3
 10
6.3115
 20
1.9603
 30
7.7716
 70
192
 0
VERTEX
 8
GRIFF_3
 10
6.3077
 20
1.9578
 30
7.7716
 70
192
 0
VERTEX
 8
GRIFF_3
 10
6.3043
 20
1.9547
 30
7.7716
 70
192
 0
VERTEX
 8
GRIFF_3
 10
6.3013
 20
1.9513
 30
7.7716
 70
192
 0
VERTEX
 8
GRIFF_3
 10
6.2987
 20
1.9475
 30
7.7716
 70
192
 0
VERTEX
 8
GRIFF_3
 10
6.2967
 20
1.9434
 30
7.7716
 70
192
 0
VERTEX
 8
GRIFF_3
 10
6.2952
 20
1.9391
 30
7.7716
 70
192
 0
VERTEX
 8
GRIFF_3
 10
6.2943
 20
1.9346
 30
7.7716
 70
192
 0
VERTEX
 8
GRIFF_3
 10
6.2864
 20
1.93
 30
7.7767
 70
192
 0
VERTEX
 8
GRIFF_3
 10
6.2864
 20
-1.93
 30
7.7767
 70
192
 0
VERTEX
 8
GRIFF_3
 10
6.2868
 20
-1.9356
 30
7.7767
 70
192
 0
VERTEX
 8
GRIFF_3
 10
6.2879
 20
-1.941
 30
7.7767
 70
192
 0
VERTEX
 8
GRIFF_3
 10
6.2897
 20
-1.9463
 30
7.7767
 70
192
 0
VERTEX
 8
GRIFF_3
 10
6.2921
 20
-1.9513
 30
7.7767
 70
192
 0
VERTEX
 8
GRIFF_3
 10
6.2952
 20
-1.9559
 30
7.7767
 70
192
 0
VERTEX
 8
GRIFF_3
 10
6.2989
 20
-1.9601
 30
7.7767
 70
192
 0
VERTEX
 8
GRIFF_3
 10
6.3031
 20
-1.9638
 30
7.7767
 70
192
 0
VERTEX
 8
GRIFF_3
 10
6.3077
 20
-1.9669
 30
7.7767
 70
192
 0
VERTEX
 8
GRIFF_3
 10
6.3127
 20
-1.9694
 30
7.7767
 70
192
 0
VERTEX
 8
GRIFF_3
 10
6.318
 20
-1.9712
 30
7.7767
 70
192
 0
VERTEX
 8
GRIFF_3
 10
6.3235
 20
-1.9722
 30
7.7767
 70
192
 0
VERTEX
 8
GRIFF_3
 10
6.329
 20
-1.9726
 30
7.7767
 70
192
 0
VERTEX
 8
GRIFF_3
 10
7.9903
 20
-1.9726
 30
7.7767
 70
192
 0
VERTEX
 8
GRIFF_3
 10
7.9959
 20
-1.9722
 30
7.7767
 70
192
 0
VERTEX
 8
GRIFF_3
 10
8.0014
 20
-1.9712
 30
7.7767
 70
192
 0
VERTEX
 8
GRIFF_3
 10
8.0067
 20
-1.9694
 30
7.7767
 70
192
 0
VERTEX
 8
GRIFF_3
 10
8.0117
 20
-1.9669
 30
7.7767
 70
192
 0
VERTEX
 8
GRIFF_3
 10
8.0163
 20
-1.9638
 30
7.7767
 70
192
 0
VERTEX
 8
GRIFF_3
 10
8.0205
 20
-1.9601
 30
7.7767
 70
192
 0
VERTEX
 8
GRIFF_3
 10
8.0242
 20
-1.9559
 30
7.7767
 70
192
 0
VERTEX
 8
GRIFF_3
 10
8.0272
 20
-1.9513
 30
7.7767
 70
192
 0
VERTEX
 8
GRIFF_3
 10
8.0297
 20
-1.9463
 30
7.7767
 70
192
 0
VERTEX
 8
GRIFF_3
 10
8.0315
 20
-1.941
 30
7.7767
 70
192
 0
VERTEX
 8
GRIFF_3
 10
8.0326
 20
-1.9356
 30
7.7767
 70
192
 0
VERTEX
 8
GRIFF_3
 10
8.033
 20
-1.93
 30
7.7767
 70
192
 0
VERTEX
 8
GRIFF_3
 10
8.033
 20
1.93
 30
7.7767
 70
192
 0
VERTEX
 8
GRIFF_3
 10
8.0326
 20
1.9356
 30
7.7767
 70
192
 0
VERTEX
 8
GRIFF_3
 10
8.0315
 20
1.941
 30
7.7767
 70
192
 0
VERTEX
 8
GRIFF_3
 10
8.0297
 20
1.9463
 30
7.7767
 70
192
 0
VERTEX
 8
GRIFF_3
 10
8.0272
 20
1.9513
 30
7.7767
 70
192
 0
VERTEX
 8
GRIFF_3
 10
8.0242
 20
1.9559
 30
7.7767
 70
192
 0
VERTEX
 8
GRIFF_3
 10
8.0205
 20
1.9601
 30
7.7767
 70
192
 0
VERTEX
 8
GRIFF_3
 10
8.0163
 20
1.9638
 30
7.7767
 70
192
 0
VERTEX
 8
GRIFF_3
 10
8.0117
 20
1.9669
 30
7.7767
 70
192
 0
VERTEX
 8
GRIFF_3
 10
8.0067
 20
1.9694
 30
7.7767
 70
192
 0
VERTEX
 8
GRIFF_3
 10
8.0014
 20
1.9712
 30
7.7767
 70
192
 0
VERTEX
 8
GRIFF_3
 10
7.9959
 20
1.9722
 30
7.7767
 70
192
 0
VERTEX
 8
GRIFF_3
 10
7.9903
 20
1.9726
 30
7.7767
 70
192
 0
VERTEX
 8
GRIFF_3
 10
6.329
 20
1.9726
 30
7.7767
 70
192
 0
VERTEX
 8
GRIFF_3
 10
6.3235
 20
1.9722
 30
7.7767
 70
192
 0
VERTEX
 8
GRIFF_3
 10
6.318
 20
1.9712
 30
7.7767
 70
192
 0
VERTEX
 8
GRIFF_3
 10
6.3127
 20
1.9694
 30
7.7767
 70
192
 0
VERTEX
 8
GRIFF_3
 10
6.3077
 20
1.9669
 30
7.7767
 70
192
 0
VERTEX
 8
GRIFF_3
 10
6.3031
 20
1.9638
 30
7.7767
 70
192
 0
VERTEX
 8
GRIFF_3
 10
6.2989
 20
1.9601
 30
7.7767
 70
192
 0
VERTEX
 8
GRIFF_3
 10
6.2952
 20
1.9559
 30
7.7767
 70
192
 0
VERTEX
 8
GRIFF_3
 10
6.2921
 20
1.9513
 30
7.7767
 70
192
 0
VERTEX
 8
GRIFF_3
 10
6.2897
 20
1.9463
 30
7.7767
 70
192
 0
VERTEX
 8
GRIFF_3
 10
6.2879
 20
1.941
 30
7.7767
 70
192
 0
VERTEX
 8
GRIFF_3
 10
6.2868
 20
1.9356
 30
7.7767
 70
192
 0
VERTEX
 8
GRIFF_3
 10
6.2796
 20
1.93
 30
7.7827
 70
192
 0
VERTEX
 8
GRIFF_3
 10
6.2796
 20
-1.93
 30
7.7827
 70
192
 0
VERTEX
 8
GRIFF_3
 10
6.28
 20
-1.9365
 30
7.7827
 70
192
 0
VERTEX
 8
GRIFF_3
 10
6.2812
 20
-1.9428
 30
7.7827
 70
192
 0
VERTEX
 8
GRIFF_3
 10
6.2833
 20
-1.9489
 30
7.7827
 70
192
 0
VERTEX
 8
GRIFF_3
 10
6.2862
 20
-1.9547
 30
7.7827
 70
192
 0
VERTEX
 8
GRIFF_3
 10
6.2898
 20
-1.9601
 30
7.7827
 70
192
 0
VERTEX
 8
GRIFF_3
 10
6.294
 20
-1.965
 30
7.7827
 70
192
 0
VERTEX
 8
GRIFF_3
 10
6.2989
 20
-1.9693
 30
7.7827
 70
192
 0
VERTEX
 8
GRIFF_3
 10
6.3043
 20
-1.9729
 30
7.7827
 70
192
 0
VERTEX
 8
GRIFF_3
 10
6.3101
 20
-1.9757
 30
7.7827
 70
192
 0
VERTEX
 8
GRIFF_3
 10
6.3162
 20
-1.9778
 30
7.7827
 70
192
 0
VERTEX
 8
GRIFF_3
 10
6.3226
 20
-1.9791
 30
7.7827
 70
192
 0
VERTEX
 8
GRIFF_3
 10
6.329
 20
-1.9795
 30
7.7827
 70
192
 0
VERTEX
 8
GRIFF_3
 10
7.9903
 20
-1.9795
 30
7.7827
 70
192
 0
VERTEX
 8
GRIFF_3
 10
7.9968
 20
-1.9791
 30
7.7827
 70
192
 0
VERTEX
 8
GRIFF_3
 10
8.0032
 20
-1.9778
 30
7.7827
 70
192
 0
VERTEX
 8
GRIFF_3
 10
8.0093
 20
-1.9757
 30
7.7827
 70
192
 0
VERTEX
 8
GRIFF_3
 10
8.0151
 20
-1.9729
 30
7.7827
 70
192
 0
VERTEX
 8
GRIFF_3
 10
8.0205
 20
-1.9693
 30
7.7827
 70
192
 0
VERTEX
 8
GRIFF_3
 10
8.0253
 20
-1.965
 30
7.7827
 70
192
 0
VERTEX
 8
GRIFF_3
 10
8.0296
 20
-1.9601
 30
7.7827
 70
192
 0
VERTEX
 8
GRIFF_3
 10
8.0332
 20
-1.9547
 30
7.7827
 70
192
 0
VERTEX
 8
GRIFF_3
 10
8.0361
 20
-1.9489
 30
7.7827
 70
192
 0
VERTEX
 8
GRIFF_3
 10
8.0382
 20
-1.9428
 30
7.7827
 70
192
 0
VERTEX
 8
GRIFF_3
 10
8.0394
 20
-1.9365
 30
7.7827
 70
192
 0
VERTEX
 8
GRIFF_3
 10
8.0398
 20
-1.93
 30
7.7827
 70
192
 0
VERTEX
 8
GRIFF_3
 10
8.0398
 20
1.93
 30
7.7827
 70
192
 0
VERTEX
 8
GRIFF_3
 10
8.0394
 20
1.9365
 30
7.7827
 70
192
 0
VERTEX
 8
GRIFF_3
 10
8.0382
 20
1.9428
 30
7.7827
 70
192
 0
VERTEX
 8
GRIFF_3
 10
8.0361
 20
1.9489
 30
7.7827
 70
192
 0
VERTEX
 8
GRIFF_3
 10
8.0332
 20
1.9547
 30
7.7827
 70
192
 0
VERTEX
 8
GRIFF_3
 10
8.0296
 20
1.9601
 30
7.7827
 70
192
 0
VERTEX
 8
GRIFF_3
 10
8.0253
 20
1.965
 30
7.7827
 70
192
 0
VERTEX
 8
GRIFF_3
 10
8.0205
 20
1.9693
 30
7.7827
 70
192
 0
VERTEX
 8
GRIFF_3
 10
8.0151
 20
1.9729
 30
7.7827
 70
192
 0
VERTEX
 8
GRIFF_3
 10
8.0093
 20
1.9757
 30
7.7827
 70
192
 0
VERTEX
 8
GRIFF_3
 10
8.0032
 20
1.9778
 30
7.7827
 70
192
 0
VERTEX
 8
GRIFF_3
 10
7.9968
 20
1.9791
 30
7.7827
 70
192
 0
VERTEX
 8
GRIFF_3
 10
7.9903
 20
1.9795
 30
7.7827
 70
192
 0
VERTEX
 8
GRIFF_3
 10
6.329
 20
1.9795
 30
7.7827
 70
192
 0
VERTEX
 8
GRIFF_3
 10
6.3226
 20
1.9791
 30
7.7827
 70
192
 0
VERTEX
 8
GRIFF_3
 10
6.3162
 20
1.9778
 30
7.7827
 70
192
 0
VERTEX
 8
GRIFF_3
 10
6.3101
 20
1.9757
 30
7.7827
 70
192
 0
VERTEX
 8
GRIFF_3
 10
6.3043
 20
1.9729
 30
7.7827
 70
192
 0
VERTEX
 8
GRIFF_3
 10
6.2989
 20
1.9693
 30
7.7827
 70
192
 0
VERTEX
 8
GRIFF_3
 10
6.294
 20
1.965
 30
7.7827
 70
192
 0
VERTEX
 8
GRIFF_3
 10
6.2898
 20
1.9601
 30
7.7827
 70
192
 0
VERTEX
 8
GRIFF_3
 10
6.2862
 20
1.9547
 30
7.7827
 70
192
 0
VERTEX
 8
GRIFF_3
 10
6.2833
 20
1.9489
 30
7.7827
 70
192
 0
VERTEX
 8
GRIFF_3
 10
6.2812
 20
1.9428
 30
7.7827
 70
192
 0
VERTEX
 8
GRIFF_3
 10
6.28
 20
1.9365
 30
7.7827
 70
192
 0
VERTEX
 8
GRIFF_3
 10
6.2735
 20
1.93
 30
7.7896
 70
192
 0
VERTEX
 8
GRIFF_3
 10
6.2735
 20
-1.93
 30
7.7896
 70
192
 0
VERTEX
 8
GRIFF_3
 10
6.274
 20
-1.9372
 30
7.7896
 70
192
 0
VERTEX
 8
GRIFF_3
 10
6.2754
 20
-1.9444
 30
7.7896
 70
192
 0
VERTEX
 8
GRIFF_3
 10
6.2777
 20
-1.9513
 30
7.7896
 70
192
 0
VERTEX
 8
GRIFF_3
 10
6.281
 20
-1.9578
 30
7.7896
 70
192
 0
VERTEX
 8
GRIFF_3
 10
6.285
 20
-1.9638
 30
7.7896
 70
192
 0
VERTEX
 8
GRIFF_3
 10
6.2898
 20
-1.9693
 30
7.7896
 70
192
 0
VERTEX
 8
GRIFF_3
 10
6.2952
 20
-1.9741
 30
7.7896
 70
192
 0
VERTEX
 8
GRIFF_3
 10
6.3013
 20
-1.9781
 30
7.7896
 70
192
 0
VERTEX
 8
GRIFF_3
 10
6.3078
 20
-1.9813
 30
7.7896
 70
192
 0
VERTEX
 8
GRIFF_3
 10
6.3147
 20
-1.9836
 30
7.7896
 70
192
 0
VERTEX
 8
GRIFF_3
 10
6.3218
 20
-1.9851
 30
7.7896
 70
192
 0
VERTEX
 8
GRIFF_3
 10
6.329
 20
-1.9855
 30
7.7896
 70
192
 0
VERTEX
 8
GRIFF_3
 10
7.9903
 20
-1.9855
 30
7.7896
 70
192
 0
VERTEX
 8
GRIFF_3
 10
7.9976
 20
-1.9851
 30
7.7896
 70
192
 0
VERTEX
 8
GRIFF_3
 10
8.0047
 20
-1.9836
 30
7.7896
 70
192
 0
VERTEX
 8
GRIFF_3
 10
8.0116
 20
-1.9813
 30
7.7896
 70
192
 0
VERTEX
 8
GRIFF_3
 10
8.0181
 20
-1.9781
 30
7.7896
 70
192
 0
VERTEX
 8
GRIFF_3
 10
8.0242
 20
-1.9741
 30
7.7896
 70
192
 0
VERTEX
 8
GRIFF_3
 10
8.0296
 20
-1.9693
 30
7.7896
 70
192
 0
VERTEX
 8
GRIFF_3
 10
8.0344
 20
-1.9638
 30
7.7896
 70
192
 0
VERTEX
 8
GRIFF_3
 10
8.0384
 20
-1.9578
 30
7.7896
 70
192
 0
VERTEX
 8
GRIFF_3
 10
8.0417
 20
-1.9513
 30
7.7896
 70
192
 0
VERTEX
 8
GRIFF_3
 10
8.044
 20
-1.9444
 30
7.7896
 70
192
 0
VERTEX
 8
GRIFF_3
 10
8.0454
 20
-1.9372
 30
7.7896
 70
192
 0
VERTEX
 8
GRIFF_3
 10
8.0459
 20
-1.93
 30
7.7896
 70
192
 0
VERTEX
 8
GRIFF_3
 10
8.0459
 20
1.93
 30
7.7896
 70
192
 0
VERTEX
 8
GRIFF_3
 10
8.0454
 20
1.9372
 30
7.7896
 70
192
 0
VERTEX
 8
GRIFF_3
 10
8.044
 20
1.9444
 30
7.7896
 70
192
 0
VERTEX
 8
GRIFF_3
 10
8.0417
 20
1.9513
 30
7.7896
 70
192
 0
VERTEX
 8
GRIFF_3
 10
8.0384
 20
1.9578
 30
7.7896
 70
192
 0
VERTEX
 8
GRIFF_3
 10
8.0344
 20
1.9638
 30
7.7896
 70
192
 0
VERTEX
 8
GRIFF_3
 10
8.0296
 20
1.9693
 30
7.7896
 70
192
 0
VERTEX
 8
GRIFF_3
 10
8.0242
 20
1.9741
 30
7.7896
 70
192
 0
VERTEX
 8
GRIFF_3
 10
8.0181
 20
1.9781
 30
7.7896
 70
192
 0
VERTEX
 8
GRIFF_3
 10
8.0116
 20
1.9813
 30
7.7896
 70
192
 0
VERTEX
 8
GRIFF_3
 10
8.0047
 20
1.9836
 30
7.7896
 70
192
 0
VERTEX
 8
GRIFF_3
 10
7.9976
 20
1.9851
 30
7.7896
 70
192
 0
VERTEX
 8
GRIFF_3
 10
7.9903
 20
1.9855
 30
7.7896
 70
192
 0
VERTEX
 8
GRIFF_3
 10
6.329
 20
1.9855
 30
7.7896
 70
192
 0
VERTEX
 8
GRIFF_3
 10
6.3218
 20
1.9851
 30
7.7896
 70
192
 0
VERTEX
 8
GRIFF_3
 10
6.3147
 20
1.9836
 30
7.7896
 70
192
 0
VERTEX
 8
GRIFF_3
 10
6.3078
 20
1.9813
 30
7.7896
 70
192
 0
VERTEX
 8
GRIFF_3
 10
6.3013
 20
1.9781
 30
7.7896
 70
192
 0
VERTEX
 8
GRIFF_3
 10
6.2952
 20
1.9741
 30
7.7896
 70
192
 0
VERTEX
 8
GRIFF_3
 10
6.2898
 20
1.9693
 30
7.7896
 70
192
 0
VERTEX
 8
GRIFF_3
 10
6.285
 20
1.9638
 30
7.7896
 70
192
 0
VERTEX
 8
GRIFF_3
 10
6.281
 20
1.9578
 30
7.7896
 70
192
 0
VERTEX
 8
GRIFF_3
 10
6.2777
 20
1.9513
 30
7.7896
 70
192
 0
VERTEX
 8
GRIFF_3
 10
6.2754
 20
1.9444
 30
7.7896
 70
192
 0
VERTEX
 8
GRIFF_3
 10
6.274
 20
1.9372
 30
7.7896
 70
192
 0
VERTEX
 8
GRIFF_3
 10
6.2684
 20
1.93
 30
7.7972
 70
192
 0
VERTEX
 8
GRIFF_3
 10
6.2684
 20
-1.93
 30
7.7972
 70
192
 0
VERTEX
 8
GRIFF_3
 10
6.2689
 20
-1.9379
 30
7.7972
 70
192
 0
VERTEX
 8
GRIFF_3
 10
6.2705
 20
-1.9457
 30
7.7972
 70
192
 0
VERTEX
 8
GRIFF_3
 10
6.273
 20
-1.9532
 30
7.7972
 70
192
 0
VERTEX
 8
GRIFF_3
 10
6.2765
 20
-1.9603
 30
7.7972
 70
192
 0
VERTEX
 8
GRIFF_3
 10
6.281
 20
-1.9669
 30
7.7972
 70
192
 0
VERTEX
 8
GRIFF_3
 10
6.2862
 20
-1.9729
 30
7.7972
 70
192
 0
VERTEX
 8
GRIFF_3
 10
6.2921
 20
-1.9781
 30
7.7972
 70
192
 0
VERTEX
 8
GRIFF_3
 10
6.2987
 20
-1.9825
 30
7.7972
 70
192
 0
VERTEX
 8
GRIFF_3
 10
6.3058
 20
-1.986
 30
7.7972
 70
192
 0
VERTEX
 8
GRIFF_3
 10
6.3134
 20
-1.9886
 30
7.7972
 70
192
 0
VERTEX
 8
GRIFF_3
 10
6.3211
 20
-1.9901
 30
7.7972
 70
192
 0
VERTEX
 8
GRIFF_3
 10
6.329
 20
-1.9906
 30
7.7972
 70
192
 0
VERTEX
 8
GRIFF_3
 10
7.9903
 20
-1.9906
 30
7.7972
 70
192
 0
VERTEX
 8
GRIFF_3
 10
7.9983
 20
-1.9901
 30
7.7972
 70
192
 0
VERTEX
 8
GRIFF_3
 10
8.006
 20
-1.9886
 30
7.7972
 70
192
 0
VERTEX
 8
GRIFF_3
 10
8.0135
 20
-1.986
 30
7.7972
 70
192
 0
VERTEX
 8
GRIFF_3
 10
8.0207
 20
-1.9825
 30
7.7972
 70
192
 0
VERTEX
 8
GRIFF_3
 10
8.0272
 20
-1.9781
 30
7.7972
 70
192
 0
VERTEX
 8
GRIFF_3
 10
8.0332
 20
-1.9729
 30
7.7972
 70
192
 0
VERTEX
 8
GRIFF_3
 10
8.0384
 20
-1.9669
 30
7.7972
 70
192
 0
VERTEX
 8
GRIFF_3
 10
8.0428
 20
-1.9603
 30
7.7972
 70
192
 0
VERTEX
 8
GRIFF_3
 10
8.0464
 20
-1.9532
 30
7.7972
 70
192
 0
VERTEX
 8
GRIFF_3
 10
8.0489
 20
-1.9457
 30
7.7972
 70
192
 0
VERTEX
 8
GRIFF_3
 10
8.0504
 20
-1.9379
 30
7.7972
 70
192
 0
VERTEX
 8
GRIFF_3
 10
8.051
 20
-1.93
 30
7.7972
 70
192
 0
VERTEX
 8
GRIFF_3
 10
8.051
 20
1.93
 30
7.7972
 70
192
 0
VERTEX
 8
GRIFF_3
 10
8.0504
 20
1.9379
 30
7.7972
 70
192
 0
VERTEX
 8
GRIFF_3
 10
8.0489
 20
1.9457
 30
7.7972
 70
192
 0
VERTEX
 8
GRIFF_3
 10
8.0464
 20
1.9532
 30
7.7972
 70
192
 0
VERTEX
 8
GRIFF_3
 10
8.0428
 20
1.9603
 30
7.7972
 70
192
 0
VERTEX
 8
GRIFF_3
 10
8.0384
 20
1.9669
 30
7.7972
 70
192
 0
VERTEX
 8
GRIFF_3
 10
8.0332
 20
1.9729
 30
7.7972
 70
192
 0
VERTEX
 8
GRIFF_3
 10
8.0272
 20
1.9781
 30
7.7972
 70
192
 0
VERTEX
 8
GRIFF_3
 10
8.0207
 20
1.9825
 30
7.7972
 70
192
 0
VERTEX
 8
GRIFF_3
 10
8.0135
 20
1.986
 30
7.7972
 70
192
 0
VERTEX
 8
GRIFF_3
 10
8.006
 20
1.9886
 30
7.7972
 70
192
 0
VERTEX
 8
GRIFF_3
 10
7.9983
 20
1.9901
 30
7.7972
 70
192
 0
VERTEX
 8
GRIFF_3
 10
7.9903
 20
1.9906
 30
7.7972
 70
192
 0
VERTEX
 8
GRIFF_3
 10
6.329
 20
1.9906
 30
7.7972
 70
192
 0
VERTEX
 8
GRIFF_3
 10
6.3211
 20
1.9901
 30
7.7972
 70
192
 0
VERTEX
 8
GRIFF_3
 10
6.3134
 20
1.9886
 30
7.7972
 70
192
 0
VERTEX
 8
GRIFF_3
 10
6.3058
 20
1.986
 30
7.7972
 70
192
 0
VERTEX
 8
GRIFF_3
 10
6.2987
 20
1.9825
 30
7.7972
 70
192
 0
VERTEX
 8
GRIFF_3
 10
6.2921
 20
1.9781
 30
7.7972
 70
192
 0
VERTEX
 8
GRIFF_3
 10
6.2862
 20
1.9729
 30
7.7972
 70
192
 0
VERTEX
 8
GRIFF_3
 10
6.281
 20
1.9669
 30
7.7972
 70
192
 0
VERTEX
 8
GRIFF_3
 10
6.2765
 20
1.9603
 30
7.7972
 70
192
 0
VERTEX
 8
GRIFF_3
 10
6.273
 20
1.9532
 30
7.7972
 70
192
 0
VERTEX
 8
GRIFF_3
 10
6.2705
 20
1.9457
 30
7.7972
 70
192
 0
VERTEX
 8
GRIFF_3
 10
6.2689
 20
1.9379
 30
7.7972
 70
192
 0
VERTEX
 8
GRIFF_3
 10
6.2644
 20
1.93
 30
7.8054
 70
192
 0
VERTEX
 8
GRIFF_3
 10
6.2644
 20
-1.93
 30
7.8054
 70
192
 0
VERTEX
 8
GRIFF_3
 10
6.2649
 20
-1.9384
 30
7.8054
 70
192
 0
VERTEX
 8
GRIFF_3
 10
6.2666
 20
-1.9467
 30
7.8054
 70
192
 0
VERTEX
 8
GRIFF_3
 10
6.2693
 20
-1.9547
 30
7.8054
 70
192
 0
VERTEX
 8
GRIFF_3
 10
6.273
 20
-1.9623
 30
7.8054
 70
192
 0
VERTEX
 8
GRIFF_3
 10
6.2777
 20
-1.9694
 30
7.8054
 70
192
 0
VERTEX
 8
GRIFF_3
 10
6.2833
 20
-1.9757
 30
7.8054
 70
192
 0
VERTEX
 8
GRIFF_3
 10
6.2897
 20
-1.9813
 30
7.8054
 70
192
 0
VERTEX
 8
GRIFF_3
 10
6.2967
 20
-1.986
 30
7.8054
 70
192
 0
VERTEX
 8
GRIFF_3
 10
6.3043
 20
-1.9897
 30
7.8054
 70
192
 0
VERTEX
 8
GRIFF_3
 10
6.3123
 20
-1.9925
 30
7.8054
 70
192
 0
VERTEX
 8
GRIFF_3
 10
6.3206
 20
-1.9941
 30
7.8054
 70
192
 0
VERTEX
 8
GRIFF_3
 10
6.329
 20
-1.9947
 30
7.8054
 70
192
 0
VERTEX
 8
GRIFF_3
 10
7.9903
 20
-1.9947
 30
7.8054
 70
192
 0
VERTEX
 8
GRIFF_3
 10
7.9988
 20
-1.9941
 30
7.8054
 70
192
 0
VERTEX
 8
GRIFF_3
 10
8.0071
 20
-1.9925
 30
7.8054
 70
192
 0
VERTEX
 8
GRIFF_3
 10
8.0151
 20
-1.9897
 30
7.8054
 70
192
 0
VERTEX
 8
GRIFF_3
 10
8.0227
 20
-1.986
 30
7.8054
 70
192
 0
VERTEX
 8
GRIFF_3
 10
8.0297
 20
-1.9813
 30
7.8054
 70
192
 0
VERTEX
 8
GRIFF_3
 10
8.0361
 20
-1.9757
 30
7.8054
 70
192
 0
VERTEX
 8
GRIFF_3
 10
8.0417
 20
-1.9694
 30
7.8054
 70
192
 0
VERTEX
 8
GRIFF_3
 10
8.0464
 20
-1.9623
 30
7.8054
 70
192
 0
VERTEX
 8
GRIFF_3
 10
8.0501
 20
-1.9547
 30
7.8054
 70
192
 0
VERTEX
 8
GRIFF_3
 10
8.0528
 20
-1.9467
 30
7.8054
 70
192
 0
VERTEX
 8
GRIFF_3
 10
8.0545
 20
-1.9384
 30
7.8054
 70
192
 0
VERTEX
 8
GRIFF_3
 10
8.055
 20
-1.93
 30
7.8054
 70
192
 0
VERTEX
 8
GRIFF_3
 10
8.055
 20
1.93
 30
7.8054
 70
192
 0
VERTEX
 8
GRIFF_3
 10
8.0545
 20
1.9384
 30
7.8054
 70
192
 0
VERTEX
 8
GRIFF_3
 10
8.0528
 20
1.9467
 30
7.8054
 70
192
 0
VERTEX
 8
GRIFF_3
 10
8.0501
 20
1.9547
 30
7.8054
 70
192
 0
VERTEX
 8
GRIFF_3
 10
8.0464
 20
1.9623
 30
7.8054
 70
192
 0
VERTEX
 8
GRIFF_3
 10
8.0417
 20
1.9694
 30
7.8054
 70
192
 0
VERTEX
 8
GRIFF_3
 10
8.0361
 20
1.9757
 30
7.8054
 70
192
 0
VERTEX
 8
GRIFF_3
 10
8.0297
 20
1.9813
 30
7.8054
 70
192
 0
VERTEX
 8
GRIFF_3
 10
8.0227
 20
1.986
 30
7.8054
 70
192
 0
VERTEX
 8
GRIFF_3
 10
8.0151
 20
1.9897
 30
7.8054
 70
192
 0
VERTEX
 8
GRIFF_3
 10
8.0071
 20
1.9925
 30
7.8054
 70
192
 0
VERTEX
 8
GRIFF_3
 10
7.9988
 20
1.9941
 30
7.8054
 70
192
 0
VERTEX
 8
GRIFF_3
 10
7.9903
 20
1.9947
 30
7.8054
 70
192
 0
VERTEX
 8
GRIFF_3
 10
6.329
 20
1.9947
 30
7.8054
 70
192
 0
VERTEX
 8
GRIFF_3
 10
6.3206
 20
1.9941
 30
7.8054
 70
192
 0
VERTEX
 8
GRIFF_3
 10
6.3123
 20
1.9925
 30
7.8054
 70
192
 0
VERTEX
 8
GRIFF_3
 10
6.3043
 20
1.9897
 30
7.8054
 70
192
 0
VERTEX
 8
GRIFF_3
 10
6.2967
 20
1.986
 30
7.8054
 70
192
 0
VERTEX
 8
GRIFF_3
 10
6.2897
 20
1.9813
 30
7.8054
 70
192
 0
VERTEX
 8
GRIFF_3
 10
6.2833
 20
1.9757
 30
7.8054
 70
192
 0
VERTEX
 8
GRIFF_3
 10
6.2777
 20
1.9694
 30
7.8054
 70
192
 0
VERTEX
 8
GRIFF_3
 10
6.273
 20
1.9623
 30
7.8054
 70
192
 0
VERTEX
 8
GRIFF_3
 10
6.2693
 20
1.9547
 30
7.8054
 70
192
 0
VERTEX
 8
GRIFF_3
 10
6.2666
 20
1.9467
 30
7.8054
 70
192
 0
VERTEX
 8
GRIFF_3
 10
6.2649
 20
1.9384
 30
7.8054
 70
192
 0
VERTEX
 8
GRIFF_3
 10
6.2614
 20
1.93
 30
7.8141
 70
192
 0
VERTEX
 8
GRIFF_3
 10
6.2614
 20
-1.93
 30
7.8141
 70
192
 0
VERTEX
 8
GRIFF_3
 10
6.262
 20
-1.9388
 30
7.8141
 70
192
 0
VERTEX
 8
GRIFF_3
 10
6.2637
 20
-1.9475
 30
7.8141
 70
192
 0
VERTEX
 8
GRIFF_3
 10
6.2666
 20
-1.9559
 30
7.8141
 70
192
 0
VERTEX
 8
GRIFF_3
 10
6.2705
 20
-1.9638
 30
7.8141
 70
192
 0
VERTEX
 8
GRIFF_3
 10
6.2754
 20
-1.9712
 30
7.8141
 70
192
 0
VERTEX
 8
GRIFF_3
 10
6.2812
 20
-1.9778
 30
7.8141
 70
192
 0
VERTEX
 8
GRIFF_3
 10
6.2879
 20
-1.9836
 30
7.8141
 70
192
 0
VERTEX
 8
GRIFF_3
 10
6.2952
 20
-1.9886
 30
7.8141
 70
192
 0
VERTEX
 8
GRIFF_3
 10
6.3032
 20
-1.9925
 30
7.8141
 70
192
 0
VERTEX
 8
GRIFF_3
 10
6.3115
 20
-1.9953
 30
7.8141
 70
192
 0
VERTEX
 8
GRIFF_3
 10
6.3202
 20
-1.997
 30
7.8141
 70
192
 0
VERTEX
 8
GRIFF_3
 10
6.329
 20
-1.9976
 30
7.8141
 70
192
 0
VERTEX
 8
GRIFF_3
 10
7.9903
 20
-1.9976
 30
7.8141
 70
192
 0
VERTEX
 8
GRIFF_3
 10
7.9992
 20
-1.997
 30
7.8141
 70
192
 0
VERTEX
 8
GRIFF_3
 10
8.0078
 20
-1.9953
 30
7.8141
 70
192
 0
VERTEX
 8
GRIFF_3
 10
8.0162
 20
-1.9925
 30
7.8141
 70
192
 0
VERTEX
 8
GRIFF_3
 10
8.0242
 20
-1.9886
 30
7.8141
 70
192
 0
VERTEX
 8
GRIFF_3
 10
8.0315
 20
-1.9836
 30
7.8141
 70
192
 0
VERTEX
 8
GRIFF_3
 10
8.0382
 20
-1.9778
 30
7.8141
 70
192
 0
VERTEX
 8
GRIFF_3
 10
8.044
 20
-1.9712
 30
7.8141
 70
192
 0
VERTEX
 8
GRIFF_3
 10
8.0489
 20
-1.9638
 30
7.8141
 70
192
 0
VERTEX
 8
GRIFF_3
 10
8.0528
 20
-1.9559
 30
7.8141
 70
192
 0
VERTEX
 8
GRIFF_3
 10
8.0557
 20
-1.9475
 30
7.8141
 70
192
 0
VERTEX
 8
GRIFF_3
 10
8.0574
 20
-1.9388
 30
7.8141
 70
192
 0
VERTEX
 8
GRIFF_3
 10
8.058
 20
-1.93
 30
7.8141
 70
192
 0
VERTEX
 8
GRIFF_3
 10
8.058
 20
1.93
 30
7.8141
 70
192
 0
VERTEX
 8
GRIFF_3
 10
8.0574
 20
1.9388
 30
7.8141
 70
192
 0
VERTEX
 8
GRIFF_3
 10
8.0557
 20
1.9475
 30
7.8141
 70
192
 0
VERTEX
 8
GRIFF_3
 10
8.0528
 20
1.9559
 30
7.8141
 70
192
 0
VERTEX
 8
GRIFF_3
 10
8.0489
 20
1.9638
 30
7.8141
 70
192
 0
VERTEX
 8
GRIFF_3
 10
8.044
 20
1.9712
 30
7.8141
 70
192
 0
VERTEX
 8
GRIFF_3
 10
8.0382
 20
1.9778
 30
7.8141
 70
192
 0
VERTEX
 8
GRIFF_3
 10
8.0315
 20
1.9836
 30
7.8141
 70
192
 0
VERTEX
 8
GRIFF_3
 10
8.0242
 20
1.9886
 30
7.8141
 70
192
 0
VERTEX
 8
GRIFF_3
 10
8.0162
 20
1.9925
 30
7.8141
 70
192
 0
VERTEX
 8
GRIFF_3
 10
8.0078
 20
1.9953
 30
7.8141
 70
192
 0
VERTEX
 8
GRIFF_3
 10
7.9992
 20
1.997
 30
7.8141
 70
192
 0
VERTEX
 8
GRIFF_3
 10
7.9903
 20
1.9976
 30
7.8141
 70
192
 0
VERTEX
 8
GRIFF_3
 10
6.329
 20
1.9976
 30
7.8141
 70
192
 0
VERTEX
 8
GRIFF_3
 10
6.3202
 20
1.997
 30
7.8141
 70
192
 0
VERTEX
 8
GRIFF_3
 10
6.3115
 20
1.9953
 30
7.8141
 70
192
 0
VERTEX
 8
GRIFF_3
 10
6.3032
 20
1.9925
 30
7.8141
 70
192
 0
VERTEX
 8
GRIFF_3
 10
6.2952
 20
1.9886
 30
7.8141
 70
192
 0
VERTEX
 8
GRIFF_3
 10
6.2879
 20
1.9836
 30
7.8141
 70
192
 0
VERTEX
 8
GRIFF_3
 10
6.2812
 20
1.9778
 30
7.8141
 70
192
 0
VERTEX
 8
GRIFF_3
 10
6.2754
 20
1.9712
 30
7.8141
 70
192
 0
VERTEX
 8
GRIFF_3
 10
6.2705
 20
1.9638
 30
7.8141
 70
192
 0
VERTEX
 8
GRIFF_3
 10
6.2666
 20
1.9559
 30
7.8141
 70
192
 0
VERTEX
 8
GRIFF_3
 10
6.2637
 20
1.9475
 30
7.8141
 70
192
 0
VERTEX
 8
GRIFF_3
 10
6.262
 20
1.9388
 30
7.8141
 70
192
 0
VERTEX
 8
GRIFF_3
 10
6.2596
 20
1.93
 30
7.8231
 70
192
 0
VERTEX
 8
GRIFF_3
 10
6.2596
 20
-1.93
 30
7.8231
 70
192
 0
VERTEX
 8
GRIFF_3
 10
6.2602
 20
-1.9391
 30
7.8231
 70
192
 0
VERTEX
 8
GRIFF_3
 10
6.262
 20
-1.948
 30
7.8231
 70
192
 0
VERTEX
 8
GRIFF_3
 10
6.2649
 20
-1.9566
 30
7.8231
 70
192
 0
VERTEX
 8
GRIFF_3
 10
6.2689
 20
-1.9647
 30
7.8231
 70
192
 0
VERTEX
 8
GRIFF_3
 10
6.274
 20
-1.9722
 30
7.8231
 70
192
 0
VERTEX
 8
GRIFF_3
 10
6.28
 20
-1.9791
 30
7.8231
 70
192
 0
VERTEX
 8
GRIFF_3
 10
6.2868
 20
-1.9851
 30
7.8231
 70
192
 0
VERTEX
 8
GRIFF_3
 10
6.2943
 20
-1.9901
 30
7.8231
 70
192
 0
VERTEX
 8
GRIFF_3
 10
6.3025
 20
-1.9941
 30
7.8231
 70
192
 0
VERTEX
 8
GRIFF_3
 10
6.3111
 20
-1.997
 30
7.8231
 70
192
 0
VERTEX
 8
GRIFF_3
 10
6.32
 20
-1.9988
 30
7.8231
 70
192
 0
VERTEX
 8
GRIFF_3
 10
6.329
 20
-1.9994
 30
7.8231
 70
192
 0
VERTEX
 8
GRIFF_3
 10
7.9903
 20
-1.9994
 30
7.8231
 70
192
 0
VERTEX
 8
GRIFF_3
 10
7.9994
 20
-1.9988
 30
7.8231
 70
192
 0
VERTEX
 8
GRIFF_3
 10
8.0083
 20
-1.997
 30
7.8231
 70
192
 0
VERTEX
 8
GRIFF_3
 10
8.0169
 20
-1.9941
 30
7.8231
 70
192
 0
VERTEX
 8
GRIFF_3
 10
8.025
 20
-1.9901
 30
7.8231
 70
192
 0
VERTEX
 8
GRIFF_3
 10
8.0326
 20
-1.9851
 30
7.8231
 70
192
 0
VERTEX
 8
GRIFF_3
 10
8.0394
 20
-1.9791
 30
7.8231
 70
192
 0
VERTEX
 8
GRIFF_3
 10
8.0454
 20
-1.9722
 30
7.8231
 70
192
 0
VERTEX
 8
GRIFF_3
 10
8.0504
 20
-1.9647
 30
7.8231
 70
192
 0
VERTEX
 8
GRIFF_3
 10
8.0545
 20
-1.9566
 30
7.8231
 70
192
 0
VERTEX
 8
GRIFF_3
 10
8.0574
 20
-1.948
 30
7.8231
 70
192
 0
VERTEX
 8
GRIFF_3
 10
8.0592
 20
-1.9391
 30
7.8231
 70
192
 0
VERTEX
 8
GRIFF_3
 10
8.0597
 20
-1.93
 30
7.8231
 70
192
 0
VERTEX
 8
GRIFF_3
 10
8.0597
 20
1.93
 30
7.8231
 70
192
 0
VERTEX
 8
GRIFF_3
 10
8.0592
 20
1.9391
 30
7.8231
 70
192
 0
VERTEX
 8
GRIFF_3
 10
8.0574
 20
1.948
 30
7.8231
 70
192
 0
VERTEX
 8
GRIFF_3
 10
8.0545
 20
1.9566
 30
7.8231
 70
192
 0
VERTEX
 8
GRIFF_3
 10
8.0504
 20
1.9647
 30
7.8231
 70
192
 0
VERTEX
 8
GRIFF_3
 10
8.0454
 20
1.9722
 30
7.8231
 70
192
 0
VERTEX
 8
GRIFF_3
 10
8.0394
 20
1.9791
 30
7.8231
 70
192
 0
VERTEX
 8
GRIFF_3
 10
8.0326
 20
1.9851
 30
7.8231
 70
192
 0
VERTEX
 8
GRIFF_3
 10
8.025
 20
1.9901
 30
7.8231
 70
192
 0
VERTEX
 8
GRIFF_3
 10
8.0169
 20
1.9941
 30
7.8231
 70
192
 0
VERTEX
 8
GRIFF_3
 10
8.0083
 20
1.997
 30
7.8231
 70
192
 0
VERTEX
 8
GRIFF_3
 10
7.9994
 20
1.9988
 30
7.8231
 70
192
 0
VERTEX
 8
GRIFF_3
 10
7.9903
 20
1.9994
 30
7.8231
 70
192
 0
VERTEX
 8
GRIFF_3
 10
6.329
 20
1.9994
 30
7.8231
 70
192
 0
VERTEX
 8
GRIFF_3
 10
6.32
 20
1.9988
 30
7.8231
 70
192
 0
VERTEX
 8
GRIFF_3
 10
6.3111
 20
1.997
 30
7.8231
 70
192
 0
VERTEX
 8
GRIFF_3
 10
6.3025
 20
1.9941
 30
7.8231
 70
192
 0
VERTEX
 8
GRIFF_3
 10
6.2943
 20
1.9901
 30
7.8231
 70
192
 0
VERTEX
 8
GRIFF_3
 10
6.2868
 20
1.9851
 30
7.8231
 70
192
 0
VERTEX
 8
GRIFF_3
 10
6.28
 20
1.9791
 30
7.8231
 70
192
 0
VERTEX
 8
GRIFF_3
 10
6.274
 20
1.9722
 30
7.8231
 70
192
 0
VERTEX
 8
GRIFF_3
 10
6.2689
 20
1.9647
 30
7.8231
 70
192
 0
VERTEX
 8
GRIFF_3
 10
6.2649
 20
1.9566
 30
7.8231
 70
192
 0
VERTEX
 8
GRIFF_3
 10
6.262
 20
1.948
 30
7.8231
 70
192
 0
VERTEX
 8
GRIFF_3
 10
6.2602
 20
1.9391
 30
7.8231
 70
192
 0
VERTEX
 8
GRIFF_3
 10
6.259
 20
1.93
 30
7.8322
 70
192
 0
VERTEX
 8
GRIFF_3
 10
6.259
 20
-1.93
 30
7.8322
 70
192
 0
VERTEX
 8
GRIFF_3
 10
6.2596
 20
-1.9391
 30
7.8322
 70
192
 0
VERTEX
 8
GRIFF_3
 10
6.2614
 20
-1.9481
 30
7.8322
 70
192
 0
VERTEX
 8
GRIFF_3
 10
6.2644
 20
-1.9568
 30
7.8322
 70
192
 0
VERTEX
 8
GRIFF_3
 10
6.2684
 20
-1.965
 30
7.8322
 70
192
 0
VERTEX
 8
GRIFF_3
 10
6.2735
 20
-1.9726
 30
7.8322
 70
192
 0
VERTEX
 8
GRIFF_3
 10
6.2796
 20
-1.9795
 30
7.8322
 70
192
 0
VERTEX
 8
GRIFF_3
 10
6.2864
 20
-1.9855
 30
7.8322
 70
192
 0
VERTEX
 8
GRIFF_3
 10
6.294
 20
-1.9906
 30
7.8322
 70
192
 0
VERTEX
 8
GRIFF_3
 10
6.3023
 20
-1.9947
 30
7.8322
 70
192
 0
VERTEX
 8
GRIFF_3
 10
6.3109
 20
-1.9976
 30
7.8322
 70
192
 0
VERTEX
 8
GRIFF_3
 10
6.3199
 20
-1.9994
 30
7.8322
 70
192
 0
VERTEX
 8
GRIFF_3
 10
6.329
 20
-2
 30
7.8322
 70
192
 0
VERTEX
 8
GRIFF_3
 10
7.9903
 20
-2
 30
7.8322
 70
192
 0
VERTEX
 8
GRIFF_3
 10
7.9995
 20
-1.9994
 30
7.8322
 70
192
 0
VERTEX
 8
GRIFF_3
 10
8.0085
 20
-1.9976
 30
7.8322
 70
192
 0
VERTEX
 8
GRIFF_3
 10
8.0171
 20
-1.9947
 30
7.8322
 70
192
 0
VERTEX
 8
GRIFF_3
 10
8.0253
 20
-1.9906
 30
7.8322
 70
192
 0
VERTEX
 8
GRIFF_3
 10
8.033
 20
-1.9855
 30
7.8322
 70
192
 0
VERTEX
 8
GRIFF_3
 10
8.0398
 20
-1.9795
 30
7.8322
 70
192
 0
VERTEX
 8
GRIFF_3
 10
8.0459
 20
-1.9726
 30
7.8322
 70
192
 0
VERTEX
 8
GRIFF_3
 10
8.051
 20
-1.965
 30
7.8322
 70
192
 0
VERTEX
 8
GRIFF_3
 10
8.055
 20
-1.9568
 30
7.8322
 70
192
 0
VERTEX
 8
GRIFF_3
 10
8.058
 20
-1.9481
 30
7.8322
 70
192
 0
VERTEX
 8
GRIFF_3
 10
8.0597
 20
-1.9391
 30
7.8322
 70
192
 0
VERTEX
 8
GRIFF_3
 10
8.0603
 20
-1.93
 30
7.8322
 70
192
 0
VERTEX
 8
GRIFF_3
 10
8.0603
 20
1.93
 30
7.8322
 70
192
 0
VERTEX
 8
GRIFF_3
 10
8.0597
 20
1.9391
 30
7.8322
 70
192
 0
VERTEX
 8
GRIFF_3
 10
8.058
 20
1.9481
 30
7.8322
 70
192
 0
VERTEX
 8
GRIFF_3
 10
8.055
 20
1.9568
 30
7.8322
 70
192
 0
VERTEX
 8
GRIFF_3
 10
8.051
 20
1.965
 30
7.8322
 70
192
 0
VERTEX
 8
GRIFF_3
 10
8.0459
 20
1.9726
 30
7.8322
 70
192
 0
VERTEX
 8
GRIFF_3
 10
8.0398
 20
1.9795
 30
7.8322
 70
192
 0
VERTEX
 8
GRIFF_3
 10
8.033
 20
1.9855
 30
7.8322
 70
192
 0
VERTEX
 8
GRIFF_3
 10
8.0253
 20
1.9906
 30
7.8322
 70
192
 0
VERTEX
 8
GRIFF_3
 10
8.0171
 20
1.9947
 30
7.8322
 70
192
 0
VERTEX
 8
GRIFF_3
 10
8.0085
 20
1.9976
 30
7.8322
 70
192
 0
VERTEX
 8
GRIFF_3
 10
7.9995
 20
1.9994
 30
7.8322
 70
192
 0
VERTEX
 8
GRIFF_3
 10
7.9903
 20
2
 30
7.8322
 70
192
 0
VERTEX
 8
GRIFF_3
 10
6.329
 20
2
 30
7.8322
 70
192
 0
VERTEX
 8
GRIFF_3
 10
6.3199
 20
1.9994
 30
7.8322
 70
192
 0
VERTEX
 8
GRIFF_3
 10
6.3109
 20
1.9976
 30
7.8322
 70
192
 0
VERTEX
 8
GRIFF_3
 10
6.3023
 20
1.9947
 30
7.8322
 70
192
 0
VERTEX
 8
GRIFF_3
 10
6.294
 20
1.9906
 30
7.8322
 70
192
 0
VERTEX
 8
GRIFF_3
 10
6.2864
 20
1.9855
 30
7.8322
 70
192
 0
VERTEX
 8
GRIFF_3
 10
6.2796
 20
1.9795
 30
7.8322
 70
192
 0
VERTEX
 8
GRIFF_3
 10
6.2735
 20
1.9726
 30
7.8322
 70
192
 0
VERTEX
 8
GRIFF_3
 10
6.2684
 20
1.965
 30
7.8322
 70
192
 0
VERTEX
 8
GRIFF_3
 10
6.2644
 20
1.9568
 30
7.8322
 70
192
 0
VERTEX
 8
GRIFF_3
 10
6.2614
 20
1.9481
 30
7.8322
 70
192
 0
VERTEX
 8
GRIFF_3
 10
6.2596
 20
1.9391
 30
7.8322
 70
192
 0
VERTEX
 8
GRIFF_3
 10
5.2603
 20
1.93
 30
9.7622
 70
192
 0
VERTEX
 8
GRIFF_3
 10
5.2603
 20
-1.93
 30
9.7622
 70
192
 0
VERTEX
 8
GRIFF_3
 10
5.2609
 20
-1.9391
 30
9.7622
 70
192
 0
VERTEX
 8
GRIFF_3
 10
5.2627
 20
-1.9481
 30
9.7622
 70
192
 0
VERTEX
 8
GRIFF_3
 10
5.2657
 20
-1.9568
 30
9.7622
 70
192
 0
VERTEX
 8
GRIFF_3
 10
5.2697
 20
-1.965
 30
9.7622
 70
192
 0
VERTEX
 8
GRIFF_3
 10
5.2748
 20
-1.9726
 30
9.7622
 70
192
 0
VERTEX
 8
GRIFF_3
 10
5.2808
 20
-1.9795
 30
9.7622
 70
192
 0
VERTEX
 8
GRIFF_3
 10
5.2877
 20
-1.9855
 30
9.7622
 70
192
 0
VERTEX
 8
GRIFF_3
 10
5.2953
 20
-1.9906
 30
9.7622
 70
192
 0
VERTEX
 8
GRIFF_3
 10
5.3036
 20
-1.9947
 30
9.7622
 70
192
 0
VERTEX
 8
GRIFF_3
 10
5.3122
 20
-1.9976
 30
9.7622
 70
192
 0
VERTEX
 8
GRIFF_3
 10
5.3212
 20
-1.9994
 30
9.7622
 70
192
 0
VERTEX
 8
GRIFF_3
 10
5.3303
 20
-2
 30
9.7622
 70
192
 0
VERTEX
 8
GRIFF_3
 10
7.9903
 20
-2
 30
9.7622
 70
192
 0
VERTEX
 8
GRIFF_3
 10
7.9995
 20
-1.9994
 30
9.7622
 70
192
 0
VERTEX
 8
GRIFF_3
 10
8.0085
 20
-1.9976
 30
9.7622
 70
192
 0
VERTEX
 8
GRIFF_3
 10
8.0171
 20
-1.9947
 30
9.7622
 70
192
 0
VERTEX
 8
GRIFF_3
 10
8.0253
 20
-1.9906
 30
9.7622
 70
192
 0
VERTEX
 8
GRIFF_3
 10
8.033
 20
-1.9855
 30
9.7622
 70
192
 0
VERTEX
 8
GRIFF_3
 10
8.0398
 20
-1.9795
 30
9.7622
 70
192
 0
VERTEX
 8
GRIFF_3
 10
8.0459
 20
-1.9726
 30
9.7622
 70
192
 0
VERTEX
 8
GRIFF_3
 10
8.051
 20
-1.965
 30
9.7622
 70
192
 0
VERTEX
 8
GRIFF_3
 10
8.055
 20
-1.9568
 30
9.7622
 70
192
 0
VERTEX
 8
GRIFF_3
 10
8.058
 20
-1.9481
 30
9.7622
 70
192
 0
VERTEX
 8
GRIFF_3
 10
8.0597
 20
-1.9391
 30
9.7622
 70
192
 0
VERTEX
 8
GRIFF_3
 10
8.0603
 20
-1.93
 30
9.7622
 70
192
 0
VERTEX
 8
GRIFF_3
 10
8.0603
 20
1.93
 30
9.7622
 70
192
 0
VERTEX
 8
GRIFF_3
 10
8.0597
 20
1.9391
 30
9.7622
 70
192
 0
VERTEX
 8
GRIFF_3
 10
8.058
 20
1.9481
 30
9.7622
 70
192
 0
VERTEX
 8
GRIFF_3
 10
8.055
 20
1.9568
 30
9.7622
 70
192
 0
VERTEX
 8
GRIFF_3
 10
8.051
 20
1.965
 30
9.7622
 70
192
 0
VERTEX
 8
GRIFF_3
 10
8.0459
 20
1.9726
 30
9.7622
 70
192
 0
VERTEX
 8
GRIFF_3
 10
8.0398
 20
1.9795
 30
9.7622
 70
192
 0
VERTEX
 8
GRIFF_3
 10
8.033
 20
1.9855
 30
9.7622
 70
192
 0
VERTEX
 8
GRIFF_3
 10
8.0253
 20
1.9906
 30
9.7622
 70
192
 0
VERTEX
 8
GRIFF_3
 10
8.0171
 20
1.9947
 30
9.7622
 70
192
 0
VERTEX
 8
GRIFF_3
 10
8.0085
 20
1.9976
 30
9.7622
 70
192
 0
VERTEX
 8
GRIFF_3
 10
7.9995
 20
1.9994
 30
9.7622
 70
192
 0
VERTEX
 8
GRIFF_3
 10
7.9903
 20
2
 30
9.7622
 70
192
 0
VERTEX
 8
GRIFF_3
 10
5.3303
 20
2
 30
9.7622
 70
192
 0
VERTEX
 8
GRIFF_3
 10
5.3212
 20
1.9994
 30
9.7622
 70
192
 0
VERTEX
 8
GRIFF_3
 10
5.3122
 20
1.9976
 30
9.7622
 70
192
 0
VERTEX
 8
GRIFF_3
 10
5.3036
 20
1.9947
 30
9.7622
 70
192
 0
VERTEX
 8
GRIFF_3
 10
5.2953
 20
1.9906
 30
9.7622
 70
192
 0
VERTEX
 8
GRIFF_3
 10
5.2877
 20
1.9855
 30
9.7622
 70
192
 0
VERTEX
 8
GRIFF_3
 10
5.2808
 20
1.9795
 30
9.7622
 70
192
 0
VERTEX
 8
GRIFF_3
 10
5.2748
 20
1.9726
 30
9.7622
 70
192
 0
VERTEX
 8
GRIFF_3
 10
5.2697
 20
1.965
 30
9.7622
 70
192
 0
VERTEX
 8
GRIFF_3
 10
5.2657
 20
1.9568
 30
9.7622
 70
192
 0
VERTEX
 8
GRIFF_3
 10
5.2627
 20
1.9481
 30
9.7622
 70
192
 0
VERTEX
 8
GRIFF_3
 10
5.2609
 20
1.9391
 30
9.7622
 70
192
 0
VERTEX
 8
GRIFF_3
 10
5.2603
 20
1.93
 30
11.6922
 70
192
 0
VERTEX
 8
GRIFF_3
 10
5.2603
 20
-1.93
 30
11.6922
 70
192
 0
VERTEX
 8
GRIFF_3
 10
5.2609
 20
-1.9391
 30
11.6922
 70
192
 0
VERTEX
 8
GRIFF_3
 10
5.2627
 20
-1.9481
 30
11.6922
 70
192
 0
VERTEX
 8
GRIFF_3
 10
5.2657
 20
-1.9568
 30
11.6922
 70
192
 0
VERTEX
 8
GRIFF_3
 10
5.2697
 20
-1.965
 30
11.6922
 70
192
 0
VERTEX
 8
GRIFF_3
 10
5.2748
 20
-1.9726
 30
11.6922
 70
192
 0
VERTEX
 8
GRIFF_3
 10
5.2808
 20
-1.9795
 30
11.6922
 70
192
 0
VERTEX
 8
GRIFF_3
 10
5.2877
 20
-1.9855
 30
11.6922
 70
192
 0
VERTEX
 8
GRIFF_3
 10
5.2953
 20
-1.9906
 30
11.6922
 70
192
 0
VERTEX
 8
GRIFF_3
 10
5.3036
 20
-1.9947
 30
11.6922
 70
192
 0
VERTEX
 8
GRIFF_3
 10
5.3122
 20
-1.9976
 30
11.6922
 70
192
 0
VERTEX
 8
GRIFF_3
 10
5.3212
 20
-1.9994
 30
11.6922
 70
192
 0
VERTEX
 8
GRIFF_3
 10
5.3303
 20
-2
 30
11.6922
 70
192
 0
VERTEX
 8
GRIFF_3
 10
7.9903
 20
-2
 30
11.6922
 70
192
 0
VERTEX
 8
GRIFF_3
 10
7.9995
 20
-1.9994
 30
11.6922
 70
192
 0
VERTEX
 8
GRIFF_3
 10
8.0085
 20
-1.9976
 30
11.6922
 70
192
 0
VERTEX
 8
GRIFF_3
 10
8.0171
 20
-1.9947
 30
11.6922
 70
192
 0
VERTEX
 8
GRIFF_3
 10
8.0253
 20
-1.9906
 30
11.6922
 70
192
 0
VERTEX
 8
GRIFF_3
 10
8.033
 20
-1.9855
 30
11.6922
 70
192
 0
VERTEX
 8
GRIFF_3
 10
8.0398
 20
-1.9795
 30
11.6922
 70
192
 0
VERTEX
 8
GRIFF_3
 10
8.0459
 20
-1.9726
 30
11.6922
 70
192
 0
VERTEX
 8
GRIFF_3
 10
8.051
 20
-1.965
 30
11.6922
 70
192
 0
VERTEX
 8
GRIFF_3
 10
8.055
 20
-1.9568
 30
11.6922
 70
192
 0
VERTEX
 8
GRIFF_3
 10
8.058
 20
-1.9481
 30
11.6922
 70
192
 0
VERTEX
 8
GRIFF_3
 10
8.0597
 20
-1.9391
 30
11.6922
 70
192
 0
VERTEX
 8
GRIFF_3
 10
8.0603
 20
-1.93
 30
11.6922
 70
192
 0
VERTEX
 8
GRIFF_3
 10
8.0603
 20
1.93
 30
11.6922
 70
192
 0
VERTEX
 8
GRIFF_3
 10
8.0597
 20
1.9391
 30
11.6922
 70
192
 0
VERTEX
 8
GRIFF_3
 10
8.058
 20
1.9481
 30
11.6922
 70
192
 0
VERTEX
 8
GRIFF_3
 10
8.055
 20
1.9568
 30
11.6922
 70
192
 0
VERTEX
 8
GRIFF_3
 10
8.051
 20
1.965
 30
11.6922
 70
192
 0
VERTEX
 8
GRIFF_3
 10
8.0459
 20
1.9726
 30
11.6922
 70
192
 0
VERTEX
 8
GRIFF_3
 10
8.0398
 20
1.9795
 30
11.6922
 70
192
 0
VERTEX
 8
GRIFF_3
 10
8.033
 20
1.9855
 30
11.6922
 70
192
 0
VERTEX
 8
GRIFF_3
 10
8.0253
 20
1.9906
 30
11.6922
 70
192
 0
VERTEX
 8
GRIFF_3
 10
8.0171
 20
1.9947
 30
11.6922
 70
192
 0
VERTEX
 8
GRIFF_3
 10
8.0085
 20
1.9976
 30
11.6922
 70
192
 0
VERTEX
 8
GRIFF_3
 10
7.9995
 20
1.9994
 30
11.6922
 70
192
 0
VERTEX
 8
GRIFF_3
 10
7.9903
 20
2
 30
11.6922
 70
192
 0
VERTEX
 8
GRIFF_3
 10
5.3303
 20
2
 30
11.6922
 70
192
 0
VERTEX
 8
GRIFF_3
 10
5.3212
 20
1.9994
 30
11.6922
 70
192
 0
VERTEX
 8
GRIFF_3
 10
5.3122
 20
1.9976
 30
11.6922
 70
192
 0
VERTEX
 8
GRIFF_3
 10
5.3036
 20
1.9947
 30
11.6922
 70
192
 0
VERTEX
 8
GRIFF_3
 10
5.2953
 20
1.9906
 30
11.6922
 70
192
 0
VERTEX
 8
GRIFF_3
 10
5.2877
 20
1.9855
 30
11.6922
 70
192
 0
VERTEX
 8
GRIFF_3
 10
5.2808
 20
1.9795
 30
11.6922
 70
192
 0
VERTEX
 8
GRIFF_3
 10
5.2748
 20
1.9726
 30
11.6922
 70
192
 0
VERTEX
 8
GRIFF_3
 10
5.2697
 20
1.965
 30
11.6922
 70
192
 0
VERTEX
 8
GRIFF_3
 10
5.2657
 20
1.9568
 30
11.6922
 70
192
 0
VERTEX
 8
GRIFF_3
 10
5.2627
 20
1.9481
 30
11.6922
 70
192
 0
VERTEX
 8
GRIFF_3
 10
5.2609
 20
1.9391
 30
11.6922
 70
192
 0
VERTEX
 8
GRIFF_3
 10
5.2609
 20
1.93
 30
11.7013
 70
192
 0
VERTEX
 8
GRIFF_3
 10
5.2609
 20
-1.93
 30
11.7013
 70
192
 0
VERTEX
 8
GRIFF_3
 10
5.2615
 20
-1.9391
 30
11.7013
 70
192
 0
VERTEX
 8
GRIFF_3
 10
5.2633
 20
-1.948
 30
11.7013
 70
192
 0
VERTEX
 8
GRIFF_3
 10
5.2662
 20
-1.9566
 30
11.7013
 70
192
 0
VERTEX
 8
GRIFF_3
 10
5.2702
 20
-1.9647
 30
11.7013
 70
192
 0
VERTEX
 8
GRIFF_3
 10
5.2753
 20
-1.9722
 30
11.7013
 70
192
 0
VERTEX
 8
GRIFF_3
 10
5.2813
 20
-1.9791
 30
11.7013
 70
192
 0
VERTEX
 8
GRIFF_3
 10
5.2881
 20
-1.9851
 30
11.7013
 70
192
 0
VERTEX
 8
GRIFF_3
 10
5.2956
 20
-1.9901
 30
11.7013
 70
192
 0
VERTEX
 8
GRIFF_3
 10
5.3038
 20
-1.9941
 30
11.7013
 70
192
 0
VERTEX
 8
GRIFF_3
 10
5.3124
 20
-1.997
 30
11.7013
 70
192
 0
VERTEX
 8
GRIFF_3
 10
5.3213
 20
-1.9988
 30
11.7013
 70
192
 0
VERTEX
 8
GRIFF_3
 10
5.3303
 20
-1.9994
 30
11.7013
 70
192
 0
VERTEX
 8
GRIFF_3
 10
7.9903
 20
-1.9994
 30
11.7013
 70
192
 0
VERTEX
 8
GRIFF_3
 10
7.9994
 20
-1.9988
 30
11.7013
 70
192
 0
VERTEX
 8
GRIFF_3
 10
8.0083
 20
-1.997
 30
11.7013
 70
192
 0
VERTEX
 8
GRIFF_3
 10
8.0169
 20
-1.9941
 30
11.7013
 70
192
 0
VERTEX
 8
GRIFF_3
 10
8.025
 20
-1.9901
 30
11.7013
 70
192
 0
VERTEX
 8
GRIFF_3
 10
8.0326
 20
-1.9851
 30
11.7013
 70
192
 0
VERTEX
 8
GRIFF_3
 10
8.0394
 20
-1.9791
 30
11.7013
 70
192
 0
VERTEX
 8
GRIFF_3
 10
8.0454
 20
-1.9722
 30
11.7013
 70
192
 0
VERTEX
 8
GRIFF_3
 10
8.0504
 20
-1.9647
 30
11.7013
 70
192
 0
VERTEX
 8
GRIFF_3
 10
8.0545
 20
-1.9566
 30
11.7013
 70
192
 0
VERTEX
 8
GRIFF_3
 10
8.0574
 20
-1.948
 30
11.7013
 70
192
 0
VERTEX
 8
GRIFF_3
 10
8.0592
 20
-1.9391
 30
11.7013
 70
192
 0
VERTEX
 8
GRIFF_3
 10
8.0597
 20
-1.93
 30
11.7013
 70
192
 0
VERTEX
 8
GRIFF_3
 10
8.0597
 20
1.93
 30
11.7013
 70
192
 0
VERTEX
 8
GRIFF_3
 10
8.0592
 20
1.9391
 30
11.7013
 70
192
 0
VERTEX
 8
GRIFF_3
 10
8.0574
 20
1.948
 30
11.7013
 70
192
 0
VERTEX
 8
GRIFF_3
 10
8.0545
 20
1.9566
 30
11.7013
 70
192
 0
VERTEX
 8
GRIFF_3
 10
8.0504
 20
1.9647
 30
11.7013
 70
192
 0
VERTEX
 8
GRIFF_3
 10
8.0454
 20
1.9722
 30
11.7013
 70
192
 0
VERTEX
 8
GRIFF_3
 10
8.0394
 20
1.9791
 30
11.7013
 70
192
 0
VERTEX
 8
GRIFF_3
 10
8.0326
 20
1.9851
 30
11.7013
 70
192
 0
VERTEX
 8
GRIFF_3
 10
8.025
 20
1.9901
 30
11.7013
 70
192
 0
VERTEX
 8
GRIFF_3
 10
8.0169
 20
1.9941
 30
11.7013
 70
192
 0
VERTEX
 8
GRIFF_3
 10
8.0083
 20
1.997
 30
11.7013
 70
192
 0
VERTEX
 8
GRIFF_3
 10
7.9994
 20
1.9988
 30
11.7013
 70
192
 0
VERTEX
 8
GRIFF_3
 10
7.9903
 20
1.9994
 30
11.7013
 70
192
 0
VERTEX
 8
GRIFF_3
 10
5.3303
 20
1.9994
 30
11.7013
 70
192
 0
VERTEX
 8
GRIFF_3
 10
5.3213
 20
1.9988
 30
11.7013
 70
192
 0
VERTEX
 8
GRIFF_3
 10
5.3124
 20
1.997
 30
11.7013
 70
192
 0
VERTEX
 8
GRIFF_3
 10
5.3038
 20
1.9941
 30
11.7013
 70
192
 0
VERTEX
 8
GRIFF_3
 10
5.2956
 20
1.9901
 30
11.7013
 70
192
 0
VERTEX
 8
GRIFF_3
 10
5.2881
 20
1.9851
 30
11.7013
 70
192
 0
VERTEX
 8
GRIFF_3
 10
5.2813
 20
1.9791
 30
11.7013
 70
192
 0
VERTEX
 8
GRIFF_3
 10
5.2753
 20
1.9722
 30
11.7013
 70
192
 0
VERTEX
 8
GRIFF_3
 10
5.2702
 20
1.9647
 30
11.7013
 70
192
 0
VERTEX
 8
GRIFF_3
 10
5.2662
 20
1.9566
 30
11.7013
 70
192
 0
VERTEX
 8
GRIFF_3
 10
5.2633
 20
1.948
 30
11.7013
 70
192
 0
VERTEX
 8
GRIFF_3
 10
5.2615
 20
1.9391
 30
11.7013
 70
192
 0
VERTEX
 8
GRIFF_3
 10
5.2627
 20
1.93
 30
11.7103
 70
192
 0
VERTEX
 8
GRIFF_3
 10
5.2627
 20
-1.93
 30
11.7103
 70
192
 0
VERTEX
 8
GRIFF_3
 10
5.2633
 20
-1.9388
 30
11.7103
 70
192
 0
VERTEX
 8
GRIFF_3
 10
5.265
 20
-1.9475
 30
11.7103
 70
192
 0
VERTEX
 8
GRIFF_3
 10
5.2679
 20
-1.9559
 30
11.7103
 70
192
 0
VERTEX
 8
GRIFF_3
 10
5.2718
 20
-1.9638
 30
11.7103
 70
192
 0
VERTEX
 8
GRIFF_3
 10
5.2767
 20
-1.9712
 30
11.7103
 70
192
 0
VERTEX
 8
GRIFF_3
 10
5.2825
 20
-1.9778
 30
11.7103
 70
192
 0
VERTEX
 8
GRIFF_3
 10
5.2892
 20
-1.9836
 30
11.7103
 70
192
 0
VERTEX
 8
GRIFF_3
 10
5.2965
 20
-1.9886
 30
11.7103
 70
192
 0
VERTEX
 8
GRIFF_3
 10
5.3045
 20
-1.9925
 30
11.7103
 70
192
 0
VERTEX
 8
GRIFF_3
 10
5.3128
 20
-1.9953
 30
11.7103
 70
192
 0
VERTEX
 8
GRIFF_3
 10
5.3215
 20
-1.997
 30
11.7103
 70
192
 0
VERTEX
 8
GRIFF_3
 10
5.3303
 20
-1.9976
 30
11.7103
 70
192
 0
VERTEX
 8
GRIFF_3
 10
7.9903
 20
-1.9976
 30
11.7103
 70
192
 0
VERTEX
 8
GRIFF_3
 10
7.9992
 20
-1.997
 30
11.7103
 70
192
 0
VERTEX
 8
GRIFF_3
 10
8.0078
 20
-1.9953
 30
11.7103
 70
192
 0
VERTEX
 8
GRIFF_3
 10
8.0162
 20
-1.9925
 30
11.7103
 70
192
 0
VERTEX
 8
GRIFF_3
 10
8.0242
 20
-1.9886
 30
11.7103
 70
192
 0
VERTEX
 8
GRIFF_3
 10
8.0315
 20
-1.9836
 30
11.7103
 70
192
 0
VERTEX
 8
GRIFF_3
 10
8.0382
 20
-1.9778
 30
11.7103
 70
192
 0
VERTEX
 8
GRIFF_3
 10
8.044
 20
-1.9712
 30
11.7103
 70
192
 0
VERTEX
 8
GRIFF_3
 10
8.0489
 20
-1.9638
 30
11.7103
 70
192
 0
VERTEX
 8
GRIFF_3
 10
8.0528
 20
-1.9559
 30
11.7103
 70
192
 0
VERTEX
 8
GRIFF_3
 10
8.0557
 20
-1.9475
 30
11.7103
 70
192
 0
VERTEX
 8
GRIFF_3
 10
8.0574
 20
-1.9388
 30
11.7103
 70
192
 0
VERTEX
 8
GRIFF_3
 10
8.058
 20
-1.93
 30
11.7103
 70
192
 0
VERTEX
 8
GRIFF_3
 10
8.058
 20
1.93
 30
11.7103
 70
192
 0
VERTEX
 8
GRIFF_3
 10
8.0574
 20
1.9388
 30
11.7103
 70
192
 0
VERTEX
 8
GRIFF_3
 10
8.0557
 20
1.9475
 30
11.7103
 70
192
 0
VERTEX
 8
GRIFF_3
 10
8.0528
 20
1.9559
 30
11.7103
 70
192
 0
VERTEX
 8
GRIFF_3
 10
8.0489
 20
1.9638
 30
11.7103
 70
192
 0
VERTEX
 8
GRIFF_3
 10
8.044
 20
1.9712
 30
11.7103
 70
192
 0
VERTEX
 8
GRIFF_3
 10
8.0382
 20
1.9778
 30
11.7103
 70
192
 0
VERTEX
 8
GRIFF_3
 10
8.0315
 20
1.9836
 30
11.7103
 70
192
 0
VERTEX
 8
GRIFF_3
 10
8.0242
 20
1.9886
 30
11.7103
 70
192
 0
VERTEX
 8
GRIFF_3
 10
8.0162
 20
1.9925
 30
11.7103
 70
192
 0
VERTEX
 8
GRIFF_3
 10
8.0078
 20
1.9953
 30
11.7103
 70
192
 0
VERTEX
 8
GRIFF_3
 10
7.9992
 20
1.997
 30
11.7103
 70
192
 0
VERTEX
 8
GRIFF_3
 10
7.9903
 20
1.9976
 30
11.7103
 70
192
 0
VERTEX
 8
GRIFF_3
 10
5.3303
 20
1.9976
 30
11.7103
 70
192
 0
VERTEX
 8
GRIFF_3
 10
5.3215
 20
1.997
 30
11.7103
 70
192
 0
VERTEX
 8
GRIFF_3
 10
5.3128
 20
1.9953
 30
11.7103
 70
192
 0
VERTEX
 8
GRIFF_3
 10
5.3045
 20
1.9925
 30
11.7103
 70
192
 0
VERTEX
 8
GRIFF_3
 10
5.2965
 20
1.9886
 30
11.7103
 70
192
 0
VERTEX
 8
GRIFF_3
 10
5.2892
 20
1.9836
 30
11.7103
 70
192
 0
VERTEX
 8
GRIFF_3
 10
5.2825
 20
1.9778
 30
11.7103
 70
192
 0
VERTEX
 8
GRIFF_3
 10
5.2767
 20
1.9712
 30
11.7103
 70
192
 0
VERTEX
 8
GRIFF_3
 10
5.2718
 20
1.9638
 30
11.7103
 70
192
 0
VERTEX
 8
GRIFF_3
 10
5.2679
 20
1.9559
 30
11.7103
 70
192
 0
VERTEX
 8
GRIFF_3
 10
5.265
 20
1.9475
 30
11.7103
 70
192
 0
VERTEX
 8
GRIFF_3
 10
5.2633
 20
1.9388
 30
11.7103
 70
192
 0
VERTEX
 8
GRIFF_3
 10
5.2657
 20
1.93
 30
11.719
 70
192
 0
VERTEX
 8
GRIFF_3
 10
5.2657
 20
-1.93
 30
11.719
 70
192
 0
VERTEX
 8
GRIFF_3
 10
5.2662
 20
-1.9384
 30
11.719
 70
192
 0
VERTEX
 8
GRIFF_3
 10
5.2679
 20
-1.9467
 30
11.719
 70
192
 0
VERTEX
 8
GRIFF_3
 10
5.2706
 20
-1.9547
 30
11.719
 70
192
 0
VERTEX
 8
GRIFF_3
 10
5.2743
 20
-1.9623
 30
11.719
 70
192
 0
VERTEX
 8
GRIFF_3
 10
5.279
 20
-1.9694
 30
11.719
 70
192
 0
VERTEX
 8
GRIFF_3
 10
5.2846
 20
-1.9757
 30
11.719
 70
192
 0
VERTEX
 8
GRIFF_3
 10
5.291
 20
-1.9813
 30
11.719
 70
192
 0
VERTEX
 8
GRIFF_3
 10
5.298
 20
-1.986
 30
11.719
 70
192
 0
VERTEX
 8
GRIFF_3
 10
5.3056
 20
-1.9897
 30
11.719
 70
192
 0
VERTEX
 8
GRIFF_3
 10
5.3136
 20
-1.9925
 30
11.719
 70
192
 0
VERTEX
 8
GRIFF_3
 10
5.3219
 20
-1.9941
 30
11.719
 70
192
 0
VERTEX
 8
GRIFF_3
 10
5.3303
 20
-1.9947
 30
11.719
 70
192
 0
VERTEX
 8
GRIFF_3
 10
7.9903
 20
-1.9947
 30
11.719
 70
192
 0
VERTEX
 8
GRIFF_3
 10
7.9988
 20
-1.9941
 30
11.719
 70
192
 0
VERTEX
 8
GRIFF_3
 10
8.0071
 20
-1.9925
 30
11.719
 70
192
 0
VERTEX
 8
GRIFF_3
 10
8.0151
 20
-1.9897
 30
11.719
 70
192
 0
VERTEX
 8
GRIFF_3
 10
8.0227
 20
-1.986
 30
11.719
 70
192
 0
VERTEX
 8
GRIFF_3
 10
8.0297
 20
-1.9813
 30
11.719
 70
192
 0
VERTEX
 8
GRIFF_3
 10
8.0361
 20
-1.9757
 30
11.719
 70
192
 0
VERTEX
 8
GRIFF_3
 10
8.0417
 20
-1.9694
 30
11.719
 70
192
 0
VERTEX
 8
GRIFF_3
 10
8.0464
 20
-1.9623
 30
11.719
 70
192
 0
VERTEX
 8
GRIFF_3
 10
8.0501
 20
-1.9547
 30
11.719
 70
192
 0
VERTEX
 8
GRIFF_3
 10
8.0528
 20
-1.9467
 30
11.719
 70
192
 0
VERTEX
 8
GRIFF_3
 10
8.0545
 20
-1.9384
 30
11.719
 70
192
 0
VERTEX
 8
GRIFF_3
 10
8.055
 20
-1.93
 30
11.719
 70
192
 0
VERTEX
 8
GRIFF_3
 10
8.055
 20
1.93
 30
11.719
 70
192
 0
VERTEX
 8
GRIFF_3
 10
8.0545
 20
1.9384
 30
11.719
 70
192
 0
VERTEX
 8
GRIFF_3
 10
8.0528
 20
1.9467
 30
11.719
 70
192
 0
VERTEX
 8
GRIFF_3
 10
8.0501
 20
1.9547
 30
11.719
 70
192
 0
VERTEX
 8
GRIFF_3
 10
8.0464
 20
1.9623
 30
11.719
 70
192
 0
VERTEX
 8
GRIFF_3
 10
8.0417
 20
1.9694
 30
11.719
 70
192
 0
VERTEX
 8
GRIFF_3
 10
8.0361
 20
1.9757
 30
11.719
 70
192
 0
VERTEX
 8
GRIFF_3
 10
8.0297
 20
1.9813
 30
11.719
 70
192
 0
VERTEX
 8
GRIFF_3
 10
8.0227
 20
1.986
 30
11.719
 70
192
 0
VERTEX
 8
GRIFF_3
 10
8.0151
 20
1.9897
 30
11.719
 70
192
 0
VERTEX
 8
GRIFF_3
 10
8.0071
 20
1.9925
 30
11.719
 70
192
 0
VERTEX
 8
GRIFF_3
 10
7.9988
 20
1.9941
 30
11.719
 70
192
 0
VERTEX
 8
GRIFF_3
 10
7.9903
 20
1.9947
 30
11.719
 70
192
 0
VERTEX
 8
GRIFF_3
 10
5.3303
 20
1.9947
 30
11.719
 70
192
 0
VERTEX
 8
GRIFF_3
 10
5.3219
 20
1.9941
 30
11.719
 70
192
 0
VERTEX
 8
GRIFF_3
 10
5.3136
 20
1.9925
 30
11.719
 70
192
 0
VERTEX
 8
GRIFF_3
 10
5.3056
 20
1.9897
 30
11.719
 70
192
 0
VERTEX
 8
GRIFF_3
 10
5.298
 20
1.986
 30
11.719
 70
192
 0
VERTEX
 8
GRIFF_3
 10
5.291
 20
1.9813
 30
11.719
 70
192
 0
VERTEX
 8
GRIFF_3
 10
5.2846
 20
1.9757
 30
11.719
 70
192
 0
VERTEX
 8
GRIFF_3
 10
5.279
 20
1.9694
 30
11.719
 70
192
 0
VERTEX
 8
GRIFF_3
 10
5.2743
 20
1.9623
 30
11.719
 70
192
 0
VERTEX
 8
GRIFF_3
 10
5.2706
 20
1.9547
 30
11.719
 70
192
 0
VERTEX
 8
GRIFF_3
 10
5.2679
 20
1.9467
 30
11.719
 70
192
 0
VERTEX
 8
GRIFF_3
 10
5.2662
 20
1.9384
 30
11.719
 70
192
 0
VERTEX
 8
GRIFF_3
 10
5.2697
 20
1.93
 30
11.7272
 70
192
 0
VERTEX
 8
GRIFF_3
 10
5.2697
 20
-1.93
 30
11.7272
 70
192
 0
VERTEX
 8
GRIFF_3
 10
5.2702
 20
-1.9379
 30
11.7272
 70
192
 0
VERTEX
 8
GRIFF_3
 10
5.2718
 20
-1.9457
 30
11.7272
 70
192
 0
VERTEX
 8
GRIFF_3
 10
5.2743
 20
-1.9532
 30
11.7272
 70
192
 0
VERTEX
 8
GRIFF_3
 10
5.2778
 20
-1.9603
 30
11.7272
 70
192
 0
VERTEX
 8
GRIFF_3
 10
5.2822
 20
-1.9669
 30
11.7272
 70
192
 0
VERTEX
 8
GRIFF_3
 10
5.2875
 20
-1.9729
 30
11.7272
 70
192
 0
VERTEX
 8
GRIFF_3
 10
5.2934
 20
-1.9781
 30
11.7272
 70
192
 0
VERTEX
 8
GRIFF_3
 10
5.3
 20
-1.9825
 30
11.7272
 70
192
 0
VERTEX
 8
GRIFF_3
 10
5.3071
 20
-1.986
 30
11.7272
 70
192
 0
VERTEX
 8
GRIFF_3
 10
5.3147
 20
-1.9886
 30
11.7272
 70
192
 0
VERTEX
 8
GRIFF_3
 10
5.3224
 20
-1.9901
 30
11.7272
 70
192
 0
VERTEX
 8
GRIFF_3
 10
5.3303
 20
-1.9906
 30
11.7272
 70
192
 0
VERTEX
 8
GRIFF_3
 10
7.9903
 20
-1.9906
 30
11.7272
 70
192
 0
VERTEX
 8
GRIFF_3
 10
7.9983
 20
-1.9901
 30
11.7272
 70
192
 0
VERTEX
 8
GRIFF_3
 10
8.006
 20
-1.9886
 30
11.7272
 70
192
 0
VERTEX
 8
GRIFF_3
 10
8.0135
 20
-1.986
 30
11.7272
 70
192
 0
VERTEX
 8
GRIFF_3
 10
8.0207
 20
-1.9825
 30
11.7272
 70
192
 0
VERTEX
 8
GRIFF_3
 10
8.0272
 20
-1.9781
 30
11.7272
 70
192
 0
VERTEX
 8
GRIFF_3
 10
8.0332
 20
-1.9729
 30
11.7272
 70
192
 0
VERTEX
 8
GRIFF_3
 10
8.0384
 20
-1.9669
 30
11.7272
 70
192
 0
VERTEX
 8
GRIFF_3
 10
8.0428
 20
-1.9603
 30
11.7272
 70
192
 0
VERTEX
 8
GRIFF_3
 10
8.0464
 20
-1.9532
 30
11.7272
 70
192
 0
VERTEX
 8
GRIFF_3
 10
8.0489
 20
-1.9457
 30
11.7272
 70
192
 0
VERTEX
 8
GRIFF_3
 10
8.0504
 20
-1.9379
 30
11.7272
 70
192
 0
VERTEX
 8
GRIFF_3
 10
8.051
 20
-1.93
 30
11.7272
 70
192
 0
VERTEX
 8
GRIFF_3
 10
8.051
 20
1.93
 30
11.7272
 70
192
 0
VERTEX
 8
GRIFF_3
 10
8.0504
 20
1.9379
 30
11.7272
 70
192
 0
VERTEX
 8
GRIFF_3
 10
8.0489
 20
1.9457
 30
11.7272
 70
192
 0
VERTEX
 8
GRIFF_3
 10
8.0464
 20
1.9532
 30
11.7272
 70
192
 0
VERTEX
 8
GRIFF_3
 10
8.0428
 20
1.9603
 30
11.7272
 70
192
 0
VERTEX
 8
GRIFF_3
 10
8.0384
 20
1.9669
 30
11.7272
 70
192
 0
VERTEX
 8
GRIFF_3
 10
8.0332
 20
1.9729
 30
11.7272
 70
192
 0
VERTEX
 8
GRIFF_3
 10
8.0272
 20
1.9781
 30
11.7272
 70
192
 0
VERTEX
 8
GRIFF_3
 10
8.0207
 20
1.9825
 30
11.7272
 70
192
 0
VERTEX
 8
GRIFF_3
 10
8.0135
 20
1.986
 30
11.7272
 70
192
 0
VERTEX
 8
GRIFF_3
 10
8.006
 20
1.9886
 30
11.7272
 70
192
 0
VERTEX
 8
GRIFF_3
 10
7.9983
 20
1.9901
 30
11.7272
 70
192
 0
VERTEX
 8
GRIFF_3
 10
7.9903
 20
1.9906
 30
11.7272
 70
192
 0
VERTEX
 8
GRIFF_3
 10
5.3303
 20
1.9906
 30
11.7272
 70
192
 0
VERTEX
 8
GRIFF_3
 10
5.3224
 20
1.9901
 30
11.7272
 70
192
 0
VERTEX
 8
GRIFF_3
 10
5.3147
 20
1.9886
 30
11.7272
 70
192
 0
VERTEX
 8
GRIFF_3
 10
5.3071
 20
1.986
 30
11.7272
 70
192
 0
VERTEX
 8
GRIFF_3
 10
5.3
 20
1.9825
 30
11.7272
 70
192
 0
VERTEX
 8
GRIFF_3
 10
5.2934
 20
1.9781
 30
11.7272
 70
192
 0
VERTEX
 8
GRIFF_3
 10
5.2875
 20
1.9729
 30
11.7272
 70
192
 0
VERTEX
 8
GRIFF_3
 10
5.2822
 20
1.9669
 30
11.7272
 70
192
 0
VERTEX
 8
GRIFF_3
 10
5.2778
 20
1.9603
 30
11.7272
 70
192
 0
VERTEX
 8
GRIFF_3
 10
5.2743
 20
1.9532
 30
11.7272
 70
192
 0
VERTEX
 8
GRIFF_3
 10
5.2718
 20
1.9457
 30
11.7272
 70
192
 0
VERTEX
 8
GRIFF_3
 10
5.2702
 20
1.9379
 30
11.7272
 70
192
 0
VERTEX
 8
GRIFF_3
 10
5.2748
 20
1.93
 30
11.7348
 70
192
 0
VERTEX
 8
GRIFF_3
 10
5.2748
 20
-1.93
 30
11.7348
 70
192
 0
VERTEX
 8
GRIFF_3
 10
5.2753
 20
-1.9372
 30
11.7348
 70
192
 0
VERTEX
 8
GRIFF_3
 10
5.2767
 20
-1.9444
 30
11.7348
 70
192
 0
VERTEX
 8
GRIFF_3
 10
5.279
 20
-1.9513
 30
11.7348
 70
192
 0
VERTEX
 8
GRIFF_3
 10
5.2822
 20
-1.9578
 30
11.7348
 70
192
 0
VERTEX
 8
GRIFF_3
 10
5.2863
 20
-1.9638
 30
11.7348
 70
192
 0
VERTEX
 8
GRIFF_3
 10
5.2911
 20
-1.9693
 30
11.7348
 70
192
 0
VERTEX
 8
GRIFF_3
 10
5.2965
 20
-1.9741
 30
11.7348
 70
192
 0
VERTEX
 8
GRIFF_3
 10
5.3026
 20
-1.9781
 30
11.7348
 70
192
 0
VERTEX
 8
GRIFF_3
 10
5.3091
 20
-1.9813
 30
11.7348
 70
192
 0
VERTEX
 8
GRIFF_3
 10
5.316
 20
-1.9836
 30
11.7348
 70
192
 0
VERTEX
 8
GRIFF_3
 10
5.3231
 20
-1.9851
 30
11.7348
 70
192
 0
VERTEX
 8
GRIFF_3
 10
5.3303
 20
-1.9855
 30
11.7348
 70
192
 0
VERTEX
 8
GRIFF_3
 10
7.9903
 20
-1.9855
 30
11.7348
 70
192
 0
VERTEX
 8
GRIFF_3
 10
7.9976
 20
-1.9851
 30
11.7348
 70
192
 0
VERTEX
 8
GRIFF_3
 10
8.0047
 20
-1.9836
 30
11.7348
 70
192
 0
VERTEX
 8
GRIFF_3
 10
8.0116
 20
-1.9813
 30
11.7348
 70
192
 0
VERTEX
 8
GRIFF_3
 10
8.0181
 20
-1.9781
 30
11.7348
 70
192
 0
VERTEX
 8
GRIFF_3
 10
8.0242
 20
-1.9741
 30
11.7348
 70
192
 0
VERTEX
 8
GRIFF_3
 10
8.0296
 20
-1.9693
 30
11.7348
 70
192
 0
VERTEX
 8
GRIFF_3
 10
8.0344
 20
-1.9638
 30
11.7348
 70
192
 0
VERTEX
 8
GRIFF_3
 10
8.0384
 20
-1.9578
 30
11.7348
 70
192
 0
VERTEX
 8
GRIFF_3
 10
8.0417
 20
-1.9513
 30
11.7348
 70
192
 0
VERTEX
 8
GRIFF_3
 10
8.044
 20
-1.9444
 30
11.7348
 70
192
 0
VERTEX
 8
GRIFF_3
 10
8.0454
 20
-1.9372
 30
11.7348
 70
192
 0
VERTEX
 8
GRIFF_3
 10
8.0459
 20
-1.93
 30
11.7348
 70
192
 0
VERTEX
 8
GRIFF_3
 10
8.0459
 20
1.93
 30
11.7348
 70
192
 0
VERTEX
 8
GRIFF_3
 10
8.0454
 20
1.9372
 30
11.7348
 70
192
 0
VERTEX
 8
GRIFF_3
 10
8.044
 20
1.9444
 30
11.7348
 70
192
 0
VERTEX
 8
GRIFF_3
 10
8.0417
 20
1.9513
 30
11.7348
 70
192
 0
VERTEX
 8
GRIFF_3
 10
8.0384
 20
1.9578
 30
11.7348
 70
192
 0
VERTEX
 8
GRIFF_3
 10
8.0344
 20
1.9638
 30
11.7348
 70
192
 0
VERTEX
 8
GRIFF_3
 10
8.0296
 20
1.9693
 30
11.7348
 70
192
 0
VERTEX
 8
GRIFF_3
 10
8.0242
 20
1.9741
 30
11.7348
 70
192
 0
VERTEX
 8
GRIFF_3
 10
8.0181
 20
1.9781
 30
11.7348
 70
192
 0
VERTEX
 8
GRIFF_3
 10
8.0116
 20
1.9813
 30
11.7348
 70
192
 0
VERTEX
 8
GRIFF_3
 10
8.0047
 20
1.9836
 30
11.7348
 70
192
 0
VERTEX
 8
GRIFF_3
 10
7.9976
 20
1.9851
 30
11.7348
 70
192
 0
VERTEX
 8
GRIFF_3
 10
7.9903
 20
1.9855
 30
11.7348
 70
192
 0
VERTEX
 8
GRIFF_3
 10
5.3303
 20
1.9855
 30
11.7348
 70
192
 0
VERTEX
 8
GRIFF_3
 10
5.3231
 20
1.9851
 30
11.7348
 70
192
 0
VERTEX
 8
GRIFF_3
 10
5.316
 20
1.9836
 30
11.7348
 70
192
 0
VERTEX
 8
GRIFF_3
 10
5.3091
 20
1.9813
 30
11.7348
 70
192
 0
VERTEX
 8
GRIFF_3
 10
5.3026
 20
1.9781
 30
11.7348
 70
192
 0
VERTEX
 8
GRIFF_3
 10
5.2965
 20
1.9741
 30
11.7348
 70
192
 0
VERTEX
 8
GRIFF_3
 10
5.2911
 20
1.9693
 30
11.7348
 70
192
 0
VERTEX
 8
GRIFF_3
 10
5.2863
 20
1.9638
 30
11.7348
 70
192
 0
VERTEX
 8
GRIFF_3
 10
5.2822
 20
1.9578
 30
11.7348
 70
192
 0
VERTEX
 8
GRIFF_3
 10
5.279
 20
1.9513
 30
11.7348
 70
192
 0
VERTEX
 8
GRIFF_3
 10
5.2767
 20
1.9444
 30
11.7348
 70
192
 0
VERTEX
 8
GRIFF_3
 10
5.2753
 20
1.9372
 30
11.7348
 70
192
 0
VERTEX
 8
GRIFF_3
 10
5.2808
 20
1.93
 30
11.7417
 70
192
 0
VERTEX
 8
GRIFF_3
 10
5.2808
 20
-1.93
 30
11.7417
 70
192
 0
VERTEX
 8
GRIFF_3
 10
5.2813
 20
-1.9365
 30
11.7417
 70
192
 0
VERTEX
 8
GRIFF_3
 10
5.2825
 20
-1.9428
 30
11.7417
 70
192
 0
VERTEX
 8
GRIFF_3
 10
5.2846
 20
-1.9489
 30
11.7417
 70
192
 0
VERTEX
 8
GRIFF_3
 10
5.2875
 20
-1.9547
 30
11.7417
 70
192
 0
VERTEX
 8
GRIFF_3
 10
5.2911
 20
-1.9601
 30
11.7417
 70
192
 0
VERTEX
 8
GRIFF_3
 10
5.2953
 20
-1.965
 30
11.7417
 70
192
 0
VERTEX
 8
GRIFF_3
 10
5.3002
 20
-1.9693
 30
11.7417
 70
192
 0
VERTEX
 8
GRIFF_3
 10
5.3056
 20
-1.9729
 30
11.7417
 70
192
 0
VERTEX
 8
GRIFF_3
 10
5.3114
 20
-1.9757
 30
11.7417
 70
192
 0
VERTEX
 8
GRIFF_3
 10
5.3175
 20
-1.9778
 30
11.7417
 70
192
 0
VERTEX
 8
GRIFF_3
 10
5.3239
 20
-1.9791
 30
11.7417
 70
192
 0
VERTEX
 8
GRIFF_3
 10
5.3303
 20
-1.9795
 30
11.7417
 70
192
 0
VERTEX
 8
GRIFF_3
 10
7.9903
 20
-1.9795
 30
11.7417
 70
192
 0
VERTEX
 8
GRIFF_3
 10
7.9968
 20
-1.9791
 30
11.7417
 70
192
 0
VERTEX
 8
GRIFF_3
 10
8.0032
 20
-1.9778
 30
11.7417
 70
192
 0
VERTEX
 8
GRIFF_3
 10
8.0093
 20
-1.9757
 30
11.7417
 70
192
 0
VERTEX
 8
GRIFF_3
 10
8.0151
 20
-1.9729
 30
11.7417
 70
192
 0
VERTEX
 8
GRIFF_3
 10
8.0205
 20
-1.9693
 30
11.7417
 70
192
 0
VERTEX
 8
GRIFF_3
 10
8.0253
 20
-1.965
 30
11.7417
 70
192
 0
VERTEX
 8
GRIFF_3
 10
8.0296
 20
-1.9601
 30
11.7417
 70
192
 0
VERTEX
 8
GRIFF_3
 10
8.0332
 20
-1.9547
 30
11.7417
 70
192
 0
VERTEX
 8
GRIFF_3
 10
8.0361
 20
-1.9489
 30
11.7417
 70
192
 0
VERTEX
 8
GRIFF_3
 10
8.0382
 20
-1.9428
 30
11.7417
 70
192
 0
VERTEX
 8
GRIFF_3
 10
8.0394
 20
-1.9365
 30
11.7417
 70
192
 0
VERTEX
 8
GRIFF_3
 10
8.0398
 20
-1.93
 30
11.7417
 70
192
 0
VERTEX
 8
GRIFF_3
 10
8.0398
 20
1.93
 30
11.7417
 70
192
 0
VERTEX
 8
GRIFF_3
 10
8.0394
 20
1.9365
 30
11.7417
 70
192
 0
VERTEX
 8
GRIFF_3
 10
8.0382
 20
1.9428
 30
11.7417
 70
192
 0
VERTEX
 8
GRIFF_3
 10
8.0361
 20
1.9489
 30
11.7417
 70
192
 0
VERTEX
 8
GRIFF_3
 10
8.0332
 20
1.9547
 30
11.7417
 70
192
 0
VERTEX
 8
GRIFF_3
 10
8.0296
 20
1.9601
 30
11.7417
 70
192
 0
VERTEX
 8
GRIFF_3
 10
8.0253
 20
1.965
 30
11.7417
 70
192
 0
VERTEX
 8
GRIFF_3
 10
8.0205
 20
1.9693
 30
11.7417
 70
192
 0
VERTEX
 8
GRIFF_3
 10
8.0151
 20
1.9729
 30
11.7417
 70
192
 0
VERTEX
 8
GRIFF_3
 10
8.0093
 20
1.9757
 30
11.7417
 70
192
 0
VERTEX
 8
GRIFF_3
 10
8.0032
 20
1.9778
 30
11.7417
 70
192
 0
VERTEX
 8
GRIFF_3
 10
7.9968
 20
1.9791
 30
11.7417
 70
192
 0
VERTEX
 8
GRIFF_3
 10
7.9903
 20
1.9795
 30
11.7417
 70
192
 0
VERTEX
 8
GRIFF_3
 10
5.3303
 20
1.9795
 30
11.7417
 70
192
 0
VERTEX
 8
GRIFF_3
 10
5.3239
 20
1.9791
 30
11.7417
 70
192
 0
VERTEX
 8
GRIFF_3
 10
5.3175
 20
1.9778
 30
11.7417
 70
192
 0
VERTEX
 8
GRIFF_3
 10
5.3114
 20
1.9757
 30
11.7417
 70
192
 0
VERTEX
 8
GRIFF_3
 10
5.3056
 20
1.9729
 30
11.7417
 70
192
 0
VERTEX
 8
GRIFF_3
 10
5.3002
 20
1.9693
 30
11.7417
 70
192
 0
VERTEX
 8
GRIFF_3
 10
5.2953
 20
1.965
 30
11.7417
 70
192
 0
VERTEX
 8
GRIFF_3
 10
5.2911
 20
1.9601
 30
11.7417
 70
192
 0
VERTEX
 8
GRIFF_3
 10
5.2875
 20
1.9547
 30
11.7417
 70
192
 0
VERTEX
 8
GRIFF_3
 10
5.2846
 20
1.9489
 30
11.7417
 70
192
 0
VERTEX
 8
GRIFF_3
 10
5.2825
 20
1.9428
 30
11.7417
 70
192
 0
VERTEX
 8
GRIFF_3
 10
5.2813
 20
1.9365
 30
11.7417
 70
192
 0
VERTEX
 8
GRIFF_3
 10
5.2877
 20
1.93
 30
11.7477
 70
192
 0
VERTEX
 8
GRIFF_3
 10
5.2877
 20
-1.93
 30
11.7477
 70
192
 0
VERTEX
 8
GRIFF_3
 10
5.2881
 20
-1.9356
 30
11.7477
 70
192
 0
VERTEX
 8
GRIFF_3
 10
5.2892
 20
-1.941
 30
11.7477
 70
192
 0
VERTEX
 8
GRIFF_3
 10
5.291
 20
-1.9463
 30
11.7477
 70
192
 0
VERTEX
 8
GRIFF_3
 10
5.2934
 20
-1.9513
 30
11.7477
 70
192
 0
VERTEX
 8
GRIFF_3
 10
5.2965
 20
-1.9559
 30
11.7477
 70
192
 0
VERTEX
 8
GRIFF_3
 10
5.3002
 20
-1.9601
 30
11.7477
 70
192
 0
VERTEX
 8
GRIFF_3
 10
5.3044
 20
-1.9638
 30
11.7477
 70
192
 0
VERTEX
 8
GRIFF_3
 10
5.309
 20
-1.9669
 30
11.7477
 70
192
 0
VERTEX
 8
GRIFF_3
 10
5.314
 20
-1.9694
 30
11.7477
 70
192
 0
VERTEX
 8
GRIFF_3
 10
5.3193
 20
-1.9712
 30
11.7477
 70
192
 0
VERTEX
 8
GRIFF_3
 10
5.3248
 20
-1.9722
 30
11.7477
 70
192
 0
VERTEX
 8
GRIFF_3
 10
5.3303
 20
-1.9726
 30
11.7477
 70
192
 0
VERTEX
 8
GRIFF_3
 10
7.9903
 20
-1.9726
 30
11.7477
 70
192
 0
VERTEX
 8
GRIFF_3
 10
7.9959
 20
-1.9722
 30
11.7477
 70
192
 0
VERTEX
 8
GRIFF_3
 10
8.0014
 20
-1.9712
 30
11.7477
 70
192
 0
VERTEX
 8
GRIFF_3
 10
8.0067
 20
-1.9694
 30
11.7477
 70
192
 0
VERTEX
 8
GRIFF_3
 10
8.0117
 20
-1.9669
 30
11.7477
 70
192
 0
VERTEX
 8
GRIFF_3
 10
8.0163
 20
-1.9638
 30
11.7477
 70
192
 0
VERTEX
 8
GRIFF_3
 10
8.0205
 20
-1.9601
 30
11.7477
 70
192
 0
VERTEX
 8
GRIFF_3
 10
8.0242
 20
-1.9559
 30
11.7477
 70
192
 0
VERTEX
 8
GRIFF_3
 10
8.0272
 20
-1.9513
 30
11.7477
 70
192
 0
VERTEX
 8
GRIFF_3
 10
8.0297
 20
-1.9463
 30
11.7477
 70
192
 0
VERTEX
 8
GRIFF_3
 10
8.0315
 20
-1.941
 30
11.7477
 70
192
 0
VERTEX
 8
GRIFF_3
 10
8.0326
 20
-1.9356
 30
11.7477
 70
192
 0
VERTEX
 8
GRIFF_3
 10
8.033
 20
-1.93
 30
11.7477
 70
192
 0
VERTEX
 8
GRIFF_3
 10
8.033
 20
1.93
 30
11.7477
 70
192
 0
VERTEX
 8
GRIFF_3
 10
8.0326
 20
1.9356
 30
11.7477
 70
192
 0
VERTEX
 8
GRIFF_3
 10
8.0315
 20
1.941
 30
11.7477
 70
192
 0
VERTEX
 8
GRIFF_3
 10
8.0297
 20
1.9463
 30
11.7477
 70
192
 0
VERTEX
 8
GRIFF_3
 10
8.0272
 20
1.9513
 30
11.7477
 70
192
 0
VERTEX
 8
GRIFF_3
 10
8.0242
 20
1.9559
 30
11.7477
 70
192
 0
VERTEX
 8
GRIFF_3
 10
8.0205
 20
1.9601
 30
11.7477
 70
192
 0
VERTEX
 8
GRIFF_3
 10
8.0163
 20
1.9638
 30
11.7477
 70
192
 0
VERTEX
 8
GRIFF_3
 10
8.0117
 20
1.9669
 30
11.7477
 70
192
 0
VERTEX
 8
GRIFF_3
 10
8.0067
 20
1.9694
 30
11.7477
 70
192
 0
VERTEX
 8
GRIFF_3
 10
8.0014
 20
1.9712
 30
11.7477
 70
192
 0
VERTEX
 8
GRIFF_3
 10
7.9959
 20
1.9722
 30
11.7477
 70
192
 0
VERTEX
 8
GRIFF_3
 10
7.9903
 20
1.9726
 30
11.7477
 70
192
 0
VERTEX
 8
GRIFF_3
 10
5.3303
 20
1.9726
 30
11.7477
 70
192
 0
VERTEX
 8
GRIFF_3
 10
5.3248
 20
1.9722
 30
11.7477
 70
192
 0
VERTEX
 8
GRIFF_3
 10
5.3193
 20
1.9712
 30
11.7477
 70
192
 0
VERTEX
 8
GRIFF_3
 10
5.314
 20
1.9694
 30
11.7477
 70
192
 0
VERTEX
 8
GRIFF_3
 10
5.309
 20
1.9669
 30
11.7477
 70
192
 0
VERTEX
 8
GRIFF_3
 10
5.3044
 20
1.9638
 30
11.7477
 70
192
 0
VERTEX
 8
GRIFF_3
 10
5.3002
 20
1.9601
 30
11.7477
 70
192
 0
VERTEX
 8
GRIFF_3
 10
5.2965
 20
1.9559
 30
11.7477
 70
192
 0
VERTEX
 8
GRIFF_3
 10
5.2934
 20
1.9513
 30
11.7477
 70
192
 0
VERTEX
 8
GRIFF_3
 10
5.291
 20
1.9463
 30
11.7477
 70
192
 0
VERTEX
 8
GRIFF_3
 10
5.2892
 20
1.941
 30
11.7477
 70
192
 0
VERTEX
 8
GRIFF_3
 10
5.2881
 20
1.9356
 30
11.7477
 70
192
 0
VERTEX
 8
GRIFF_3
 10
5.2953
 20
1.93
 30
11.7528
 70
192
 0
VERTEX
 8
GRIFF_3
 10
5.2953
 20
-1.93
 30
11.7528
 70
192
 0
VERTEX
 8
GRIFF_3
 10
5.2956
 20
-1.9346
 30
11.7528
 70
192
 0
VERTEX
 8
GRIFF_3
 10
5.2965
 20
-1.9391
 30
11.7528
 70
192
 0
VERTEX
 8
GRIFF_3
 10
5.298
 20
-1.9434
 30
11.7528
 70
192
 0
VERTEX
 8
GRIFF_3
 10
5.3
 20
-1.9475
 30
11.7528
 70
192
 0
VERTEX
 8
GRIFF_3
 10
5.3026
 20
-1.9513
 30
11.7528
 70
192
 0
VERTEX
 8
GRIFF_3
 10
5.3056
 20
-1.9547
 30
11.7528
 70
192
 0
VERTEX
 8
GRIFF_3
 10
5.309
 20
-1.9578
 30
11.7528
 70
192
 0
VERTEX
 8
GRIFF_3
 10
5.3128
 20
-1.9603
 30
11.7528
 70
192
 0
VERTEX
 8
GRIFF_3
 10
5.317
 20
-1.9623
 30
11.7528
 70
192
 0
VERTEX
 8
GRIFF_3
 10
5.3213
 20
-1.9638
 30
11.7528
 70
192
 0
VERTEX
 8
GRIFF_3
 10
5.3258
 20
-1.9647
 30
11.7528
 70
192
 0
VERTEX
 8
GRIFF_3
 10
5.3303
 20
-1.965
 30
11.7528
 70
192
 0
VERTEX
 8
GRIFF_3
 10
7.9903
 20
-1.965
 30
11.7528
 70
192
 0
VERTEX
 8
GRIFF_3
 10
7.9949
 20
-1.9647
 30
11.7528
 70
192
 0
VERTEX
 8
GRIFF_3
 10
7.9994
 20
-1.9638
 30
11.7528
 70
192
 0
VERTEX
 8
GRIFF_3
 10
8.0037
 20
-1.9623
 30
11.7528
 70
192
 0
VERTEX
 8
GRIFF_3
 10
8.0078
 20
-1.9603
 30
11.7528
 70
192
 0
VERTEX
 8
GRIFF_3
 10
8.0117
 20
-1.9578
 30
11.7528
 70
192
 0
VERTEX
 8
GRIFF_3
 10
8.0151
 20
-1.9547
 30
11.7528
 70
192
 0
VERTEX
 8
GRIFF_3
 10
8.0181
 20
-1.9513
 30
11.7528
 70
192
 0
VERTEX
 8
GRIFF_3
 10
8.0207
 20
-1.9475
 30
11.7528
 70
192
 0
VERTEX
 8
GRIFF_3
 10
8.0227
 20
-1.9434
 30
11.7528
 70
192
 0
VERTEX
 8
GRIFF_3
 10
8.0242
 20
-1.9391
 30
11.7528
 70
192
 0
VERTEX
 8
GRIFF_3
 10
8.025
 20
-1.9346
 30
11.7528
 70
192
 0
VERTEX
 8
GRIFF_3
 10
8.0253
 20
-1.93
 30
11.7528
 70
192
 0
VERTEX
 8
GRIFF_3
 10
8.0253
 20
1.93
 30
11.7528
 70
192
 0
VERTEX
 8
GRIFF_3
 10
8.025
 20
1.9346
 30
11.7528
 70
192
 0
VERTEX
 8
GRIFF_3
 10
8.0242
 20
1.9391
 30
11.7528
 70
192
 0
VERTEX
 8
GRIFF_3
 10
8.0227
 20
1.9434
 30
11.7528
 70
192
 0
VERTEX
 8
GRIFF_3
 10
8.0207
 20
1.9475
 30
11.7528
 70
192
 0
VERTEX
 8
GRIFF_3
 10
8.0181
 20
1.9513
 30
11.7528
 70
192
 0
VERTEX
 8
GRIFF_3
 10
8.0151
 20
1.9547
 30
11.7528
 70
192
 0
VERTEX
 8
GRIFF_3
 10
8.0117
 20
1.9578
 30
11.7528
 70
192
 0
VERTEX
 8
GRIFF_3
 10
8.0078
 20
1.9603
 30
11.7528
 70
192
 0
VERTEX
 8
GRIFF_3
 10
8.0037
 20
1.9623
 30
11.7528
 70
192
 0
VERTEX
 8
GRIFF_3
 10
7.9994
 20
1.9638
 30
11.7528
 70
192
 0
VERTEX
 8
GRIFF_3
 10
7.9949
 20
1.9647
 30
11.7528
 70
192
 0
VERTEX
 8
GRIFF_3
 10
7.9903
 20
1.965
 30
11.7528
 70
192
 0
VERTEX
 8
GRIFF_3
 10
5.3303
 20
1.965
 30
11.7528
 70
192
 0
VERTEX
 8
GRIFF_3
 10
5.3258
 20
1.9647
 30
11.7528
 70
192
 0
VERTEX
 8
GRIFF_3
 10
5.3213
 20
1.9638
 30
11.7528
 70
192
 0
VERTEX
 8
GRIFF_3
 10
5.317
 20
1.9623
 30
11.7528
 70
192
 0
VERTEX
 8
GRIFF_3
 10
5.3128
 20
1.9603
 30
11.7528
 70
192
 0
VERTEX
 8
GRIFF_3
 10
5.309
 20
1.9578
 30
11.7528
 70
192
 0
VERTEX
 8
GRIFF_3
 10
5.3056
 20
1.9547
 30
11.7528
 70
192
 0
VERTEX
 8
GRIFF_3
 10
5.3026
 20
1.9513
 30
11.7528
 70
192
 0
VERTEX
 8
GRIFF_3
 10
5.3
 20
1.9475
 30
11.7528
 70
192
 0
VERTEX
 8
GRIFF_3
 10
5.298
 20
1.9434
 30
11.7528
 70
192
 0
VERTEX
 8
GRIFF_3
 10
5.2965
 20
1.9391
 30
11.7528
 70
192
 0
VERTEX
 8
GRIFF_3
 10
5.2956
 20
1.9346
 30
11.7528
 70
192
 0
VERTEX
 8
GRIFF_3
 10
5.3036
 20
1.93
 30
11.7569
 70
192
 0
VERTEX
 8
GRIFF_3
 10
5.3036
 20
-1.93
 30
11.7569
 70
192
 0
VERTEX
 8
GRIFF_3
 10
5.3038
 20
-1.9335
 30
11.7569
 70
192
 0
VERTEX
 8
GRIFF_3
 10
5.3045
 20
-1.9369
 30
11.7569
 70
192
 0
VERTEX
 8
GRIFF_3
 10
5.3056
 20
-1.9403
 30
11.7569
 70
192
 0
VERTEX
 8
GRIFF_3
 10
5.3071
 20
-1.9434
 30
11.7569
 70
192
 0
VERTEX
 8
GRIFF_3
 10
5.3091
 20
-1.9463
 30
11.7569
 70
192
 0
VERTEX
 8
GRIFF_3
 10
5.3114
 20
-1.9489
 30
11.7569
 70
192
 0
VERTEX
 8
GRIFF_3
 10
5.314
 20
-1.9513
 30
11.7569
 70
192
 0
VERTEX
 8
GRIFF_3
 10
5.317
 20
-1.9532
 30
11.7569
 70
192
 0
VERTEX
 8
GRIFF_3
 10
5.3201
 20
-1.9547
 30
11.7569
 70
192
 0
VERTEX
 8
GRIFF_3
 10
5.3234
 20
-1.9559
 30
11.7569
 70
192
 0
VERTEX
 8
GRIFF_3
 10
5.3268
 20
-1.9566
 30
11.7569
 70
192
 0
VERTEX
 8
GRIFF_3
 10
5.3303
 20
-1.9568
 30
11.7569
 70
192
 0
VERTEX
 8
GRIFF_3
 10
7.9903
 20
-1.9568
 30
11.7569
 70
192
 0
VERTEX
 8
GRIFF_3
 10
7.9938
 20
-1.9566
 30
11.7569
 70
192
 0
VERTEX
 8
GRIFF_3
 10
7.9973
 20
-1.9559
 30
11.7569
 70
192
 0
VERTEX
 8
GRIFF_3
 10
8.0006
 20
-1.9547
 30
11.7569
 70
192
 0
VERTEX
 8
GRIFF_3
 10
8.0037
 20
-1.9532
 30
11.7569
 70
192
 0
VERTEX
 8
GRIFF_3
 10
8.0067
 20
-1.9513
 30
11.7569
 70
192
 0
VERTEX
 8
GRIFF_3
 10
8.0093
 20
-1.9489
 30
11.7569
 70
192
 0
VERTEX
 8
GRIFF_3
 10
8.0116
 20
-1.9463
 30
11.7569
 70
192
 0
VERTEX
 8
GRIFF_3
 10
8.0135
 20
-1.9434
 30
11.7569
 70
192
 0
VERTEX
 8
GRIFF_3
 10
8.0151
 20
-1.9403
 30
11.7569
 70
192
 0
VERTEX
 8
GRIFF_3
 10
8.0162
 20
-1.9369
 30
11.7569
 70
192
 0
VERTEX
 8
GRIFF_3
 10
8.0169
 20
-1.9335
 30
11.7569
 70
192
 0
VERTEX
 8
GRIFF_3
 10
8.0171
 20
-1.93
 30
11.7569
 70
192
 0
VERTEX
 8
GRIFF_3
 10
8.0171
 20
1.93
 30
11.7569
 70
192
 0
VERTEX
 8
GRIFF_3
 10
8.0169
 20
1.9335
 30
11.7569
 70
192
 0
VERTEX
 8
GRIFF_3
 10
8.0162
 20
1.9369
 30
11.7569
 70
192
 0
VERTEX
 8
GRIFF_3
 10
8.0151
 20
1.9403
 30
11.7569
 70
192
 0
VERTEX
 8
GRIFF_3
 10
8.0135
 20
1.9434
 30
11.7569
 70
192
 0
VERTEX
 8
GRIFF_3
 10
8.0116
 20
1.9463
 30
11.7569
 70
192
 0
VERTEX
 8
GRIFF_3
 10
8.0093
 20
1.9489
 30
11.7569
 70
192
 0
VERTEX
 8
GRIFF_3
 10
8.0067
 20
1.9513
 30
11.7569
 70
192
 0
VERTEX
 8
GRIFF_3
 10
8.0037
 20
1.9532
 30
11.7569
 70
192
 0
VERTEX
 8
GRIFF_3
 10
8.0006
 20
1.9547
 30
11.7569
 70
192
 0
VERTEX
 8
GRIFF_3
 10
7.9973
 20
1.9559
 30
11.7569
 70
192
 0
VERTEX
 8
GRIFF_3
 10
7.9938
 20
1.9566
 30
11.7569
 70
192
 0
VERTEX
 8
GRIFF_3
 10
7.9903
 20
1.9568
 30
11.7569
 70
192
 0
VERTEX
 8
GRIFF_3
 10
5.3303
 20
1.9568
 30
11.7569
 70
192
 0
VERTEX
 8
GRIFF_3
 10
5.3268
 20
1.9566
 30
11.7569
 70
192
 0
VERTEX
 8
GRIFF_3
 10
5.3234
 20
1.9559
 30
11.7569
 70
192
 0
VERTEX
 8
GRIFF_3
 10
5.3201
 20
1.9547
 30
11.7569
 70
192
 0
VERTEX
 8
GRIFF_3
 10
5.317
 20
1.9532
 30
11.7569
 70
192
 0
VERTEX
 8
GRIFF_3
 10
5.314
 20
1.9513
 30
11.7569
 70
192
 0
VERTEX
 8
GRIFF_3
 10
5.3114
 20
1.9489
 30
11.7569
 70
192
 0
VERTEX
 8
GRIFF_3
 10
5.3091
 20
1.9463
 30
11.7569
 70
192
 0
VERTEX
 8
GRIFF_3
 10
5.3071
 20
1.9434
 30
11.7569
 70
192
 0
VERTEX
 8
GRIFF_3
 10
5.3056
 20
1.9403
 30
11.7569
 70
192
 0
VERTEX
 8
GRIFF_3
 10
5.3045
 20
1.9369
 30
11.7569
 70
192
 0
VERTEX
 8
GRIFF_3
 10
5.3038
 20
1.9335
 30
11.7569
 70
192
 0
VERTEX
 8
GRIFF_3
 10
5.3122
 20
1.93
 30
11.7598
 70
192
 0
VERTEX
 8
GRIFF_3
 10
5.3122
 20
-1.93
 30
11.7598
 70
192
 0
VERTEX
 8
GRIFF_3
 10
5.3124
 20
-1.9324
 30
11.7598
 70
192
 0
VERTEX
 8
GRIFF_3
 10
5.3128
 20
-1.9347
 30
11.7598
 70
192
 0
VERTEX
 8
GRIFF_3
 10
5.3136
 20
-1.9369
 30
11.7598
 70
192
 0
VERTEX
 8
GRIFF_3
 10
5.3147
 20
-1.9391
 30
11.7598
 70
192
 0
VERTEX
 8
GRIFF_3
 10
5.316
 20
-1.941
 30
11.7598
 70
192
 0
VERTEX
 8
GRIFF_3
 10
5.3175
 20
-1.9428
 30
11.7598
 70
192
 0
VERTEX
 8
GRIFF_3
 10
5.3193
 20
-1.9444
 30
11.7598
 70
192
 0
VERTEX
 8
GRIFF_3
 10
5.3213
 20
-1.9457
 30
11.7598
 70
192
 0
VERTEX
 8
GRIFF_3
 10
5.3234
 20
-1.9467
 30
11.7598
 70
192
 0
VERTEX
 8
GRIFF_3
 10
5.3257
 20
-1.9475
 30
11.7598
 70
192
 0
VERTEX
 8
GRIFF_3
 10
5.328
 20
-1.948
 30
11.7598
 70
192
 0
VERTEX
 8
GRIFF_3
 10
5.3303
 20
-1.9481
 30
11.7598
 70
192
 0
VERTEX
 8
GRIFF_3
 10
7.9903
 20
-1.9481
 30
11.7598
 70
192
 0
VERTEX
 8
GRIFF_3
 10
7.9927
 20
-1.948
 30
11.7598
 70
192
 0
VERTEX
 8
GRIFF_3
 10
7.995
 20
-1.9475
 30
11.7598
 70
192
 0
VERTEX
 8
GRIFF_3
 10
7.9973
 20
-1.9467
 30
11.7598
 70
192
 0
VERTEX
 8
GRIFF_3
 10
7.9994
 20
-1.9457
 30
11.7598
 70
192
 0
VERTEX
 8
GRIFF_3
 10
8.0014
 20
-1.9444
 30
11.7598
 70
192
 0
VERTEX
 8
GRIFF_3
 10
8.0032
 20
-1.9428
 30
11.7598
 70
192
 0
VERTEX
 8
GRIFF_3
 10
8.0047
 20
-1.941
 30
11.7598
 70
192
 0
VERTEX
 8
GRIFF_3
 10
8.006
 20
-1.9391
 30
11.7598
 70
192
 0
VERTEX
 8
GRIFF_3
 10
8.0071
 20
-1.9369
 30
11.7598
 70
192
 0
VERTEX
 8
GRIFF_3
 10
8.0078
 20
-1.9347
 30
11.7598
 70
192
 0
VERTEX
 8
GRIFF_3
 10
8.0083
 20
-1.9324
 30
11.7598
 70
192
 0
VERTEX
 8
GRIFF_3
 10
8.0085
 20
-1.93
 30
11.7598
 70
192
 0
VERTEX
 8
GRIFF_3
 10
8.0085
 20
1.93
 30
11.7598
 70
192
 0
VERTEX
 8
GRIFF_3
 10
8.0083
 20
1.9324
 30
11.7598
 70
192
 0
VERTEX
 8
GRIFF_3
 10
8.0078
 20
1.9347
 30
11.7598
 70
192
 0
VERTEX
 8
GRIFF_3
 10
8.0071
 20
1.9369
 30
11.7598
 70
192
 0
VERTEX
 8
GRIFF_3
 10
8.006
 20
1.9391
 30
11.7598
 70
192
 0
VERTEX
 8
GRIFF_3
 10
8.0047
 20
1.941
 30
11.7598
 70
192
 0
VERTEX
 8
GRIFF_3
 10
8.0032
 20
1.9428
 30
11.7598
 70
192
 0
VERTEX
 8
GRIFF_3
 10
8.0014
 20
1.9444
 30
11.7598
 70
192
 0
VERTEX
 8
GRIFF_3
 10
7.9994
 20
1.9457
 30
11.7598
 70
192
 0
VERTEX
 8
GRIFF_3
 10
7.9973
 20
1.9467
 30
11.7598
 70
192
 0
VERTEX
 8
GRIFF_3
 10
7.995
 20
1.9475
 30
11.7598
 70
192
 0
VERTEX
 8
GRIFF_3
 10
7.9927
 20
1.948
 30
11.7598
 70
192
 0
VERTEX
 8
GRIFF_3
 10
7.9903
 20
1.9481
 30
11.7598
 70
192
 0
VERTEX
 8
GRIFF_3
 10
5.3303
 20
1.9481
 30
11.7598
 70
192
 0
VERTEX
 8
GRIFF_3
 10
5.328
 20
1.948
 30
11.7598
 70
192
 0
VERTEX
 8
GRIFF_3
 10
5.3257
 20
1.9475
 30
11.7598
 70
192
 0
VERTEX
 8
GRIFF_3
 10
5.3234
 20
1.9467
 30
11.7598
 70
192
 0
VERTEX
 8
GRIFF_3
 10
5.3213
 20
1.9457
 30
11.7598
 70
192
 0
VERTEX
 8
GRIFF_3
 10
5.3193
 20
1.9444
 30
11.7598
 70
192
 0
VERTEX
 8
GRIFF_3
 10
5.3175
 20
1.9428
 30
11.7598
 70
192
 0
VERTEX
 8
GRIFF_3
 10
5.316
 20
1.941
 30
11.7598
 70
192
 0
VERTEX
 8
GRIFF_3
 10
5.3147
 20
1.9391
 30
11.7598
 70
192
 0
VERTEX
 8
GRIFF_3
 10
5.3136
 20
1.9369
 30
11.7598
 70
192
 0
VERTEX
 8
GRIFF_3
 10
5.3128
 20
1.9347
 30
11.7598
 70
192
 0
VERTEX
 8
GRIFF_3
 10
5.3124
 20
1.9324
 30
11.7598
 70
192
 0
VERTEX
 8
GRIFF_3
 10
5.3212
 20
1.93
 30
11.7616
 70
192
 0
VERTEX
 8
GRIFF_3
 10
5.3212
 20
-1.93
 30
11.7616
 70
192
 0
VERTEX
 8
GRIFF_3
 10
5.3213
 20
-1.9312
 30
11.7616
 70
192
 0
VERTEX
 8
GRIFF_3
 10
5.3215
 20
-1.9324
 30
11.7616
 70
192
 0
VERTEX
 8
GRIFF_3
 10
5.3219
 20
-1.9335
 30
11.7616
 70
192
 0
VERTEX
 8
GRIFF_3
 10
5.3224
 20
-1.9346
 30
11.7616
 70
192
 0
VERTEX
 8
GRIFF_3
 10
5.3231
 20
-1.9356
 30
11.7616
 70
192
 0
VERTEX
 8
GRIFF_3
 10
5.3239
 20
-1.9365
 30
11.7616
 70
192
 0
VERTEX
 8
GRIFF_3
 10
5.3248
 20
-1.9372
 30
11.7616
 70
192
 0
VERTEX
 8
GRIFF_3
 10
5.3258
 20
-1.9379
 30
11.7616
 70
192
 0
VERTEX
 8
GRIFF_3
 10
5.3268
 20
-1.9384
 30
11.7616
 70
192
 0
VERTEX
 8
GRIFF_3
 10
5.328
 20
-1.9388
 30
11.7616
 70
192
 0
VERTEX
 8
GRIFF_3
 10
5.3292
 20
-1.9391
 30
11.7616
 70
192
 0
VERTEX
 8
GRIFF_3
 10
5.3303
 20
-1.9391
 30
11.7616
 70
192
 0
VERTEX
 8
GRIFF_3
 10
7.9903
 20
-1.9391
 30
11.7616
 70
192
 0
VERTEX
 8
GRIFF_3
 10
7.9915
 20
-1.9391
 30
11.7616
 70
192
 0
VERTEX
 8
GRIFF_3
 10
7.9927
 20
-1.9388
 30
11.7616
 70
192
 0
VERTEX
 8
GRIFF_3
 10
7.9938
 20
-1.9384
 30
11.7616
 70
192
 0
VERTEX
 8
GRIFF_3
 10
7.9949
 20
-1.9379
 30
11.7616
 70
192
 0
VERTEX
 8
GRIFF_3
 10
7.9959
 20
-1.9372
 30
11.7616
 70
192
 0
VERTEX
 8
GRIFF_3
 10
7.9968
 20
-1.9365
 30
11.7616
 70
192
 0
VERTEX
 8
GRIFF_3
 10
7.9976
 20
-1.9356
 30
11.7616
 70
192
 0
VERTEX
 8
GRIFF_3
 10
7.9983
 20
-1.9346
 30
11.7616
 70
192
 0
VERTEX
 8
GRIFF_3
 10
7.9988
 20
-1.9335
 30
11.7616
 70
192
 0
VERTEX
 8
GRIFF_3
 10
7.9992
 20
-1.9324
 30
11.7616
 70
192
 0
VERTEX
 8
GRIFF_3
 10
7.9994
 20
-1.9312
 30
11.7616
 70
192
 0
VERTEX
 8
GRIFF_3
 10
7.9995
 20
-1.93
 30
11.7616
 70
192
 0
VERTEX
 8
GRIFF_3
 10
7.9995
 20
1.93
 30
11.7616
 70
192
 0
VERTEX
 8
GRIFF_3
 10
7.9994
 20
1.9312
 30
11.7616
 70
192
 0
VERTEX
 8
GRIFF_3
 10
7.9992
 20
1.9324
 30
11.7616
 70
192
 0
VERTEX
 8
GRIFF_3
 10
7.9988
 20
1.9335
 30
11.7616
 70
192
 0
VERTEX
 8
GRIFF_3
 10
7.9983
 20
1.9346
 30
11.7616
 70
192
 0
VERTEX
 8
GRIFF_3
 10
7.9976
 20
1.9356
 30
11.7616
 70
192
 0
VERTEX
 8
GRIFF_3
 10
7.9968
 20
1.9365
 30
11.7616
 70
192
 0
VERTEX
 8
GRIFF_3
 10
7.9959
 20
1.9372
 30
11.7616
 70
192
 0
VERTEX
 8
GRIFF_3
 10
7.9949
 20
1.9379
 30
11.7616
 70
192
 0
VERTEX
 8
GRIFF_3
 10
7.9938
 20
1.9384
 30
11.7616
 70
192
 0
VERTEX
 8
GRIFF_3
 10
7.9927
 20
1.9388
 30
11.7616
 70
192
 0
VERTEX
 8
GRIFF_3
 10
7.9915
 20
1.9391
 30
11.7616
 70
192
 0
VERTEX
 8
GRIFF_3
 10
7.9903
 20
1.9391
 30
11.7616
 70
192
 0
VERTEX
 8
GRIFF_3
 10
5.3303
 20
1.9391
 30
11.7616
 70
192
 0
VERTEX
 8
GRIFF_3
 10
5.3292
 20
1.9391
 30
11.7616
 70
192
 0
VERTEX
 8
GRIFF_3
 10
5.328
 20
1.9388
 30
11.7616
 70
192
 0
VERTEX
 8
GRIFF_3
 10
5.3268
 20
1.9384
 30
11.7616
 70
192
 0
VERTEX
 8
GRIFF_3
 10
5.3258
 20
1.9379
 30
11.7616
 70
192
 0
VERTEX
 8
GRIFF_3
 10
5.3248
 20
1.9372
 30
11.7616
 70
192
 0
VERTEX
 8
GRIFF_3
 10
5.3239
 20
1.9365
 30
11.7616
 70
192
 0
VERTEX
 8
GRIFF_3
 10
5.3231
 20
1.9356
 30
11.7616
 70
192
 0
VERTEX
 8
GRIFF_3
 10
5.3224
 20
1.9346
 30
11.7616
 70
192
 0
VERTEX
 8
GRIFF_3
 10
5.3219
 20
1.9335
 30
11.7616
 70
192
 0
VERTEX
 8
GRIFF_3
 10
5.3215
 20
1.9324
 30
11.7616
 70
192
 0
VERTEX
 8
GRIFF_3
 10
5.3213
 20
1.9312
 30
11.7616
 70
192
 0
VERTEX
 8
GRIFF_3
 10
5.3303
 20
1.93
 30
11.7622
 70
192
 0
VERTEX
 8
GRIFF_3
 10
5.3303
 20
-1.93
 30
11.7622
 70
192
 0
VERTEX
 8
GRIFF_3
 10
7.9903
 20
-1.93
 30
11.7622
 70
192
 0
VERTEX
 8
GRIFF_3
 10
7.9903
 20
1.93
 30
11.7622
 70
192
 0
VERTEX
 8
GRIFF_3
 10
0
 20
0
 30
0
 70
128
 71
577
 72
629
 73
630
 74
578
 0
VERTEX
 8
GRIFF_3
 10
0
 20
0
 30
0
 70
128
 71
629
 72
681
 73
682
 74
630
 0
VERTEX
 8
GRIFF_3
 10
0
 20
0
 30
0
 70
128
 71
590
 72
642
 73
643
 74
591
 0
VERTEX
 8
GRIFF_3
 10
0
 20
0
 30
0
 70
128
 71
642
 72
694
 73
695
 74
643
 0
VERTEX
 8
GRIFF_3
 10
0
 20
0
 30
0
 70
128
 71
603
 72
655
 73
656
 74
604
 0
VERTEX
 8
GRIFF_3
 10
0
 20
0
 30
0
 70
128
 71
655
 72
707
 73
708
 74
656
 0
VERTEX
 8
GRIFF_3
 10
0
 20
0
 30
0
 70
128
 71
616
 72
668
 73
669
 74
617
 0
VERTEX
 8
GRIFF_3
 10
0
 20
0
 30
0
 70
128
 71
668
 72
720
 73
721
 74
669
 0
VERTEX
 8
GRIFF_3
 10
0
 20
0
 30
0
 70
128
 71
1305
 72
1308
 73
1307
 74
1306
 0
VERTEX
 8
GRIFF_3
 10
0
 20
0
 30
0
 70
128
 71
1
 72
2
 73
3
 74
4
 0
VERTEX
 8
GRIFF_3
 10
0
 20
0
 30
0
 70
128
 71
1306
 72
1307
 73
695
 74
694
 0
VERTEX
 8
GRIFF_3
 10
0
 20
0
 30
0
 70
128
 71
590
 72
591
 73
3
 74
2
 0
VERTEX
 8
GRIFF_3
 10
0
 20
0
 30
0
 70
128
 71
577
 72
578
 73
2
 74
1
 0
VERTEX
 8
GRIFF_3
 10
0
 20
0
 30
0
 70
128
 71
668
 72
616
 73
604
 74
656
 0
VERTEX
 8
GRIFF_3
 10
0
 20
0
 30
0
 70
128
 71
720
 72
668
 73
656
 74
708
 0
VERTEX
 8
GRIFF_3
 10
0
 20
0
 30
0
 70
128
 71
707
 72
655
 73
643
 74
695
 0
VERTEX
 8
GRIFF_3
 10
0
 20
0
 30
0
 70
128
 71
655
 72
603
 73
591
 74
643
 0
VERTEX
 8
GRIFF_3
 10
0
 20
0
 30
0
 70
128
 71
642
 72
590
 73
578
 74
630
 0
VERTEX
 8
GRIFF_3
 10
0
 20
0
 30
0
 70
128
 71
629
 72
577
 73
617
 74
669
 0
VERTEX
 8
GRIFF_3
 10
0
 20
0
 30
0
 70
128
 71
681
 72
629
 73
669
 74
721
 0
VERTEX
 8
GRIFF_3
 10
0
 20
0
 30
0
 70
128
 71
630
 72
682
 73
694
 74
642
 0
VERTEX
 8
GRIFF_3
 10
0
 20
0
 30
0
 70
128
 71
708
 72
707
 73
1307
 74
1308
 0
VERTEX
 8
GRIFF_3
 10
0
 20
0
 30
0
 70
128
 71
1305
 72
1306
 73
682
 74
681
 0
VERTEX
 8
GRIFF_3
 10
0
 20
0
 30
0
 70
128
 71
4
 72
3
 73
603
 74
604
 0
VERTEX
 8
GRIFF_3
 10
0
 20
0
 30
0
 70
128
 71
617
 72
577
 73
1
 74
1
 0
VERTEX
 8
GRIFF_3
 10
0
 20
0
 30
0
 70
128
 71
4
 72
604
 73
616
 74
616
 0
VERTEX
 8
GRIFF_3
 10
0
 20
0
 30
0
 70
128
 71
617
 72
1
 73
4
 74
616
 0
VERTEX
 8
GRIFF_3
 10
0
 20
0
 30
0
 70
128
 71
603
 72
3
 73
591
 74
591
 0
VERTEX
 8
GRIFF_3
 10
0
 20
0
 30
0
 70
128
 71
590
 72
2
 73
578
 74
578
 0
VERTEX
 8
GRIFF_3
 10
0
 20
0
 30
0
 70
128
 71
707
 72
695
 73
1307
 74
1307
 0
VERTEX
 8
GRIFF_3
 10
0
 20
0
 30
0
 70
128
 71
1306
 72
694
 73
682
 74
682
 0
VERTEX
 8
GRIFF_3
 10
0
 20
0
 30
0
 70
128
 71
708
 72
1308
 73
720
 74
720
 0
VERTEX
 8
GRIFF_3
 10
0
 20
0
 30
0
 70
128
 71
1305
 72
681
 73
721
 74
721
 0
VERTEX
 8
GRIFF_3
 10
0
 20
0
 30
0
 70
128
 71
1305
 72
721
 73
720
 74
1308
 0
SEQEND
 0
ENDSEC
 0
EOF
