  0
SECTION
  2
HEADER
  9
$ACADVER
  1
AC1032
  9
$ACADMAINTVER
 90
      174
  9
$DWGCODEPAGE
  3
ANSI_1252
  9
$REQUIREDVERSIONS
160
                 0
  9
$INSBASE
 10
0.0
 20
0.0
 30
0.0
  9
$EXTMIN
 10
1.000000000000000E+20
 20
1.000000000000000E+20
 30
1.000000000000000E+20
  9
$EXTMAX
 10
-1.000000000000000E+20
 20
-1.000000000000000E+20
 30
-1.000000000000000E+20
  9
$LIMMIN
 10
0.0
 20
0.0
  9
$LIMMAX
 10
12.0
 20
9.0
  9
$ORTHOMODE
 70
     0
  9
$REGENMODE
 70
     1
  9
$FILLMODE
 70
     1
  9
$QTEXTMODE
 70
     0
  9
$MIRRTEXT
 70
     1
  9
$LTSCALE
 40
1.0
  9
$ATTMODE
 70
     1
  9
$TEXTSIZE
 40
0.2
  9
$TRACEWID
 40
0.05
  9
$TEXTSTYLE
  7
Standard
  9
$CLAYER
  8
160_
  9
$CELTYPE
  6
ByLayer
  9
$CECOLOR
 62
   256
  9
$CELTSCALE
 40
1.0
  9
$DISPSILH
 70
     0
  9
$DIMSCALE
 40
1.0
  9
$DIMASZ
 40
0.18
  9
$DIMEXO
 40
0.0625
  9
$DIMDLI
 40
0.38
  9
$DIMRND
 40
0.0
  9
$DIMDLE
 40
0.0
  9
$DIMEXE
 40
0.18
  9
$DIMTP
 40
0.0
  9
$DIMTM
 40
0.0
  9
$DIMTXT
 40
0.18
  9
$DIMCEN
 40
0.09
  9
$DIMTSZ
 40
0.0
  9
$DIMTOL
 70
     0
  9
$DIMLIM
 70
     0
  9
$DIMTIH
 70
     1
  9
$DIMTOH
 70
     1
  9
$DIMSE1
 70
     0
  9
$DIMSE2
 70
     0
  9
$DIMTAD
 70
     0
  9
$DIMZIN
 70
     0
  9
$DIMBLK
  1

  9
$DIMASO
 70
     1
  9
$DIMSHO
 70
     1
  9
$DIMPOST
  1

  9
$DIMAPOST
  1

  9
$DIMALT
 70
     0
  9
$DIMALTD
 70
     2
  9
$DIMALTF
 40
25.4
  9
$DIMLFAC
 40
1.0
  9
$DIMTOFL
 70
     0
  9
$DIMTVP
 40
0.0
  9
$DIMTIX
 70
     0
  9
$DIMSOXD
 70
     0
  9
$DIMSAH
 70
     0
  9
$DIMBLK1
  1

  9
$DIMBLK2
  1

  9
$DIMSTYLE
  2
Standard
  9
$DIMCLRD
 70
     0
  9
$DIMCLRE
 70
     0
  9
$DIMCLRT
 70
     0
  9
$DIMTFAC
 40
1.0
  9
$DIMGAP
 40
0.09
  9
$DIMJUST
 70
     0
  9
$DIMSD1
 70
     0
  9
$DIMSD2
 70
     0
  9
$DIMTOLJ
 70
     1
  9
$DIMTZIN
 70
     0
  9
$DIMALTZ
 70
     0
  9
$DIMALTTZ
 70
     0
  9
$DIMUPT
 70
     0
  9
$DIMDEC
 70
     4
  9
$DIMTDEC
 70
     4
  9
$DIMALTU
 70
     2
  9
$DIMALTTD
 70
     2
  9
$DIMTXSTY
  7
Standard
  9
$DIMAUNIT
 70
     0
  9
$DIMADEC
 70
     0
  9
$DIMALTRND
 40
0.0
  9
$DIMAZIN
 70
     0
  9
$DIMDSEP
 70
    46
  9
$DIMATFIT
 70
     3
  9
$DIMFRAC
 70
     0
  9
$DIMLDRBLK
  1

  9
$DIMLUNIT
 70
     2
  9
$DIMLWD
 70
    -2
  9
$DIMLWE
 70
    -2
  9
$DIMTMOVE
 70
     0
  9
$DIMFXL
 40
1.0
  9
$DIMFXLON
 70
     0
  9
$DIMJOGANG
 40
0.7853981633974483
  9
$DIMTFILL
 70
     0
  9
$DIMTFILLCLR
 70
     0
  9
$DIMARCSYM
 70
     0
  9
$DIMLTYPE
  6

  9
$DIMLTEX1
  6

  9
$DIMLTEX2
  6

  9
$DIMTXTDIRECTION
 70
     0
  9
$LUNITS
 70
     2
  9
$LUPREC
 70
     4
  9
$SKETCHINC
 40
0.1
  9
$FILLETRAD
 40
0.5
  9
$AUNITS
 70
     0
  9
$AUPREC
 70
     0
  9
$MENU
  1
.
  9
$ELEVATION
 40
0.0
  9
$PELEVATION
 40
0.0
  9
$THICKNESS
 40
0.0
  9
$LIMCHECK
 70
     0
  9
$CHAMFERA
 40
0.5
  9
$CHAMFERB
 40
0.5
  9
$CHAMFERC
 40
1.0
  9
$CHAMFERD
 40
0.0
  9
$SKPOLY
 70
     0
  9
$TDCREATE
 40
2451380.888761574
  9
$TDUCREATE
 40
2451380.805432396
  9
$TDUPDATE
 40
2451380.924513889
  9
$TDUUPDATE
 40
2451380.841180556
  9
$TDINDWG
 40
0.0075602199
  9
$TDUSRTIMER
 40
0.0075511806
  9
$USRTIMER
 70
     1
  9
$ANGBASE
 50
0.0
  9
$ANGDIR
 70
     0
  9
$PDMODE
 70
     0
  9
$PDSIZE
 40
0.0
  9
$PLINEWID
 40
0.0
  9
$SPLFRAME
 70
     0
  9
$SPLINETYPE
 70
     6
  9
$SPLINESEGS
 70
     8
  9
$HANDSEED
  5
107
  9
$SURFTAB1
 70
     6
  9
$SURFTAB2
 70
     6
  9
$SURFTYPE
 70
     6
  9
$SURFU
 70
     6
  9
$SURFV
 70
     6
  9
$UCSBASE
  2

  9
$UCSNAME
  2

  9
$UCSORG
 10
0.0
 20
0.0
 30
0.0
  9
$UCSXDIR
 10
1.0
 20
0.0
 30
0.0
  9
$UCSYDIR
 10
0.0
 20
1.0
 30
0.0
  9
$UCSORTHOREF
  2

  9
$UCSORTHOVIEW
 70
     0
  9
$UCSORGTOP
 10
0.0
 20
0.0
 30
0.0
  9
$UCSORGBOTTOM
 10
0.0
 20
0.0
 30
0.0
  9
$UCSORGLEFT
 10
0.0
 20
0.0
 30
0.0
  9
$UCSORGRIGHT
 10
0.0
 20
0.0
 30
0.0
  9
$UCSORGFRONT
 10
0.0
 20
0.0
 30
0.0
  9
$UCSORGBACK
 10
0.0
 20
0.0
 30
0.0
  9
$PUCSBASE
  2

  9
$PUCSNAME
  2

  9
$PUCSORG
 10
0.0
 20
0.0
 30
0.0
  9
$PUCSXDIR
 10
1.0
 20
0.0
 30
0.0
  9
$PUCSYDIR
 10
0.0
 20
1.0
 30
0.0
  9
$PUCSORTHOREF
  2

  9
$PUCSORTHOVIEW
 70
     0
  9
$PUCSORGTOP
 10
0.0
 20
0.0
 30
0.0
  9
$PUCSORGBOTTOM
 10
0.0
 20
0.0
 30
0.0
  9
$PUCSORGLEFT
 10
0.0
 20
0.0
 30
0.0
  9
$PUCSORGRIGHT
 10
0.0
 20
0.0
 30
0.0
  9
$PUCSORGFRONT
 10
0.0
 20
0.0
 30
0.0
  9
$PUCSORGBACK
 10
0.0
 20
0.0
 30
0.0
  9
$USERI1
 70
     0
  9
$USERI2
 70
     0
  9
$USERI3
 70
     0
  9
$USERI4
 70
     0
  9
$USERI5
 70
     0
  9
$USERR1
 40
0.0
  9
$USERR2
 40
0.0
  9
$USERR3
 40
0.0
  9
$USERR4
 40
0.0
  9
$USERR5
 40
0.0
  9
$WORLDVIEW
 70
     1
  9
$SHADEDGE
 70
     3
  9
$SHADEDIF
 70
    70
  9
$TILEMODE
 70
     1
  9
$MAXACTVP
 70
    64
  9
$PINSBASE
 10
0.0
 20
0.0
 30
0.0
  9
$PLIMCHECK
 70
     0
  9
$PEXTMIN
 10
1.000000000000000E+20
 20
1.000000000000000E+20
 30
1.000000000000000E+20
  9
$PEXTMAX
 10
-1.000000000000000E+20
 20
-1.000000000000000E+20
 30
-1.000000000000000E+20
  9
$PLIMMIN
 10
0.0
 20
0.0
  9
$PLIMMAX
 10
12.0
 20
9.0
  9
$UNITMODE
 70
     0
  9
$VISRETAIN
 70
     1
  9
$PLINEGEN
 70
     0
  9
$PSLTSCALE
 70
     1
  9
$TREEDEPTH
 70
  3020
  9
$CMLSTYLE
  2
Standard
  9
$CMLJUST
 70
     0
  9
$CMLSCALE
 40
1.0
  9
$PROXYGRAPHICS
 70
     1
  9
$MEASUREMENT
 70
     1
  9
$CELWEIGHT
370
    -1
  9
$ENDCAPS
280
     0
  9
$JOINSTYLE
280
     0
  9
$LWDISPLAY
290
     0
  9
$INSUNITS
 70
     5
  9
$HYPERLINKBASE
  1

  9
$STYLESHEET
  1

  9
$XEDIT
290
     1
  9
$CEPSNTYPE
380
     0
  9
$PSTYLEMODE
290
     1
  9
$FINGERPRINTGUID
  2
{12F50282-3ED8-11D3-A8B7-0060B0F84BC6}
  9
$VERSIONGUID
  2
{12F50293-3ED8-11D3-A8B7-0060B0F84BC6}
  9
$EXTNAMES
290
     1
  9
$PSVPSCALE
 40
0.0
  9
$OLESTARTUP
290
     0
  9
$SORTENTS
280
   127
  9
$INDEXCTL
280
     0
  9
$HIDETEXT
280
     0
  9
$XCLIPFRAME
280
     2
  9
$HALOGAP
280
     0
  9
$OBSCOLOR
 70
   257
  9
$OBSLTYPE
280
     0
  9
$INTERSECTIONDISPLAY
280
     0
  9
$INTERSECTIONCOLOR
 70
   257
  9
$DIMASSOC
280
     1
  9
$PROJECTNAME
  1

  9
$CAMERADISPLAY
290
     0
  9
$LENSLENGTH
 40
50.0
  9
$CAMERAHEIGHT
 40
0.0
  9
$STEPSPERSEC
 40
2.0
  9
$STEPSIZE
 40
6.0
  9
$3DDWFPREC
 40
2.0
  9
$PSOLWIDTH
 40
0.25
  9
$PSOLHEIGHT
 40
4.0
  9
$LOFTANG1
 40
1.570796326794896
  9
$LOFTANG2
 40
1.570796326794896
  9
$LOFTMAG1
 40
0.0
  9
$LOFTMAG2
 40
0.0
  9
$LOFTPARAM
 70
     7
  9
$LOFTNORMALS
280
     1
  9
$LATITUDE
 40
37.795
  9
$LONGITUDE
 40
-122.394
  9
$NORTHDIRECTION
 40
0.0
  9
$TIMEZONE
 70
 -8000
  9
$LIGHTGLYPHDISPLAY
280
     1
  9
$TILEMODELIGHTSYNCH
280
     1
  9
$CMATERIAL
347
AB
  9
$SOLIDHIST
280
     0
  9
$SHOWHIST
280
     1
  9
$DWFFRAME
280
     2
  9
$DGNFRAME
280
     0
  9
$REALWORLDSCALE
290
     1
  9
$INTERFERECOLOR
 62
     1
  9
$INTERFEREOBJVS
345
CD
  9
$INTERFEREVPVS
346
CA
  9
$CSHADOW
280
     0
  9
$SHADOWPLANELOCATION
 40
0.0
  0
ENDSEC
  0
SECTION
  2
CLASSES
  0
CLASS
  1
ACDBDICTIONARYWDFLT
  2
AcDbDictionaryWithDefault
  3
ObjectDBX Classes
 90
        0
 91
        1
280
     0
281
     0
  0
CLASS
  1
ACDBPLACEHOLDER
  2
AcDbPlaceHolder
  3
ObjectDBX Classes
 90
        0
 91
        2
280
     0
281
     0
  0
CLASS
  1
LAYOUT
  2
AcDbLayout
  3
ObjectDBX Classes
 90
        0
 91
        3
280
     0
281
     0
  0
CLASS
  1
MATERIAL
  2
AcDbMaterial
  3
ObjectDBX Classes
 90
     1153
 91
        3
280
     0
281
     0
  0
CLASS
  1
VISUALSTYLE
  2
AcDbVisualStyle
  3
ObjectDBX Classes
 90
     4095
 91
       24
280
     0
281
     0
  0
CLASS
  1
TABLESTYLE
  2
AcDbTableStyle
  3
ObjectDBX Classes
 90
     4095
 91
        1
280
     0
281
     0
  0
CLASS
  1
SCALE
  2
AcDbScale
  3
ObjectDBX Classes
 90
     1153
 91
       17
280
     0
281
     0
  0
CLASS
  1
MLEADERSTYLE
  2
AcDbMLeaderStyle
  3
ACDB_MLEADERSTYLE_CLASS
 90
     4095
 91
        1
280
     0
281
     0
  0
CLASS
  1
ACDBSECTIONVIEWSTYLE
  2
AcDbSectionViewStyle
  3
ObjectDBX Classes
 90
     1025
 91
        1
280
     0
281
     0
  0
CLASS
  1
ACDBDETAILVIEWSTYLE
  2
AcDbDetailViewStyle
  3
ObjectDBX Classes
 90
     1025
 91
        1
280
     0
281
     0
  0
CLASS
  1
MESH
  2
AcDbSubDMesh
  3
ObjectDBX Classes
 90
        0
 91
        1
280
     0
281
     1
  0
CLASS
  1
DICTIONARYVAR
  2
AcDbDictionaryVar
  3
ObjectDBX Classes
 90
        0
 91
        9
280
     0
281
     0
  0
CLASS
  1
CELLSTYLEMAP
  2
AcDbCellStyleMap
  3
ObjectDBX Classes
 90
     1152
 91
        1
280
     0
281
     0
  0
ENDSEC
  0
SECTION
  2
TABLES
  0
TABLE
  2
VPORT
  5
8
330
0
100
AcDbSymbolTable
 70
     1
  0
VPORT
  5
A8
330
8
100
AcDbSymbolTableRecord
100
AcDbViewportTableRecord
  2
*Active
 70
     0
 10
0.0
 20
0.0
 11
1.0
 21
1.0
 12
12.28005504608154
 22
-4.082529544830322
 13
0.0
 23
0.0
 14
0.5
 24
0.5
 15
0.5
 25
0.5
 16
-1.0
 26
-1.0
 36
1.0
 17
0.0
 27
0.0
 37
0.0
 40
31.77118667432444
 41
1.151744040902171
 42
50.0
 43
0.0
 44
0.0
 50
0.0
 51
0.0
 71
     0
 72
   100
 73
     1
 74
     3
 75
     0
 76
     0
 77
     0
 78
     0
281
     0
 65
     1
110
0.0
120
0.0
130
0.0
111
1.0
121
0.0
131
0.0
112
0.0
122
1.0
132
0.0
 79
     0
146
0.0
348
C9
 60
     3
 61
     5
292
     1
282
     1
141
0.0
142
0.0
 63
   250
421
  3355443
  0
ENDTAB
  0
TABLE
  2
LTYPE
  5
5
330
0
100
AcDbSymbolTable
 70
     1
  0
LTYPE
  5
14
330
5
100
AcDbSymbolTableRecord
100
AcDbLinetypeTableRecord
  2
ByBlock
 70
     0
  3

 72
    65
 73
     0
 40
0.0
  0
LTYPE
  5
15
330
5
100
AcDbSymbolTableRecord
100
AcDbLinetypeTableRecord
  2
ByLayer
 70
     0
  3

 72
    65
 73
     0
 40
0.0
  0
LTYPE
  5
16
330
5
100
AcDbSymbolTableRecord
100
AcDbLinetypeTableRecord
  2
Continuous
 70
     0
  3
Solid line
 72
    65
 73
     0
 40
0.0
  0
ENDTAB
  0
TABLE
  2
LAYER
  5
2
330
0
100
AcDbSymbolTable
 70
     3
  0
LAYER
  5
10
330
2
100
AcDbSymbolTableRecord
100
AcDbLayerTableRecord
  2
0
 70
     0
 62
     7
  6
Continuous
370
    -3
390
F
347
BB
348
0
  0
LAYER
  5
2B
330
2
100
AcDbSymbolTableRecord
100
AcDbLayerTableRecord
  2
ASHADE
 70
     4
 62
     7
  6
Continuous
370
    -3
390
2D
347
BB
348
0
  0
LAYER
  5
F8
330
2
100
AcDbSymbolTableRecord
100
AcDbLayerTableRecord
  2
160_
 70
     0
 62
   133
420
  5818337
  6
Continuous
370
    -3
390
F
347
BB
348
0
  0
ENDTAB
  0
TABLE
  2
STYLE
  5
3
330
0
100
AcDbSymbolTable
 70
     2
  0
STYLE
  5
11
330
3
100
AcDbSymbolTableRecord
100
AcDbTextStyleTableRecord
  2
Standard
 70
     0
 40
0.0
 41
1.0
 50
0.0
 71
     0
 42
0.2
  3
txt
  4

  0
STYLE
  5
2C
330
3
100
AcDbSymbolTableRecord
100
AcDbTextStyleTableRecord
  2
ASHADE
 70
     0
 40
0.2
 41
1.0
 50
0.0
 71
     0
 42
0.2
  3
simplex
  4

  0
ENDTAB
  0
TABLE
  2
VIEW
  5
6
330
0
100
AcDbSymbolTable
 70
     0
  0
ENDTAB
  0
TABLE
  2
UCS
  5
7
330
0
100
AcDbSymbolTable
 70
     0
  0
ENDTAB
  0
TABLE
  2
APPID
  5
9
330
0
100
AcDbSymbolTable
 70
     6
  0
APPID
  5
12
330
9
100
AcDbSymbolTableRecord
100
AcDbRegAppTableRecord
  2
ACAD
 70
     0
  0
APPID
  5
8F
330
9
100
AcDbSymbolTableRecord
100
AcDbRegAppTableRecord
  2
AVE_RENDER
 70
     0
  0
APPID
  5
90
330
9
100
AcDbSymbolTableRecord
100
AcDbRegAppTableRecord
  2
AVE_ENTITY_MATERIAL
 70
     0
  0
APPID
  5
9C
330
9
100
AcDbSymbolTableRecord
100
AcDbRegAppTableRecord
  2
AVE_FINISH
 70
     0
  0
APPID
  5
9D
330
9
100
AcDbSymbolTableRecord
100
AcDbRegAppTableRecord
  2
AVE_MATERIAL
 70
     0
  0
APPID
  5
9E
330
9
100
AcDbSymbolTableRecord
100
AcDbRegAppTableRecord
  2
AVE_GLOBAL
 70
     0
  0
ENDTAB
  0
TABLE
  2
DIMSTYLE
  5
A
330
0
100
AcDbSymbolTable
 70
     1
100
AcDbDimStyleTable
 71
     0
  0
DIMSTYLE
105
27
330
A
100
AcDbSymbolTableRecord
100
AcDbDimStyleTableRecord
  2
Standard
 70
     0
340
11
  0
ENDTAB
  0
TABLE
  2
BLOCK_RECORD
  5
1
330
0
100
AcDbSymbolTable
 70
     6
  0
BLOCK_RECORD
  5
1F
330
1
100
AcDbSymbolTableRecord
100
AcDbBlockTableRecord
  2
*Model_Space
340
22
 70
     0
280
     1
281
     0
  0
BLOCK_RECORD
  5
1B
330
1
100
AcDbSymbolTableRecord
100
AcDbBlockTableRecord
  2
*Paper_Space
340
1E
 70
     0
280
     1
281
     0
  0
BLOCK_RECORD
  5
23
330
1
100
AcDbSymbolTableRecord
100
AcDbBlockTableRecord
  2
*Paper_Space0
340
26
 70
     0
280
     1
281
     0
  0
BLOCK_RECORD
  5
2E
330
1
100
AcDbSymbolTableRecord
100
AcDbBlockTableRecord
  2
direct
340
0
 70
     0
280
     1
281
     0
  0
BLOCK_RECORD
  5
42
330
1
100
AcDbSymbolTableRecord
100
AcDbBlockTableRecord
  2
overhead
340
0
 70
     0
280
     1
281
     0
  0
BLOCK_RECORD
  5
5F
330
1
100
AcDbSymbolTableRecord
100
AcDbBlockTableRecord
  2
sh_spot
340
0
 70
     0
280
     1
281
     0
  0
BLOCK_RECORD
  5
91
330
1
100
AcDbSymbolTableRecord
100
AcDbBlockTableRecord
  2
AVE_RENDER
340
0
102
{BLKREFS
331
94
331
95
331
96
331
97
331
98
331
99
331
9A
331
9B
102
}
 70
     0
280
     1
281
     0
  0
BLOCK_RECORD
  5
9F
330
1
100
AcDbSymbolTableRecord
100
AcDbBlockTableRecord
  2
AVE_GLOBAL
340
0
102
{BLKREFS
331
A2
102
}
 70
     0
280
     1
281
     0
  0
ENDTAB
  0
ENDSEC
  0
SECTION
  2
BLOCKS
  0
BLOCK
  5
20
330
1F
100
AcDbEntity
  8
0
100
AcDbBlockBegin
  2
*Model_Space
 70
     0
 10
0.0
 20
0.0
 30
0.0
  3
*Model_Space
  1

  0
ENDBLK
  5
21
330
1F
100
AcDbEntity
  8
0
100
AcDbBlockEnd
  0
BLOCK
  5
1C
330
1B
100
AcDbEntity
 67
     1
  8
0
100
AcDbBlockBegin
  2
*Paper_Space
 70
     0
 10
0.0
 20
0.0
 30
0.0
  3
*Paper_Space
  1

  0
ENDBLK
  5
1D
330
1B
100
AcDbEntity
 67
     1
  8
0
100
AcDbBlockEnd
  0
BLOCK
  5
24
330
23
100
AcDbEntity
 67
     1
  8
0
100
AcDbBlockBegin
  2
*Paper_Space0
 70
     0
 10
0.0
 20
0.0
 30
0.0
  3
*Paper_Space0
  1

  0
ENDBLK
  5
25
330
23
100
AcDbEntity
 67
     1
  8
0
100
AcDbBlockEnd
  0
BLOCK
  5
40
330
2E
100
AcDbEntity
  8
0
100
AcDbBlockBegin
  2
direct
 70
     2
 10
0.0
 20
0.0
 30
0.0
  3
direct
  1

  0
ATTDEF
  5
2F
330
2E
100
AcDbEntity
  8
ASHADE
  6
Continuous
 62
     1
100
AcDbText
 10
0.0
 20
-0.1
 30
0.0
 40
0.2
  1

  7
ASHADE
 72
     1
 11
0.0
 21
-0.1
 31
0.0
100
AcDbAttributeDefinition
280
     0
  3
Light Name
  2
SNAME
 70
     0
280
     0
  0
ARC
  5
30
330
2E
100
AcDbEntity
  8
ASHADE
  6
Continuous
 62
     7
100
AcDbCircle
 10
0.0
 20
0.0
 30
0.0
 40
0.3
100
AcDbArc
 50
205.6792886194569
 51
334.3207113805431
  0
ARC
  5
31
330
2E
100
AcDbEntity
  8
ASHADE
  6
Continuous
 62
     7
100
AcDbCircle
 10
0.0
 20
0.0
 30
0.0
 40
0.3
100
AcDbArc
 50
25.67928861945685
 51
154.3207113805431
  0
LINE
  5
32
330
2E
100
AcDbEntity
  8
ASHADE
  6
Continuous
 62
     7
100
AcDbLine
 10
-0.21
 20
0.2142428528562855
 30
0.0
 11
-0.21
 21
0.5
 31
0.0
  0
LINE
  5
33
330
2E
100
AcDbEntity
  8
ASHADE
  6
Continuous
 62
     7
100
AcDbLine
 10
-0.11
 20
0.2791057147390572
 30
0.0
 11
-0.11
 21
0.5
 31
0.0
  0
LINE
  5
34
330
2E
100
AcDbEntity
  8
ASHADE
  6
Continuous
 62
     7
100
AcDbLine
 10
0.21
 20
0.2142428528562855
 30
0.0
 11
0.21
 21
0.5
 31
0.0
  0
ATTDEF
  5
35
330
2E
100
AcDbEntity
  8
ASHADE
  6
Continuous
 62
     7
100
AcDbText
 10
0.0
 20
0.25
 30
0.0
 40
0.01
  1

100
AcDbAttributeDefinition
280
     0
  3
Look-at Y
  2
LAY
 70
     1
280
     0
  0
ATTDEF
  5
36
330
2E
100
AcDbEntity
  8
ASHADE
  6
Continuous
 62
     7
100
AcDbText
 10
0.0
 20
0.22
 30
0.0
 40
0.01
  1
1
100
AcDbAttributeDefinition
280
     0
  3
Light Intensity
  2
INTENSITY
 70
     1
280
     0
  0
ATTDEF
  5
37
330
2E
100
AcDbEntity
  8
ASHADE
  6
Continuous
 62
     7
100
AcDbText
 10
0.0
 20
0.16
 30
0.0
 40
0.01
  1
-1
100
AcDbAttributeDefinition
280
     0
  3
*not used*
  2
BEAMD
 70
     1
280
     0
  0
ATTDEF
  5
38
330
2E
100
AcDbEntity
  8
ASHADE
  6
Continuous
 62
     7
100
AcDbText
 10
0.0
 20
0.175
 30
0.0
 40
0.01
  1
-1
100
AcDbAttributeDefinition
280
     0
  3
*not used*
  2
CONED
 70
     1
280
     0
  0
ATTDEF
  5
39
330
2E
100
AcDbEntity
  8
ASHADE
  6
Continuous
 62
     7
100
AcDbText
 10
0.0
 20
0.19
 30
0.0
 40
0.01
  1
0
100
AcDbAttributeDefinition
280
     0
  3
Depth Map Size
  2
CONEA
 70
     1
280
     0
  0
ATTDEF
  5
3A
330
2E
100
AcDbEntity
  8
ASHADE
  6
Continuous
 62
     7
100
AcDbText
 10
0.0
 20
0.2050000000000001
 30
0.0
 40
0.01
  1
1,1,1
100
AcDbAttributeDefinition
280
     0
  3
Light Color (RGB)
  2
COLOR
 70
     1
280
     0
  0
ATTDEF
  5
3B
330
2E
100
AcDbEntity
  8
ASHADE
  6
Continuous
 62
     7
100
AcDbText
 10
0.0
 20
0.235
 30
0.0
 40
0.01
  1

100
AcDbAttributeDefinition
280
     0
  3
Look-at Z
  2
LAZ
 70
     1
280
     0
  0
LINE
  5
3C
330
2E
100
AcDbEntity
  8
ASHADE
  6
Continuous
 62
     7
100
AcDbLine
 10
0.0
 20
0.3
 30
0.0
 11
0.0
 21
0.5
 31
0.0
  0
LINE
  5
3D
330
2E
100
AcDbEntity
  8
ASHADE
  6
Continuous
 62
     7
100
AcDbLine
 10
0.11
 20
0.2791057147390572
 30
0.0
 11
0.11
 21
0.5
 31
0.0
  0
ATTDEF
  5
3E
330
2E
100
AcDbEntity
  8
ASHADE
  6
Continuous
 62
     7
100
AcDbText
 10
0.0
 20
0.265
 30
0.0
 40
0.01
  1

100
AcDbAttributeDefinition
280
     0
  3
Look-at X
  2
LAX
 70
     1
280
     0
  0
ATTDEF
  5
3F
330
2E
100
AcDbEntity
  8
ASHADE
  6
Continuous
 62
     7
100
AcDbText
 10
0.0
 20
0.28
 30
0.0
 40
0.01
  1

100
AcDbAttributeDefinition
280
     0
  3

  2
GNAME
 70
     1
280
     0
  0
ENDBLK
  5
41
330
2E
100
AcDbEntity
  8
0
100
AcDbBlockEnd
  0
BLOCK
  5
5D
330
42
100
AcDbEntity
  8
0
100
AcDbBlockBegin
  2
overhead
 70
     2
 10
0.0
 20
0.0
 30
0.0
  3
overhead
  1

  0
ATTDEF
  5
43
330
42
100
AcDbEntity
  8
ASHADE
  6
Continuous
 62
     1
100
AcDbText
 10
0.0
 20
-0.1
 30
0.0
 40
0.2
  1

  7
ASHADE
 72
     1
 11
0.0
 21
-0.1
 31
0.0
100
AcDbAttributeDefinition
280
     0
  3
Light Name
  2
SNAME
 70
     0
280
     0
  0
ARC
  5
44
330
42
100
AcDbEntity
  8
ASHADE
  6
Continuous
 62
     7
100
AcDbCircle
 10
0.0
 20
0.0
 30
0.0
 40
0.3
100
AcDbArc
 50
205.6792886194569
 51
334.3207113805431
  0
LINE
  5
45
330
42
100
AcDbEntity
  8
ASHADE
  6
Continuous
 62
     7
100
AcDbLine
 10
-0.2041413561583015
 20
-0.2198324514393848
 30
0.0
 11
-0.2721884748777353
 21
-0.2931099352525131
 31
0.0
  0
LINE
  5
46
330
42
100
AcDbEntity
  8
ASHADE
  6
Continuous
 62
     7
100
AcDbLine
 10
-0.1096591641591904
 20
-0.2792398032442862
 30
0.0
 11
-0.1279356915190555
 21
-0.3257797704516673
 31
0.0
  0
LINE
  5
47
330
42
100
AcDbEntity
  8
ASHADE
  6
Continuous
 62
     7
100
AcDbLine
 10
0.0
 20
-0.2999999999999999
 30
0.0
 11
0.0
 21
-0.4
 31
0.0
  0
LINE
  5
48
330
42
100
AcDbEntity
  8
ASHADE
  6
Continuous
 62
     7
100
AcDbLine
 10
0.1096591641591904
 20
-0.2792398032442862
 30
0.0
 11
0.1279356915190555
 21
-0.3257797704516673
 31
0.0
  0
LINE
  5
49
330
42
100
AcDbEntity
  8
ASHADE
  6
Continuous
 62
     7
100
AcDbLine
 10
0.2041413561583015
 20
-0.2198324514393848
 30
0.0
 11
0.2721884748777353
 21
-0.2931099352525131
 31
0.0
  0
ARC
  5
4A
330
42
100
AcDbEntity
  8
ASHADE
  6
Continuous
 62
     7
100
AcDbCircle
 10
0.0
 20
0.0
 30
0.0
 40
0.3
100
AcDbArc
 50
25.67928861945685
 51
154.3207113805431
  0
LINE
  5
4B
330
42
100
AcDbEntity
  8
ASHADE
  6
Continuous
 62
     7
100
AcDbLine
 10
-0.2703701166919155
 20
0.13
 30
0.0
 11
-0.3154318028072347
 21
0.1516666666666666
 31
0.0
  0
LINE
  5
4C
330
42
100
AcDbEntity
  8
ASHADE
  6
Continuous
 62
     7
100
AcDbLine
 10
-0.2703701166919155
 20
-0.13
 30
0.0
 11
-0.3154318028072347
 21
-0.1516666666666666
 31
0.0
  0
LINE
  5
4D
330
42
100
AcDbEntity
  8
ASHADE
  6
Continuous
 62
     7
100
AcDbLine
 10
-0.2041413561583015
 20
0.2198324514393849
 30
0.0
 11
-0.2721884748777353
 21
0.2931099352525131
 31
0.0
  0
LINE
  5
4E
330
42
100
AcDbEntity
  8
ASHADE
  6
Continuous
 62
     7
100
AcDbLine
 10
-0.1096591641591904
 20
0.2792398032442862
 30
0.0
 11
-0.1279356915190555
 21
0.3257797704516674
 31
0.0
  0
LINE
  5
4F
330
42
100
AcDbEntity
  8
ASHADE
  6
Continuous
 62
     7
100
AcDbLine
 10
0.2703701166919155
 20
-0.13
 30
0.0
 11
0.3154318028072347
 21
-0.1516666666666666
 31
0.0
  0
LINE
  5
50
330
42
100
AcDbEntity
  8
ASHADE
  6
Continuous
 62
     7
100
AcDbLine
 10
0.2703701166919155
 20
0.13
 30
0.0
 11
0.3154318028072347
 21
0.1516666666666666
 31
0.0
  0
LINE
  5
51
330
42
100
AcDbEntity
  8
ASHADE
  6
Continuous
 62
     7
100
AcDbLine
 10
0.0
 20
0.3
 30
0.0
 11
0.0
 21
0.4
 31
0.0
  0
ATTDEF
  5
52
330
42
100
AcDbEntity
  8
ASHADE
  6
Continuous
 62
     7
100
AcDbText
 10
0.0
 20
0.22
 30
0.0
 40
0.01
  1
1
100
AcDbAttributeDefinition
280
     0
  3
Light Intensity
  2
INTENSITY
 70
     1
280
     0
  0
ATTDEF
  5
53
330
42
100
AcDbEntity
  8
ASHADE
  6
Continuous
 62
     7
100
AcDbText
 10
0.0
 20
0.16
 30
0.0
 40
0.01
  1
-1
100
AcDbAttributeDefinition
280
     0
  3
*not used*
  2
BEAMD
 70
     1
280
     0
  0
ATTDEF
  5
54
330
42
100
AcDbEntity
  8
ASHADE
  6
Continuous
 62
     7
100
AcDbText
 10
0.0
 20
0.175
 30
0.0
 40
0.01
  1
-1
100
AcDbAttributeDefinition
280
     0
  3
*not used*
  2
CONED
 70
     1
280
     0
  0
ATTDEF
  5
55
330
42
100
AcDbEntity
  8
ASHADE
  6
Continuous
 62
     7
100
AcDbText
 10
0.0
 20
0.19
 30
0.0
 40
0.01
  1
0
100
AcDbAttributeDefinition
280
     0
  3
Depth Map Size
  2
CONEA
 70
     1
280
     0
  0
ATTDEF
  5
56
330
42
100
AcDbEntity
  8
ASHADE
  6
Continuous
 62
     7
100
AcDbText
 10
0.0
 20
0.2050000000000001
 30
0.0
 40
0.01
  1
1,1,1
100
AcDbAttributeDefinition
280
     0
  3
Light Color (RGB)
  2
COLOR
 70
     1
280
     0
  0
ATTDEF
  5
57
330
42
100
AcDbEntity
  8
ASHADE
  6
Continuous
 62
     7
100
AcDbText
 10
0.0
 20
0.235
 30
0.0
 40
0.01
  1

100
AcDbAttributeDefinition
280
     0
  3
Look-at Z
  2
LAZ
 70
     1
280
     0
  0
ATTDEF
  5
58
330
42
100
AcDbEntity
  8
ASHADE
  6
Continuous
 62
     7
100
AcDbText
 10
0.0
 20
0.25
 30
0.0
 40
0.01
  1

100
AcDbAttributeDefinition
280
     0
  3
Look-at Y
  2
LAY
 70
     1
280
     0
  0
ATTDEF
  5
59
330
42
100
AcDbEntity
  8
ASHADE
  6
Continuous
 62
     7
100
AcDbText
 10
0.0
 20
0.265
 30
0.0
 40
0.01
  1

100
AcDbAttributeDefinition
280
     0
  3
Look-at X
  2
LAX
 70
     1
280
     0
  0
ATTDEF
  5
5A
330
42
100
AcDbEntity
  8
ASHADE
  6
Continuous
 62
     7
100
AcDbText
 10
0.0
 20
0.28
 30
0.0
 40
0.01
  1

100
AcDbAttributeDefinition
280
     0
  3

  2
GNAME
 70
     1
280
     0
  0
LINE
  5
5B
330
42
100
AcDbEntity
  8
ASHADE
  6
Continuous
 62
     7
100
AcDbLine
 10
0.1096591641591904
 20
0.2792398032442862
 30
0.0
 11
0.1279356915190555
 21
0.3257797704516674
 31
0.0
  0
LINE
  5
5C
330
42
100
AcDbEntity
  8
ASHADE
  6
Continuous
 62
     7
100
AcDbLine
 10
0.2041413561583015
 20
0.2198324514393849
 30
0.0
 11
0.2721884748777353
 21
0.2931099352525131
 31
0.0
  0
ENDBLK
  5
5E
330
42
100
AcDbEntity
  8
0
100
AcDbBlockEnd
  0
BLOCK
  5
85
330
5F
100
AcDbEntity
  8
0
100
AcDbBlockBegin
  2
sh_spot
 70
     2
 10
0.0
 20
0.0
 30
0.0
  3
sh_spot
  1

  0
LINE
  5
60
330
5F
100
AcDbEntity
  8
ASHADE
  6
Continuous
 62
     7
100
AcDbLine
 10
0.25
 20
0.26
 30
0.0
 11
-0.25
 21
0.26
 31
0.0
  0
LINE
  5
61
330
5F
100
AcDbEntity
  8
ASHADE
  6
Continuous
 62
     7
100
AcDbLine
 10
-0.25
 20
-0.3399999999999999
 30
0.0
 11
0.25
 21
-0.3399999999999999
 31
0.0
  0
ATTDEF
  5
62
330
5F
100
AcDbEntity
  8
ASHADE
  6
Continuous
 62
     1
100
AcDbText
 10
0.0
 20
-0.1
 30
0.0
 40
0.2
  1

  7
ASHADE
 72
     1
 11
0.0
 21
-0.1
 31
0.0
100
AcDbAttributeDefinition
280
     0
  3
Light Name
  2
SNAME
 70
     0
280
     0
  0
LINE
  5
63
330
5F
100
AcDbEntity
  8
ASHADE
  6
Continuous
 62
     7
100
AcDbLine
 10
-0.25
 20
-0.13
 30
0.0
 11
-0.25
 21
-0.3399999999999999
 31
0.0
  0
LINE
  5
64
330
5F
100
AcDbEntity
  8
ASHADE
  6
Continuous
 62
     7
100
AcDbLine
 10
-0.25
 20
-0.18
 30
0.0
 11
-0.29
 21
-0.18
 31
0.0
  0
LINE
  5
65
330
5F
100
AcDbEntity
  8
ASHADE
  6
Continuous
 62
     7
100
AcDbLine
 10
-0.29
 20
-0.22
 30
0.0
 11
-0.25
 21
-0.22
 31
0.0
  0
LINE
  5
66
330
5F
100
AcDbEntity
  8
ASHADE
  6
Continuous
 62
     7
100
AcDbLine
 10
-0.29
 20
-0.18
 30
0.0
 11
-0.29
 21
-0.22
 31
0.0
  0
LINE
  5
67
330
5F
100
AcDbEntity
  8
ASHADE
  6
Continuous
 62
     7
100
AcDbLine
 10
-0.1045454545454545
 20
0.26
 30
0.0
 11
-0.15
 21
0.46
 31
0.0
  0
LINE
  5
68
330
5F
100
AcDbEntity
  8
ASHADE
  6
Continuous
 62
     7
100
AcDbLine
 10
-0.21
 20
0.26
 30
0.0
 11
-0.301304347826087
 21
0.46
 31
0.0
  0
LINE
  5
69
330
5F
100
AcDbEntity
  8
ASHADE
  6
Continuous
 62
     7
100
AcDbLine
 10
-0.25
 20
0.26
 30
0.0
 11
-0.25
 21
0.13
 31
0.0
  0
LINE
  5
6A
330
5F
100
AcDbEntity
  8
ASHADE
  6
Continuous
 62
     7
100
AcDbLine
 10
-0.25
 20
0.22
 30
0.0
 11
-0.29
 21
0.22
 31
0.0
  0
LINE
  5
6B
330
5F
100
AcDbEntity
  8
ASHADE
  6
Continuous
 62
     7
100
AcDbLine
 10
-0.29
 20
0.1799999999999999
 30
0.0
 11
-0.25
 21
0.1799999999999999
 31
0.0
  0
LINE
  5
6C
330
5F
100
AcDbEntity
  8
ASHADE
  6
Continuous
 62
     7
100
AcDbLine
 10
-0.29
 20
0.22
 30
0.0
 11
-0.29
 21
0.1799999999999999
 31
0.0
  0
ATTDEF
  5
6D
330
5F
100
AcDbEntity
  8
ASHADE
  6
Continuous
 62
     7
100
AcDbText
 10
0.0
 20
-0.24
 30
0.0
 40
0.01
  1
0
100
AcDbAttributeDefinition
280
     0
  3
Depth Map Size
  2
ZSIZE
 70
     1
280
     0
  0
ATTDEF
  5
6E
330
5F
100
AcDbEntity
  8
ASHADE
  6
Continuous
 62
     7
100
AcDbText
 10
0.0
 20
-0.3300000000000001
 30
0.0
 40
0.01
  1
0,0,0
100
AcDbAttributeDefinition
280
     0
  3
Look-from XYZ
  2
LFXYZ
 70
     1
280
     0
  0
ATTDEF
  5
6F
330
5F
100
AcDbEntity
  8
ASHADE
  6
Continuous
 62
     7
100
AcDbText
 10
0.0
 20
-0.315
 30
0.0
 40
0.01
  1
0.0
100
AcDbAttributeDefinition
280
     0
  3
Beam Distribution
  2
BEAMDI
 70
     1
280
     0
  0
ATTDEF
  5
70
330
5F
100
AcDbEntity
  8
ASHADE
  6
Continuous
 62
     7
100
AcDbText
 10
0.0
 20
-0.3
 30
0.0
 40
0.01
  1
0.0
100
AcDbAttributeDefinition
280
     0
  3
Cone Delta
  2
CONEDE
 70
     1
280
     0
  0
ATTDEF
  5
71
330
5F
100
AcDbEntity
  8
ASHADE
  6
Continuous
 62
     7
100
AcDbText
 10
0.0
 20
-0.2850000000000001
 30
0.0
 40
0.01
  1
10.0
100
AcDbAttributeDefinition
280
     0
  3
Cone Angle
  2
CONEAN
 70
     1
280
     0
  0
ATTDEF
  5
72
330
5F
100
AcDbEntity
  8
ASHADE
  6
Continuous
 62
     7
100
AcDbText
 10
0.0
 20
-0.27
 30
0.0
 40
0.01
  1
-1
100
AcDbAttributeDefinition
280
     0
  3
*not used*
  2
BIASMAX
 70
     1
280
     0
  0
ATTDEF
  5
73
330
5F
100
AcDbEntity
  8
ASHADE
  6
Continuous
 62
     7
100
AcDbText
 10
0.0
 20
-0.255
 30
0.0
 40
0.01
  1
-1
100
AcDbAttributeDefinition
280
     0
  3
*not used*
  2
BIASMIN
 70
     1
280
     0
  0
ATTDEF
  5
74
330
5F
100
AcDbEntity
  8
ASHADE
  6
Continuous
 62
     7
100
AcDbText
 10
0.0
 20
-0.225
 30
0.0
 40
0.01
  1
1,1,1
100
AcDbAttributeDefinition
280
     0
  3
Light Color (RGB)
  2
COLOR
 70
     1
280
     0
  0
ATTDEF
  5
75
330
5F
100
AcDbEntity
  8
ASHADE
  6
Continuous
 62
     7
100
AcDbText
 10
0.0
 20
-0.21
 30
0.0
 40
0.01
  1
1
100
AcDbAttributeDefinition
280
     0
  3
Light Intensity
  2
INTENSITY
 70
     1
280
     0
  0
ATTDEF
  5
76
330
5F
100
AcDbEntity
  8
ASHADE
  6
Continuous
 62
     7
100
AcDbText
 10
0.0
 20
-0.15
 30
0.0
 40
0.01
  1

100
AcDbAttributeDefinition
280
     0
  3

  2
GNAME
 70
     1
280
     0
  0
ATTDEF
  5
77
330
5F
100
AcDbEntity
  8
ASHADE
  6
Continuous
 62
     7
100
AcDbText
 10
0.0
 20
-0.195
 30
0.0
 40
0.01
  1

100
AcDbAttributeDefinition
280
     0
  3
Look-at Z
  2
LAZ
 70
     1
280
     0
  0
ATTDEF
  5
78
330
5F
100
AcDbEntity
  8
ASHADE
  6
Continuous
 62
     7
100
AcDbText
 10
0.0
 20
-0.18
 30
0.0
 40
0.01
  1

100
AcDbAttributeDefinition
280
     0
  3
Look-at Y
  2
LAY
 70
     1
280
     0
  0
ATTDEF
  5
79
330
5F
100
AcDbEntity
  8
ASHADE
  6
Continuous
 62
     7
100
AcDbText
 10
0.0
 20
-0.165
 30
0.0
 40
0.01
  1

100
AcDbAttributeDefinition
280
     0
  3
Look-at X
  2
LAX
 70
     1
280
     0
  0
LINE
  5
7A
330
5F
100
AcDbEntity
  8
ASHADE
  6
Continuous
 62
     7
100
AcDbLine
 10
0.25
 20
-0.3399999999999999
 30
0.0
 11
0.25
 21
-0.13
 31
0.0
  0
LINE
  5
7B
330
5F
100
AcDbEntity
  8
ASHADE
  6
Continuous
 62
     7
100
AcDbLine
 10
0.25
 20
-0.18
 30
0.0
 11
0.29
 21
-0.18
 31
0.0
  0
LINE
  5
7C
330
5F
100
AcDbEntity
  8
ASHADE
  6
Continuous
 62
     7
100
AcDbLine
 10
0.29
 20
-0.22
 30
0.0
 11
0.25
 21
-0.22
 31
0.0
  0
LINE
  5
7D
330
5F
100
AcDbEntity
  8
ASHADE
  6
Continuous
 62
     7
100
AcDbLine
 10
0.29
 20
-0.18
 30
0.0
 11
0.29
 21
-0.22
 31
0.0
  0
LINE
  5
7E
330
5F
100
AcDbEntity
  8
ASHADE
  6
Continuous
 62
     7
100
AcDbLine
 10
0.21
 20
0.26
 30
0.0
 11
0.301304347826087
 21
0.46
 31
0.0
  0
LINE
  5
7F
330
5F
100
AcDbEntity
  8
ASHADE
  6
Continuous
 62
     7
100
AcDbLine
 10
0.1045454545454545
 20
0.26
 30
0.0
 11
0.15
 21
0.46
 31
0.0
  0
LINE
  5
80
330
5F
100
AcDbEntity
  8
ASHADE
  6
Continuous
 62
     7
100
AcDbLine
 10
0.0
 20
0.26
 30
0.0
 11
0.0
 21
0.46
 31
0.0
  0
LINE
  5
81
330
5F
100
AcDbEntity
  8
ASHADE
  6
Continuous
 62
     7
100
AcDbLine
 10
0.25
 20
0.13
 30
0.0
 11
0.25
 21
0.26
 31
0.0
  0
LINE
  5
82
330
5F
100
AcDbEntity
  8
ASHADE
  6
Continuous
 62
     7
100
AcDbLine
 10
0.25
 20
0.22
 30
0.0
 11
0.29
 21
0.22
 31
0.0
  0
LINE
  5
83
330
5F
100
AcDbEntity
  8
ASHADE
  6
Continuous
 62
     7
100
AcDbLine
 10
0.29
 20
0.1799999999999999
 30
0.0
 11
0.25
 21
0.1799999999999999
 31
0.0
  0
LINE
  5
84
330
5F
100
AcDbEntity
  8
ASHADE
  6
Continuous
 62
     7
100
AcDbLine
 10
0.29
 20
0.22
 30
0.0
 11
0.29
 21
0.1799999999999999
 31
0.0
  0
ENDBLK
  5
86
330
5F
100
AcDbEntity
  8
0
100
AcDbBlockEnd
  0
BLOCK
  5
92
330
91
100
AcDbEntity
  8
ASHADE
100
AcDbBlockBegin
  2
AVE_RENDER
 70
     0
 10
0.0
 20
0.0
 30
0.0
  3
AVE_RENDER
  1
AVE_RENDER
  0
ENDBLK
  5
93
330
91
100
AcDbEntity
  8
0
100
AcDbBlockEnd
  0
BLOCK
  5
A0
330
9F
100
AcDbEntity
  8
ASHADE
100
AcDbBlockBegin
  2
AVE_GLOBAL
 70
     0
 10
0.0
 20
0.0
 30
0.0
  3
AVE_GLOBAL
  1
AVE_GLOBAL
  0
ENDBLK
  5
A1
330
9F
100
AcDbEntity
  8
0
100
AcDbBlockEnd
  0
ENDSEC
  0
SECTION
  2
ENTITIES
  0
INSERT
  5
94
330
1F
100
AcDbEntity
  8
ASHADE
 62
     1
100
AcDbBlockReference
  2
AVE_RENDER
 10
0.0
 20
0.0
 30
0.0
1001
AVE_RENDER
1002
{
1070
     7
1000
Pref
1070
    30
1070
    20
1070
     1
1070
     0
1000

1070
    10
1070
     1
1070
    10
1040
1.0
1070
     1
1040
0.3
1040
0.7
1040
0.0
1040
10.0
1010
-1.0
1020
-1.0
1030
-1.0
1040
0.3
1070
    49
1070
     0
1070
     0
1010
1.0
1020
1.0
1030
1.0
1040
45.0
1070
     1
1070
     0
1000
WCS
1040
0.0
1070
     0
1040
10.0
1002
}
  0
INSERT
  5
95
330
1F
100
AcDbEntity
  8
ASHADE
 62
     3
100
AcDbBlockReference
  2
AVE_RENDER
 10
0.0
 20
0.0
 30
0.0
1001
AVE_RENDER
1002
{
1070
     0
1000
Full Opt
1070
     0
1070
     1
1070
     1
1070
     1
1070
     0
1070
     0
1070
     0
1070
     1
1070
     1
1040
0.0001
1040
0.0001
1002
}
  0
INSERT
  5
96
330
1F
100
AcDbEntity
  8
ASHADE
 62
     4
100
AcDbBlockReference
  2
AVE_RENDER
 10
0.0
 20
0.0
 30
0.0
1001
AVE_RENDER
1002
{
1070
     0
1000
Quick Opt
1070
     0
1070
     1
1070
     1
1070
     1
1070
     0
1070
     0
1070
     1
1002
}
  0
INSERT
  5
97
330
1F
100
AcDbEntity
  8
ASHADE
 62
     5
100
AcDbBlockReference
  2
AVE_RENDER
 10
0.0
 20
0.0
 30
0.0
1001
AVE_RENDER
1002
{
1070
     1
1000
Scanl Opt
1070
     2
1070
     0
1070
     2
1040
2.0
1040
4.0
1070
     0
1070
     1
1070
     0
1040
0.03
1002
}
  0
INSERT
  5
98
330
1F
100
AcDbEntity
  8
ASHADE
 62
     6
100
AcDbBlockReference
  2
AVE_RENDER
 10
0.0
 20
0.0
 30
0.0
1001
AVE_RENDER
1002
{
1070
     2
1000
Raytr Opt
1070
     2
1070
     0
1070
     2
1040
2.0
1040
4.0
1070
     0
1070
     1
1070
     1
1040
0.03
1070
     3
1040
0.03
1002
}
  0
INSERT
  5
99
330
1F
100
AcDbEntity
  8
ASHADE
 62
     7
100
AcDbBlockReference
  2
AVE_RENDER
 10
0.0
 20
0.0
 30
0.0
1001
AVE_RENDER
1002
{
1070
     0
1000
RFile Opt
1070
     1
1070
   640
1070
   480
1070
 10000
1070
     1
1070
     8
1070
     8
1070
     0
1070
     0
1070
     0
1070
     0
1070
     0
1070
     0
1070
     0
1002
}
  0
INSERT
  5
9A
330
1F
100
AcDbEntity
  8
ASHADE
 62
     8
100
AcDbBlockReference
  2
AVE_RENDER
 10
0.0
 20
0.0
 30
0.0
1001
AVE_RENDER
1002
{
1070
     0
1000
Fog Opt
1070
     0
1070
     0
1040
0.0
1040
1.0
1040
0.0
1040
1.0
1010
0.5
1020
0.5
1030
0.5
1002
}
  0
INSERT
  5
9B
330
1F
100
AcDbEntity
  8
ASHADE
 62
     9
100
AcDbBlockReference
  2
AVE_RENDER
 10
0.0
 20
0.0
 30
0.0
1001
AVE_RENDER
1002
{
1070
     0
1000
BG Opt
1070
     0
1070
     1
1010
0.0
1020
0.0
1030
0.0
1010
1.0
1020
0.0
1030
0.0
1010
0.0
1020
1.0
1030
0.0
1010
0.0
1020
0.0
1030
1.0
1040
0.5
1040
0.33
1040
0.0
1000

1070
     1
1000

1070
     1
1070
     1
1040
1.0
1040
1.0
1040
0.0
1040
0.0
1070
     0
1002
}
  0
INSERT
  5
A2
330
1F
100
AcDbEntity
  8
ASHADE
 62
     1
100
AcDbBlockReference
  2
AVE_GLOBAL
 10
0.0
 20
0.0
 30
0.0
1001
AVE_MATERIAL
1002
{
1000
*GLOBAL*
1000
2
1000
Global finish.
1002
{
1002
}
1002
{
1070
    63
1002
{
1002
{
1010
-1.0
1020
-1.0
1030
-1.0
1002
}
1040
0.1000000014901161
1000

1040
0.0
1002
{
1002
}
1040
0.0
1002
{
1002
}
1040
0.0
1002
}
1002
{
1002
{
1010
-1.0
1020
-1.0
1030
-1.0
1002
}
1040
0.6999999880790711
1000

1040
0.0
1002
{
1002
}
1040
0.0
1002
{
1002
}
1040
0.0
1002
}
1002
{
1002
{
1010
-1.0
1020
-1.0
1030
-1.0
1002
}
1040
0.2000000029802322
1000

1040
0.0
1002
{
1002
}
1040
0.0
1002
{
1002
}
1040
0.0
1002
}
1002
{
1070
     0
1002
{
1070
     1
1002
{
1040
1.0
1040
1.0
1000

1040
0.0
1002
{
1002
}
1040
0.0
1002
{
1002
}
1040
0.0
1002
}
1002
}
1040
1.0
1040
0.0
1040
0.0
1002
}
1002
{
1040
1.0
1040
1.0
1000

1040
0.0
1002
{
1002
}
1040
0.0
1002
{
1002
}
1040
0.0
1002
}
1002
{
1040
0.5
1040
1.0
1000

1040
0.0
1002
{
1002
}
1040
0.0
1002
{
1002
}
1040
0.0
1002
}
1002
{
1070
     0
1040
0.0
1002
{
1002
}
1040
1.0
1002
{
1002
}
1040
0.0
1002
}
1002
{
1040
0.0
1002
{
1002
{
1010
0.0
1020
0.0
1030
0.0
1002
}
1040
1.0
1000

1040
0.0
1002
{
1002
}
1040
0.0
1002
{
1002
}
1040
0.0
1002
}
1002
}
1002
{
1002
{
1070
     1
1002
{
1040
0.0
1040
1.0
1000

1040
0.0
1002
{
1002
}
1040
0.0
1002
{
1002
}
1040
0.0
1002
}
1002
}
1040
0.0
1002
{
1002
}
1010
1.0
1020
0.0
1030
0.0
1010
0.0
1020
1.0
1030
0.0
1010
0.0
1020
0.0
1030
1.0
1070
     0
1002
}
1002
{
1002
{
1040
1.0
1040
1.0
1002
{
1070
     1
1002
{
1040
1.0
1040
1.0
1000

1040
0.0
1002
{
1002
}
1040
0.0
1002
{
1002
}
1040
0.0
1002
}
1002
}
1002
}
1070
     0
1040
0.0
1002
{
1002
}
1002
}
1002
{
1002
}
1002
}
1002
{
1071
        3
1070
     3
1070
     0
1002
{
1070
     2
1070
     0
1070
     0
1040
0.0
1002
}
1070
     0
1070
     2
1002
{
1002
}
1002
}
1002
{
1040
8030.0
1040
190.3000030517578
1040
0.3050000071525574
1040
228.0
1040
545.0
1040
14.0
1040
17.39999961853027
1040
0.4560000002384186
1002
}
1002
}
  0
MESH
  5
F9
330
1F
100
AcDbEntity
  8
160_
 62
    18
420
        0
160
             27584
310
C06B0000FE0200000C00000013000000020000003C0000000600000002000000000000E0ECDC0D40000000A0D394D9BF00000040E32706C0000000E0ECDC0D40000000A0D294D9BF000000C008D605400C000000130000000A0000003C0000000600000002000000000000E0ECDC0D40000000A0D294D9BF000000C008D605
310
40000000A059140EC0000000A0D294D9BF000000C008D605400C00000013000000120000003C0000000600000002000000000000A059140EC0000000A0D394D9BF00000040E32706C0000000A059140EC0000000A0D294D9BF000000C008D605400C000000130000001A0000003C0000000600000002000000000000E0ECDC
310
0D40000000A0D394D9BF00000040E32706C0000000A059140EC0000000A0D394D9BF00000040E32706C00C00000013000000220000003C0000000600000002000000000000E0ECDC0D40000000201CD981BE00000040E32706C0000000E0ECDC0D40000000A0D394D9BF00000040E32706C00C000000130000002A0000003C
310
0000000600000002000000000000A059140EC0000000201CD981BE00000040E32706C0000000A059140EC0000000A0D394D9BF00000040E32706C00C00000013000000320000003C0000000600000002000000000000E0ECDC0D40000000201CD981BE00000040E32706C0000000A059140EC0000000201CD981BE00000040
310
E32706C00C000000130000003A0000003C0000000600000002000000000000A059140EC0000000A0149D813E000000C008D60540000000A059140EC0000000A0D294D9BF000000C008D605400C00000013000000420000003C0000000600000002000000000000A059140EC0000000201CD981BE00000040E32706C0000000
310
A059140EC0000000A0149D813E000000C008D605400C000000130000004A0000003C0000000600000002000000000000E0ECDC0D40000000A0149D813E000000C008D60540000000E0ECDC0D40000000A0D294D9BF000000C008D605400C00000013000000520000003C0000000600000002000000000000E0ECDC0D400000
310
00A0149D813E000000C008D60540000000A059140EC0000000A0149D813E000000C008D605400C000000130000005A0000003C0000000600000002000000000000E0ECDC0D40000000201CD981BE00000040E32706C0000000E0ECDC0D40000000A0149D813E000000C008D605400C00000013000000620000003C00000006
310
00000002000000000000E03F84EF3F00000040720135C0000000A0648EBE3F000000A0D9E2E63F00000020714535C0000000C0CC45C53F0C000000130000006A0000003C0000000600000002000000000000C05F87F23F000000C0C4AB34C0000000A09BE5AE3F000000E03F84EF3F00000040720135C0000000A0648EBE3F
310
0C00000013000000720000003C000000060000000200000000000060C67BF33F00000020CB4C34C0000000404EC674BF000000C05F87F23F000000C0C4AB34C0000000A09BE5AE3F0C000000130000007A0000003C0000000600000002000000000000006087F23F00000040D1ED33C0000000A0980BB2BF00000060C67BF3
310
3F00000020CB4C34C0000000404EC674BF0C00000013000000820000003C0000000600000002000000000000E03F84EF3F00000080239833C0000000A09893C0BF000000006087F23F00000040D1ED33C0000000A0980BB2BF0C000000130000008A0000003C000000060000000200000000000080D9E2E63F000000E02454
310
33C0000000203292C6BF000000E03F84EF3F00000080239833C0000000A09893C0BF0C00000013000000920000003C0000000600000002000000000000609905D83F000000207D2833C000000000656BCABF00000080D9E2E63F000000E0245433C0000000203292C6BF0C000000130000009A0000003C0000000600000002
310
000000000000E0D59956BF00000020721933C000000080FEBECBBF000000609905D83F000000207D2833C000000000656BCABF0C00000013000000A20000003C000000060000000200000000000020CD32D8BF000000207D2833C000000000656BCABF000000E0D59956BF00000020721933C000000080FEBECBBF0C000000
310
13000000AA0000003C00000006000000020000000000008066F9E6BF000000E0245433C0000000203292C6BF00000020CD32D8BF000000207D2833C000000000656BCABF0C00000013000000B20000003C000000060000000200000000000000CD9AEFBF000000C0239833C0000000A09893C0BF0000008066F9E6BF000000
310
E0245433C0000000203292C6BF0C00000013000000BA0000003C000000060000000200000000000060A692F2BF00000040D1ED33C0000000A0980BB2BF00000000CD9AEFBF000000C0239833C0000000A09893C0BF0C00000013000000C20000003C0000000600000002000000000000E00C87F3BF00000020CB4C34C00000
310
00404EC674BF00000060A692F2BF00000040D1ED33C0000000A0980BB2BF0C00000013000000CA0000003C0000000600000002000000000000A0A692F2BF000000C0C4AB34C0000000A09BE5AE3F000000E00C87F3BF00000020CB4C34C0000000404EC674BF0C00000013000000D20000003C000000060000000200000000
310
000000CD9AEFBF00000080720135C0000000A0648EBE3F000000A0A692F2BF000000C0C4AB34C0000000A09BE5AE3F0C00000013000000DA0000003C00000006000000020000000000006066F9E6BF00000020714535C0000000C0CC45C53F00000000CD9AEFBF00000080720135C0000000A0648EBE3F0C00000013000000
310
E20000003C000000060000000200000000000060B332D8BF000000E0187135C000000020001FC93F0000006066F9E6BF00000020714535C0000000C0CC45C53F0C00000013000000EA0000003C000000060000000200000000000060B332D8BF000000E0187135C000000020001FC93F000000C0D59956BF000000E0238035
310
C0000000A09972CA3F0C00000013000000F20000003C0000000600000002000000000000809905D83F000000E0187135C000000020001FC93F000000C0D59956BF000000E0238035C0000000A09972CA3F0C00000013000000FA0000003C0000000600000002000000000000A0D9E2E63F00000020714535C0000000C0CC45
310
C53F000000809905D83F000000E0187135C000000020001FC93F0C00000013000000020100003C0000000600000002000000000000C0D59956BF000000E0238035C0000000A09972CA3F000000C0D59956BF0000002053B335C0000000E06CACEDBF0C000000130000000A0100003C00000006000000020000000000008099
310
05D83F0000004048A435C0000000A04C01EEBF000000C0D59956BF0000002053B335C0000000E06CACEDBF0C00000013000000120100003C0000000600000002000000000000809905D83F000000E0187135C000000020001FC93F000000809905D83F0000004048A435C0000000A04C01EEBF0C000000130000001A010000
310
3C0000000600000002000000000000809905D83F0000004048A435C0000000A04C01EEBF00000080D9E2E63F00000040A07835C0000000E09FF7EEBF0C00000013000000220100003C0000000600000002000000000000A0D9E2E63F00000020714535C0000000C0CC45C53F00000080D9E2E63F00000040A07835C0000000
310
E09FF7EEBF0C000000130000002A0100003C000000060000000200000000000080D9E2E63F00000040A07835C0000000E09FF7EEBF000000204084EF3F000000C0A13435C000000080A63BF0BF0C00000013000000320100003C0000000600000002000000000000E03F84EF3F00000040720135C0000000A0648EBE3F0000
310
00204084EF3F000000C0A13435C000000080A63BF0BF0C000000130000003A0100003C0000000600000002000000000000204084EF3F000000C0A13435C000000080A63BF0BF000000C05F87F23F000000E0F3DE34C0000000A05C2DF1BF0C00000013000000420100003C0000000600000002000000000000C05F87F23F00
310
0000C0C4AB34C0000000A09BE5AE3F000000C05F87F23F000000E0F3DE34C0000000A05C2DF1BF0C000000130000004A0100003C0000000600000002000000000000C05F87F23F000000E0F3DE34C0000000A05C2DF1BF00000040C67BF33F00000040FA7F34C0000000205039F2BF0C00000013000000520100003C000000
310
060000000200000000000060C67BF33F00000020CB4C34C0000000404EC674BF00000040C67BF33F00000040FA7F34C0000000205039F2BF0C000000130000005A0100003C000000060000000200000000000040C67BF33F00000040FA7F34C0000000205039F2BF000000006087F23F000000C0002134C0000000A03F45F3
310
BF0C00000013000000620100003C0000000600000002000000000000006087F23F00000040D1ED33C0000000A0980BB2BF000000006087F23F000000C0002134C0000000A03F45F3BF0C000000130000006A0100003C0000000600000002000000000000006087F23F000000C0002134C0000000A03F45F3BF000000E03F84
310
EF3F000000E052CB33C000000020F936F4BF0C00000013000000720100003C0000000600000002000000000000E03F84EF3F00000080239833C0000000A09893C0BF000000E03F84EF3F000000E052CB33C000000020F936F4BF0C000000130000007A0100003C0000000600000002000000000000E03F84EF3F000000E052
310
CB33C000000020F936F4BF00000080D9E2E63F00000040548733C000000060CCF6F4BF0C00000013000000820100003C000000060000000200000000000080D9E2E63F000000E0245433C0000000203292C6BF00000080D9E2E63F00000040548733C000000060CCF6F4BF0C000000130000008A0100003C00000006000000
310
0200000000000080D9E2E63F00000040548733C000000060CCF6F4BF000000809905D83F00000080AC5B33C000000060F971F5BF0C00000013000000920100003C0000000600000002000000000000609905D83F000000207D2833C000000000656BCABF000000809905D83F00000080AC5B33C000000060F971F5BF0C0000
310
00130000009A0100003C0000000600000002000000000000809905D83F00000080AC5B33C000000060F971F5BF000000E0D59956BF00000080A14C33C000000020669CF5BF0C00000013000000A20100003C0000000600000002000000000000E0D59956BF00000020721933C000000080FEBECBBF000000E0D59956BF0000
310
0080A14C33C000000020669CF5BF0C00000013000000AA0100003C0000000600000002000000000000E0D59956BF00000080A14C33C000000020669CF5BF00000000CD32D8BF00000080AC5B33C000000060F971F5BF0C00000013000000B20100003C000000060000000200000000000020CD32D8BF000000207D2833C000
310
000000656BCABF00000000CD32D8BF00000080AC5B33C000000060F971F5BF0C00000013000000BA0100003C000000060000000200000000000000CD32D8BF00000080AC5B33C000000060F971F5BF0000008066F9E6BF00000040548733C000000060CCF6F4BF0C00000013000000C20100003C0000000600000002000000
310
0000008066F9E6BF000000E0245433C0000000203292C6BF0000008066F9E6BF00000040548733C000000060CCF6F4BF0C00000013000000CA0100003C00000006000000020000000000008066F9E6BF00000040548733C000000060CCF6F4BF00000000CD9AEFBF000000E052CB33C000000020F936F4BF0C000000130000
310
00D20100003C000000060000000200000000000000CD9AEFBF000000C0239833C0000000A09893C0BF00000000CD9AEFBF000000E052CB33C000000020F936F4BF0C00000013000000DA0100003C000000060000000200000000000000CD9AEFBF000000E052CB33C000000020F936F4BF00000060A692F2BF000000C00021
310
34C0000000A03F45F3BF0C00000013000000E20100003C000000060000000200000000000060A692F2BF00000040D1ED33C0000000A0980BB2BF00000060A692F2BF000000C0002134C0000000A03F45F3BF0C00000013000000EA0100003C000000060000000200000000000060A692F2BF000000C0002134C0000000A03F
310
45F3BF000000000D87F3BF00000040FA7F34C0000000205039F2BF0C00000013000000F20100003C0000000600000002000000000000E00C87F3BF00000020CB4C34C0000000404EC674BF000000000D87F3BF00000040FA7F34C0000000205039F2BF0C00000013000000FA0100003C000000060000000200000000000000
310
0D87F3BF00000040FA7F34C0000000205039F2BF000000A0A692F2BF00000020F4DE34C0000000A05C2DF1BF0C00000013000000020200003C0000000600000002000000000000A0A692F2BF000000C0C4AB34C0000000A09BE5AE3F000000A0A692F2BF00000020F4DE34C0000000A05C2DF1BF0C000000130000000A0200
310
003C0000000600000002000000000000A0A692F2BF00000020F4DE34C0000000A05C2DF1BF000000C0CC9AEFBF000000E0A13435C000000080A63BF0BF0C00000013000000120200003C000000060000000200000000000000CD9AEFBF00000080720135C0000000A0648EBE3F000000C0CC9AEFBF000000E0A13435C00000
310
0080A63BF0BF0C000000130000001A0200003C0000000600000002000000000000C0CC9AEFBF000000E0A13435C000000080A63BF0BF0000008066F9E6BF00000080A07835C0000000E09FF7EEBF0C00000013000000220200003C00000006000000020000000000006066F9E6BF00000020714535C0000000C0CC45C53F00
310
00008066F9E6BF00000080A07835C0000000E09FF7EEBF0C000000130000002A0200003C00000006000000020000000000008066F9E6BF00000080A07835C0000000E09FF7EEBF00000060B332D8BF0000004048A435C0000000A04C01EEBF0C00000013000000320200003C000000060000000200000000000060B332D8BF
310
000000E0187135C000000020001FC93F00000060B332D8BF0000004048A435C0000000A04C01EEBF0C000000130000003A0200003C0000000600000002000000000000C0D59956BF0000002053B335C0000000E06CACEDBF00000060B332D8BF0000004048A435C0000000A04C01EEBF0C00000013000000420200003C0000
310
000600000002000000000000E0ECD5F0BF000000C0F37334C00000000026ECEBBF000000204003F0BF000000E0D1C534C0000000C0321EEABF0C000000130000004A0200003C0000000600000002000000000000404003F0BF00000080152234C00000004019BAEDBF000000E0ECD5F0BF000000C0F37334C00000000026EC
310
EBBF0C00000013000000520200003C0000000600000002000000000000E0BF3FEBBF000000E03AD833C0000000A0CC5AEFBF000000404003F0BF00000080152234C00000004019BAEDBF0C000000130000005A0200003C00000006000000020000000000002040CFE3BF000000809E9D33C0000000E0C252F0BF000000E0BF
310
3FEBBF000000E03AD833C0000000A0CC5AEFBF0C00000013000000620200003C00000006000000020000000000004000DFD4BF000000E0FC7733C000000060ECBCF0BF0000002040CFE3BF000000809E9D33C0000000E0C252F0BF0C000000130000006A0200003C0000000600000002000000000000C0D59956BF00000080
310
056B33C0000000E082E1F0BF0000004000DFD4BF000000E0FC7733C000000060ECBCF0BF0C00000013000000720200003C0000000600000002000000000000A0CCB1D43F000000E0FC7733C000000060ECBCF0BF000000C0D59956BF00000080056B33C0000000E082E1F0BF0C000000130000007A0200003C000000060000
310
000200000000000020B3B8E33F000000409E9D33C0000000E0C252F0BF000000A0CCB1D43F000000E0FC7733C000000060ECBCF0BF0C00000013000000820200003C0000000600000002000000000000603329EB3F000000C03AD833C0000000A0CC5AEFBF00000020B3B8E33F000000409E9D33C0000000E0C252F0BF0C00
310
0000130000008A0200003C000000060000000200000000000020F3EFEF3F00000080152234C00000004019BAEDBF000000603329EB3F000000C03AD833C0000000A0CC5AEFBF0C00000013000000920200003C000000060000000200000000000060A6CAF03F000000C0F37334C00000000026ECEBBF00000020F3EFEF3F00
310
000080152234C00000004019BAEDBF0C000000130000009A0200003C000000060000000200000000000020F3EFEF3F000000E0D1C534C000000020391EEABF00000060A6CAF03F000000C0F37334C00000000026ECEBBF0C00000013000000A20200003C0000000600000002000000000000403329EB3F000000C0AC0F35C0
310
00000000807DE8BF00000020F3EFEF3F000000E0D1C534C000000020391EEABF0C00000013000000AA0200003C000000060000000200000000000040B3B8E33F00000020494A35C0000000A0CC32E7BF000000403329EB3F000000C0AC0F35C000000000807DE8BF0C00000013000000B20200003C00000006000000020000
310
00000000C0CCB1D43F00000080EA6F35C000000060735EE6BF00000040B3B8E33F00000020494A35C0000000A0CC32E7BF0C00000013000000BA0200003C0000000600000002000000000000E0D59956BF000000E0E17C35C0000000C04C15E6BF000000C0CCB1D43F00000080EA6F35C000000060735EE6BF0C0000001300
310
0000C20200003C000000060000000200000000000080E6DED4BF00000080EA6F35C000000060735EE6BF000000E0D59956BF000000E0E17C35C0000000C04C15E6BF0C00000013000000CA0200003C000000060000000200000000000080E6DED4BF00000080EA6F35C000000060735EE6BF0000000040CFE3BF0000002049
310
4A35C0000000A0CC32E7BF0C00000013000000D20200003C000000060000000200000000000000C03FEBBF000000C0AC0F35C000000000807DE8BF0000000040CFE3BF00000020494A35C0000000A0CC32E7BF0C00000013000000DA0200003C0000000600000002000000000000204003F0BF000000E0D1C534C0000000C0
310
321EEABF00000000C03FEBBF000000C0AC0F35C000000000807DE8BF0C00000013000000E20200003C0000000600000002000000000000C0D59956BF0000002053B335C0000000E06CACEDBF000000E0D59956BF000000C0E88835C0000000A0BF9BEEBF0C00000013000000EA0200003C0000000600000002000000000000
310
E0CCB1D43F00000020F17B35C0000000A0ECE4EEBF000000E0D59956BF000000C0E88835C0000000A0BF9BEEBF0C00000013000000F20200003C0000000600000002000000000000809905D83F0000004048A435C0000000A04C01EEBF000000E0CCB1D43F00000020F17B35C0000000A0ECE4EEBF0C00000013000000FA02
310
00003C0000000600000002000000000000E0CCB1D43F00000020F17B35C0000000A0ECE4EEBF00000020B3B8E33F000000C04F5635C0000000A03FB9EFBF0C00000013000000020300003C000000060000000200000000000080D9E2E63F00000040A07835C0000000E09FF7EEBF00000020B3B8E33F000000C04F5635C000
310
0000A03FB9EFBF0C000000130000000A0300003C000000060000000200000000000020B3B8E33F000000C04F5635C0000000A03FB9EFBF000000403329EB3F00000020B31B35C0000000A0F981F0BF0C00000013000000120300003C0000000600000002000000000000204084EF3F000000C0A13435C000000080A63BF0BF
310
000000403329EB3F00000020B31B35C0000000A0F981F0BF0C000000130000001A0300003C0000000600000002000000000000403329EB3F00000020B31B35C0000000A0F981F0BF00000020F3EFEF3F00000080D8D134C0000000605952F1BF0C00000013000000220300003C0000000600000002000000000000C05F87F2
310
3F000000E0F3DE34C0000000A05C2DF1BF00000020F3EFEF3F00000080D8D134C0000000605952F1BF0C000000130000002A0300003C000000060000000200000000000020F3EFEF3F00000080D8D134C0000000605952F1BF00000040A6CAF03F00000040FA7F34C0000000205039F2BF0C00000013000000320300003C00
310
0000060000000200000000000040C67BF33F00000040FA7F34C0000000205039F2BF00000040A6CAF03F00000040FA7F34C0000000205039F2BF0C000000130000003A0300003C000000060000000200000000000040A6CAF03F00000040FA7F34C0000000205039F2BF00000020F3EFEF3F000000201C2E34C00000000046
310
20F3BF0C00000013000000420300003C0000000600000002000000000000006087F23F000000C0002134C0000000A03F45F3BF00000020F3EFEF3F000000201C2E34C0000000004620F3BF0C000000130000004A0300003C000000060000000200000000000020F3EFEF3F000000201C2E34C0000000004620F3BF00000040
310
3329EB3F0000008041E433C0000000C0A2F0F3BF0C00000013000000520300003C0000000600000002000000000000E03F84EF3F000000E052CB33C000000020F936F4BF000000403329EB3F0000008041E433C0000000C0A2F0F3BF0C000000130000005A0300003C0000000600000002000000000000403329EB3F000000
310
8041E433C0000000C0A2F0F3BF00000020B3B8E33F000000E0A4A933C0000000A0FF95F4BF0C00000013000000620300003C000000060000000200000000000080D9E2E63F00000040548733C000000060CCF6F4BF00000020B3B8E33F000000E0A4A933C0000000A0FF95F4BF0C000000130000006A0300003C0000000600
310
00000200000000000020B3B8E33F000000E0A4A933C0000000A0FF95F4BF000000E0CCB1D43F00000080038433C0000000602900F5BF0C00000013000000720300003C0000000600000002000000000000809905D83F00000080AC5B33C000000060F971F5BF000000E0CCB1D43F00000080038433C0000000602900F5BF0C
310
000000130000007A0300003C0000000600000002000000000000E0CCB1D43F00000080038433C0000000602900F5BF00000000D69956BF000000200C7733C0000000A0BF24F5BF0C00000013000000820300003C0000000600000002000000000000E0D59956BF00000080A14C33C000000020669CF5BF00000000D69956BF
310
000000200C7733C0000000A0BF24F5BF0C000000130000008A0300003C000000060000000200000000000000D69956BF000000200C7733C0000000A0BF24F5BF0000000000DFD4BF00000080038433C0000000602900F5BF0C00000013000000920300003C000000060000000200000000000000CD32D8BF00000080AC5B33
310
C000000060F971F5BF0000000000DFD4BF00000080038433C0000000602900F5BF0C000000130000009A0300003C00000006000000020000000000000000DFD4BF00000080038433C0000000602900F5BF0000002040CFE3BF00000020A5A933C0000000A0FF95F4BF0C00000013000000A20300003C000000060000000200
310
00000000008066F9E6BF00000040548733C000000060CCF6F4BF0000002040CFE3BF00000020A5A933C0000000A0FF95F4BF0C00000013000000AA0300003C00000006000000020000000000002040CFE3BF00000020A5A933C0000000A0FF95F4BF00000000C03FEBBF0000008041E433C0000000C0A2F0F3BF0C00000013
310
000000B20300003C000000060000000200000000000000CD9AEFBF000000E052CB33C000000020F936F4BF00000000C03FEBBF0000008041E433C0000000C0A2F0F3BF0C00000013000000BA0300003C000000060000000200000000000000C03FEBBF0000008041E433C0000000C0A2F0F3BF000000404003F0BF00000020
310
1C2E34C0000000004620F3BF0C00000013000000C20300003C000000060000000200000000000060A692F2BF000000C0002134C0000000A03F45F3BF000000404003F0BF000000201C2E34C0000000004620F3BF0C00000013000000CA0300003C0000000600000002000000000000404003F0BF000000201C2E34C0000000
310
004620F3BF00000000EDD5F0BF00000040FA7F34C0000000205039F2BF0C00000013000000D20300003C0000000600000002000000000000000D87F3BF00000040FA7F34C0000000205039F2BF00000000EDD5F0BF00000040FA7F34C0000000205039F2BF0C00000013000000DA0300003C00000006000000020000000000
310
0000EDD5F0BF00000040FA7F34C0000000205039F2BF000000204003F0BF000000C0D8D134C0000000205652F1BF0C00000013000000E20300003C0000000600000002000000000000A0A692F2BF00000020F4DE34C0000000A05C2DF1BF000000204003F0BF000000C0D8D134C0000000205652F1BF0C00000013000000EA
310
0300003C0000000600000002000000000000204003F0BF000000C0D8D134C0000000205652F1BF00000000C03FEBBF00000040B31B35C0000000A0F981F0BF0C00000013000000F20300003C0000000600000002000000000000C0CC9AEFBF000000E0A13435C000000080A63BF0BF00000000C03FEBBF00000040B31B35C0
310
000000A0F981F0BF0C00000013000000FA0300003C000000060000000200000000000000C03FEBBF00000040B31B35C0000000A0F981F0BF0000002040CFE3BF000000C04F5635C0000000A03FB9EFBF0C00000013000000020400003C00000006000000020000000000008066F9E6BF00000080A07835C0000000E09FF7EE
310
BF0000002040CFE3BF000000C04F5635C0000000A03FB9EFBF0C000000130000000A0400003C00000006000000020000000000002040CFE3BF000000C04F5635C0000000A03FB9EFBF00000060E6DED4BF00000020F17B35C0000000A0ECE4EEBF0C00000013000000120400003C000000060000000200000000000060B332
310
D8BF0000004048A435C0000000A04C01EEBF00000060E6DED4BF00000020F17B35C0000000A0ECE4EEBF0C000000130000001A0400003C0000000600000002000000000000E0D59956BF000000C0E88835C0000000A0BF9BEEBF00000060E6DED4BF00000020F17B35C0000000A0ECE4EEBF0C00000013000000220400003C
310
0000000600000002000000000000E0D59956BF000000E0E17C35C0000000C04C15E6BF000000E0D59956BF000000C0E88835C0000000A0BF9BEEBF0C000000130000002A0400003C0000000600000002000000000000C0CCB1D43F00000080EA6F35C000000060735EE6BF000000E0CCB1D43F00000020F17B35C0000000A0
310
ECE4EEBF0C00000013000000320400003C000000060000000200000000000040B3B8E33F00000020494A35C0000000A0CC32E7BF00000020B3B8E33F000000C04F5635C0000000A03FB9EFBF0C000000130000003A0400003C0000000600000002000000000000403329EB3F000000C0AC0F35C000000000807DE8BF000000
310
403329EB3F00000020B31B35C0000000A0F981F0BF0C00000013000000420400003C000000060000000200000000000020F3EFEF3F000000E0D1C534C000000020391EEABF00000020F3EFEF3F00000080D8D134C0000000605952F1BF0C000000130000004A0400003C000000060000000200000000000060A6CAF03F0000
310
00C0F37334C00000000026ECEBBF00000040A6CAF03F00000040FA7F34C0000000205039F2BF0C00000013000000520400003C000000060000000200000000000020F3EFEF3F00000080152234C00000004019BAEDBF00000020F3EFEF3F000000201C2E34C0000000004620F3BF0C000000130000005A0400003C00000006
310
00000002000000000000603329EB3F000000C03AD833C0000000A0CC5AEFBF000000403329EB3F0000008041E433C0000000C0A2F0F3BF0C00000013000000620400003C000000060000000200000000000020B3B8E33F000000409E9D33C0000000E0C252F0BF00000020B3B8E33F000000E0A4A933C0000000A0FF95F4BF
310
0C000000130000006A0400003C0000000600000002000000000000A0CCB1D43F000000E0FC7733C000000060ECBCF0BF000000E0CCB1D43F00000080038433C0000000602900F5BF0C00000013000000720400003C0000000600000002000000000000C0D59956BF00000080056B33C0000000E082E1F0BF00000000D69956
310
BF000000200C7733C0000000A0BF24F5BF0C000000130000007A0400003C00000006000000020000000000004000DFD4BF000000E0FC7733C000000060ECBCF0BF0000000000DFD4BF00000080038433C0000000602900F5BF0C00000013000000820400003C00000006000000020000000000002040CFE3BF000000809E9D
310
33C0000000E0C252F0BF0000002040CFE3BF00000020A5A933C0000000A0FF95F4BF0C000000130000008A0400003C0000000600000002000000000000E0BF3FEBBF000000E03AD833C0000000A0CC5AEFBF00000000C03FEBBF0000008041E433C0000000C0A2F0F3BF0C00000013000000920400003C0000000600000002
310
000000000000404003F0BF00000080152234C00000004019BAEDBF000000404003F0BF000000201C2E34C0000000004620F3BF0C000000130000009A0400003C0000000600000002000000000000E0ECD5F0BF000000C0F37334C00000000026ECEBBF00000000EDD5F0BF00000040FA7F34C0000000205039F2BF0C000000
310
13000000A20400003C0000000600000002000000000000204003F0BF000000E0D1C534C0000000C0321EEABF000000204003F0BF000000C0D8D134C0000000205652F1BF0C00000013000000AA0400003C000000060000000200000000000000C03FEBBF000000C0AC0F35C000000000807DE8BF00000000C03FEBBF000000
310
40B31B35C0000000A0F981F0BF0C00000013000000B20400003C00000006000000020000000000000040CFE3BF00000020494A35C0000000A0CC32E7BF0000002040CFE3BF000000C04F5635C0000000A03FB9EFBF0C00000013000000BA0400003C000000060000000200000000000080E6DED4BF00000080EA6F35C00000
310
0060735EE6BF00000060E6DED4BF00000020F17B35C0000000A0ECE4EEBF0C00000013000000C20400003C0000000600000002000000000000A0CC00004000000020482F36C0000000A0B972E3BF00000060D30000C000000020482F36C0000000A0B972E3BF0C00000013000000CA0400003C000000060000000200000000
310
000040D30000C0000000809A9DA4BF00000040B772E3BF00000060D30000C000000020482F36C0000000A0B972E3BF0C00000013000000D20400003C0000000600000002000000000000E0CC000040000000809A9DA4BF00000040B772E3BF00000040D30000C0000000809A9DA4BF00000040B772E3BF0C00000013000000
310
DA0400003C0000000600000002000000000000A0CC00004000000020482F36C0000000A0B972E3BF000000E0CC000040000000809A9DA4BF00000040B772E3BF0C00000013000000E20400003C0000000600000002000000000000A0CC00004000000020482F36C000000000F9B5EF3F000000E0CC00004000000020989DA4
310
BF000000C0FBB5EF3F0C00000013000000EA0400003C000000060000000200000000000040D30000C000000020989DA4BF000000C0FBB5EF3F000000E0CC00004000000020989DA4BF000000C0FBB5EF3F0C00000013000000F20400003C000000060000000200000000000060D30000C000000020482F36C000000000F9B5
310
EF3F00000040D30000C000000020989DA4BF000000C0FBB5EF3F0C00000013000000FA0400003C0000000600000002000000000000A0CC00004000000020482F36C000000000F9B5EF3F00000060D30000C000000020482F36C000000000F9B5EF3F0C00000013000000020500003C0000000600000002000000000000A0CC
310
00004000000020482F36C0000000A0B972E3BF000000A0CC00004000000020482F36C000000000F9B5EF3F0C000000130000000A0500003C000000060000000200000000000060D30000C000000020482F36C0000000A0B972E3BF00000060D30000C000000020482F36C000000000F9B5EF3F0C0000001300000012050000
310
3C000000060000000200000000000040D30000C0000000809A9DA4BF00000040B772E3BF00000040D30000C000000020989DA4BF000000C0FBB5EF3F0C000000130000001A0500003C0000000600000002000000000000E0CC000040000000809A9DA4BF00000040B772E3BF000000E0CC00004000000020989DA4BF000000
310
C0FBB5EF3F0C00000013000000220500003C00000006000000020000000000004012482D40000000A061E7EBBF000000205FBC00C00000004012482D400000000063E7EBBF000000E049CDC83F0C000000130000002A0500003C00000006000000020000000000004012482D40000000A061E7EBBF000000205FBC00C00000
310
008087EC2440000000A061E7EBBF000000205FBC00C00C00000013000000320500003C00000006000000020000000000008087EC24400000000063E7EBBF000000E049CDC83F0000008087EC2440000000A061E7EBBF000000205FBC00C00C000000130000003A0500003C00000006000000020000000000004012482D4000
310
00000063E7EBBF000000E049CDC83F0000008087EC24400000000063E7EBBF000000E049CDC83F0C00000013000000420500003C00000006000000020000000000004012482D400000002045F909C0000000405FBC00C00000008087EC24400000002045F909C0000000405FBC00C00C000000130000004A0500003C000000
310
06000000020000000000004012482D400000002045F909C0000000405FBC00C00000004012482D400000002045F909C00000006047CDC83F0C00000013000000520500003C00000006000000020000000000008087EC24400000002045F909C00000006047CDC83F0000004012482D400000002045F909C00000006047CDC8
310
3F0C000000130000005A0500003C00000006000000020000000000008087EC24400000002045F909C0000000405FBC00C00000008087EC24400000002045F909C00000006047CDC83F0C00000013000000620500003C00000006000000020000000000004012482D40000000A061E7EBBF000000205FBC00C0000000401248
310
2D400000002045F909C0000000405FBC00C00C000000130000006A0500003C00000006000000020000000000008087EC2440000000A061E7EBBF000000205FBC00C00000008087EC24400000002045F909C0000000405FBC00C00C00000013000000720500003C00000006000000020000000000008087EC24400000000063
310
E7EBBF000000E049CDC83F0000008087EC24400000002045F909C00000006047CDC83F0C000000130000007A0500003C00000006000000020000000000008087EC2440000000A00C0DFBBF000000005CBC00400000008087EC24400000008045F909C0000000205CBC00400C00000013000000820500003C00000006000000
310
020000000000004012482D400000008045F909C0000000205CBC00400000008087EC24400000008045F909C0000000205CBC00400C000000130000008A0500003C00000006000000020000000000004012482D40000000A00C0DFBBF000000005CBC00400000004012482D400000008045F909C0000000205CBC00400C0000
310
0013000000920500003C00000006000000020000000000008087EC2440000000A00C0DFBBF000000005CBC00400000004012482D40000000A00C0DFBBF000000005CBC00400C000000130000009A0500003C00000006000000020000000000004012482D400000002045F909C00000006047CDC83F0000004012482D400000
310
008045F909C0000000205CBC00400C00000013000000A20500003C00000006000000020000000000004012482D400000000063E7EBBF000000E049CDC83F0000004012482D400000002045F909C00000006047CDC83F0C00000013000000AA0500003C00000006000000020000000000004012482D400000000063E7EBBF00
310
0000E049CDC83F0000004012482D40000000A00C0DFBBF000000005CBC00400C00000013000000B20500003C00000006000000020000000000008087EC24400000000063E7EBBF000000E049CDC83F0000008087EC2440000000A00C0DFBBF000000005CBC00400C00000013000000BA0500003C0000000600000002000000
310
0000008087EC24400000002045F909C00000006047CDC83F0000008087EC24400000008045F909C0000000205CBC00400C00000013000000C20500003C00000006000000020000000000004012482D4000000040C1FB09C00000004041A71FC00000008087EC244000000040C1FB09C00000004041A71FC00C000000130000
310
00CA0500003C00000006000000020000000000008087EC2440000000C0C2FB09C0000000205CBC00400000008087EC244000000040C1FB09C00000004041A71FC00C00000013000000D20500003C00000006000000020000000000004012482D40000000C0C2FB09C0000000205CBC00400000008087EC2440000000C0C2FB
310
09C0000000205CBC00400C00000013000000DA0500003C00000006000000020000000000004012482D4000000040C1FB09C00000004041A71FC00000004012482D40000000C0C2FB09C0000000205CBC00400C00000013000000E20500003C00000006000000020000000000004012482D40000000E0FA820CC00000004041
310
A71FC00000004012482D40000000E0FB820CC0000000205CBC00400C00000013000000EA0500003C00000006000000020000000000008087EC2440000000E0FB820CC0000000205CBC00400000004012482D40000000E0FB820CC0000000205CBC00400C00000013000000F20500003C000000060000000200000000000080
310
87EC2440000000E0FA820CC00000004041A71FC00000008087EC2440000000E0FB820CC0000000205CBC00400C00000013000000FA0500003C00000006000000020000000000004012482D40000000E0FA820CC00000004041A71FC00000008087EC2440000000E0FA820CC00000004041A71FC00C00000013000000020600
310
003C00000006000000020000000000004012482D4000000040C1FB09C00000004041A71FC00000004012482D40000000E0FA820CC00000004041A71FC00C000000130000000A0600003C00000006000000020000000000008087EC244000000040C1FB09C00000004041A71FC00000008087EC2440000000E0FA820CC00000
310
004041A71FC00C00000013000000120600003C00000006000000020000000000008087EC2440000000C0C2FB09C0000000205CBC00400000008087EC2440000000E0FB820CC0000000205CBC00400C000000130000001A0600003C00000006000000020000000000004012482D40000000C0C2FB09C0000000205CBC004000
310
00004012482D40000000E0FB820CC0000000205CBC00400C00000013000000220600003C0000000600000002000000000000800C8D254000000080D397F3BF0000004073F3C5BE000000609DA92540000000A0D397F3BF000000A0EF43DCBF0C000000130000002A0600003C0000000600000002000000000000E07A7E2540
310
0000008085B6E8BF000000401B51C9BE000000800C8D254000000080D397F3BF0000004073F3C5BE0C00000013000000320600003C0000000600000002000000000000E07A7E25400000008085B6E8BF000000401B51C9BE000000E0809B25400000008085B6E8BF00000060E1B7DCBF0C000000130000003A0600003C0000
310
000600000002000000000000609DA92540000000A0D397F3BF000000A0EF43DCBF000000E0809B25400000008085B6E8BF00000060E1B7DCBF0C00000013000000420600003C0000000600000002000000000000609DA92540000000A0D397F3BF000000A0EF43DCBF0000006084FD254000000080D397F3BF000000409660
310
EBBF0C000000130000004A0600003C0000000600000002000000000000E0809B25400000008085B6E8BF00000060E1B7DCBF00000000C0F025400000008085B6E8BF00000020E3D0EBBF0C00000013000000520600003C00000006000000020000000000006084FD254000000080D397F3BF000000409660EBBF00000000C0
310
F025400000008085B6E8BF00000020E3D0EBBF0C000000130000005A0600003C00000006000000020000000000006084FD254000000080D397F3BF000000409660EBBF000000007C83264000000040D397F3BF000000206A73F3BF0C00000013000000620600003C000000060000000200000000000000C0F0254000000080
310
85B6E8BF00000020E3D0EBBF00000040DD782640000000C084B6E8BF0000006033C3F3BF0C000000130000006A0600003C0000000600000002000000000000007C83264000000040D397F3BF000000206A73F3BF00000040DD782640000000C084B6E8BF0000006033C3F3BF0C00000013000000720600003C000000060000
310
0002000000000000007C83264000000040D397F3BF000000206A73F3BF000000601933274000000020D397F3BF00000060A9FDF7BF0C000000130000007A0600003C000000060000000200000000000040DD782640000000C084B6E8BF0000006033C3F3BF000000E04A2B2740000000E084B6E8BF000000201260F8BF0C00
310
000013000000820600003C0000000600000002000000000000601933274000000020D397F3BF00000060A9FDF7BF000000E04A2B2740000000E084B6E8BF000000201260F8BF0C000000130000008A0600003C0000000600000002000000000000601933274000000020D397F3BF00000060A9FDF7BF000000805301284000
310
000020D397F3BF000000600106FBBF0C00000013000000920600003C0000000600000002000000000000E04A2B2740000000E084B6E8BF000000201260F8BF00000000D3FC27400000000085B6E8BF00000000DB74FBBF0C000000130000009A0600003C0000000600000002000000000000805301284000000020D397F3BF
310
000000600106FBBF00000000D3FC27400000000085B6E8BF00000000DB74FBBF0C00000013000000A20600003C0000000600000002000000000000805301284000000020D397F3BF000000600106FBBF0000006035E1284000000020D397F3BF000000A0AA5BFCBF0C00000013000000AA0600003C00000006000000020000
310
0000000000D3FC27400000000085B6E8BF00000000DB74FBBF000000204BE028400000000085B6E8BF000000C0FDCFFCBF0C00000013000000B20600003C00000006000000020000000000006035E1284000000020D397F3BF000000A0AA5BFCBF000000204BE028400000000085B6E8BF000000C0FDCFFCBF0C0000001300
310
0000BA0600003C00000006000000020000000000006035E1284000000020D397F3BF000000A0AA5BFCBF00000060ADC4294000000020D397F3BF000000002DE9FBBF0C00000013000000C20600003C0000000600000002000000000000204BE028400000000085B6E8BF000000C0FDCFFCBF0000004068C729400000000085
310
B6E8BF000000A0AA5BFCBF0C00000013000000CA0600003C000000060000000200000000000060ADC4294000000020D397F3BF000000002DE9FBBF0000004068C729400000000085B6E8BF000000A0AA5BFCBF0C00000013000000D20600003C000000060000000200000000000060ADC4294000000020D397F3BF00000000
310
2DE9FBBF000000E0709D2A4000000020D397F3BF000000A0BAB5F9BF0C00000013000000DA0600003C00000006000000020000000000004068C729400000000085B6E8BF000000A0AA5BFCBF000000E0A4A32A40000000E084B6E8BF00000000311FFABF0C00000013000000E20600003C0000000600000002000000000000
310
E0709D2A4000000020D397F3BF000000A0BAB5F9BF000000E0A4A32A40000000E084B6E8BF00000000311FFABF0C00000013000000EA0600003C0000000600000002000000000000E0709D2A4000000020D397F3BF000000A0BAB5F9BF00000000E15D2B4000000020D397F3BF000000A0BAE4F5BF0C00000013000000F206
310
00003C0000000600000002000000000000E0A4A32A40000000E084B6E8BF00000000311FFABF000000602A672B40000000E084B6E8BF00000000893EF6BF0C00000013000000FA0600003C000000060000000200000000000000E15D2B4000000020D397F3BF000000A0BAE4F5BF000000602A672B40000000E084B6E8BF00
310
000000893EF6BF0C00000013000000020700003C000000060000000200000000000000E15D2B4000000020D397F3BF000000A0BAE4F5BF00000060E6F92B4000000020D397F3BF0000002090B3F0BF0C000000130000000A0700003C0000000600000002000000000000602A672B40000000E084B6E8BF00000000893EF6BF
310
000000E0AF052C40000000E084B6E8BF000000A012F8F0BF0C00000013000000120700003C000000060000000200000000000060E6F92B4000000020D397F3BF0000002090B3F0BF000000E0AF052C40000000E084B6E8BF000000A012F8F0BF0C000000130000001A0700003C000000060000000200000000000060E6F92B
310
4000000020D397F3BF0000002090B3F0BF00000060B3672C40000000A0D397F3BF000000207FEBE4BF0C00000013000000220700003C0000000600000002000000000000E0AF052C40000000E084B6E8BF000000A012F8F0BF000000403F752C40000000A085B6E8BF000000204F41E5BF0C000000130000002A0700003C00
310
0000060000000200000000000060B3672C40000000A0D397F3BF000000207FEBE4BF000000403F752C40000000A085B6E8BF000000204F41E5BF0C00000013000000320700003C000000060000000200000000000060B3672C40000000A0D397F3BF000000207FEBE4BF000000A061A02C4000000080D397F3BF000000806F
310
7DCCBF0C000000130000003A0700003C0000000600000002000000000000403F752C40000000A085B6E8BF000000204F41E5BF00000000D6AE2C40000000A085B6E8BF000000A04FF2CCBF0C00000013000000420700003C0000000600000002000000000000A061A02C4000000080D397F3BF000000806F7DCCBF00000000
310
D6AE2C40000000A085B6E8BF000000A04FF2CCBF0C000000130000004A0700003C0000000600000002000000000000A061A02C4000000080D397F3BF000000806F7DCCBF000000A061A02C4000000080D397F3BF000000205D7DCC3F0C00000013000000520700003C000000060000000200000000000000D6AE2C40000000
310
A085B6E8BF000000A04FF2CCBF00000000D6AE2C400000006085B6E8BF000000C039F2CC3F0C000000130000005A0700003C0000000600000002000000000000A061A02C4000000080D397F3BF000000205D7DCC3F00000000D6AE2C400000006085B6E8BF000000C039F2CC3F0C00000013000000620700003C0000000600
310
000002000000000000A061A02C4000000080D397F3BF000000205D7DCC3F00000040B3672C4000000060D397F3BF000000C078EBE43F0C000000130000006A0700003C000000060000000200000000000000D6AE2C400000006085B6E8BF000000C039F2CC3F000000003F752C400000006085B6E8BF000000C04841E53F0C
310
00000013000000720700003C000000060000000200000000000040B3672C4000000060D397F3BF000000C078EBE43F000000003F752C400000006085B6E8BF000000C04841E53F0C000000130000007A0700003C000000060000000200000000000040B3672C4000000060D397F3BF000000C078EBE43F00000000E6F92B40
310
00000080D397F3BF000000A08CB3F03F0C00000013000000820700003C0000000600000002000000000000003F752C400000006085B6E8BF000000C04841E53F000000A0AF052C400000006085B6E8BF000000E00EF8F03F0C000000130000008A0700003C000000060000000200000000000000E6F92B4000000080D397F3
310
BF000000A08CB3F03F000000A0AF052C400000006085B6E8BF000000E00EF8F03F0C00000013000000920700003C000000060000000200000000000000E6F92B4000000080D397F3BF000000A08CB3F03F000000A0E05D2B4000000080D397F3BF00000040B6E4F53F0C000000130000009A0700003C000000060000000200
310
0000000000A0AF052C400000006085B6E8BF000000E00EF8F03F000000002A672B400000006085B6E8BF00000040853EF63F0C00000013000000A20700003C0000000600000002000000000000A0E05D2B4000000080D397F3BF00000040B6E4F53F000000002A672B400000006085B6E8BF00000040853EF63F0C00000013
310
000000AA0700003C0000000600000002000000000000A0E05D2B4000000080D397F3BF00000040B6E4F53F00000060709D2A4000000080D397F3BF000000E0B5B5F93F0C00000013000000B20700003C0000000600000002000000000000002A672B400000006085B6E8BF00000040853EF63F00000060A4A32A4000000060
310
85B6E8BF000000602C1FFA3F0C00000013000000BA0700003C000000060000000200000000000060709D2A4000000080D397F3BF000000E0B5B5F93F00000060A4A32A400000006085B6E8BF000000602C1FFA3F0C00000013000000C20700003C000000060000000200000000000060709D2A4000000080D397F3BF000000
310
E0B5B5F93F000000E0ACC4294000000080D397F3BF0000006027E9FB3F0C00000013000000CA0700003C000000060000000200000000000060A4A32A400000006085B6E8BF000000602C1FFA3F000000E067C729400000004085B6E8BF00000040A55BFC3F0C00000013000000D20700003C00000006000000020000000000
310
00E0ACC4294000000080D397F3BF0000006027E9FB3F000000E067C729400000004085B6E8BF00000040A55BFC3F0C00000013000000DA0700003C0000000600000002000000000000E0ACC4294000000080D397F3BF0000006027E9FB3F000000E034E1284000000080D397F3BF00000040A45BFC3F0C00000013000000E2
310
0700003C0000000600000002000000000000E067C729400000004085B6E8BF00000040A55BFC3F000000A04AE028400000004085B6E8BF00000040F7CFFC3F0C00000013000000EA0700003C0000000600000002000000000000E034E1284000000080D397F3BF00000040A45BFC3F000000A04AE028400000004085B6E8BF
310
00000040F7CFFC3F0C00000013000000F20700003C0000000600000002000000000000E034E1284000000080D397F3BF00000040A45BFC3F000000005301284000000080D397F3BF000000E0F905FB3F0C00000013000000FA0700003C0000000600000002000000000000A04AE028400000004085B6E8BF00000040F7CFFC
310
3F00000080D2FC27400000004085B6E8BF000000A0D374FB3F0C00000013000000020800003C0000000600000002000000000000005301284000000080D397F3BF000000E0F905FB3F00000080D2FC27400000004085B6E8BF000000A0D374FB3F0C000000130000000A0800003C0000000600000002000000000000005301
310
284000000080D397F3BF000000E0F905FB3F000000001933274000000080D397F3BF00000000A1FDF73F0C00000013000000120800003C000000060000000200000000000080D2FC27400000004085B6E8BF000000A0D374FB3F000000804A2B27400000006085B6E8BF000000000A60F83F0C000000130000001A0800003C
310
0000000600000002000000000000001933274000000080D397F3BF00000000A1FDF73F000000804A2B27400000006085B6E8BF000000000A60F83F0C00000013000000220800003C0000000600000002000000000000001933274000000080D397F3BF00000000A1FDF73F000000E07B83264000000060D397F3BF00000000
310
6173F33F0C000000130000002A0800003C0000000600000002000000000000804A2B27400000006085B6E8BF000000000A60F83F000000E0DC7826400000008085B6E8BF000000602AC3F33F0C00000013000000320800003C0000000600000002000000000000E07B83264000000060D397F3BF000000006173F33F000000
310
E0DC7826400000008085B6E8BF000000602AC3F33F0C000000130000003A0800003C0000000600000002000000000000E07B83264000000060D397F3BF000000006173F33F0000004084FD254000000080D397F3BF000000408260EB3F0C00000013000000420800003C0000000600000002000000000000E0DC7826400000
310
008085B6E8BF000000602AC3F33F000000E0BFF025400000008085B6E8BF00000080CFD0EB3F0C000000130000004A0800003C00000006000000020000000000004084FD254000000080D397F3BF000000408260EB3F000000E0BFF025400000008085B6E8BF00000080CFD0EB3F0C00000013000000520800003C00000006
310
000000020000000000004084FD254000000080D397F3BF000000408260EB3F000000409DA9254000000060D397F3BF00000020C843DC3F0C000000130000005A0800003C0000000600000002000000000000E0BFF025400000008085B6E8BF00000080CFD0EB3F000000C0809B25400000008085B6E8BF000000A0B9B7DC3F
310
0C00000013000000620800003C0000000600000002000000000000409DA9254000000060D397F3BF00000020C843DC3F000000C0809B25400000008085B6E8BF000000A0B9B7DC3F0C000000130000006A0800003C0000000600000002000000000000800C8D254000000080D397F3BF0000004073F3C5BE000000409DA925
310
4000000060D397F3BF00000020C843DC3F0C00000013000000720800003C0000000600000002000000000000E07A7E25400000008085B6E8BF000000401B51C9BE000000C0809B25400000008085B6E8BF000000A0B9B7DC3F0C000000130000007A0800003C0000000600000002000000000000E0BFD42540000000C0347D
310
FABF0000002031FEC8BE0000002010EF2540000000E0347DFABF000000805709DABF0C00000013000000820800003C0000000600000002000000000000800C8D254000000080D397F3BF0000004073F3C5BE000000E0BFD42540000000C0347DFABF0000002031FEC8BE0C000000130000008A0800003C0000000600000002
310
000000000000609DA92540000000A0D397F3BF000000A0EF43DCBF0000002010EF2540000000E0347DFABF000000805709DABF0C00000013000000920800003C00000006000000020000000000002010EF2540000000E0347DFABF000000805709DABF00000060593C2640000000E0347DFABF00000000EA37E9BF0C000000
310
130000009A0800003C00000006000000020000000000006084FD254000000080D397F3BF000000409660EBBF00000060593C2640000000E0347DFABF00000000EA37E9BF0C00000013000000A20800003C000000060000000200000000000060593C2640000000E0347DFABF00000000EA37E9BF000000A0C0B72640000000
310
60347DFABF00000080C1EAF1BF0C00000013000000AA0800003C0000000600000002000000000000007C83264000000040D397F3BF000000206A73F3BF000000A0C0B7264000000060347DFABF00000080C1EAF1BF0C00000013000000B20800003C0000000600000002000000000000A0C0B7264000000060347DFABF0000
310
0080C1EAF1BF000000C08459274000000040347DFABF000000E05919F6BF0C00000013000000BA0800003C0000000600000002000000000000601933274000000020D397F3BF00000060A9FDF7BF000000C08459274000000040347DFABF000000E05919F6BF0C00000013000000C20800003C000000060000000200000000
310
0000C08459274000000040347DFABF000000E05919F6BF000000A07B172840000000E0337DFABF0000008079E4F8BF0C00000013000000CA0800003C0000000600000002000000000000805301284000000020D397F3BF000000600106FBBF000000A07B172840000000E0337DFABF0000008079E4F8BF0C00000013000000
310
D20800003C0000000600000002000000000000A07B172840000000E0337DFABF0000008079E4F8BF000000E0B5E5284000000040347DFABF00000080311FFABF0C00000013000000DA0800003C00000006000000020000000000006035E1284000000020D397F3BF000000A0AA5BFCBF000000E0B5E5284000000040347DFA
310
BF00000080311FFABF0C00000013000000E20800003C0000000600000002000000000000E0B5E5284000000040347DFABF00000080311FFABF000000003EB72940000000C0347DFABF00000080BBB5F9BF0C00000013000000EA0800003C000000060000000200000000000060ADC4294000000020D397F3BF000000002DE9
310
FBBF000000003EB72940000000C0347DFABF00000080BBB5F9BF0C00000013000000F20800003C0000000600000002000000000000003EB72940000000C0347DFABF00000080BBB5F9BF000000A0E97E2A40000000C0347DFABF00000080B7AEF7BF0C00000013000000FA0800003C0000000600000002000000000000E070
310
9D2A4000000020D397F3BF000000A0BAB5F9BF000000A0E97E2A40000000C0347DFABF00000080B7AEF7BF0C00000013000000020900003C0000000600000002000000000000A0E97E2A40000000C0347DFABF00000080B7AEF7BF000000E02C302B40000000E0347DFABF00000040C22AF4BF0C000000130000000A090000
310
3C000000060000000200000000000000E15D2B4000000020D397F3BF000000A0BAE4F5BF000000E02C302B40000000E0347DFABF00000040C22AF4BF0C00000013000000120900003C0000000600000002000000000000E02C302B40000000E0347DFABF00000040C22AF4BF00000060E4BF2B40000000C0347DFABF000000
310
80D0C4EEBF0C000000130000001A0900003C000000060000000200000000000060E6F92B4000000020D397F3BF0000002090B3F0BF00000060E4BF2B40000000C0347DFABF00000080D0C4EEBF0C00000013000000220900003C000000060000000200000000000060E4BF2B40000000C0347DFABF00000080D0C4EEBF0000
310
00E008252C4000000040357DFABF000000E02E45E3BF0C000000130000002A0900003C000000060000000200000000000060B3672C40000000A0D397F3BF000000207FEBE4BF000000E008252C4000000040357DFABF000000E02E45E3BF0C00000013000000320900003C0000000600000002000000000000E008252C4000
310
000040357DFABF000000E02E45E3BF000000003F592C4000000020357DFABF00000080523ECABF0C000000130000003A0900003C0000000600000002000000000000A061A02C4000000080D397F3BF000000806F7DCCBF000000003F592C4000000020357DFABF00000080523ECABF0C00000013000000420900003C000000
310
0600000002000000000000003F592C4000000020357DFABF00000080523ECABF000000E03E592C4000000020357DFABF000000C0333ECA3F0C000000130000004A0900003C0000000600000002000000000000A061A02C4000000080D397F3BF000000205D7DCC3F000000E03E592C4000000020357DFABF000000C0333ECA
310
3F0C00000013000000520900003C0000000600000002000000000000E03E592C4000000020357DFABF000000C0333ECA3F000000E008252C4000000000357DFABF000000802645E33F0C000000130000005A0900003C000000060000000200000000000040B3672C4000000060D397F3BF000000C078EBE43F000000E00825
310
2C4000000000357DFABF000000802645E33F0C00000013000000620900003C0000000600000002000000000000E008252C4000000000357DFABF000000802645E33F00000060E4BF2B4000000020357DFABF00000080C8C4EE3F0C000000130000006A0900003C000000060000000200000000000000E6F92B4000000080D3
310
97F3BF000000A08CB3F03F00000060E4BF2B4000000020357DFABF00000080C8C4EE3F0C00000013000000720900003C000000060000000200000000000060E4BF2B4000000020357DFABF00000080C8C4EE3F000000602C302B4000000000357DFABF000000C0BD2AF43F0C000000130000007A0900003C00000006000000
310
02000000000000A0E05D2B4000000080D397F3BF00000040B6E4F53F000000602C302B4000000000357DFABF000000C0BD2AF43F0C00000013000000820900003C0000000600000002000000000000602C302B4000000000357DFABF000000C0BD2AF43F00000040E97E2A4000000020357DFABF00000020B2AEF73F0C0000
310
00130000008A0900003C000000060000000200000000000060709D2A4000000080D397F3BF000000E0B5B5F93F00000040E97E2A4000000020357DFABF00000020B2AEF73F0C00000013000000920900003C000000060000000200000000000040E97E2A4000000020357DFABF00000020B2AEF73F000000603DB729400000
310
0020357DFABF000000E0B4B5F93F0C000000130000009A0900003C0000000600000002000000000000E0ACC4294000000080D397F3BF0000006027E9FB3F000000603DB7294000000020357DFABF000000E0B4B5F93F0C00000013000000A20900003C0000000600000002000000000000603DB7294000000020357DFABF00
310
0000E0B4B5F93F00000060B5E52840000000C0347DFABF000000802A1FFA3F0C00000013000000AA0900003C0000000600000002000000000000E034E1284000000080D397F3BF00000040A45BFC3F00000060B5E52840000000C0347DFABF000000802A1FFA3F0C00000013000000B20900003C0000000600000002000000
310
00000060B5E52840000000C0347DFABF000000802A1FFA3F000000407B172840000000C0347DFABF000000C071E4F83F0C00000013000000BA0900003C0000000600000002000000000000005301284000000080D397F3BF000000E0F905FB3F000000407B172840000000C0347DFABF000000C071E4F83F0C000000130000
310
00C20900003C0000000600000002000000000000407B172840000000C0347DFABF000000C071E4F83F0000006084592740000000C0347DFABF000000E05019F63F0C00000013000000CA0900003C0000000600000002000000000000001933274000000080D397F3BF00000000A1FDF73F0000006084592740000000C0347D
310
FABF000000E05019F63F0C00000013000000D20900003C00000006000000020000000000006084592740000000C0347DFABF000000E05019F63F00000060C0B72640000000A0347DFABF000000E0B7EAF13F0C00000013000000DA0900003C0000000600000002000000000000E07B83264000000060D397F3BF0000000061
310
73F33F00000060C0B72640000000A0347DFABF000000E0B7EAF13F0C00000013000000E20900003C000000060000000200000000000060C0B72640000000A0347DFABF000000E0B7EAF13F00000040593C2640000000A0347DFABF00000080D637E93F0C00000013000000EA0900003C000000060000000200000000000040
310
84FD254000000080D397F3BF000000408260EB3F00000040593C2640000000A0347DFABF00000080D637E93F0C00000013000000F20900003C000000060000000200000000000040593C2640000000A0347DFABF00000080D637E93F0000000010EF254000000020347DFABF000000202D09DA3F0C00000013000000FA0900
310
003C0000000600000002000000000000409DA9254000000060D397F3BF00000020C843DC3F0000000010EF254000000020347DFABF000000202D09DA3F0C00000013000000020A00003C0000000600000002000000000000E0BFD42540000000C0347DFABF0000002031FEC8BE0000000010EF254000000020347DFABF0000
310
00202D09DA3F0C000000130000000A0A00003C0000000600000002000000000000E07A7E25400000008085B6E8BF000000401B51C9BE000000E07A7E254000000080D1DDD8BF000000C02075C9BE0C00000013000000120A00003C0000000600000002000000000000E0809B254000000080D1DDD8BF00000080E1B7DCBF00
310
0000E07A7E254000000080D1DDD8BF000000C02075C9BE0C000000130000001A0A00003C0000000600000002000000000000E0809B25400000008085B6E8BF00000060E1B7DCBF000000E0809B254000000080D1DDD8BF00000080E1B7DCBF0C00000013000000220A00003C0000000600000002000000000000E0809B2540
310
00000080D1DDD8BF00000080E1B7DCBF00000000C0F02540000000C0D1DDD8BF00000000E3D0EBBF0C000000130000002A0A00003C000000060000000200000000000000C0F025400000008085B6E8BF00000020E3D0EBBF00000000C0F02540000000C0D1DDD8BF00000000E3D0EBBF0C00000013000000320A00003C0000
310
00060000000200000000000000C0F02540000000C0D1DDD8BF00000000E3D0EBBF00000040DD78264000000020D0DDD8BF0000006033C3F3BF0C000000130000003A0A00003C000000060000000200000000000040DD782640000000C084B6E8BF0000006033C3F3BF00000040DD78264000000020D0DDD8BF0000006033C3
310
F3BF0C00000013000000420A00003C000000060000000200000000000040DD78264000000020D0DDD8BF0000006033C3F3BF000000E04A2B274000000020D0DDD8BF000000201260F8BF0C000000130000004A0A00003C0000000600000002000000000000E04A2B2740000000E084B6E8BF000000201260F8BF000000E04A
310
2B274000000020D0DDD8BF000000201260F8BF0C00000013000000520A00003C0000000600000002000000000000E04A2B274000000020D0DDD8BF000000201260F8BF00000000D3FC274000000020D0DDD8BF00000000DB74FBBF0C000000130000005A0A00003C000000060000000200000000000000D3FC274000000000
310
85B6E8BF00000000DB74FBBF00000000D3FC274000000020D0DDD8BF00000000DB74FBBF0C00000013000000620A00003C000000060000000200000000000000D3FC274000000020D0DDD8BF00000000DB74FBBF000000204BE0284000000020D0DDD8BF000000C0FDCFFCBF0C000000130000006A0A00003C000000060000
310
0002000000000000204BE028400000000085B6E8BF000000C0FDCFFCBF000000204BE0284000000020D0DDD8BF000000C0FDCFFCBF0C00000013000000720A00003C0000000600000002000000000000204BE0284000000020D0DDD8BF000000C0FDCFFCBF0000004068C7294000000040D0DDD8BF000000A0AA5BFCBF0C00
310
0000130000007A0A00003C00000006000000020000000000004068C729400000000085B6E8BF000000A0AA5BFCBF0000004068C7294000000040D0DDD8BF000000A0AA5BFCBF0C00000013000000820A00003C00000006000000020000000000004068C7294000000040D0DDD8BF000000A0AA5BFCBF000000E0A4A32A4000
310
000040D0DDD8BF00000000311FFABF0C000000130000008A0A00003C0000000600000002000000000000E0A4A32A40000000E084B6E8BF00000000311FFABF000000E0A4A32A4000000040D0DDD8BF00000000311FFABF0C00000013000000920A00003C0000000600000002000000000000E0A4A32A4000000040D0DDD8BF
310
00000000311FFABF000000602A672B4000000020D0DDD8BF000000A0883EF6BF0C000000130000009A0A00003C0000000600000002000000000000602A672B40000000E084B6E8BF00000000893EF6BF000000602A672B4000000020D0DDD8BF000000A0883EF6BF0C00000013000000A20A00003C00000006000000020000
310
00000000602A672B4000000020D0DDD8BF000000A0883EF6BF000000E0AF052C4000000000D0DDD8BF000000A012F8F0BF0C00000013000000AA0A00003C0000000600000002000000000000E0AF052C40000000E084B6E8BF000000A012F8F0BF000000E0AF052C4000000000D0DDD8BF000000A012F8F0BF0C0000001300
310
0000B20A00003C0000000600000002000000000000E0AF052C4000000000D0DDD8BF000000A012F8F0BF000000403F752C40000000A0D1DDD8BF000000004F41E5BF0C00000013000000BA0A00003C0000000600000002000000000000403F752C40000000A085B6E8BF000000204F41E5BF000000403F752C40000000A0D1
310
DDD8BF000000004F41E5BF0C00000013000000C20A00003C0000000600000002000000000000403F752C40000000A0D1DDD8BF000000004F41E5BF00000000D6AE2C4000000080D1DDD8BF000000C04FF2CCBF0C00000013000000CA0A00003C000000060000000200000000000000D6AE2C40000000A085B6E8BF000000A0
310
4FF2CCBF00000000D6AE2C4000000080D1DDD8BF000000C04FF2CCBF0C00000013000000D20A00003C000000060000000200000000000000D6AE2C4000000080D1DDD8BF000000C04FF2CCBF00000000D6AE2C4000000080D1DDD8BF000000A039F2CC3F0C00000013000000DA0A00003C0000000600000002000000000000
310
00D6AE2C400000006085B6E8BF000000C039F2CC3F00000000D6AE2C4000000080D1DDD8BF000000A039F2CC3F0C00000013000000E20A00003C000000060000000200000000000000D6AE2C4000000080D1DDD8BF000000A039F2CC3F000000003F752C4000000060D1DDD8BF000000E04841E53F0C00000013000000EA0A
310
00003C0000000600000002000000000000003F752C400000006085B6E8BF000000C04841E53F000000003F752C4000000060D1DDD8BF000000E04841E53F0C00000013000000F20A00003C0000000600000002000000000000003F752C4000000060D1DDD8BF000000E04841E53F000000A0AF052C4000000060D1DDD8BF00
310
0000E00EF8F03F0C00000013000000FA0A00003C0000000600000002000000000000A0AF052C400000006085B6E8BF000000E00EF8F03F000000A0AF052C4000000060D1DDD8BF000000E00EF8F03F0C00000013000000020B00003C0000000600000002000000000000A0AF052C4000000060D1DDD8BF000000E00EF8F03F
310
000000002A672B4000000040D1DDD8BF00000040853EF63F0C000000130000000A0B00003C0000000600000002000000000000002A672B400000006085B6E8BF00000040853EF63F000000002A672B4000000040D1DDD8BF00000040853EF63F0C00000013000000120B00003C0000000600000002000000000000002A672B
310
4000000040D1DDD8BF00000040853EF63F00000060A4A32A4000000020D1DDD8BF000000602C1FFA3F0C000000130000001A0B00003C000000060000000200000000000060A4A32A400000006085B6E8BF000000602C1FFA3F00000060A4A32A4000000020D1DDD8BF000000602C1FFA3F0C00000013000000220B00003C00
310
0000060000000200000000000060A4A32A4000000020D1DDD8BF000000602C1FFA3F000000E067C7294000000020D1DDD8BF00000040A55BFC3F0C000000130000002A0B00003C0000000600000002000000000000E067C729400000004085B6E8BF00000040A55BFC3F000000E067C7294000000020D1DDD8BF00000040A5
310
5BFC3F0C00000013000000320B00003C0000000600000002000000000000E067C7294000000020D1DDD8BF00000040A55BFC3F000000A04AE0284000000040D1DDD8BF00000040F7CFFC3F0C000000130000003A0B00003C0000000600000002000000000000A04AE028400000004085B6E8BF00000040F7CFFC3F000000A0
310
4AE0284000000040D1DDD8BF00000040F7CFFC3F0C00000013000000420B00003C0000000600000002000000000000A04AE0284000000040D1DDD8BF00000040F7CFFC3F00000080D2FC274000000040D1DDD8BF00000040D374FB3F0C000000130000004A0B00003C000000060000000200000000000080D2FC2740000000
310
4085B6E8BF000000A0D374FB3F00000080D2FC274000000040D1DDD8BF00000040D374FB3F0C00000013000000520B00003C000000060000000200000000000080D2FC274000000040D1DDD8BF00000040D374FB3F000000804A2B274000000040D1DDD8BF000000000A60F83F0C000000130000005A0B00003C0000000600
310
000002000000000000804A2B27400000006085B6E8BF000000000A60F83F000000804A2B274000000040D1DDD8BF000000000A60F83F0C00000013000000620B00003C0000000600000002000000000000804A2B274000000040D1DDD8BF000000000A60F83F000000E0DC78264000000040D1DDD8BF000000602AC3F33F0C
310
000000130000006A0B00003C0000000600000002000000000000E0DC7826400000008085B6E8BF000000602AC3F33F000000E0DC78264000000040D1DDD8BF000000602AC3F33F0C00000013000000720B00003C0000000600000002000000000000E0DC78264000000040D1DDD8BF000000602AC3F33F000000E0BFF02540
310
00000040D1DDD8BF000000A0CFD0EB3F0C000000130000007A0B00003C0000000600000002000000000000E0BFF025400000008085B6E8BF00000080CFD0EB3F000000E0BFF0254000000040D1DDD8BF000000A0CFD0EB3F0C00000013000000820B00003C0000000600000002000000000000E0BFF0254000000040D1DDD8
310
BF000000A0CFD0EB3F000000C0809B254000000080D1DDD8BF00000080B9B7DC3F0C000000130000008A0B00003C0000000600000002000000000000C0809B25400000008085B6E8BF000000A0B9B7DC3F000000C0809B254000000080D1DDD8BF00000080B9B7DC3F0C00000013000000920B00003C000000060000000200
310
0000000000E07A7E254000000080D1DDD8BF000000C02075C9BE000000C0809B254000000080D1DDD8BF00000080B9B7DC3F0C000000130000009A0B00003C0000000600000002000000000000E0F84E304000000040C594D9BF000000C0C02406C0000000E0F84E304000000040C494D9BF000000C0AFD905400C00000013
310
000000A20B00003C0000000600000002000000000000E0F84E304000000040C494D9BF000000C0AFD90540000000E0D49E214000000040C494D9BF000000C0AFD905400C00000013000000AA0B00003C0000000600000002000000000000E0D49E214000000040C594D9BF000000C0C02406C0000000E0D49E214000000040
310
C494D9BF000000C0AFD905400C00000013000000B20B00003C0000000600000002000000000000E0F84E304000000040C594D9BF000000C0C02406C0000000E0D49E214000000040C594D9BF000000C0C02406C00C00000013000000BA0B00003C0000000600000002000000000000E0F84E3040000000C05FAFCB3E000000
310
C0C02406C0000000E0F84E304000000040C594D9BF000000C0C02406C00C00000013000000C20B00003C0000000600000002000000000000E0D49E2140000000C05FAFCB3E000000C0C02406C0000000E0D49E214000000040C594D9BF000000C0C02406C00C00000013000000CA0B00003C00000006000000020000000000
310
00E0F84E3040000000C05FAFCB3E000000C0C02406C0000000E0D49E2140000000C05FAFCB3E000000C0C02406C00C00000013000000D20B00003C0000000600000002000000000000E0D49E2140000000C0C8E6CD3E000000C0AFD90540000000E0D49E214000000040C494D9BF000000C0AFD905400C00000013000000DA
310
0B00003C0000000600000002000000000000E0D49E2140000000C05FAFCB3E000000C0C02406C0000000E0D49E2140000000C0C8E6CD3E000000C0AFD905400C00000013000000E20B00003C0000000600000002000000000000E0F84E3040000000C0C8E6CD3E000000C0AFD90540000000E0F84E304000000040C494D9BF
310
000000C0AFD905400C00000013000000EA0B00003C0000000600000002000000000000E0F84E3040000000C0C8E6CD3E000000C0AFD90540000000E0D49E2140000000C0C8E6CD3E000000C0AFD905400C00000013000000F20B00003C0000000600000002000000000000E0F84E3040000000C05FAFCB3E000000C0C02406
310
C0000000E0F84E3040000000C0C8E6CD3E000000C0AFD90540
100
AcDbSubDMesh
 71
     2
 72
     0
 91
        0
 92
      224
 10
3.732873678207397
 20
-0.0000001329785988
 30
-2.769476413726806
 10
-3.759936571121215
 20
-0.0000001329785988
 30
-2.769476413726806
 10
3.732873678207397
 20
0.0000001312315163
 30
2.729508876800537
 10
-3.759936571121215
 20
0.0000001312315163
 30
2.729508876800537
 10
3.732873678207397
 20
-0.3997086584568024
 30
-2.769476413726806
 10
-3.759936571121215
 20
-0.3997086584568024
 30
-2.769476413726806
 10
3.732873678207397
 20
-0.3997084200382233
 30
2.729508876800537
 10
-3.759936571121215
 20
-0.3997084200382233
 30
2.729508876800537
 10
-0.3780945241451263
 20
-21.44178581237793
 30
0.1962585598230362
 10
-0.7179443240165711
 20
-21.27125740051269
 30
0.1661926209926605
 10
-0.9876465797424316
 20
-21.00565338134765
 30
0.1193602457642555
 10
-1.160803437232971
 20
-20.67097091674805
 30
0.0603455193340778
 10
-1.220471262931823
 20
-20.29997444152832
 30
-0.0050719315186143
 10
-1.160803198814392
 20
-19.92897415161133
 30
-0.0704894438385964
 10
-0.9876465797424316
 20
-19.59429550170898
 30
-0.1295042783021927
 10
-0.7179443836212159
 20
-19.32868766784668
 30
-0.1763365417718887
 10
-0.3781006634235382
 20
-19.15815925598144
 30
-0.2064024209976196
 10
-0.0013794506667182
 20
-19.09939765930175
 30
-0.2167661786079407
 10
0.3753417432308197
 20
-19.15815925598144
 30
-0.2064024209976196
 10
0.7151916027069092
 20
-19.32868766784668
 30
-0.1763365417718887
 10
0.9848937392234802
 20
-19.59429168701172
 30
-0.1295042783021927
 10
1.158050537109375
 20
-19.92897415161133
 30
-0.0704894438385964
 10
1.217718482017517
 20
-20.29997444152832
 30
-0.0050719315186143
 10
1.158050298690795
 20
-20.67097091674805
 30
0.0603455193340778
 10
0.9848937392234802
 20
-21.00564956665039
 30
0.1193602457642555
 10
0.715191662311554
 20
-21.27125740051269
 30
0.1661926209926605
 10
0.3753417730331421
 20
-21.44178581237793
 30
0.1962585598230362
 10
-0.0013794505503029
 20
-21.50054740905762
 30
0.2066223174333572
 10
0.3753417730331421
 20
-21.64172744750977
 30
-0.9376586079597473
 10
-0.0013794505503029
 20
-21.70048713684082
 30
-0.9272980093955993
 10
0.7151916027069092
 20
-21.47119522094727
 30
-0.9677276015281677
 10
0.9848938584327697
 20
-21.20559310913086
 30
-1.014563083648681
 10
1.158050298690795
 20
-20.87090873718262
 30
-1.073574662208557
 10
1.217718362808227
 20
-20.49991226196289
 30
-1.138992428779602
 10
1.158050537109375
 20
-20.1289176940918
 30
-1.204406380653381
 10
0.9848937392234802
 20
-19.79423332214355
 30
-1.263421177864074
 10
0.7151916027069092
 20
-19.52862930297851
 30
-1.310253500938415
 10
0.3753417730331421
 20
-19.35810089111328
 30
-1.340325713157653
 10
-0.0013794506667182
 20
-19.29933929443359
 30
-1.350683331489562
 10
-0.3781006336212158
 20
-19.35810089111328
 30
-1.340325713157653
 10
-0.7179443836212159
 20
-19.52862930297851
 30
-1.310253500938415
 10
-0.9876465797424316
 20
-19.79423332214355
 30
-1.263421177864074
 10
-1.160803198814392
 20
-20.1289176940918
 30
-1.204406380653381
 10
-1.220471382141113
 20
-20.49991226196289
 30
-1.138992428779602
 10
-1.160803437232971
 20
-20.87091255187988
 30
-1.073574662208557
 10
-0.987646460533142
 20
-21.20559501647949
 30
-1.014563083648681
 10
-0.7179443836212159
 20
-21.47119903564453
 30
-0.9677276015281677
 10
-0.3780945241451263
 20
-21.64172744750977
 30
-0.9376586079597473
 10
-0.3261047601699829
 20
-21.43717193603515
 30
-0.6990296244621277
 10
-0.0013794506667182
 20
-21.48782157897949
 30
-0.6901000738143921
 10
0.323352038860321
 20
-21.43717193603515
 30
-0.6990296244621277
 10
0.6162964105606079
 20
-21.29017829895019
 30
-0.7249510884284974
 10
0.8487793207168579
 20
-21.06122970581055
 30
-0.76531982421875
 10
0.9980407357215881
 20
-20.77273368835449
 30
-0.8161893486976623
 10
1.049475073814392
 20
-20.45293807983398
 30
-0.8725767135620117
 10
0.9980407357215881
 20
-20.13314056396485
 30
-0.9289671182632446
 10
0.8487793803215026
 20
-19.84464645385742
 30
-0.9798339009284973
 10
0.6162963509559632
 20
-19.61569595336914
 30
-1.020205378532409
 10
0.3233520090579987
 20
-19.46870231628418
 30
-1.04612386226654
 10
-0.0013794505503029
 20
-19.41805267333984
 30
-1.055056452751159
 10
-0.3261108994483948
 20
-19.46870231628418
 30
-1.04612386226654
 10
-0.6190491318702698
 20
-19.6156997680664
 30
-1.020205378532409
 10
-0.8515319228172302
 20
-19.84464836120605
 30
-0.9798339009284973
 10
-1.000793695449829
 20
-20.13314056396485
 30
-0.9289671182632446
 10
-1.052227854728698
 20
-20.45293807983398
 30
-0.8725767135620117
 10
-1.000793576240539
 20
-20.77273368835449
 30
-0.8161863088607788
 10
-0.851531982421875
 20
-21.06122970581055
 30
-0.76531982421875
 10
-0.619049072265625
 20
-21.29017829895019
 30
-0.7249510884284974
 10
0.3233520686626434
 20
-21.4841480255127
 30
-0.9654448628425598
 10
-0.0013794506667182
 20
-21.5348014831543
 30
-0.9565122723579406
 10
0.6162963509559632
 20
-21.33715438842774
 30
-0.9913633465766906
 10
0.8487793207168579
 20
-21.10820198059082
 30
-1.031732201576232
 10
0.9980407357215881
 20
-20.81970977783203
 30
-1.082604765892028
 10
1.049474954605102
 20
-20.49991226196289
 30
-1.138992428779602
 10
0.9980407357215881
 20
-20.18011665344238
 30
-1.195379257202148
 10
0.8487793207168579
 20
-19.89162445068359
 30
-1.246248960494995
 10
0.6162963509559632
 20
-19.66267204284668
 30
-1.286620736122131
 10
0.3233520686626434
 20
-19.51567840576172
 30
-1.312539458274841
 10
-0.0013794507831335
 20
-19.46502876281738
 30
-1.321471810340881
 10
-0.32611083984375
 20
-19.51567840576172
 30
-1.312539458274841
 10
-0.6190491318702698
 20
-19.66267585754394
 30
-1.286620736122131
 10
-0.851531982421875
 20
-19.89162445068359
 30
-1.246248960494995
 10
-1.000793695449829
 20
-20.18011665344238
 30
-1.195379257202148
 10
-1.052227973937988
 20
-20.49991226196289
 30
-1.138992428779602
 10
-1.000793576240539
 20
-20.8197135925293
 30
-1.0826016664505
 10
-0.851531982421875
 20
-21.10820388793945
 30
-1.031732201576232
 10
-0.6190491318702698
 20
-21.33715438842774
 30
-0.9913633465766906
 10
-0.3261047303676605
 20
-21.4841480255127
 30
-0.9654448628425598
 10
2.000390291213989
 20
-22.18469429016113
 30
-0.6077545285224915
 10
2.000390768051147
 20
-0.0402649194002152
 30
-0.6077533960342408
 10
-2.000402927398681
 20
-0.0402649194002152
 30
-0.6077533960342408
 10
-2.00040316581726
 20
-22.18469429016113
 30
-0.6077545285224915
 10
2.000390291213989
 20
-22.18469429016113
 30
0.9909634590148925
 10
-2.00040316581726
 20
-22.18469429016113
 30
0.9909634590148925
 10
-2.000402927398681
 20
-0.0402648486196995
 30
0.9909647703170776
 10
2.000390768051147
 20
-0.0402648486196995
 30
0.9909647703170776
 10
14.64076423645019
 20
-0.8719947934150695
 30
-2.091978311538696
 10
14.64076423645019
 20
-0.8719954490661621
 30
0.1937649101018905
 10
10.46197128295898
 20
-0.8719954490661621
 30
0.1937649101018905
 10
10.46197128295898
 20
-0.8719947934150695
 30
-2.091978311538696
 10
14.64076423645019
 20
-3.246713876724243
 30
-2.091978549957275
 10
10.46197128295898
 20
-3.246713876724243
 30
-2.091978549957275
 10
10.46197128295898
 20
-3.246713876724243
 30
0.1937646120786667
 10
14.64076423645019
 20
-3.246713876724243
 30
0.1937646120786667
 10
10.46197128295898
 20
-1.690685868263244
 30
2.091972351074218
 10
14.64076423645019
 20
-1.690685868263244
 30
2.091972351074218
 10
14.64076423645019
 20
-3.24671459197998
 30
2.091972589492797
 10
10.46197128295898
 20
-3.24671459197998
 30
2.091972589492797
 10
14.64076423645019
 20
-3.247927188873291
 30
-7.913334846496582
 10
14.64076423645019
 20
-3.24793004989624
 30
2.091972589492797
 10
10.46197128295898
 20
-3.24793004989624
 30
2.091972589492797
 10
10.46197128295898
 20
-3.247927188873291
 30
-7.913334846496582
 10
14.64076423645019
 20
-3.563955068588256
 30
-7.913334846496582
 10
10.46197128295898
 20
-3.563955068588256
 30
-7.913334846496582
 10
10.46197128295898
 20
-3.563956975936889
 30
2.091972589492797
 10
14.64076423645019
 20
-3.563956975936889
 30
2.091972589492797
 10
10.74703121185303
 20
-0.7722804546356202
 30
-0.0000030180003705
 10
10.77548599243164
 20
-1.224566936492919
 30
-0.0000026167604119
 10
10.83127880096435
 20
-1.224567055702209
 30
-0.4416464865207673
 10
10.80371761322021
 20
-0.7722804546356202
 30
-0.4487231671810151
 10
10.99515056610107
 20
-1.224566936492919
 30
-0.85554039478302
 10
10.97021484375
 20
-0.7722804546356202
 30
-0.8692489266395568
 10
11.25680541992187
 20
-1.22456669807434
 30
-1.215677380561828
 10
11.23606300354004
 20
-0.7722800970077515
 30
-1.235156416893005
 10
11.59980297088623
 20
-1.224566578865051
 30
-1.499429106712341
 10
11.58455562591552
 20
-0.7722801566123963
 30
-1.523454785346984
 10
12.00259017944336
 20
-1.224566578865051
 30
-1.688966155052185
 10
11.99379730224609
 20
-0.7722802162170411
 30
-1.716029167175292
 10
12.4398603439331
 20
-1.224566578865051
 30
-1.772379517555236
 10
12.43807315826416
 20
-0.7722802162170411
 30
-1.800779104232788
 10
12.88413524627685
 20
-1.224566578865051
 30
-1.744427680969238
 10
12.88946723937988
 20
-0.7722802162170411
 30
-1.772379517555236
 10
13.30750179290771
 20
-1.224566578865051
 30
-1.606867432594299
 10
13.31961727142334
 20
-0.7722801566123963
 30
-1.632615089416503
 10
13.68335723876953
 20
-1.224566578865051
 30
-1.368342041969299
 10
13.70149517059326
 20
-0.7722801566123963
 30
-1.390267372131347
 10
13.98808574676513
 20
-1.224566578865051
 30
-1.043838620185852
 10
14.01110744476318
 20
-0.7722801566123963
 30
-1.060564637184143
 10
14.20254039764404
 20
-1.224567055702209
 30
-0.6537471413612366
 10
14.2289981842041
 20
-0.7722805142402649
 30
-0.6642223000526429
 10
14.31324481964111
 20
-1.224566936492919
 30
-0.2225779891014099
 10
14.34147644042969
 20
-0.7722805142402649
 30
-0.2261447459459305
 10
14.31324481964111
 20
-1.224566936492919
 30
0.2225757986307144
 10
14.34147644042969
 20
-0.7722803950309754
 30
0.2261421382427216
 10
14.20253944396973
 20
-1.22456681728363
 30
0.6537441015243531
 10
14.22899627685547
 20
-0.7722803950309754
 30
0.6642192602157593
 10
13.98808288574219
 20
-1.224566936492919
 30
1.043835282325744
 10
14.01110553741455
 20
-0.7722803950309754
 30
1.060561060905456
 10
13.68335437774658
 20
-1.224566936492919
 30
1.368337869644165
 10
13.70149230957031
 20
-0.7722803950309754
 30
1.390263795852661
 10
13.30749797821045
 20
-1.224566936492919
 30
1.606862902641296
 10
13.31961345672607
 20
-0.7722803950309754
 30
1.63261067867279
 10
12.88413143157959
 20
-1.224566936492919
 30
1.744422316551208
 10
12.88946437835693
 20
-0.7722803354263306
 30
1.772374391555786
 10
12.43985652923584
 20
-1.224566936492919
 30
1.772373437881469
 10
12.43806934356689
 20
-0.7722803354263306
 30
1.800772905349731
 10
12.00258636474609
 20
-1.224566936492919
 30
1.688959002494812
 10
11.99379348754883
 20
-0.7722803354263306
 30
1.716022133827209
 10
11.59980010986328
 20
-1.224566936492919
 30
1.499421119689941
 10
11.58455276489258
 20
-0.7722803950309754
 30
1.523447036743164
 10
11.25680446624756
 20
-1.22456681728363
 30
1.215668678283691
 10
11.23606014251709
 20
-0.7722804546356202
 30
1.235147833824157
 10
10.99514961242675
 20
-1.224566936492919
 30
0.8555308580398559
 10
10.97021389007568
 20
-0.7722804546356202
 30
0.8692395687103271
 10
10.83127784729004
 20
-1.22456681728363
 30
0.4416370689868927
 10
10.8037166595459
 20
-0.7722804546356202
 30
0.4487136900424958
 10
10.91552639007568
 20
-1.65556788444519
 30
-0.000002979390274
 10
10.96691989898681
 20
-1.655568003654479
 30
-0.4068201780319214
 10
11.11786937713623
 20
-1.655568003654479
 30
-0.7880754470825196
 10
11.35889148712158
 20
-1.655567526817321
 30
-1.119813442230224
 10
11.67484092712402
 20
-1.655567407608032
 30
-1.381189227104187
 10
12.04586505889892
 20
-1.655567049980163
 30
-1.555779933929443
 10
12.44865322113037
 20
-1.655567407608032
 30
-1.632615566253662
 10
12.85789489746093
 20
-1.65556788444519
 30
-1.606868267059326
 10
13.24787616729736
 20
-1.65556788444519
 30
-1.48015546798706
 10
13.59409236907959
 20
-1.655568003654479
 30
-1.260439157485961
 10
13.87478923797607
 20
-1.65556788444519
 30
-0.9615252017974853
 10
14.07233333587646
 20
-1.655568361282348
 30
-0.6021952033042908
 10
14.17430877685547
 20
-1.655568242073059
 30
-0.2050269246101379
 10
14.17430782318115
 20
-1.655568242073059
 30
0.2050232589244842
 10
14.07233333587646
 20
-1.655568122863769
 30
0.6021912097930909
 10
13.87478923797607
 20
-1.655568242073059
 30
0.9615213871002197
 10
13.59408855438232
 20
-1.655568122863769
 30
1.260434865951538
 10
13.24787330627441
 20
-1.655568242073059
 30
1.480150341987609
 10
12.85789012908935
 20
-1.655568242073059
 30
1.606861948966979
 10
12.4486494064331
 20
-1.65556788444519
 30
1.632608890533447
 10
12.04586219787598
 20
-1.65556788444519
 30
1.555772542953491
 10
11.67483806610107
 20
-1.65556788444519
 30
1.381180644035339
 10
11.35888957977295
 20
-1.6555677652359
 30
1.119804263114929
 10
11.11786842346191
 20
-1.6555677652359
 30
0.7880661487579346
 10
10.9669189453125
 20
-1.655567288398742
 30
0.406810075044632
 10
10.80371761322021
 20
-0.3885387182235718
 30
-0.4487231969833374
 10
10.74703121185303
 20
-0.3885387182235718
 30
-0.0000030347741813
 10
10.97021484375
 20
-0.3885387778282165
 30
-0.8692488670349121
 10
11.23606300354004
 20
-0.3885383903980255
 30
-1.235156416893005
 10
11.58455562591552
 20
-0.3885383903980255
 30
-1.523454785346984
 10
11.99379730224609
 20
-0.3885383903980255
 30
-1.716029167175292
 10
12.43807315826416
 20
-0.3885383903980255
 30
-1.800779104232788
 10
12.88946723937988
 20
-0.3885384202003479
 30
-1.772379517555236
 10
13.31961727142334
 20
-0.3885384202003479
 30
-1.632615089416503
 10
13.70149517059326
 20
-0.3885383903980255
 30
-1.390267014503479
 10
14.01110744476318
 20
-0.3885383605957031
 30
-1.060564637184143
 10
14.2289981842041
 20
-0.3885387480258942
 30
-0.6642222404479981
 10
14.34147644042969
 20
-0.3885387182235718
 30
-0.2261447608470917
 10
14.34147644042969
 20
-0.3885387182235718
 30
0.2261421233415604
 10
14.22899627685547
 20
-0.3885386884212494
 30
0.6642193198204041
 10
14.01110553741455
 20
-0.3885386884212494
 30
1.060561060905456
 10
13.70149230957031
 20
-0.388538658618927
 30
1.390263795852661
 10
13.31961345672607
 20
-0.3885386288166046
 30
1.63261067867279
 10
12.88946437835693
 20
-0.3885386288166046
 30
1.772374391555786
 10
12.43806934356689
 20
-0.388538658618927
 30
1.800772905349731
 10
11.99379348754883
 20
-0.388538658618927
 30
1.71602177619934
 10
11.58455276489258
 20
-0.388538658618927
 30
1.523447036743164
 10
11.23606014251709
 20
-0.388538658618927
 30
1.235147833824157
 10
10.97021389007568
 20
-0.388538658618927
 30
0.8692396283149719
 10
10.8037166595459
 20
-0.3885387182235718
 30
0.4487136602401734
 10
16.30848503112793
 20
0.0000033003157114
 30
-2.767945766448974
 10
8.810217857360839
 20
0.0000033003157114
 30
-2.767945766448974
 10
16.30848503112793
 20
0.0000035645366552
 30
2.731292247772216
 10
8.810217857360839
 20
0.0000035645366552
 30
2.731292247772216
 10
16.30848503112793
 20
-0.3997052311897278
 30
-2.767945766448974
 10
8.810217857360839
 20
-0.3997052311897278
 30
-2.767945766448974
 10
16.30848503112793
 20
-0.3997049927711487
 30
2.731292247772216
 10
8.810217857360839
 20
-0.3997049927711487
 30
2.731292247772216
 93
      872
 90
        4
 90
        4
 90
        6
 90
        7
 90
        5
 90
        4
 90
        0
 90
        4
 90
        5
 90
        1
 90
        4
 90
        1
 90
        5
 90
        7
 90
        3
 90
        4
 90
        3
 90
        7
 90
        6
 90
        2
 90
        4
 90
        2
 90
        6
 90
        4
 90
        0
 90
       20
 90
       25
 90
       24
 90
       23
 90
       22
 90
       21
 90
       20
 90
       19
 90
       18
 90
       17
 90
       16
 90
       15
 90
       14
 90
       13
 90
       12
 90
       11
 90
       10
 90
        9
 90
        8
 90
       27
 90
       26
 90
        4
 90
       27
 90
       29
 90
       28
 90
       26
 90
        4
 90
       26
 90
       28
 90
       30
 90
       25
 90
        4
 90
       25
 90
       30
 90
       31
 90
       24
 90
        4
 90
       24
 90
       31
 90
       32
 90
       23
 90
        4
 90
       23
 90
       32
 90
       33
 90
       22
 90
        4
 90
       22
 90
       33
 90
       34
 90
       21
 90
        4
 90
       21
 90
       34
 90
       35
 90
       20
 90
        4
 90
       20
 90
       35
 90
       36
 90
       19
 90
        4
 90
       19
 90
       36
 90
       37
 90
       18
 90
        4
 90
       18
 90
       37
 90
       38
 90
       17
 90
        4
 90
       17
 90
       38
 90
       39
 90
       16
 90
        4
 90
       16
 90
       39
 90
       40
 90
       15
 90
        4
 90
       15
 90
       40
 90
       41
 90
       14
 90
        4
 90
       14
 90
       41
 90
       42
 90
       13
 90
        4
 90
       13
 90
       42
 90
       43
 90
       12
 90
        4
 90
       12
 90
       43
 90
       44
 90
       11
 90
        4
 90
       11
 90
       44
 90
       45
 90
       10
 90
        4
 90
       10
 90
       45
 90
       46
 90
        9
 90
        4
 90
        9
 90
       46
 90
       47
 90
        8
 90
        4
 90
        8
 90
       47
 90
       29
 90
       27
 90
       20
 90
       65
 90
       64
 90
       63
 90
       62
 90
       61
 90
       60
 90
       59
 90
       58
 90
       57
 90
       56
 90
       55
 90
       54
 90
       53
 90
       52
 90
       51
 90
       50
 90
       49
 90
       48
 90
       67
 90
       66
 90
        4
 90
       29
 90
       69
 90
       68
 90
       28
 90
        4
 90
       28
 90
       68
 90
       70
 90
       30
 90
        4
 90
       30
 90
       70
 90
       71
 90
       31
 90
        4
 90
       31
 90
       71
 90
       72
 90
       32
 90
        4
 90
       32
 90
       72
 90
       73
 90
       33
 90
        4
 90
       33
 90
       73
 90
       74
 90
       34
 90
        4
 90
       34
 90
       74
 90
       75
 90
       35
 90
        4
 90
       35
 90
       75
 90
       76
 90
       36
 90
        4
 90
       36
 90
       76
 90
       77
 90
       37
 90
        4
 90
       37
 90
       77
 90
       78
 90
       38
 90
        4
 90
       38
 90
       78
 90
       79
 90
       39
 90
        4
 90
       39
 90
       79
 90
       80
 90
       40
 90
        4
 90
       40
 90
       80
 90
       81
 90
       41
 90
        4
 90
       41
 90
       81
 90
       82
 90
       42
 90
        4
 90
       42
 90
       82
 90
       83
 90
       43
 90
        4
 90
       43
 90
       83
 90
       84
 90
       44
 90
        4
 90
       44
 90
       84
 90
       85
 90
       45
 90
        4
 90
       45
 90
       85
 90
       86
 90
       46
 90
        4
 90
       46
 90
       86
 90
       87
 90
       47
 90
        4
 90
       47
 90
       87
 90
       69
 90
       29
 90
        4
 90
       69
 90
       49
 90
       50
 90
       68
 90
        4
 90
       68
 90
       50
 90
       51
 90
       70
 90
        4
 90
       70
 90
       51
 90
       52
 90
       71
 90
        4
 90
       71
 90
       52
 90
       53
 90
       72
 90
        4
 90
       72
 90
       53
 90
       54
 90
       73
 90
        4
 90
       73
 90
       54
 90
       55
 90
       74
 90
        4
 90
       74
 90
       55
 90
       56
 90
       75
 90
        4
 90
       75
 90
       56
 90
       57
 90
       76
 90
        4
 90
       76
 90
       57
 90
       58
 90
       77
 90
        4
 90
       77
 90
       58
 90
       59
 90
       78
 90
        4
 90
       78
 90
       59
 90
       60
 90
       79
 90
        4
 90
       79
 90
       60
 90
       61
 90
       80
 90
        4
 90
       80
 90
       61
 90
       62
 90
       81
 90
        4
 90
       81
 90
       62
 90
       63
 90
       82
 90
        4
 90
       82
 90
       63
 90
       64
 90
       83
 90
        4
 90
       83
 90
       64
 90
       65
 90
       84
 90
        4
 90
       84
 90
       65
 90
       66
 90
       85
 90
        4
 90
       85
 90
       66
 90
       67
 90
       86
 90
        4
 90
       86
 90
       67
 90
       48
 90
       87
 90
        4
 90
       87
 90
       48
 90
       49
 90
       69
 90
        4
 90
       88
 90
       91
 90
       90
 90
       89
 90
        4
 90
       92
 90
       95
 90
       94
 90
       93
 90
        4
 90
       88
 90
       92
 90
       93
 90
       91
 90
        4
 90
       91
 90
       93
 90
       94
 90
       90
 90
        4
 90
       89
 90
       95
 90
       92
 90
       88
 90
        4
 90
       97
 90
       96
 90
       99
 90
       98
 90
        4
 90
      101
 90
      100
 90
      103
 90
      102
 90
        4
 90
       99
 90
       96
 90
      100
 90
      101
 90
        4
 90
       99
 90
      101
 90
      102
 90
       98
 90
        4
 90
      104
 90
      107
 90
      106
 90
      105
 90
        4
 90
      105
 90
      106
 90
      103
 90
       97
 90
        4
 90
      105
 90
       97
 90
       98
 90
      104
 90
        4
 90
      107
 90
      102
 90
      103
 90
      106
 90
        4
 90
      104
 90
       98
 90
      102
 90
      107
 90
        4
 90
       96
 90
       97
 90
      103
 90
      100
 90
        4
 90
      108
 90
      111
 90
      110
 90
      109
 90
        4
 90
      112
 90
      115
 90
      114
 90
      113
 90
        4
 90
      108
 90
      112
 90
      113
 90
      111
 90
        4
 90
      111
 90
      113
 90
      114
 90
      110
 90
        4
 90
      110
 90
      114
 90
      115
 90
      109
 90
        4
 90
      109
 90
      115
 90
      112
 90
      108
 90
        4
 90
      118
 90
      117
 90
      116
 90
      119
 90
        4
 90
      120
 90
      118
 90
      119
 90
      121
 90
        4
 90
      122
 90
      120
 90
      121
 90
      123
 90
        4
 90
      124
 90
      122
 90
      123
 90
      125
 90
        4
 90
      126
 90
      124
 90
      125
 90
      127
 90
        4
 90
      128
 90
      126
 90
      127
 90
      129
 90
        4
 90
      130
 90
      128
 90
      129
 90
      131
 90
        4
 90
      132
 90
      130
 90
      131
 90
      133
 90
        4
 90
      134
 90
      132
 90
      133
 90
      135
 90
        4
 90
      136
 90
      134
 90
      135
 90
      137
 90
        4
 90
      138
 90
      136
 90
      137
 90
      139
 90
        4
 90
      140
 90
      138
 90
      139
 90
      141
 90
        4
 90
      142
 90
      140
 90
      141
 90
      143
 90
        4
 90
      144
 90
      142
 90
      143
 90
      145
 90
        4
 90
      146
 90
      144
 90
      145
 90
      147
 90
        4
 90
      148
 90
      146
 90
      147
 90
      149
 90
        4
 90
      150
 90
      148
 90
      149
 90
      151
 90
        4
 90
      152
 90
      150
 90
      151
 90
      153
 90
        4
 90
      154
 90
      152
 90
      153
 90
      155
 90
        4
 90
      156
 90
      154
 90
      155
 90
      157
 90
        4
 90
      158
 90
      156
 90
      157
 90
      159
 90
        4
 90
      160
 90
      158
 90
      159
 90
      161
 90
        4
 90
      162
 90
      160
 90
      161
 90
      163
 90
        4
 90
      164
 90
      162
 90
      163
 90
      165
 90
        4
 90
      117
 90
      164
 90
      165
 90
      116
 90
        4
 90
      167
 90
      166
 90
      117
 90
      118
 90
        4
 90
      168
 90
      167
 90
      118
 90
      120
 90
        4
 90
      169
 90
      168
 90
      120
 90
      122
 90
        4
 90
      170
 90
      169
 90
      122
 90
      124
 90
        4
 90
      171
 90
      170
 90
      124
 90
      126
 90
        4
 90
      172
 90
      171
 90
      126
 90
      128
 90
        4
 90
      173
 90
      172
 90
      128
 90
      130
 90
        4
 90
      174
 90
      173
 90
      130
 90
      132
 90
        4
 90
      175
 90
      174
 90
      132
 90
      134
 90
        4
 90
      176
 90
      175
 90
      134
 90
      136
 90
        4
 90
      177
 90
      176
 90
      136
 90
      138
 90
        4
 90
      178
 90
      177
 90
      138
 90
      140
 90
        4
 90
      179
 90
      178
 90
      140
 90
      142
 90
        4
 90
      180
 90
      179
 90
      142
 90
      144
 90
        4
 90
      181
 90
      180
 90
      144
 90
      146
 90
        4
 90
      182
 90
      181
 90
      146
 90
      148
 90
        4
 90
      183
 90
      182
 90
      148
 90
      150
 90
        4
 90
      184
 90
      183
 90
      150
 90
      152
 90
        4
 90
      185
 90
      184
 90
      152
 90
      154
 90
        4
 90
      186
 90
      185
 90
      154
 90
      156
 90
        4
 90
      187
 90
      186
 90
      156
 90
      158
 90
        4
 90
      188
 90
      187
 90
      158
 90
      160
 90
        4
 90
      189
 90
      188
 90
      160
 90
      162
 90
        4
 90
      190
 90
      189
 90
      162
 90
      164
 90
        4
 90
      166
 90
      190
 90
      164
 90
      117
 90
        4
 90
      116
 90
      192
 90
      191
 90
      119
 90
        4
 90
      119
 90
      191
 90
      193
 90
      121
 90
        4
 90
      121
 90
      193
 90
      194
 90
      123
 90
        4
 90
      123
 90
      194
 90
      195
 90
      125
 90
        4
 90
      125
 90
      195
 90
      196
 90
      127
 90
        4
 90
      127
 90
      196
 90
      197
 90
      129
 90
        4
 90
      129
 90
      197
 90
      198
 90
      131
 90
        4
 90
      131
 90
      198
 90
      199
 90
      133
 90
        4
 90
      133
 90
      199
 90
      200
 90
      135
 90
        4
 90
      135
 90
      200
 90
      201
 90
      137
 90
        4
 90
      137
 90
      201
 90
      202
 90
      139
 90
        4
 90
      139
 90
      202
 90
      203
 90
      141
 90
        4
 90
      141
 90
      203
 90
      204
 90
      143
 90
        4
 90
      143
 90
      204
 90
      205
 90
      145
 90
        4
 90
      145
 90
      205
 90
      206
 90
      147
 90
        4
 90
      147
 90
      206
 90
      207
 90
      149
 90
        4
 90
      149
 90
      207
 90
      208
 90
      151
 90
        4
 90
      151
 90
      208
 90
      209
 90
      153
 90
        4
 90
      153
 90
      209
 90
      210
 90
      155
 90
        4
 90
      155
 90
      210
 90
      211
 90
      157
 90
        4
 90
      157
 90
      211
 90
      212
 90
      159
 90
        4
 90
      159
 90
      212
 90
      213
 90
      161
 90
        4
 90
      161
 90
      213
 90
      214
 90
      163
 90
        4
 90
      163
 90
      214
 90
      215
 90
      165
 90
        4
 90
      165
 90
      215
 90
      192
 90
      116
 90
        4
 90
      220
 90
      222
 90
      223
 90
      221
 90
        4
 90
      216
 90
      220
 90
      221
 90
      217
 90
        4
 90
      217
 90
      221
 90
      223
 90
      219
 90
        4
 90
      219
 90
      223
 90
      222
 90
      218
 90
        4
 90
      218
 90
      222
 90
      220
 90
      216
 94
      383
 90
        4
 90
        6
 90
        6
 90
        7
 90
        5
 90
        7
 90
        4
 90
        5
 90
        0
 90
        4
 90
        1
 90
        5
 90
        0
 90
        1
 90
        3
 90
        7
 90
        1
 90
        3
 90
        2
 90
        6
 90
        2
 90
        3
 90
        0
 90
        2
 90
       24
 90
       25
 90
       23
 90
       24
 90
       22
 90
       23
 90
       21
 90
       22
 90
       20
 90
       21
 90
       19
 90
       20
 90
       18
 90
       19
 90
       17
 90
       18
 90
       16
 90
       17
 90
       15
 90
       16
 90
       14
 90
       15
 90
       13
 90
       14
 90
       12
 90
       13
 90
       11
 90
       12
 90
       10
 90
       11
 90
        9
 90
       10
 90
        8
 90
        9
 90
        8
 90
       27
 90
       26
 90
       27
 90
       25
 90
       26
 90
       27
 90
       29
 90
       28
 90
       29
 90
       26
 90
       28
 90
       28
 90
       30
 90
       25
 90
       30
 90
       30
 90
       31
 90
       24
 90
       31
 90
       31
 90
       32
 90
       23
 90
       32
 90
       32
 90
       33
 90
       22
 90
       33
 90
       33
 90
       34
 90
       21
 90
       34
 90
       34
 90
       35
 90
       20
 90
       35
 90
       35
 90
       36
 90
       19
 90
       36
 90
       36
 90
       37
 90
       18
 90
       37
 90
       37
 90
       38
 90
       17
 90
       38
 90
       38
 90
       39
 90
       16
 90
       39
 90
       39
 90
       40
 90
       15
 90
       40
 90
       40
 90
       41
 90
       14
 90
       41
 90
       41
 90
       42
 90
       13
 90
       42
 90
       42
 90
       43
 90
       12
 90
       43
 90
       43
 90
       44
 90
       11
 90
       44
 90
       44
 90
       45
 90
       10
 90
       45
 90
       45
 90
       46
 90
        9
 90
       46
 90
       46
 90
       47
 90
        8
 90
       47
 90
       29
 90
       47
 90
       64
 90
       65
 90
       63
 90
       64
 90
       62
 90
       63
 90
       61
 90
       62
 90
       60
 90
       61
 90
       59
 90
       60
 90
       58
 90
       59
 90
       57
 90
       58
 90
       56
 90
       57
 90
       55
 90
       56
 90
       54
 90
       55
 90
       53
 90
       54
 90
       52
 90
       53
 90
       51
 90
       52
 90
       50
 90
       51
 90
       49
 90
       50
 90
       48
 90
       49
 90
       48
 90
       67
 90
       66
 90
       67
 90
       65
 90
       66
 90
       29
 90
       69
 90
       68
 90
       69
 90
       28
 90
       68
 90
       68
 90
       70
 90
       30
 90
       70
 90
       70
 90
       71
 90
       31
 90
       71
 90
       71
 90
       72
 90
       32
 90
       72
 90
       72
 90
       73
 90
       33
 90
       73
 90
       73
 90
       74
 90
       34
 90
       74
 90
       74
 90
       75
 90
       35
 90
       75
 90
       75
 90
       76
 90
       36
 90
       76
 90
       76
 90
       77
 90
       37
 90
       77
 90
       77
 90
       78
 90
       38
 90
       78
 90
       78
 90
       79
 90
       39
 90
       79
 90
       79
 90
       80
 90
       40
 90
       80
 90
       80
 90
       81
 90
       41
 90
       81
 90
       81
 90
       82
 90
       42
 90
       82
 90
       82
 90
       83
 90
       43
 90
       83
 90
       83
 90
       84
 90
       44
 90
       84
 90
       84
 90
       85
 90
       45
 90
       85
 90
       85
 90
       86
 90
       46
 90
       86
 90
       86
 90
       87
 90
       47
 90
       87
 90
       69
 90
       87
 90
       49
 90
       69
 90
       50
 90
       68
 90
       51
 90
       70
 90
       52
 90
       71
 90
       53
 90
       72
 90
       54
 90
       73
 90
       55
 90
       74
 90
       56
 90
       75
 90
       57
 90
       76
 90
       58
 90
       77
 90
       59
 90
       78
 90
       60
 90
       79
 90
       61
 90
       80
 90
       62
 90
       81
 90
       63
 90
       82
 90
       64
 90
       83
 90
       65
 90
       84
 90
       66
 90
       85
 90
       67
 90
       86
 90
       48
 90
       87
 90
       88
 90
       91
 90
       90
 90
       91
 90
       89
 90
       90
 90
       88
 90
       89
 90
       92
 90
       95
 90
       94
 90
       95
 90
       93
 90
       94
 90
       92
 90
       93
 90
       88
 90
       92
 90
       91
 90
       93
 90
       90
 90
       94
 90
       89
 90
       95
 90
       96
 90
       97
 90
       96
 90
       99
 90
       98
 90
       99
 90
       97
 90
       98
 90
      100
 90
      101
 90
      100
 90
      103
 90
      102
 90
      103
 90
      101
 90
      102
 90
       96
 90
      100
 90
       99
 90
      101
 90
       98
 90
      102
 90
      104
 90
      107
 90
      106
 90
      107
 90
      105
 90
      106
 90
      104
 90
      105
 90
      103
 90
      106
 90
       97
 90
      103
 90
       97
 90
      105
 90
       98
 90
      104
 90
      102
 90
      107
 90
      108
 90
      111
 90
      110
 90
      111
 90
      109
 90
      110
 90
      108
 90
      109
 90
      112
 90
      115
 90
      114
 90
      115
 90
      113
 90
      114
 90
      112
 90
      113
 90
      108
 90
      112
 90
      111
 90
      113
 90
      110
 90
      114
 90
      109
 90
      115
 90
      117
 90
      118
 90
      116
 90
      117
 90
      116
 90
      119
 90
      118
 90
      119
 90
      118
 90
      120
 90
      119
 90
      121
 90
      120
 90
      121
 90
      120
 90
      122
 90
      121
 90
      123
 90
      122
 90
      123
 90
      122
 90
      124
 90
      123
 90
      125
 90
      124
 90
      125
 90
      124
 90
      126
 90
      125
 90
      127
 90
      126
 90
      127
 90
      126
 90
      128
 90
      127
 90
      129
 90
      128
 90
      129
 90
      128
 90
      130
 90
      129
 90
      131
 90
      130
 90
      131
 90
      130
 90
      132
 90
      131
 90
      133
 90
      132
 90
      133
 90
      132
 90
      134
 90
      133
 90
      135
 90
      134
 90
      135
 90
      134
 90
      136
 90
      135
 90
      137
 90
      136
 90
      137
 90
      136
 90
      138
 90
      137
 90
      139
 90
      138
 90
      139
 90
      138
 90
      140
 90
      139
 90
      141
 90
      140
 90
      141
 90
      140
 90
      142
 90
      141
 90
      143
 90
      142
 90
      143
 90
      142
 90
      144
 90
      143
 90
      145
 90
      144
 90
      145
 90
      144
 90
      146
 90
      145
 90
      147
 90
      146
 90
      147
 90
      146
 90
      148
 90
      147
 90
      149
 90
      148
 90
      149
 90
      148
 90
      150
 90
      149
 90
      151
 90
      150
 90
      151
 90
      150
 90
      152
 90
      151
 90
      153
 90
      152
 90
      153
 90
      152
 90
      154
 90
      153
 90
      155
 90
      154
 90
      155
 90
      154
 90
      156
 90
      155
 90
      157
 90
      156
 90
      157
 90
      156
 90
      158
 90
      157
 90
      159
 90
      158
 90
      159
 90
      158
 90
      160
 90
      159
 90
      161
 90
      160
 90
      161
 90
      160
 90
      162
 90
      161
 90
      163
 90
      162
 90
      163
 90
      162
 90
      164
 90
      163
 90
      165
 90
      164
 90
      165
 90
      117
 90
      164
 90
      116
 90
      165
 90
      166
 90
      167
 90
      117
 90
      166
 90
      118
 90
      167
 90
      167
 90
      168
 90
      120
 90
      168
 90
      168
 90
      169
 90
      122
 90
      169
 90
      169
 90
      170
 90
      124
 90
      170
 90
      170
 90
      171
 90
      126
 90
      171
 90
      171
 90
      172
 90
      128
 90
      172
 90
      172
 90
      173
 90
      130
 90
      173
 90
      173
 90
      174
 90
      132
 90
      174
 90
      174
 90
      175
 90
      134
 90
      175
 90
      175
 90
      176
 90
      136
 90
      176
 90
      176
 90
      177
 90
      138
 90
      177
 90
      177
 90
      178
 90
      140
 90
      178
 90
      178
 90
      179
 90
      142
 90
      179
 90
      179
 90
      180
 90
      144
 90
      180
 90
      180
 90
      181
 90
      146
 90
      181
 90
      181
 90
      182
 90
      148
 90
      182
 90
      182
 90
      183
 90
      150
 90
      183
 90
      183
 90
      184
 90
      152
 90
      184
 90
      184
 90
      185
 90
      154
 90
      185
 90
      185
 90
      186
 90
      156
 90
      186
 90
      186
 90
      187
 90
      158
 90
      187
 90
      187
 90
      188
 90
      160
 90
      188
 90
      188
 90
      189
 90
      162
 90
      189
 90
      189
 90
      190
 90
      164
 90
      190
 90
      166
 90
      190
 90
      116
 90
      192
 90
      191
 90
      192
 90
      119
 90
      191
 90
      191
 90
      193
 90
      121
 90
      193
 90
      193
 90
      194
 90
      123
 90
      194
 90
      194
 90
      195
 90
      125
 90
      195
 90
      195
 90
      196
 90
      127
 90
      196
 90
      196
 90
      197
 90
      129
 90
      197
 90
      197
 90
      198
 90
      131
 90
      198
 90
      198
 90
      199
 90
      133
 90
      199
 90
      199
 90
      200
 90
      135
 90
      200
 90
      200
 90
      201
 90
      137
 90
      201
 90
      201
 90
      202
 90
      139
 90
      202
 90
      202
 90
      203
 90
      141
 90
      203
 90
      203
 90
      204
 90
      143
 90
      204
 90
      204
 90
      205
 90
      145
 90
      205
 90
      205
 90
      206
 90
      147
 90
      206
 90
      206
 90
      207
 90
      149
 90
      207
 90
      207
 90
      208
 90
      151
 90
      208
 90
      208
 90
      209
 90
      153
 90
      209
 90
      209
 90
      210
 90
      155
 90
      210
 90
      210
 90
      211
 90
      157
 90
      211
 90
      211
 90
      212
 90
      159
 90
      212
 90
      212
 90
      213
 90
      161
 90
      213
 90
      213
 90
      214
 90
      163
 90
      214
 90
      214
 90
      215
 90
      165
 90
      215
 90
      192
 90
      215
 90
      220
 90
      222
 90
      222
 90
      223
 90
      221
 90
      223
 90
      220
 90
      221
 90
      216
 90
      220
 90
      217
 90
      221
 90
      216
 90
      217
 90
      219
 90
      223
 90
      217
 90
      219
 90
      218
 90
      222
 90
      218
 90
      219
 90
      216
 90
      218
 95
      383
140
0.0
140
0.0
140
0.0
140
0.0
140
0.0
140
0.0
140
0.0
140
0.0
140
0.0
140
0.0
140
0.0
140
0.0
140
0.0
140
0.0
140
0.0
140
0.0
140
0.0
140
0.0
140
0.0
140
0.0
140
0.0
140
0.0
140
0.0
140
0.0
140
0.0
140
0.0
140
0.0
140
0.0
140
0.0
140
0.0
140
0.0
140
0.0
140
0.0
140
0.0
140
0.0
140
0.0
140
0.0
140
0.0
140
0.0
140
0.0
140
0.0
140
0.0
140
0.0
140
0.0
140
0.0
140
0.0
140
0.0
140
0.0
140
0.0
140
0.0
140
0.0
140
0.0
140
0.0
140
0.0
140
0.0
140
0.0
140
0.0
140
0.0
140
0.0
140
0.0
140
0.0
140
0.0
140
0.0
140
0.0
140
0.0
140
0.0
140
0.0
140
0.0
140
0.0
140
0.0
140
0.0
140
0.0
140
0.0
140
0.0
140
0.0
140
0.0
140
0.0
140
0.0
140
0.0
140
0.0
140
0.0
140
0.0
140
0.0
140
0.0
140
0.0
140
0.0
140
0.0
140
0.0
140
0.0
140
0.0
140
0.0
140
0.0
140
0.0
140
0.0
140
0.0
140
0.0
140
0.0
140
0.0
140
0.0
140
0.0
140
0.0
140
0.0
140
0.0
140
0.0
140
0.0
140
0.0
140
0.0
140
0.0
140
0.0
140
0.0
140
0.0
140
0.0
140
0.0
140
0.0
140
0.0
140
0.0
140
0.0
140
0.0
140
0.0
140
0.0
140
0.0
140
0.0
140
0.0
140
0.0
140
0.0
140
0.0
140
0.0
140
0.0
140
0.0
140
0.0
140
0.0
140
0.0
140
0.0
140
0.0
140
0.0
140
0.0
140
0.0
140
0.0
140
0.0
140
0.0
140
0.0
140
0.0
140
0.0
140
0.0
140
0.0
140
0.0
140
0.0
140
0.0
140
0.0
140
0.0
140
0.0
140
0.0
140
0.0
140
0.0
140
0.0
140
0.0
140
0.0
140
0.0
140
0.0
140
0.0
140
0.0
140
0.0
140
0.0
140
0.0
140
0.0
140
0.0
140
0.0
140
0.0
140
0.0
140
0.0
140
0.0
140
0.0
140
0.0
140
0.0
140
0.0
140
0.0
140
0.0
140
0.0
140
0.0
140
0.0
140
0.0
140
0.0
140
0.0
140
0.0
140
0.0
140
0.0
140
0.0
140
0.0
140
0.0
140
0.0
140
0.0
140
0.0
140
0.0
140
0.0
140
0.0
140
0.0
140
0.0
140
0.0
140
0.0
140
0.0
140
0.0
140
0.0
140
0.0
140
0.0
140
0.0
140
0.0
140
0.0
140
0.0
140
0.0
140
0.0
140
0.0
140
0.0
140
0.0
140
0.0
140
0.0
140
0.0
140
0.0
140
0.0
140
0.0
140
0.0
140
0.0
140
0.0
140
0.0
140
0.0
140
0.0
140
0.0
140
0.0
140
0.0
140
0.0
140
0.0
140
0.0
140
0.0
140
0.0
140
0.0
140
0.0
140
0.0
140
0.0
140
0.0
140
0.0
140
0.0
140
0.0
140
0.0
140
0.0
140
0.0
140
0.0
140
0.0
140
0.0
140
0.0
140
0.0
140
0.0
140
0.0
140
0.0
140
0.0
140
0.0
140
0.0
140
0.0
140
0.0
140
0.0
140
0.0
140
0.0
140
0.0
140
0.0
140
0.0
140
0.0
140
0.0
140
0.0
140
0.0
140
0.0
140
0.0
140
0.0
140
0.0
140
0.0
140
0.0
140
0.0
140
0.0
140
0.0
140
0.0
140
0.0
140
0.0
140
0.0
140
0.0
140
0.0
140
0.0
140
0.0
140
0.0
140
0.0
140
0.0
140
0.0
140
0.0
140
0.0
140
0.0
140
0.0
140
0.0
140
0.0
140
0.0
140
0.0
140
0.0
140
0.0
140
0.0
140
0.0
140
0.0
140
0.0
140
0.0
140
0.0
140
0.0
140
0.0
140
0.0
140
0.0
140
0.0
140
0.0
140
0.0
140
0.0
140
0.0
140
0.0
140
0.0
140
0.0
140
0.0
140
0.0
140
0.0
140
0.0
140
0.0
140
0.0
140
0.0
140
0.0
140
0.0
140
0.0
140
0.0
140
0.0
140
0.0
140
0.0
140
0.0
140
0.0
140
0.0
140
0.0
140
0.0
140
0.0
140
0.0
140
0.0
140
0.0
140
0.0
140
0.0
140
0.0
140
0.0
140
0.0
140
0.0
140
0.0
140
0.0
140
0.0
140
0.0
140
0.0
140
0.0
140
0.0
140
0.0
140
0.0
140
0.0
140
0.0
140
0.0
140
0.0
140
0.0
140
0.0
140
0.0
140
0.0
140
0.0
140
0.0
140
0.0
140
0.0
140
0.0
140
0.0
140
0.0
140
0.0
140
0.0
140
0.0
140
0.0
140
0.0
140
0.0
140
0.0
140
0.0
140
0.0
140
0.0
140
0.0
140
0.0
140
0.0
140
0.0
 90
        0
  0
ENDSEC
  0
SECTION
  2
OBJECTS
  0
DICTIONARY
  5
C
330
0
100
AcDbDictionary
281
     1
  3
ACAD_COLOR
350
DC
  3
ACAD_DETAILVIEWSTYLE
350
F5
  3
ACAD_GROUP
350
D
  3
ACAD_LAYOUT
350
1A
  3
ACAD_MATERIAL
350
AA
  3
ACAD_MLEADERSTYLE
350
F1
  3
ACAD_MLINESTYLE
350
17
  3
ACAD_PLOTSETTINGS
350
19
  3
ACAD_PLOTSTYLENAME
350
E
  3
ACAD_SCALELIST
350
DF
  3
ACAD_SECTIONVIEWSTYLE
350
F3
  3
ACAD_TABLESTYLE
350
DD
  3
ACAD_VISUALSTYLE
350
C3
  3
ACDB_RECOMPOSE_DATA
350
106
  3
AcDbVariableDictionary
350
FA
  0
DICTIONARY
  5
DC
102
{ACAD_REACTORS
330
C
102
}
330
C
100
AcDbDictionary
281
     1
  0
DICTIONARY
  5
F5
102
{ACAD_REACTORS
330
C
102
}
330
C
100
AcDbDictionary
281
     1
  3
Imperial24
350
F6
  0
DICTIONARY
  5
D
102
{ACAD_REACTORS
330
C
102
}
330
C
100
AcDbDictionary
281
     1
  0
DICTIONARY
  5
1A
102
{ACAD_REACTORS
330
C
102
}
330
C
100
AcDbDictionary
281
     1
  3
Layout1
350
1E
  3
Layout2
350
26
  3
Model
350
22
  0
DICTIONARY
  5
AA
102
{ACAD_REACTORS
330
C
102
}
330
C
100
AcDbDictionary
281
     1
  3
ByBlock
350
B3
  3
ByLayer
350
AB
  3
Global
350
BB
  0
DICTIONARY
  5
F1
102
{ACAD_REACTORS
330
C
102
}
330
C
100
AcDbDictionary
281
     1
  3
Standard
350
F2
  0
DICTIONARY
  5
17
102
{ACAD_REACTORS
330
C
102
}
330
C
100
AcDbDictionary
281
     1
  3
Standard
350
18
  0
DICTIONARY
  5
19
102
{ACAD_REACTORS
330
C
102
}
330
C
100
AcDbDictionary
281
     1
  0
ACDBDICTIONARYWDFLT
  5
E
102
{ACAD_REACTORS
330
C
102
}
330
C
100
AcDbDictionary
281
     1
  3
ByLayer
350
2D
  3
Normal
350
F
100
AcDbDictionaryWithDefault
340
F
  0
DICTIONARY
  5
DF
102
{ACAD_REACTORS
330
C
102
}
330
C
100
AcDbDictionary
281
     1
  3
A0
350
E0
  3
A1
350
E1
  3
A2
350
E2
  3
A3
350
E3
  3
A4
350
E4
  3
A5
350
E5
  3
A6
350
E6
  3
A7
350
E7
  3
A8
350
E8
  3
A9
350
E9
  3
B0
350
EA
  3
B1
350
EB
  3
B2
350
EC
  3
B3
350
ED
  3
B4
350
EE
  3
B5
350
EF
  3
B6
350
F0
  0
DICTIONARY
  5
F3
102
{ACAD_REACTORS
330
C
102
}
330
C
100
AcDbDictionary
281
     1
  3
Imperial24
350
F4
  0
DICTIONARY
  5
DD
102
{ACAD_REACTORS
330
C
102
}
330
C
100
AcDbDictionary
281
     1
  3
Standard
350
DE
  0
DICTIONARY
  5
C3
102
{ACAD_REACTORS
330
C
102
}
330
C
100
AcDbDictionary
281
     1
  3
2dWireframe
350
C9
  3
Basic
350
C8
  3
Brighten
350
CF
  3
ColorChange
350
D3
  3
Conceptual
350
CC
  3
Dim
350
CE
  3
EdgeColorOff
350
DB
  3
Facepattern
350
D2
  3
Flat
350
C4
  3
FlatWithEdges
350
C5
  3
Gouraud
350
C6
  3
GouraudWithEdges
350
C7
  3
Hidden
350
CB
  3
JitterOff
350
D9
  3
Linepattern
350
D1
  3
OverhangOff
350
DA
  3
Realistic
350
CD
  3
Shaded
350
D8
  3
Shaded with edges
350
D7
  3
Shades of Gray
350
D4
  3
Sketchy
350
D5
  3
Thicken
350
D0
  3
Wireframe
350
CA
  3
X-Ray
350
D6
  0
XRECORD
  5
106
102
{ACAD_REACTORS
330
C
102
}
330
C
100
AcDbXrecord
280
     1
 90
        1
330
DE
330
F9
  0
DICTIONARY
  5
FA
102
{ACAD_REACTORS
330
C
102
}
330
C
100
AcDbDictionary
281
     1
  3
CANNOSCALE
350
100
  3
CMLEADERSTYLE
350
FC
  3
CTABLESTYLE
350
FB
  3
CVIEWDETAILSTYLE
350
FD
  3
CVIEWSECTIONSTYLE
350
FE
  3
LAYEREVAL
350
102
  3
LAYERNOTIFY
350
103
  3
LIGHTINGUNITS
350
101
  3
MSLTSCALE
350
FF
  0
ACDBDETAILVIEWSTYLE
  5
F6
102
{ACAD_REACTORS
330
F5
102
}
330
F5
100
AcDbModelDocViewStyle
 70
     0
  3
Imperial24
290
     1
300
Imperial24
 90
        0
100
AcDbDetailViewStyle
 70
     0
 71
     0
 90
        3
 71
     1
340
11
 62
   256
 40
0.24
340
0
 62
   256
 40
0.24
300

 40
0.36
280
     3
 71
     2
340
16
 90
       25
 62
   256
 71
     3
340
11
 62
   256
 40
0.24
 90
        1
 40
0.75
 90
        1
300
%<\AcVar ViewType \f "%tc1">% %<\AcVar ViewDetailId>%\PSCALE %<\AcVar ViewScale \f "%sn">%
 71
     4
340
16
 90
       25
 62
   256
340
16
 90
       25
 62
   256
280
     0
  0
LAYOUT
  5
1E
102
{ACAD_REACTORS
330
1A
102
}
330
1A
100
AcDbPlotSettings
  1

  2
\\KTXNTBDC\CASF2PN1
  4

  6

 40
0.0
 41
0.0
 42
0.0
 43
0.0
 44
0.0
 45
0.0
 46
0.0
 47
0.0
 48
0.0
 49
0.0
140
0.0
141
0.0
142
1.0
143
1.0
 70
   688
 72
     0
 73
     0
 74
     5
  7

 75
    16
147
1.0
 76
     0
 77
     2
 78
   300
148
0.0
149
0.0
100
AcDbLayout
  1
Layout1
 70
     1
 71
     1
 10
0.0
 20
0.0
 11
12.0
 21
9.0
 12
0.0
 22
0.0
 32
0.0
 14
1.000000000000000E+20
 24
1.000000000000000E+20
 34
1.000000000000000E+20
 15
-1.000000000000000E+20
 25
-1.000000000000000E+20
 35
-1.000000000000000E+20
146
0.0
 13
0.0
 23
0.0
 33
0.0
 16
1.0
 26
0.0
 36
0.0
 17
0.0
 27
1.0
 37
0.0
 76
     0
330
1B
  0
LAYOUT
  5
26
102
{ACAD_REACTORS
330
1A
102
}
330
1A
100
AcDbPlotSettings
  1

  2
\\KTXNTBDC\CASF2PN1
  4

  6

 40
0.0
 41
0.0
 42
0.0
 43
0.0
 44
0.0
 45
0.0
 46
0.0
 47
0.0
 48
0.0
 49
0.0
140
0.0
141
0.0
142
1.0
143
1.0
 70
   688
 72
     0
 73
     0
 74
     5
  7

 75
    16
147
1.0
 76
     0
 77
     2
 78
   300
148
0.0
149
0.0
100
AcDbLayout
  1
Layout2
 70
     1
 71
     2
 10
0.0
 20
0.0
 11
12.0
 21
9.0
 12
0.0
 22
0.0
 32
0.0
 14
0.0
 24
0.0
 34
0.0
 15
0.0
 25
0.0
 35
0.0
146
0.0
 13
0.0
 23
0.0
 33
0.0
 16
1.0
 26
0.0
 36
0.0
 17
0.0
 27
1.0
 37
0.0
 76
     0
330
23
  0
LAYOUT
  5
22
102
{ACAD_REACTORS
330
1A
102
}
330
1A
100
AcDbPlotSettings
  1

  2
\\KTXNTBDC\CASF2PN1
  4

  6

 40
0.0
 41
0.0
 42
0.0
 43
0.0
 44
0.0
 45
0.0
 46
0.0
 47
0.0
 48
0.0
 49
0.0
140
0.0
141
0.0
142
1.0
143
1.0
 70
  1712
 72
     0
 73
     0
 74
     0
  7

 75
     0
147
1.0
 76
     0
 77
     2
 78
   300
148
0.0
149
0.0
100
AcDbLayout
  1
Model
 70
     1
 71
     0
 10
0.0
 20
0.0
 11
12.0
 21
9.0
 12
0.0
 22
0.0
 32
0.0
 14
0.0
 24
0.0
 34
0.0
 15
0.0
 25
0.0
 35
0.0
146
0.0
 13
0.0
 23
0.0
 33
0.0
 16
1.0
 26
0.0
 36
0.0
 17
0.0
 27
1.0
 37
0.0
 76
     0
330
1F
  0
MATERIAL
  5
B3
102
{ACAD_XDICTIONARY
360
B4
102
}
102
{ACAD_REACTORS
330
AA
102
}
330
AA
100
AcDbMaterial
  1
ByBlock
 72
     0
 43
0.0208333333333333
 43
0.0
 43
0.0
 43
0.0
 43
0.0
 43
0.0208333333333333
 43
0.0
 43
0.0
 43
0.0
 43
0.0
 43
1.0
 43
0.0
 43
0.0
 43
0.0
 43
0.0
 43
1.0
 77
     0
 47
0.0208333333333333
 47
0.0
 47
0.0
 47
0.0
 47
0.0
 47
0.0208333333333333
 47
0.0
 47
0.0
 47
0.0
 47
0.0
 47
1.0
 47
0.0
 47
0.0
 47
0.0
 47
0.0
 47
1.0
171
     0
 49
0.0208333333333333
 49
0.0
 49
0.0
 49
0.0
 49
0.0
 49
0.0208333333333333
 49
0.0
 49
0.0
 49
0.0
 49
0.0
 49
1.0
 49
0.0
 49
0.0
 49
0.0
 49
0.0
 49
1.0
175
     0
142
0.0208333333333333
142
0.0
142
0.0
142
0.0
142
0.0
142
0.0208333333333333
142
0.0
142
0.0
142
0.0
142
0.0
142
1.0
142
0.0
142
0.0
142
0.0
142
0.0
142
1.0
179
     0
144
0.0208333333333333
144
0.0
144
0.0
144
0.0
144
0.0
144
0.0208333333333333
144
0.0
144
0.0
144
0.0
144
0.0
144
1.0
144
0.0
144
0.0
144
0.0
144
0.0
144
1.0
147
0.0208333333333333
147
0.0
147
0.0
147
0.0
147
0.0
147
0.0208333333333333
147
0.0
147
0.0
147
0.0
147
0.0
147
1.0
147
0.0
147
0.0
147
0.0
147
0.0
147
1.0
  0
MATERIAL
  5
AB
102
{ACAD_XDICTIONARY
360
AC
102
}
102
{ACAD_REACTORS
330
AA
102
}
330
AA
100
AcDbMaterial
  1
ByLayer
 72
     0
 43
0.0208333333333333
 43
0.0
 43
0.0
 43
0.0
 43
0.0
 43
0.0208333333333333
 43
0.0
 43
0.0
 43
0.0
 43
0.0
 43
1.0
 43
0.0
 43
0.0
 43
0.0
 43
0.0
 43
1.0
 77
     0
 47
0.0208333333333333
 47
0.0
 47
0.0
 47
0.0
 47
0.0
 47
0.0208333333333333
 47
0.0
 47
0.0
 47
0.0
 47
0.0
 47
1.0
 47
0.0
 47
0.0
 47
0.0
 47
0.0
 47
1.0
171
     0
 49
0.0208333333333333
 49
0.0
 49
0.0
 49
0.0
 49
0.0
 49
0.0208333333333333
 49
0.0
 49
0.0
 49
0.0
 49
0.0
 49
1.0
 49
0.0
 49
0.0
 49
0.0
 49
0.0
 49
1.0
175
     0
142
0.0208333333333333
142
0.0
142
0.0
142
0.0
142
0.0
142
0.0208333333333333
142
0.0
142
0.0
142
0.0
142
0.0
142
1.0
142
0.0
142
0.0
142
0.0
142
0.0
142
1.0
179
     0
144
0.0208333333333333
144
0.0
144
0.0
144
0.0
144
0.0
144
0.0208333333333333
144
0.0
144
0.0
144
0.0
144
0.0
144
1.0
144
0.0
144
0.0
144
0.0
144
0.0
144
1.0
147
0.0208333333333333
147
0.0
147
0.0
147
0.0
147
0.0
147
0.0208333333333333
147
0.0
147
0.0
147
0.0
147
0.0
147
1.0
147
0.0
147
0.0
147
0.0
147
0.0
147
1.0
  0
MATERIAL
  5
BB
102
{ACAD_XDICTIONARY
360
BC
102
}
102
{ACAD_REACTORS
330
AA
102
}
330
AA
100
AcDbMaterial
  1
Global
 72
     0
 43
0.0208333333333333
 43
0.0
 43
0.0
 43
0.0
 43
0.0
 43
0.0208333333333333
 43
0.0
 43
0.0
 43
0.0
 43
0.0
 43
1.0
 43
0.0
 43
0.0
 43
0.0
 43
0.0
 43
1.0
 77
     0
 47
0.0208333333333333
 47
0.0
 47
0.0
 47
0.0
 47
0.0
 47
0.0208333333333333
 47
0.0
 47
0.0
 47
0.0
 47
0.0
 47
1.0
 47
0.0
 47
0.0
 47
0.0
 47
0.0
 47
1.0
171
     0
 49
0.0208333333333333
 49
0.0
 49
0.0
 49
0.0
 49
0.0
 49
0.0208333333333333
 49
0.0
 49
0.0
 49
0.0
 49
0.0
 49
1.0
 49
0.0
 49
0.0
 49
0.0
 49
0.0
 49
1.0
175
     0
142
0.0208333333333333
142
0.0
142
0.0
142
0.0
142
0.0
142
0.0208333333333333
142
0.0
142
0.0
142
0.0
142
0.0
142
1.0
142
0.0
142
0.0
142
0.0
142
0.0
142
1.0
179
     0
144
0.0208333333333333
144
0.0
144
0.0
144
0.0
144
0.0
144
0.0208333333333333
144
0.0
144
0.0
144
0.0
144
0.0
144
1.0
144
0.0
144
0.0
144
0.0
144
0.0
144
1.0
147
0.0208333333333333
147
0.0
147
0.0
147
0.0
147
0.0
147
0.0208333333333333
147
0.0
147
0.0
147
0.0
147
0.0
147
1.0
147
0.0
147
0.0
147
0.0
147
0.0
147
1.0
  0
MLEADERSTYLE
  5
F2
102
{ACAD_REACTORS
330
F1
102
}
330
F1
100
AcDbMLeaderStyle
179
     2
170
     2
171
     1
172
     0
 90
        2
 40
0.0
 41
0.0
173
     1
 91
-1056964608
340
14
 92
       -2
290
     1
 42
0.09
291
     1
 43
0.36
  3
Standard
 44
0.18
300

342
11
174
     1
178
     6
175
     1
176
     0
 93
-1056964608
 45
0.18
292
     0
297
     0
 46
0.18
 94
-1056964608
 47
1.0
 49
1.0
140
1.0
293
     1
141
0.0
294
     1
177
     0
142
1.0
295
     1
296
     0
143
0.125
271
     0
272
     9
273
     9
298
     1
  0
MLINESTYLE
  5
18
102
{ACAD_REACTORS
330
17
102
}
330
17
100
AcDbMlineStyle
  2
STANDARD
 70
     0
  3

 62
   256
 51
90.0
 52
90.0
 71
     2
 49
0.5
 62
   256
  6
BYLAYER
 49
-0.5
 62
   256
  6
BYLAYER
  0
ACDBPLACEHOLDER
  5
2D
102
{ACAD_REACTORS
330
E
102
}
330
E
  0
ACDBPLACEHOLDER
  5
F
102
{ACAD_REACTORS
330
E
102
}
330
E
  0
SCALE
  5
E0
102
{ACAD_REACTORS
330
DF
102
}
330
DF
100
AcDbScale
 70
     0
300
1:1
140
1.0
141
1.0
290
     1
  0
SCALE
  5
E1
102
{ACAD_REACTORS
330
DF
102
}
330
DF
100
AcDbScale
 70
     0
300
1/128" = 1'-0"
140
0.0078125
141
12.0
290
     0
  0
SCALE
  5
E2
102
{ACAD_REACTORS
330
DF
102
}
330
DF
100
AcDbScale
 70
     0
300
1/64" = 1'-0"
140
0.015625
141
12.0
290
     0
  0
SCALE
  5
E3
102
{ACAD_REACTORS
330
DF
102
}
330
DF
100
AcDbScale
 70
     0
300
1/32" = 1'-0"
140
0.03125
141
12.0
290
     0
  0
SCALE
  5
E4
102
{ACAD_REACTORS
330
DF
102
}
330
DF
100
AcDbScale
 70
     0
300
1/16" = 1'-0"
140
0.0625
141
12.0
290
     0
  0
SCALE
  5
E5
102
{ACAD_REACTORS
330
DF
102
}
330
DF
100
AcDbScale
 70
     0
300
3/32" = 1'-0"
140
0.09375
141
12.0
290
     0
  0
SCALE
  5
E6
102
{ACAD_REACTORS
330
DF
102
}
330
DF
100
AcDbScale
 70
     0
300
1/8" = 1'-0"
140
0.125
141
12.0
290
     0
  0
SCALE
  5
E7
102
{ACAD_REACTORS
330
DF
102
}
330
DF
100
AcDbScale
 70
     0
300
3/16" = 1'-0"
140
0.1875
141
12.0
290
     0
  0
SCALE
  5
E8
102
{ACAD_REACTORS
330
DF
102
}
330
DF
100
AcDbScale
 70
     0
300
1/4" = 1'-0"
140
0.25
141
12.0
290
     0
  0
SCALE
  5
E9
102
{ACAD_REACTORS
330
DF
102
}
330
DF
100
AcDbScale
 70
     0
300
3/8" = 1'-0"
140
0.375
141
12.0
290
     0
  0
SCALE
  5
EA
102
{ACAD_REACTORS
330
DF
102
}
330
DF
100
AcDbScale
 70
     0
300
1/2" = 1'-0"
140
0.5
141
12.0
290
     0
  0
SCALE
  5
EB
102
{ACAD_REACTORS
330
DF
102
}
330
DF
100
AcDbScale
 70
     0
300
3/4" = 1'-0"
140
0.75
141
12.0
290
     0
  0
SCALE
  5
EC
102
{ACAD_REACTORS
330
DF
102
}
330
DF
100
AcDbScale
 70
     0
300
1" = 1'-0"
140
1.0
141
12.0
290
     0
  0
SCALE
  5
ED
102
{ACAD_REACTORS
330
DF
102
}
330
DF
100
AcDbScale
 70
     0
300
1-1/2" = 1'-0"
140
1.5
141
12.0
290
     0
  0
SCALE
  5
EE
102
{ACAD_REACTORS
330
DF
102
}
330
DF
100
AcDbScale
 70
     0
300
3" = 1'-0"
140
3.0
141
12.0
290
     0
  0
SCALE
  5
EF
102
{ACAD_REACTORS
330
DF
102
}
330
DF
100
AcDbScale
 70
     0
300
6" = 1'-0"
140
6.0
141
12.0
290
     0
  0
SCALE
  5
F0
102
{ACAD_REACTORS
330
DF
102
}
330
DF
100
AcDbScale
 70
     0
300
1'-0" = 1'-0"
140
12.0
141
12.0
290
     0
  0
ACDBSECTIONVIEWSTYLE
  5
F4
102
{ACAD_REACTORS
330
F3
102
}
330
F3
100
AcDbModelDocViewStyle
 70
     0
  3
Imperial24
290
     1
300
Imperial24
 90
        0
100
AcDbSectionViewStyle
 70
     0
 71
     0
 90
       78
 71
     1
340
11
 62
   256
 40
0.24
340
0
340
0
 62
   256
 40
0.24
300
I, O, Q, S, X, Z
 40
0.48
 90
        3
 40
0.18
 90
        1
 71
     2
340
16
 90
       25
 62
   256
340
16
 90
       50
 62
   256
 40
0.24
 40
0.0
 40
0.24
 71
     3
340
11
 62
   256
 40
0.24
 90
        1
 40
0.75
 90
        1
300
%<\AcVar ViewType \f "%tc1">% %<\AcVar ViewSectionStartId>%-%<\AcVar ViewSectionEndId>%\PSCALE %<\AcVar ViewScale \f "%sn">%
 71
     4
 62
   256
 62
   257
300
ANSI31
 40
1.0
 90
        0
290
     0
290
     0
 90
        6
 40
0.0
 40
1.570796326794896
 40
0.2617993877991494
 40
1.308996938995747
 40
-0.2617993877991494
 40
1.832595714594046
  0
TABLESTYLE
  5
DE
102
{ACAD_XDICTIONARY
360
104
102
}
102
{ACAD_REACTORS
330
DD
102
}
330
DD
100
AcDbTableStyle
280
     0
  3
Standard
 70
     0
 71
     0
 40
0.06
 41
0.06
280
     0
281
     0
  7
Standard
140
0.18
170
     2
 62
     0
 63
     7
283
     0
 90
      512
 91
        0
  1

274
    -2
284
     1
 64
     0
275
    -2
285
     1
 65
     0
276
    -2
286
     1
 66
     0
277
    -2
287
     1
 67
     0
278
    -2
288
     1
 68
     0
279
    -2
289
     1
 69
     0
  7
Standard
140
0.25
170
     5
 62
     0
 63
     7
283
     0
 90
      512
 91
        0
  1

274
    -2
284
     1
 64
     0
275
    -2
285
     1
 65
     0
276
    -2
286
     1
 66
     0
277
    -2
287
     1
 67
     0
278
    -2
288
     1
 68
     0
279
    -2
289
     1
 69
     0
  7
Standard
140
0.18
170
     5
 62
     0
 63
     7
283
     0
 90
      512
 91
        0
  1

274
    -2
284
     1
 64
     0
275
    -2
285
     1
 65
     0
276
    -2
286
     1
 66
     0
277
    -2
287
     1
 67
     0
278
    -2
288
     1
 68
     0
279
    -2
289
     1
 69
     0
  0
VISUALSTYLE
  5
C9
102
{ACAD_REACTORS
330
C3
102
}
330
C3
100
AcDbVisualStyle
  2
2dWireframe
 70
     4
177
     3
291
     0
 70
    58
 90
        0
176
     1
 90
        2
176
     1
 90
        0
176
     1
 90
        0
176
     1
 40
0.6
176
     1
 40
30.0
176
     1
 62
     7
420
 16777215
176
     1
 90
        1
176
     1
 90
        4
176
     1
 62
     7
176
     1
 62
   257
176
     1
 90
        1
176
     1
 90
        1
176
     1
 40
1.0
176
     1
 90
        0
176
     1
 62
   257
176
     1
 40
1.0
176
     1
 90
        1
176
     1
 90
        6
176
     1
 90
        2
176
     1
 62
     7
176
     1
 90
        5
176
     1
 90
        0
176
     1
 90
        0
176
     1
290
     0
176
     1
 90
        1
176
     1
 40
0.0
176
     1
 90
        0
176
     1
290
     1
176
     1
290
     1
176
     1
290
     0
176
     1
290
     0
176
     1
290
     0
176
     1
290
     0
176
     1
290
     0
176
     1
290
     0
176
     1
290
     0
176
     1
 90
       50
176
     1
 40
0.0
176
     1
 40
1.0
176
     1
 90
        0
176
     1
 62
    18
420
        0
176
     1
 90
       50
176
     1
 90
        3
176
     1
 62
     5
420
      255
176
     1
290
     0
176
     1
 90
       50
176
     1
 90
       50
176
     1
 90
       50
176
     1
290
     0
176
     1
 90
       50
176
     1
 62
   256
176
     0
 40
1.0
176
     0
 90
        2
176
     1
  1
strokes_ogs.tif
176
     1
290
     0
176
     1
 40
1.0
176
     1
 40
1.0
176
     1
  0
VISUALSTYLE
  5
C8
102
{ACAD_REACTORS
330
C3
102
}
330
C3
100
AcDbVisualStyle
  2
Basic
 70
     7
177
     3
291
     1
 70
    58
 90
        1
176
     1
 90
        0
176
     1
 90
        1
176
     1
 90
        0
176
     1
 40
0.6
176
     1
 40
30.0
176
     1
 62
     7
420
 16777215
176
     1
 90
        0
176
     1
 90
        4
176
     1
 62
     7
176
     1
 62
   257
176
     1
 90
        1
176
     1
 90
        1
176
     1
 40
1.0
176
     1
 90
        8
176
     1
 62
     7
176
     1
 40
1.0
176
     1
 90
        1
176
     1
 90
        6
176
     1
 90
        2
176
     1
 62
     7
176
     1
 90
        5
176
     1
 90
        0
176
     1
 90
        0
176
     1
290
     0
176
     1
 90
        1
176
     1
 40
0.0
176
     1
 90
        0
176
     1
290
     0
176
     1
290
     1
176
     1
290
     1
176
     1
290
     0
176
     1
290
     0
176
     1
290
     0
176
     1
290
     0
176
     1
290
     0
176
     1
290
     0
176
     1
 90
       50
176
     1
 40
0.0
176
     1
 40
1.0
176
     1
 90
        0
176
     1
 62
    18
420
        0
176
     1
 90
       50
176
     1
 90
        3
176
     1
 62
     5
420
      255
176
     1
290
     0
176
     1
 90
       50
176
     1
 90
       50
176
     1
 90
       50
176
     1
290
     0
176
     1
 90
       50
176
     1
 62
   256
176
     0
 40
1.0
176
     0
 90
        2
176
     1
  1
strokes_ogs.tif
176
     1
290
     0
176
     1
 40
1.0
176
     1
 40
1.0
176
     1
  0
VISUALSTYLE
  5
CF
102
{ACAD_REACTORS
330
C3
102
}
330
C3
100
AcDbVisualStyle
  2
Brighten
 70
    12
177
     3
291
     1
 70
    58
 90
        2
176
     1
 90
        2
176
     1
 90
        0
176
     1
 90
        0
176
     1
 40
0.6
176
     1
 40
30.0
176
     1
 62
     7
420
 16777215
176
     1
 90
        1
176
     1
 90
        4
176
     1
 62
     7
176
     1
 62
   257
176
     1
 90
        1
176
     1
 90
        1
176
     1
 40
1.0
176
     1
 90
        8
176
     1
 62
     7
176
     1
 40
1.0
176
     1
 90
        1
176
     1
 90
        6
176
     1
 90
        2
176
     1
 62
     7
176
     1
 90
        5
176
     1
 90
        0
176
     1
 90
        0
176
     1
290
     0
176
     1
 90
        1
176
     1
 40
50.0
176
     1
 90
        0
176
     1
290
     0
176
     1
290
     1
176
     1
290
     1
176
     1
290
     0
176
     1
290
     0
176
     1
290
     0
176
     1
290
     0
176
     1
290
     0
176
     1
290
     0
176
     1
 90
       50
176
     1
 40
0.0
176
     1
 40
1.0
176
     1
 90
        0
176
     1
 62
    18
420
        0
176
     1
 90
       50
176
     1
 90
        3
176
     1
 62
     5
420
      255
176
     1
290
     0
176
     1
 90
       50
176
     1
 90
       50
176
     1
 90
       50
176
     1
290
     0
176
     1
 90
       50
176
     1
 62
   256
176
     0
 40
1.0
176
     0
 90
        2
176
     1
  1
strokes_ogs.tif
176
     1
290
     0
176
     1
 40
1.0
176
     1
 40
1.0
176
     1
  0
VISUALSTYLE
  5
D3
102
{ACAD_REACTORS
330
C3
102
}
330
C3
100
AcDbVisualStyle
  2
ColorChange
 70
    16
177
     3
291
     1
 70
    58
 90
        2
176
     1
 90
        2
176
     1
 90
        3
176
     1
 90
        0
176
     1
 40
0.6
176
     1
 40
30.0
176
     1
 62
     8
420
  8421504
176
     1
 90
        1
176
     1
 90
        4
176
     1
 62
     7
176
     1
 62
   257
176
     1
 90
        1
176
     1
 90
        1
176
     1
 40
1.0
176
     1
 90
        8
176
     1
 62
     8
420
  8421504
176
     1
 40
1.0
176
     1
 90
        1
176
     1
 90
        6
176
     1
 90
        2
176
     1
 62
     7
176
     1
 90
        5
176
     1
 90
        0
176
     1
 90
        0
176
     1
290
     0
176
     1
 90
        1
176
     1
 40
0.0
176
     1
 90
        0
176
     1
290
     0
176
     1
290
     1
176
     1
290
     1
176
     1
290
     0
176
     1
290
     0
176
     1
290
     0
176
     1
290
     0
176
     1
290
     0
176
     1
290
     0
176
     1
 90
       50
176
     1
 40
0.0
176
     1
 40
1.0
176
     1
 90
        0
176
     1
 62
    18
420
        0
176
     1
 90
       50
176
     1
 90
        3
176
     1
 62
     5
420
      255
176
     1
290
     0
176
     1
 90
       50
176
     1
 90
       50
176
     1
 90
       50
176
     1
290
     0
176
     1
 90
       50
176
     1
 62
   256
176
     0
 40
1.0
176
     0
 90
        2
176
     1
  1
strokes_ogs.tif
176
     1
290
     0
176
     1
 40
1.0
176
     1
 40
1.0
176
     1
  0
VISUALSTYLE
  5
CC
102
{ACAD_REACTORS
330
C3
102
}
330
C3
100
AcDbVisualStyle
  2
Conceptual
 70
     9
177
     3
291
     0
 70
    58
 90
        3
176
     1
 90
        2
176
     1
 90
        0
176
     1
 90
        0
176
     1
 40
0.6
176
     1
 40
30.0
176
     1
 62
     7
420
 16777215
176
     1
 90
        2
176
     1
 90
        2
176
     1
 62
     7
176
     1
 62
   257
176
     1
 90
        1
176
     1
 90
        1
176
     1
 40
179.0
176
     1
 90
        8
176
     1
 62
     7
176
     1
 40
1.0
176
     1
 90
        1
176
     1
 90
        6
176
     1
 90
        2
176
     1
 62
     7
176
     1
 90
        3
176
     1
 90
        0
176
     1
 90
        0
176
     1
290
     0
176
     1
 90
        1
176
     1
 40
0.0
176
     1
 90
        0
176
     1
290
     0
176
     1
290
     1
176
     1
290
     1
176
     1
290
     0
176
     1
290
     0
176
     1
290
     0
176
     1
290
     0
176
     1
290
     0
176
     1
290
     0
176
     1
 90
       50
176
     1
 40
0.0
176
     1
 40
1.0
176
     1
 90
        0
176
     1
 62
    18
420
        0
176
     1
 90
       50
176
     1
 90
        3
176
     1
 62
     5
420
      255
176
     1
290
     0
176
     1
 90
       50
176
     1
 90
       50
176
     1
 90
       50
176
     1
290
     0
176
     1
 90
       50
176
     1
 62
   256
176
     0
 40
1.0
176
     0
 90
        2
176
     1
  1
strokes_ogs.tif
176
     1
290
     0
176
     1
 40
1.0
176
     1
 40
1.0
176
     1
  0
VISUALSTYLE
  5
CE
102
{ACAD_REACTORS
330
C3
102
}
330
C3
100
AcDbVisualStyle
  2
Dim
 70
    11
177
     3
291
     1
 70
    58
 90
        2
176
     1
 90
        2
176
     1
 90
        0
176
     1
 90
        0
176
     1
 40
0.6
176
     1
 40
30.0
176
     1
 62
     7
420
 16777215
176
     1
 90
        1
176
     1
 90
        4
176
     1
 62
     7
176
     1
 62
   257
176
     1
 90
        1
176
     1
 90
        1
176
     1
 40
1.0
176
     1
 90
        8
176
     1
 62
     7
176
     1
 40
1.0
176
     1
 90
        1
176
     1
 90
        6
176
     1
 90
        2
176
     1
 62
     7
176
     1
 90
        5
176
     1
 90
        0
176
     1
 90
        0
176
     1
290
     0
176
     1
 90
        1
176
     1
 40
-50.0
176
     1
 90
        0
176
     1
290
     0
176
     1
290
     1
176
     1
290
     1
176
     1
290
     0
176
     1
290
     0
176
     1
290
     0
176
     1
290
     0
176
     1
290
     0
176
     1
290
     0
176
     1
 90
       50
176
     1
 40
0.0
176
     1
 40
1.0
176
     1
 90
        0
176
     1
 62
    18
420
        0
176
     1
 90
       50
176
     1
 90
        3
176
     1
 62
     5
420
      255
176
     1
290
     0
176
     1
 90
       50
176
     1
 90
       50
176
     1
 90
       50
176
     1
290
     0
176
     1
 90
       50
176
     1
 62
   256
176
     0
 40
1.0
176
     0
 90
        2
176
     1
  1
strokes_ogs.tif
176
     1
290
     0
176
     1
 40
1.0
176
     1
 40
1.0
176
     1
  0
VISUALSTYLE
  5
DB
102
{ACAD_REACTORS
330
C3
102
}
330
C3
100
AcDbVisualStyle
  2
EdgeColorOff
 70
    22
177
     3
291
     1
 70
    58
 90
        2
176
     0
 90
        2
176
     0
 90
        0
176
     0
 90
        0
176
     0
 40
0.6
176
     0
 40
30.0
176
     0
 62
     7
420
 16777215
176
     0
 90
        1
176
     0
 90
        4
176
     0
 62
     7
176
     0
 62
   257
176
     0
 90
        1
176
     0
 90
        1
176
     0
 40
1.0
176
     0
 90
        8
176
     2
 62
     7
176
     0
 40
1.0
176
     0
 90
        1
176
     0
 90
        6
176
     0
 90
        2
176
     0
 62
     7
176
     0
 90
        5
176
     0
 90
        0
176
     0
 90
        0
176
     0
290
     0
176
     0
 90
        1
176
     0
 40
0.0
176
     0
 90
        0
176
     0
290
     0
176
     0
290
     1
176
     0
290
     1
176
     0
290
     0
176
     0
290
     0
176
     0
290
     0
176
     0
290
     0
176
     0
290
     0
176
     0
290
     0
176
     0
 90
       50
176
     0
 40
0.0
176
     0
 40
1.0
176
     0
 90
        0
176
     0
 62
    18
420
        0
176
     0
 90
       50
176
     0
 90
        3
176
     0
 62
     5
420
      255
176
     0
290
     0
176
     0
 90
       50
176
     0
 90
       50
176
     0
 90
       50
176
     0
290
     0
176
     0
 90
       50
176
     0
 62
   256
176
     0
 40
1.0
176
     0
 90
        2
176
     0
  1
strokes_ogs.tif
176
     0
290
     0
176
     0
 40
1.0
176
     0
 40
1.0
176
     0
  0
VISUALSTYLE
  5
D2
102
{ACAD_REACTORS
330
C3
102
}
330
C3
100
AcDbVisualStyle
  2
Facepattern
 70
    15
177
     3
291
     1
 70
    58
 90
        2
176
     1
 90
        2
176
     1
 90
        0
176
     1
 90
        0
176
     1
 40
0.6
176
     1
 40
30.0
176
     1
 62
     7
420
 16777215
176
     1
 90
        1
176
     1
 90
        4
176
     1
 62
     7
176
     1
 62
   257
176
     1
 90
        1
176
     1
 90
        1
176
     1
 40
1.0
176
     1
 90
        8
176
     1
 62
     7
176
     1
 40
1.0
176
     1
 90
        1
176
     1
 90
        6
176
     1
 90
        2
176
     1
 62
     7
176
     1
 90
        5
176
     1
 90
        0
176
     1
 90
        0
176
     1
290
     0
176
     1
 90
        1
176
     1
 40
0.0
176
     1
 90
        0
176
     1
290
     0
176
     1
290
     1
176
     1
290
     1
176
     1
290
     0
176
     1
290
     0
176
     1
290
     0
176
     1
290
     0
176
     1
290
     0
176
     1
290
     0
176
     1
 90
       50
176
     1
 40
0.0
176
     1
 40
1.0
176
     1
 90
        0
176
     1
 62
    18
420
        0
176
     1
 90
       50
176
     1
 90
        3
176
     1
 62
     5
420
      255
176
     1
290
     0
176
     1
 90
       50
176
     1
 90
       50
176
     1
 90
       50
176
     1
290
     0
176
     1
 90
       50
176
     1
 62
   256
176
     0
 40
1.0
176
     0
 90
        2
176
     1
  1
strokes_ogs.tif
176
     1
290
     0
176
     1
 40
1.0
176
     1
 40
1.0
176
     1
  0
VISUALSTYLE
  5
C4
102
{ACAD_REACTORS
330
C3
102
}
330
C3
100
AcDbVisualStyle
  2
Flat
 70
     0
177
     3
291
     1
 70
    58
 90
        2
176
     1
 90
        1
176
     1
 90
        1
176
     1
 90
        2
176
     1
 40
0.6
176
     1
 40
30.0
176
     1
 62
     7
420
 16777215
176
     1
 90
        0
176
     1
 90
        0
176
     1
 62
     7
176
     1
 62
   257
176
     1
 90
        1
176
     1
 90
        1
176
     1
 40
1.0
176
     1
 90
        8
176
     1
 62
     7
176
     1
 40
1.0
176
     1
 90
        1
176
     1
 90
        6
176
     1
 90
        2
176
     1
 62
     7
176
     1
 90
        5
176
     1
 90
        0
176
     1
 90
        0
176
     1
290
     0
176
     1
 90
       13
176
     1
 40
0.0
176
     1
 90
        0
176
     1
290
     0
176
     1
290
     1
176
     1
290
     1
176
     1
290
     0
176
     1
290
     0
176
     1
290
     0
176
     1
290
     0
176
     1
290
     0
176
     1
290
     0
176
     1
 90
       50
176
     1
 40
0.0
176
     1
 40
1.0
176
     1
 90
        0
176
     1
 62
    18
420
        0
176
     1
 90
       50
176
     1
 90
        3
176
     1
 62
     5
420
      255
176
     1
290
     0
176
     1
 90
       50
176
     1
 90
       50
176
     1
 90
       50
176
     1
290
     0
176
     1
 90
       50
176
     1
 62
   256
176
     0
 40
1.0
176
     0
 90
        2
176
     1
  1
strokes_ogs.tif
176
     1
290
     0
176
     1
 40
1.0
176
     1
 40
1.0
176
     1
  0
VISUALSTYLE
  5
C5
102
{ACAD_REACTORS
330
C3
102
}
330
C3
100
AcDbVisualStyle
  2
FlatWithEdges
 70
     1
177
     3
291
     1
 70
    58
 90
        2
176
     1
 90
        1
176
     1
 90
        1
176
     1
 90
        2
176
     1
 40
0.6
176
     1
 40
30.0
176
     1
 62
     7
420
 16777215
176
     1
 90
        1
176
     1
 90
        0
176
     1
 62
     7
176
     1
 62
   257
176
     1
 90
        1
176
     1
 90
        1
176
     1
 40
1.0
176
     1
 90
        0
176
     1
 62
   257
176
     1
 40
1.0
176
     1
 90
        1
176
     1
 90
        6
176
     1
 90
        2
176
     1
 62
     7
176
     1
 90
        5
176
     1
 90
        0
176
     1
 90
        0
176
     1
290
     0
176
     1
 90
       13
176
     1
 40
0.0
176
     1
 90
        0
176
     1
290
     0
176
     1
290
     1
176
     1
290
     1
176
     1
290
     0
176
     1
290
     0
176
     1
290
     0
176
     1
290
     0
176
     1
290
     0
176
     1
290
     0
176
     1
 90
       50
176
     1
 40
0.0
176
     1
 40
1.0
176
     1
 90
        0
176
     1
 62
    18
420
        0
176
     1
 90
       50
176
     1
 90
        3
176
     1
 62
     5
420
      255
176
     1
290
     0
176
     1
 90
       50
176
     1
 90
       50
176
     1
 90
       50
176
     1
290
     0
176
     1
 90
       50
176
     1
 62
   256
176
     0
 40
1.0
176
     0
 90
        2
176
     1
  1
strokes_ogs.tif
176
     1
290
     0
176
     1
 40
1.0
176
     1
 40
1.0
176
     1
  0
VISUALSTYLE
  5
C6
102
{ACAD_REACTORS
330
C3
102
}
330
C3
100
AcDbVisualStyle
  2
Gouraud
 70
     2
177
     3
291
     1
 70
    58
 90
        2
176
     1
 90
        2
176
     1
 90
        1
176
     1
 90
        2
176
     1
 40
0.6
176
     1
 40
30.0
176
     1
 62
     7
420
 16777215
176
     1
 90
        0
176
     1
 90
        0
176
     1
 62
     7
176
     1
 62
   257
176
     1
 90
        1
176
     1
 90
        1
176
     1
 40
1.0
176
     1
 90
        0
176
     1
 62
     7
176
     1
 40
1.0
176
     1
 90
        1
176
     1
 90
        6
176
     1
 90
        2
176
     1
 62
     7
176
     1
 90
        5
176
     1
 90
        0
176
     1
 90
        0
176
     1
290
     0
176
     1
 90
       13
176
     1
 40
0.0
176
     1
 90
        0
176
     1
290
     0
176
     1
290
     1
176
     1
290
     1
176
     1
290
     0
176
     1
290
     0
176
     1
290
     0
176
     1
290
     0
176
     1
290
     0
176
     1
290
     0
176
     1
 90
       50
176
     1
 40
0.0
176
     1
 40
1.0
176
     1
 90
        0
176
     1
 62
    18
420
        0
176
     1
 90
       50
176
     1
 90
        3
176
     1
 62
     5
420
      255
176
     1
290
     0
176
     1
 90
       50
176
     1
 90
       50
176
     1
 90
       50
176
     1
290
     0
176
     1
 90
       50
176
     1
 62
   256
176
     0
 40
1.0
176
     0
 90
        2
176
     1
  1
strokes_ogs.tif
176
     1
290
     0
176
     1
 40
1.0
176
     1
 40
1.0
176
     1
  0
VISUALSTYLE
  5
C7
102
{ACAD_REACTORS
330
C3
102
}
330
C3
100
AcDbVisualStyle
  2
GouraudWithEdges
 70
     3
177
     3
291
     1
 70
    58
 90
        2
176
     1
 90
        2
176
     1
 90
        1
176
     1
 90
        2
176
     1
 40
0.6
176
     1
 40
30.0
176
     1
 62
     7
420
 16777215
176
     1
 90
        1
176
     1
 90
        0
176
     1
 62
     7
176
     1
 62
   257
176
     1
 90
        1
176
     1
 90
        1
176
     1
 40
1.0
176
     1
 90
        0
176
     1
 62
   257
176
     1
 40
1.0
176
     1
 90
        1
176
     1
 90
        6
176
     1
 90
        2
176
     1
 62
     7
176
     1
 90
        5
176
     1
 90
        0
176
     1
 90
        0
176
     1
290
     0
176
     1
 90
       13
176
     1
 40
0.0
176
     1
 90
        0
176
     1
290
     0
176
     1
290
     1
176
     1
290
     1
176
     1
290
     0
176
     1
290
     0
176
     1
290
     0
176
     1
290
     0
176
     1
290
     0
176
     1
290
     0
176
     1
 90
       50
176
     1
 40
0.0
176
     1
 40
1.0
176
     1
 90
        0
176
     1
 62
    18
420
        0
176
     1
 90
       50
176
     1
 90
        3
176
     1
 62
     5
420
      255
176
     1
290
     0
176
     1
 90
       50
176
     1
 90
       50
176
     1
 90
       50
176
     1
290
     0
176
     1
 90
       50
176
     1
 62
   256
176
     0
 40
1.0
176
     0
 90
        2
176
     1
  1
strokes_ogs.tif
176
     1
290
     0
176
     1
 40
1.0
176
     1
 40
1.0
176
     1
  0
VISUALSTYLE
  5
CB
102
{ACAD_REACTORS
330
C3
102
}
330
C3
100
AcDbVisualStyle
  2
Hidden
 70
     6
177
     3
291
     0
 70
    58
 90
        1
176
     1
 90
        2
176
     1
 90
        2
176
     1
 90
        0
176
     1
 40
0.6
176
     1
 40
30.0
176
     1
 62
     7
420
 16777215
176
     1
 90
        2
176
     1
 90
        2
176
     1
 62
     7
176
     1
 62
   257
176
     1
 90
        2
176
     1
 90
        1
176
     1
 40
40.0
176
     1
 90
        0
176
     1
 62
   257
176
     1
 40
1.0
176
     1
 90
        1
176
     1
 90
        6
176
     1
 90
        2
176
     1
 62
     7
176
     1
 90
        3
176
     1
 90
        0
176
     1
 90
        0
176
     1
290
     0
176
     1
 90
        1
176
     1
 40
0.0
176
     1
 90
        0
176
     1
290
     0
176
     1
290
     1
176
     1
290
     1
176
     1
290
     0
176
     1
290
     0
176
     1
290
     0
176
     1
290
     0
176
     1
290
     0
176
     1
290
     0
176
     1
 90
       50
176
     1
 40
0.0
176
     1
 40
1.0
176
     1
 90
        0
176
     1
 62
    18
420
        0
176
     1
 90
       50
176
     1
 90
        3
176
     1
 62
     5
420
      255
176
     1
290
     0
176
     1
 90
       50
176
     1
 90
       50
176
     1
 90
       50
176
     1
290
     0
176
     1
 90
       50
176
     1
 62
   256
176
     0
 40
1.0
176
     0
 90
        2
176
     1
  1
strokes_ogs.tif
176
     1
290
     0
176
     1
 40
1.0
176
     1
 40
1.0
176
     1
  0
VISUALSTYLE
  5
D9
102
{ACAD_REACTORS
330
C3
102
}
330
C3
100
AcDbVisualStyle
  2
JitterOff
 70
    20
177
     3
291
     1
 70
    58
 90
        2
176
     0
 90
        2
176
     0
 90
        0
176
     0
 90
        0
176
     0
 40
0.6
176
     0
 40
30.0
176
     0
 62
     7
420
 16777215
176
     0
 90
        1
176
     0
 90
        4
176
     0
 62
     7
176
     0
 62
   257
176
     0
 90
        1
176
     0
 90
        1
176
     0
 40
1.0
176
     0
 90
       10
176
     2
 62
     7
176
     0
 40
1.0
176
     0
 90
        1
176
     0
 90
        6
176
     0
 90
        2
176
     0
 62
     7
176
     0
 90
        5
176
     0
 90
        0
176
     0
 90
        0
176
     0
290
     0
176
     0
 90
        1
176
     0
 40
0.0
176
     0
 90
        0
176
     0
290
     0
176
     0
290
     1
176
     0
290
     1
176
     0
290
     0
176
     0
290
     0
176
     0
290
     0
176
     0
290
     0
176
     0
290
     0
176
     0
290
     0
176
     0
 90
       50
176
     0
 40
0.0
176
     0
 40
1.0
176
     0
 90
        0
176
     0
 62
    18
420
        0
176
     0
 90
       50
176
     0
 90
        3
176
     0
 62
     5
420
      255
176
     0
290
     0
176
     0
 90
       50
176
     0
 90
       50
176
     0
 90
       50
176
     0
290
     0
176
     0
 90
       50
176
     0
 62
   256
176
     0
 40
1.0
176
     0
 90
        2
176
     0
  1
strokes_ogs.tif
176
     0
290
     0
176
     0
 40
1.0
176
     0
 40
1.0
176
     0
  0
VISUALSTYLE
  5
D1
102
{ACAD_REACTORS
330
C3
102
}
330
C3
100
AcDbVisualStyle
  2
Linepattern
 70
    14
177
     3
291
     1
 70
    58
 90
        2
176
     1
 90
        2
176
     1
 90
        0
176
     1
 90
        0
176
     1
 40
0.6
176
     1
 40
30.0
176
     1
 62
     7
420
 16777215
176
     1
 90
        1
176
     1
 90
        4
176
     1
 62
     7
176
     1
 62
   257
176
     1
 90
        7
176
     1
 90
        7
176
     1
 40
1.0
176
     1
 90
        8
176
     1
 62
     7
176
     1
 40
1.0
176
     1
 90
        1
176
     1
 90
        6
176
     1
 90
        2
176
     1
 62
     7
176
     1
 90
        5
176
     1
 90
        0
176
     1
 90
        0
176
     1
290
     0
176
     1
 90
        1
176
     1
 40
0.0
176
     1
 90
        0
176
     1
290
     0
176
     1
290
     1
176
     1
290
     1
176
     1
290
     0
176
     1
290
     0
176
     1
290
     0
176
     1
290
     0
176
     1
290
     0
176
     1
290
     0
176
     1
 90
       50
176
     1
 40
0.0
176
     1
 40
1.0
176
     1
 90
        0
176
     1
 62
    18
420
        0
176
     1
 90
       50
176
     1
 90
        3
176
     1
 62
     5
420
      255
176
     1
290
     0
176
     1
 90
       50
176
     1
 90
       50
176
     1
 90
       50
176
     1
290
     0
176
     1
 90
       50
176
     1
 62
   256
176
     0
 40
1.0
176
     0
 90
        2
176
     1
  1
strokes_ogs.tif
176
     1
290
     0
176
     1
 40
1.0
176
     1
 40
1.0
176
     1
  0
VISUALSTYLE
  5
DA
102
{ACAD_REACTORS
330
C3
102
}
330
C3
100
AcDbVisualStyle
  2
OverhangOff
 70
    21
177
     3
291
     1
 70
    58
 90
        2
176
     0
 90
        2
176
     0
 90
        0
176
     0
 90
        0
176
     0
 40
0.6
176
     0
 40
30.0
176
     0
 62
     7
420
 16777215
176
     0
 90
        1
176
     0
 90
        4
176
     0
 62
     7
176
     0
 62
   257
176
     0
 90
        1
176
     0
 90
        1
176
     0
 40
1.0
176
     0
 90
        9
176
     2
 62
     7
176
     0
 40
1.0
176
     0
 90
        1
176
     0
 90
        6
176
     0
 90
        2
176
     0
 62
     7
176
     0
 90
        5
176
     0
 90
        0
176
     0
 90
        0
176
     0
290
     0
176
     0
 90
        1
176
     0
 40
0.0
176
     0
 90
        0
176
     0
290
     0
176
     0
290
     1
176
     0
290
     1
176
     0
290
     0
176
     0
290
     0
176
     0
290
     0
176
     0
290
     0
176
     0
290
     0
176
     0
290
     0
176
     0
 90
       50
176
     0
 40
0.0
176
     0
 40
1.0
176
     0
 90
        0
176
     0
 62
    18
420
        0
176
     0
 90
       50
176
     0
 90
        3
176
     0
 62
     5
420
      255
176
     0
290
     0
176
     0
 90
       50
176
     0
 90
       50
176
     0
 90
       50
176
     0
290
     0
176
     0
 90
       50
176
     0
 62
   256
176
     0
 40
1.0
176
     0
 90
        2
176
     0
  1
strokes_ogs.tif
176
     0
290
     0
176
     0
 40
1.0
176
     0
 40
1.0
176
     0
  0
VISUALSTYLE
  5
CD
102
{ACAD_REACTORS
330
C3
102
}
330
C3
100
AcDbVisualStyle
  2
Realistic
 70
     8
177
     3
291
     0
 70
    58
 90
        2
176
     1
 90
        3
176
     1
 90
        0
176
     1
 90
        2
176
     1
 40
0.6
176
     1
 40
30.0
176
     1
 62
     7
420
 16777215
176
     1
 90
        0
176
     1
 90
        0
176
     1
 62
     7
176
     1
 62
   257
176
     1
 90
        1
176
     1
 90
        1
176
     1
 40
1.0
176
     1
 90
        8
176
     1
 62
   257
176
     1
 40
1.0
176
     1
 90
        1
176
     1
 90
        6
176
     1
 90
        2
176
     1
 62
     7
176
     1
 90
        3
176
     1
 90
        0
176
     1
 90
        0
176
     1
290
     0
176
     1
 90
       13
176
     1
 40
0.0
176
     1
 90
        0
176
     1
290
     0
176
     1
290
     1
176
     1
290
     1
176
     1
290
     0
176
     1
290
     0
176
     1
290
     0
176
     1
290
     0
176
     1
290
     0
176
     1
290
     0
176
     1
 90
       50
176
     1
 40
0.0
176
     1
 40
1.0
176
     1
 90
        0
176
     1
 62
    18
420
        0
176
     1
 90
       50
176
     1
 90
        3
176
     1
 62
     5
420
      255
176
     1
290
     0
176
     1
 90
       50
176
     1
 90
       50
176
     1
 90
       50
176
     1
290
     0
176
     1
 90
       50
176
     1
 62
   256
176
     0
 40
1.0
176
     0
 90
        2
176
     1
  1
strokes_ogs.tif
176
     1
290
     0
176
     1
 40
1.0
176
     1
 40
1.0
176
     1
  0
VISUALSTYLE
  5
D8
102
{ACAD_REACTORS
330
C3
102
}
330
C3
100
AcDbVisualStyle
  2
Shaded
 70
    27
177
     3
291
     0
 70
    58
 90
        2
176
     1
 90
        2
176
     1
 90
        1
176
     1
 90
        2
176
     1
 40
0.6
176
     1
 40
30.0
176
     1
 62
     7
420
 16777215
176
     1
 90
        0
176
     1
 90
        4
176
     1
 62
     7
176
     1
 62
   257
176
     1
 90
        1
176
     1
 90
        1
176
     1
 40
1.0
176
     1
 90
        8
176
     1
 62
   257
176
     1
 40
1.0
176
     1
 90
        1
176
     1
 90
        6
176
     1
 90
        2
176
     1
 62
     8
420
  7895160
176
     1
 90
        3
176
     1
 90
        0
176
     1
 90
        0
176
     1
290
     0
176
     1
 90
        5
176
     1
 40
0.0
176
     1
 90
        0
176
     1
290
     0
176
     1
290
     1
176
     1
290
     1
176
     1
290
     0
176
     1
290
     0
176
     1
290
     0
176
     1
290
     0
176
     1
290
     0
176
     1
290
     0
176
     1
 90
       50
176
     1
 40
0.0
176
     1
 40
1.0
176
     1
 90
        0
176
     1
 62
    18
420
        0
176
     1
 90
       50
176
     1
 90
        3
176
     1
 62
     5
420
      255
176
     1
290
     0
176
     1
 90
       50
176
     1
 90
       50
176
     1
 90
       50
176
     1
290
     0
176
     1
 90
       50
176
     1
 62
   256
176
     0
 40
1.0
176
     0
 90
        2
176
     1
  1
strokes_ogs.tif
176
     1
290
     0
176
     1
 40
1.0
176
     1
 40
1.0
176
     1
  0
VISUALSTYLE
  5
D7
102
{ACAD_REACTORS
330
C3
102
}
330
C3
100
AcDbVisualStyle
  2
Shaded with edges
 70
    26
177
     3
291
     0
 70
    58
 90
        2
176
     1
 90
        2
176
     1
 90
        1
176
     1
 90
        2
176
     1
 40
0.6
176
     1
 40
30.0
176
     1
 62
     7
420
 16777215
176
     1
 90
        1
176
     1
 90
        2
176
     1
 62
     7
176
     1
 62
   257
176
     1
 90
        2
176
     1
 90
        1
176
     1
 40
1.0
176
     1
 90
        8
176
     1
 62
   257
176
     1
 40
1.0
176
     1
 90
        1
176
     1
 90
        6
176
     1
 90
        2
176
     1
 62
     7
176
     1
 90
        3
176
     1
 90
        0
176
     1
 90
        0
176
     1
290
     0
176
     1
 90
        5
176
     1
 40
0.0
176
     1
 90
        0
176
     1
290
     0
176
     1
290
     1
176
     1
290
     1
176
     1
290
     0
176
     1
290
     0
176
     1
290
     0
176
     1
290
     0
176
     1
290
     0
176
     1
290
     0
176
     1
 90
       50
176
     1
 40
0.0
176
     1
 40
1.0
176
     1
 90
        0
176
     1
 62
    18
420
        0
176
     1
 90
       50
176
     1
 90
        3
176
     1
 62
     5
420
      255
176
     1
290
     0
176
     1
 90
       50
176
     1
 90
       50
176
     1
 90
       50
176
     1
290
     0
176
     1
 90
       50
176
     1
 62
   256
176
     0
 40
1.0
176
     0
 90
        2
176
     1
  1
strokes_ogs.tif
176
     1
290
     0
176
     1
 40
1.0
176
     1
 40
1.0
176
     1
  0
VISUALSTYLE
  5
D4
102
{ACAD_REACTORS
330
C3
102
}
330
C3
100
AcDbVisualStyle
  2
Shades of Gray
 70
    23
177
     3
291
     0
 70
    58
 90
        2
176
     1
 90
        2
176
     1
 90
        3
176
     1
 90
        0
176
     1
 40
0.6
176
     1
 40
30.0
176
     1
 62
     7
420
 16777215
176
     1
 90
        2
176
     1
 90
        2
176
     1
 62
     7
176
     1
 62
     7
176
     1
 90
        1
176
     1
 90
        1
176
     1
 40
40.0
176
     1
 90
        8
176
     1
 62
     7
176
     1
 40
1.0
176
     1
 90
        1
176
     1
 90
        6
176
     1
 90
        2
176
     1
 62
     7
176
     1
 90
        3
176
     1
 90
        0
176
     1
 90
        0
176
     1
290
     0
176
     1
 90
        1
176
     1
 40
0.0
176
     1
 90
        0
176
     1
290
     0
176
     1
290
     1
176
     1
290
     1
176
     1
290
     0
176
     1
290
     0
176
     1
290
     0
176
     1
290
     0
176
     1
290
     0
176
     1
290
     0
176
     1
 90
       50
176
     1
 40
0.0
176
     1
 40
1.0
176
     1
 90
        0
176
     1
 62
    18
420
        0
176
     1
 90
       50
176
     1
 90
        3
176
     1
 62
     5
420
      255
176
     1
290
     0
176
     1
 90
       50
176
     1
 90
       50
176
     1
 90
       50
176
     1
290
     0
176
     1
 90
       50
176
     1
 62
   256
176
     0
 40
1.0
176
     0
 90
        2
176
     1
  1
strokes_ogs.tif
176
     1
290
     0
176
     1
 40
1.0
176
     1
 40
1.0
176
     1
  0
VISUALSTYLE
  5
D5
102
{ACAD_REACTORS
330
C3
102
}
330
C3
100
AcDbVisualStyle
  2
Sketchy
 70
    24
177
     3
291
     0
 70
    58
 90
        1
176
     1
 90
        2
176
     1
 90
        2
176
     1
 90
        0
176
     1
 40
0.6
176
     1
 40
30.0
176
     1
 62
     7
420
 16777215
176
     1
 90
        2
176
     1
 90
        2
176
     1
 62
     7
176
     1
 62
     7
176
     1
 90
        1
176
     1
 90
        1
176
     1
 40
40.0
176
     1
 90
       11
176
     1
 62
     7
176
     1
 40
1.0
176
     1
 90
        1
176
     1
 90
        6
176
     1
 90
        2
176
     1
 62
     7
176
     1
 90
        6
176
     1
 90
        0
176
     1
 90
        0
176
     1
290
     0
176
     1
 90
        1
176
     1
 40
0.0
176
     1
 90
        0
176
     1
290
     0
176
     1
290
     1
176
     1
290
     1
176
     1
290
     0
176
     1
290
     0
176
     1
290
     0
176
     1
290
     0
176
     1
290
     0
176
     1
290
     0
176
     1
 90
       50
176
     1
 40
0.0
176
     1
 40
1.0
176
     1
 90
        0
176
     1
 62
    18
420
        0
176
     1
 90
       50
176
     1
 90
        3
176
     1
 62
     5
420
      255
176
     1
290
     0
176
     1
 90
       50
176
     1
 90
       50
176
     1
 90
       50
176
     1
290
     0
176
     1
 90
       50
176
     1
 62
   256
176
     0
 40
1.0
176
     0
 90
        2
176
     1
  1
strokes_ogs.tif
176
     1
290
     0
176
     1
 40
1.0
176
     1
 40
1.0
176
     1
  0
VISUALSTYLE
  5
D0
102
{ACAD_REACTORS
330
C3
102
}
330
C3
100
AcDbVisualStyle
  2
Thicken
 70
    13
177
     3
291
     1
 70
    58
 90
        2
176
     1
 90
        2
176
     1
 90
        0
176
     1
 90
        0
176
     1
 40
0.6
176
     1
 40
30.0
176
     1
 62
     7
420
 16777215
176
     1
 90
        1
176
     1
 90
        4
176
     1
 62
     7
176
     1
 62
   257
176
     1
 90
        1
176
     1
 90
        1
176
     1
 40
1.0
176
     1
 90
       12
176
     1
 62
     7
176
     1
 40
1.0
176
     1
 90
        1
176
     1
 90
        6
176
     1
 90
        2
176
     1
 62
     7
176
     1
 90
        5
176
     1
 90
        0
176
     1
 90
        0
176
     1
290
     0
176
     1
 90
        1
176
     1
 40
0.0
176
     1
 90
        0
176
     1
290
     0
176
     1
290
     1
176
     1
290
     1
176
     1
290
     0
176
     1
290
     0
176
     1
290
     0
176
     1
290
     0
176
     1
290
     0
176
     1
290
     0
176
     1
 90
       50
176
     1
 40
0.0
176
     1
 40
1.0
176
     1
 90
        0
176
     1
 62
    18
420
        0
176
     1
 90
       50
176
     1
 90
        3
176
     1
 62
     5
420
      255
176
     1
290
     0
176
     1
 90
       50
176
     1
 90
       50
176
     1
 90
       50
176
     1
290
     0
176
     1
 90
       50
176
     1
 62
   256
176
     0
 40
1.0
176
     0
 90
        2
176
     1
  1
strokes_ogs.tif
176
     1
290
     0
176
     1
 40
1.0
176
     1
 40
1.0
176
     1
  0
VISUALSTYLE
  5
CA
102
{ACAD_REACTORS
330
C3
102
}
330
C3
100
AcDbVisualStyle
  2
Wireframe
 70
     5
177
     3
291
     0
 70
    58
 90
        0
176
     1
 90
        2
176
     1
 90
        0
176
     1
 90
        0
176
     1
 40
0.6
176
     1
 40
30.0
176
     1
 62
     7
420
 16777215
176
     1
 90
        1
176
     1
 90
        4
176
     1
 62
     7
176
     1
 62
   257
176
     1
 90
        1
176
     1
 90
        1
176
     1
 40
1.0
176
     1
 90
        0
176
     1
 62
   257
176
     1
 40
1.0
176
     1
 90
        1
176
     1
 90
        6
176
     1
 90
        2
176
     1
 62
     7
176
     1
 90
        3
176
     1
 90
        0
176
     1
 90
        0
176
     1
290
     0
176
     1
 90
        1
176
     1
 40
0.0
176
     1
 90
        0
176
     1
290
     0
176
     1
290
     1
176
     1
290
     1
176
     1
290
     0
176
     1
290
     0
176
     1
290
     0
176
     1
290
     0
176
     1
290
     0
176
     1
290
     0
176
     1
 90
       50
176
     1
 40
0.0
176
     1
 40
1.0
176
     1
 90
        0
176
     1
 62
    18
420
        0
176
     1
 90
       50
176
     1
 90
        3
176
     1
 62
     5
420
      255
176
     1
290
     0
176
     1
 90
       50
176
     1
 90
       50
176
     1
 90
       50
176
     1
290
     0
176
     1
 90
       50
176
     1
 62
   256
176
     0
 40
1.0
176
     0
 90
        2
176
     1
  1
strokes_ogs.tif
176
     1
290
     0
176
     1
 40
1.0
176
     1
 40
1.0
176
     1
  0
VISUALSTYLE
  5
D6
102
{ACAD_REACTORS
330
C3
102
}
330
C3
100
AcDbVisualStyle
  2
X-Ray
 70
    25
177
     3
291
     0
 70
    58
 90
        2
176
     1
 90
        2
176
     1
 90
        1
176
     1
 90
        1
176
     1
 40
0.5
176
     1
 40
30.0
176
     1
 62
     7
420
 16777215
176
     1
 90
        1
176
     1
 90
        0
176
     1
 62
     7
176
     1
 62
   257
176
     1
 90
        1
176
     1
 90
        1
176
     1
 40
1.0
176
     1
 90
        8
176
     1
 62
     7
176
     1
 40
1.0
176
     1
 90
        1
176
     1
 90
        6
176
     1
 90
        2
176
     1
 62
     7
176
     1
 90
        3
176
     1
 90
        0
176
     1
 90
        0
176
     1
290
     0
176
     1
 90
       13
176
     1
 40
0.0
176
     1
 90
        0
176
     1
290
     0
176
     1
290
     1
176
     1
290
     1
176
     1
290
     0
176
     1
290
     0
176
     1
290
     0
176
     1
290
     0
176
     1
290
     0
176
     1
290
     0
176
     1
 90
       50
176
     1
 40
0.0
176
     1
 40
1.0
176
     1
 90
        0
176
     1
 62
    18
420
        0
176
     1
 90
       50
176
     1
 90
        3
176
     1
 62
     5
420
      255
176
     1
290
     0
176
     1
 90
       50
176
     1
 90
       50
176
     1
 90
       50
176
     1
290
     0
176
     1
 90
       50
176
     1
 62
   256
176
     0
 40
1.0
176
     0
 90
        2
176
     1
  1
strokes_ogs.tif
176
     1
290
     0
176
     1
 40
1.0
176
     1
 40
1.0
176
     1
  0
DICTIONARYVAR
  5
100
102
{ACAD_REACTORS
330
FA
102
}
330
FA
100
DictionaryVariables
280
     0
  1
1:1
  0
DICTIONARYVAR
  5
FC
102
{ACAD_REACTORS
330
FA
102
}
330
FA
100
DictionaryVariables
280
     0
  1
STANDARD
  0
DICTIONARYVAR
  5
FB
102
{ACAD_REACTORS
330
FA
102
}
330
FA
100
DictionaryVariables
280
     0
  1
STANDARD
  0
DICTIONARYVAR
  5
FD
102
{ACAD_REACTORS
330
FA
102
}
330
FA
100
DictionaryVariables
280
     0
  1
Imperial24
  0
DICTIONARYVAR
  5
FE
102
{ACAD_REACTORS
330
FA
102
}
330
FA
100
DictionaryVariables
280
     0
  1
Imperial24
  0
DICTIONARYVAR
  5
102
102
{ACAD_REACTORS
330
FA
102
}
330
FA
100
DictionaryVariables
280
     0
  1
1
  0
DICTIONARYVAR
  5
103
102
{ACAD_REACTORS
330
FA
102
}
330
FA
100
DictionaryVariables
280
     0
  1
15
  0
DICTIONARYVAR
  5
101
102
{ACAD_REACTORS
330
FA
102
}
330
FA
100
DictionaryVariables
280
     0
  1
0
  0
DICTIONARYVAR
  5
FF
102
{ACAD_REACTORS
330
FA
102
}
330
FA
100
DictionaryVariables
280
     0
  1
0
  0
DICTIONARY
  5
B4
330
B3
100
AcDbDictionary
280
     1
281
     1
  3
BUMPTILE
360
B6
  3
DIFFUSETILE
360
B5
  3
OPACITYTILE
360
B9
  3
REFLECTIONTILE
360
B8
  3
REFRACTIONTILE
360
BA
  3
SPECULARTILE
360
B7
  0
DICTIONARY
  5
AC
330
AB
100
AcDbDictionary
280
     1
281
     1
  3
BUMPTILE
360
AE
  3
DIFFUSETILE
360
AD
  3
OPACITYTILE
360
B1
  3
REFLECTIONTILE
360
B0
  3
REFRACTIONTILE
360
B2
  3
SPECULARTILE
360
AF
  0
DICTIONARY
  5
BC
330
BB
100
AcDbDictionary
280
     1
281
     1
  3
BUMPTILE
360
BE
  3
DIFFUSETILE
360
BD
  3
OPACITYTILE
360
C1
  3
REFLECTIONTILE
360
C0
  3
REFRACTIONTILE
360
C2
  3
SPECULARTILE
360
BF
  0
DICTIONARY
  5
104
330
DE
100
AcDbDictionary
280
     1
281
     1
  3
ACAD_ROUNDTRIP_2008_TABLESTYLE_CELLSTYLEMAP
360
105
  0
XRECORD
  5
B6
102
{ACAD_REACTORS
330
B4
102
}
330
B4
100
AcDbXrecord
280
     1
270
     1
271
     1
  0
XRECORD
  5
B5
102
{ACAD_REACTORS
330
B4
102
}
330
B4
100
AcDbXrecord
280
     1
270
     1
271
     1
  0
XRECORD
  5
B9
102
{ACAD_REACTORS
330
B4
102
}
330
B4
100
AcDbXrecord
280
     1
270
     1
271
     1
  0
XRECORD
  5
B8
102
{ACAD_REACTORS
330
B4
102
}
330
B4
100
AcDbXrecord
280
     1
270
     1
271
     1
  0
XRECORD
  5
BA
102
{ACAD_REACTORS
330
B4
102
}
330
B4
100
AcDbXrecord
280
     1
270
     1
271
     1
  0
XRECORD
  5
B7
102
{ACAD_REACTORS
330
B4
102
}
330
B4
100
AcDbXrecord
280
     1
270
     1
271
     1
  0
XRECORD
  5
AE
102
{ACAD_REACTORS
330
AC
102
}
330
AC
100
AcDbXrecord
280
     1
270
     1
271
     1
  0
XRECORD
  5
AD
102
{ACAD_REACTORS
330
AC
102
}
330
AC
100
AcDbXrecord
280
     1
270
     1
271
     1
  0
XRECORD
  5
B1
102
{ACAD_REACTORS
330
AC
102
}
330
AC
100
AcDbXrecord
280
     1
270
     1
271
     1
  0
XRECORD
  5
B0
102
{ACAD_REACTORS
330
AC
102
}
330
AC
100
AcDbXrecord
280
     1
270
     1
271
     1
  0
XRECORD
  5
B2
102
{ACAD_REACTORS
330
AC
102
}
330
AC
100
AcDbXrecord
280
     1
270
     1
271
     1
  0
XRECORD
  5
AF
102
{ACAD_REACTORS
330
AC
102
}
330
AC
100
AcDbXrecord
280
     1
270
     1
271
     1
  0
XRECORD
  5
BE
102
{ACAD_REACTORS
330
BC
102
}
330
BC
100
AcDbXrecord
280
     1
270
     1
271
     1
  0
XRECORD
  5
BD
102
{ACAD_REACTORS
330
BC
102
}
330
BC
100
AcDbXrecord
280
     1
270
     1
271
     1
  0
XRECORD
  5
C1
102
{ACAD_REACTORS
330
BC
102
}
330
BC
100
AcDbXrecord
280
     1
270
     1
271
     1
  0
XRECORD
  5
C0
102
{ACAD_REACTORS
330
BC
102
}
330
BC
100
AcDbXrecord
280
     1
270
     1
271
     1
  0
XRECORD
  5
C2
102
{ACAD_REACTORS
330
BC
102
}
330
BC
100
AcDbXrecord
280
     1
270
     1
271
     1
  0
XRECORD
  5
BF
102
{ACAD_REACTORS
330
BC
102
}
330
BC
100
AcDbXrecord
280
     1
270
     1
271
     1
  0
CELLSTYLEMAP
  5
105
102
{ACAD_REACTORS
330
104
102
}
330
104
100
AcDbCellStyleMap
 90
        3
300
CELLSTYLE
  1
TABLEFORMAT_BEGIN
 90
        5
170
     1
 91
        0
 92
    32768
 62
   257
 93
        1
300
CONTENTFORMAT
  1
CONTENTFORMAT_BEGIN
 90
        0
 91
        0
 92
      512
 93
        0
300

 40
0.0
140
1.0
 94
        5
 62
     0
340
11
144
0.25
309
CONTENTFORMAT_END
171
     0
 94
        0
309
TABLEFORMAT_END
  1
CELLSTYLE_BEGIN
 90
        1
 91
        1
300
_TITLE
309
CELLSTYLE_END
300
CELLSTYLE
  1
TABLEFORMAT_BEGIN
 90
        5
170
     1
 91
        0
 92
        0
 62
   257
 93
        1
300
CONTENTFORMAT
  1
CONTENTFORMAT_BEGIN
 90
        0
 91
        0
 92
      512
 93
        0
300

 40
0.0
140
1.0
 94
        5
 62
     0
340
11
144
0.18
309
CONTENTFORMAT_END
171
     0
 94
        0
309
TABLEFORMAT_END
  1
CELLSTYLE_BEGIN
 90
        2
 91
        1
300
_HEADER
309
CELLSTYLE_END
300
CELLSTYLE
  1
TABLEFORMAT_BEGIN
 90
        5
170
     1
 91
        0
 92
        0
 62
   257
 93
        1
300
CONTENTFORMAT
  1
CONTENTFORMAT_BEGIN
 90
        0
 91
        0
 92
      512
 93
        0
300

 40
0.0
140
1.0
 94
        2
 62
     0
340
11
144
0.18
309
CONTENTFORMAT_END
171
     0
 94
        0
309
TABLEFORMAT_END
  1
CELLSTYLE_BEGIN
 90
        3
 91
        2
300
_DATA
309
CELLSTYLE_END
  0
ENDSEC
  0
EOF
