 0
SECTION
 2
HEADER
 9
$ACADVER
 1
AC1009
 0
ENDSEC
 0
SECTION
 2
TABLES
 0
TABLE
 2
LTYPE
 70
1
 0
LTYPE
 2
CONTINUOUS
 70
64
 3
solid line
 72
65
 73
0
 40
0.0
 0
ENDTAB
 0
TABLE
 2
LAYER
 70
6
 0
LAYER
 2
0
 70
0
 62
7
 6
CONTINUOUS
 0
LAYER
 2
160_1820_M
 70
64
 62
7
 6
CONTINUOUS
 0
LAYER
 2
TUBE
 70
64
 62
253
 6
CONTINUOUS
 0
LAYER
 2
PELATOR_3
 70
64
 62
250
 6
CONTINUOUS
 0
LAYER
 2
AUSLAUF_1
 70
64
 62
250
 6
CONTINUOUS
 0
LAYER
 2
AUSLAUF_2
 70
64
 62
250
 6
CONTINUOUS
 0
LAYER
 2
AUSLAUF_3
 70
64
 62
250
 6
CONTINUOUS
 0
LAYER
 2
HEBEL
 70
64
 62
250
 6
CONTINUOUS
 0
LAYER
 2
TEMP
 70
64
 62
253
 6
CONTINUOUS
 0
LAYER
 2
GRIFF_3
 70
64
 62
250
 6
CONTINUOUS
 0
LAYER
 2
GRIFF_4
 70
64
 62
250
 6
CONTINUOUS
 0
LAYER
 2
CYLINDER
 70
64
 62
250
 6
CONTINUOUS
 0
LAYER
 2
KARTUSCHE
 70
64
 62
250
 6
CONTINUOUS
 0
LAYER
 2
ROSETTE
 70
64
 62
250
 6
CONTINUOUS
 0
LAYER
 2
ROSETTE_1
 70
64
 62
250
 6
CONTINUOUS
 0
ENDTAB
 0
ENDSEC
 0
SECTION
 2
BLOCKS
 0
ENDSEC
 0
SECTION
 2
ENTITIES
 0
POLYLINE
 8
TUBE
 66
1
 10
0.0
 20
0.0
 30
0.0
 70
64
 71
96
 72
36
 0
VERTEX
 8
TUBE
 10
-7.3104
 20
-19.1332
 30
18.3224
 70
192
 0
VERTEX
 8
TUBE
 10
-7.3104
 20
-18.1454
 30
18.1835
 70
192
 0
VERTEX
 8
TUBE
 10
-7.3104
 20
-18.1454
 30
18.1835
 70
192
 0
VERTEX
 8
TUBE
 10
-7.3104
 20
-18.2184
 30
17.6637
 70
192
 0
VERTEX
 8
TUBE
 10
-7.3104
 20
-18.2184
 30
17.6637
 70
192
 0
VERTEX
 8
TUBE
 10
-7.3104
 20
-19.2062
 30
17.8025
 70
192
 0
VERTEX
 8
TUBE
 10
-7.3104
 20
-19.2062
 30
17.8025
 70
192
 0
VERTEX
 8
TUBE
 10
-7.3104
 20
-19.1332
 30
18.3224
 70
192
 0
VERTEX
 8
TUBE
 10
-7.3104
 20
-19.1332
 30
18.3224
 70
192
 0
VERTEX
 8
TUBE
 10
-6.8117
 20
-18.2777
 30
18.2021
 70
192
 0
VERTEX
 8
TUBE
 10
-6.8117
 20
-18.2777
 30
18.2021
 70
192
 0
VERTEX
 8
TUBE
 10
-6.8117
 20
-18.3508
 30
17.6823
 70
192
 0
VERTEX
 8
TUBE
 10
-6.8117
 20
-18.3508
 30
17.6823
 70
192
 0
VERTEX
 8
TUBE
 10
-7.3104
 20
-19.2062
 30
17.8025
 70
192
 0
VERTEX
 8
TUBE
 10
-7.3104
 20
-19.2062
 30
17.8025
 70
192
 0
VERTEX
 8
TUBE
 10
-7.3104
 20
-19.1332
 30
18.3224
 70
192
 0
VERTEX
 8
TUBE
 10
-7.3104
 20
-19.1332
 30
18.3224
 70
192
 0
VERTEX
 8
TUBE
 10
-6.4466
 20
-18.6393
 30
18.253
 70
192
 0
VERTEX
 8
TUBE
 10
-6.4466
 20
-18.6393
 30
18.253
 70
192
 0
VERTEX
 8
TUBE
 10
-6.4466
 20
-18.7123
 30
17.7331
 70
192
 0
VERTEX
 8
TUBE
 10
-6.4466
 20
-18.7123
 30
17.7331
 70
192
 0
VERTEX
 8
TUBE
 10
-7.3104
 20
-19.2062
 30
17.8025
 70
192
 0
VERTEX
 8
TUBE
 10
-7.3104
 20
-19.2062
 30
17.8025
 70
192
 0
VERTEX
 8
TUBE
 10
-7.3104
 20
-19.1332
 30
18.3224
 70
192
 0
VERTEX
 8
TUBE
 10
-7.3104
 20
-19.1332
 30
18.3224
 70
192
 0
VERTEX
 8
TUBE
 10
-6.3129
 20
-19.1332
 30
18.3224
 70
192
 0
VERTEX
 8
TUBE
 10
-6.3129
 20
-19.1332
 30
18.3224
 70
192
 0
VERTEX
 8
TUBE
 10
-6.3129
 20
-19.2062
 30
17.8025
 70
192
 0
VERTEX
 8
TUBE
 10
-6.3129
 20
-19.2062
 30
17.8025
 70
192
 0
VERTEX
 8
TUBE
 10
-7.3104
 20
-19.2062
 30
17.8025
 70
192
 0
VERTEX
 8
TUBE
 10
-7.3104
 20
-19.2062
 30
17.8025
 70
192
 0
VERTEX
 8
TUBE
 10
-7.3104
 20
-19.1332
 30
18.3224
 70
192
 0
VERTEX
 8
TUBE
 10
-7.3104
 20
-19.1332
 30
18.3224
 70
192
 0
VERTEX
 8
TUBE
 10
-6.4466
 20
-19.6271
 30
18.3918
 70
192
 0
VERTEX
 8
TUBE
 10
-6.4466
 20
-19.6271
 30
18.3918
 70
192
 0
VERTEX
 8
TUBE
 10
-6.4466
 20
-19.7001
 30
17.8719
 70
192
 0
VERTEX
 8
TUBE
 10
-6.4466
 20
-19.7001
 30
17.8719
 70
192
 0
VERTEX
 8
TUBE
 10
-7.3104
 20
-19.2062
 30
17.8025
 70
192
 0
VERTEX
 8
TUBE
 10
-7.3104
 20
-19.2062
 30
17.8025
 70
192
 0
VERTEX
 8
TUBE
 10
-7.3104
 20
-19.1332
 30
18.3224
 70
192
 0
VERTEX
 8
TUBE
 10
-7.3104
 20
-19.1332
 30
18.3224
 70
192
 0
VERTEX
 8
TUBE
 10
-6.8117
 20
-19.9886
 30
18.4426
 70
192
 0
VERTEX
 8
TUBE
 10
-6.8117
 20
-19.9886
 30
18.4426
 70
192
 0
VERTEX
 8
TUBE
 10
-6.8117
 20
-20.0617
 30
17.9227
 70
192
 0
VERTEX
 8
TUBE
 10
-6.8117
 20
-20.0617
 30
17.9227
 70
192
 0
VERTEX
 8
TUBE
 10
-7.3104
 20
-19.2062
 30
17.8025
 70
192
 0
VERTEX
 8
TUBE
 10
-7.3104
 20
-19.2062
 30
17.8025
 70
192
 0
VERTEX
 8
TUBE
 10
-7.3104
 20
-19.1332
 30
18.3224
 70
192
 0
VERTEX
 8
TUBE
 10
-7.3104
 20
-19.1332
 30
18.3224
 70
192
 0
VERTEX
 8
TUBE
 10
-7.3104
 20
-20.121
 30
18.4612
 70
192
 0
VERTEX
 8
TUBE
 10
-7.3104
 20
-20.121
 30
18.4612
 70
192
 0
VERTEX
 8
TUBE
 10
-7.3104
 20
-20.194
 30
17.9413
 70
192
 0
VERTEX
 8
TUBE
 10
-7.3104
 20
-20.194
 30
17.9413
 70
192
 0
VERTEX
 8
TUBE
 10
-7.3104
 20
-19.2062
 30
17.8025
 70
192
 0
VERTEX
 8
TUBE
 10
-7.3104
 20
-19.2062
 30
17.8025
 70
192
 0
VERTEX
 8
TUBE
 10
-7.3104
 20
-19.1332
 30
18.3224
 70
192
 0
VERTEX
 8
TUBE
 10
-7.3104
 20
-19.1332
 30
18.3224
 70
192
 0
VERTEX
 8
TUBE
 10
-7.8092
 20
-19.9886
 30
18.4426
 70
192
 0
VERTEX
 8
TUBE
 10
-7.8092
 20
-19.9886
 30
18.4426
 70
192
 0
VERTEX
 8
TUBE
 10
-7.8092
 20
-20.0617
 30
17.9227
 70
192
 0
VERTEX
 8
TUBE
 10
-7.8092
 20
-20.0617
 30
17.9227
 70
192
 0
VERTEX
 8
TUBE
 10
-7.3104
 20
-19.2062
 30
17.8025
 70
192
 0
VERTEX
 8
TUBE
 10
-7.3104
 20
-19.2062
 30
17.8025
 70
192
 0
VERTEX
 8
TUBE
 10
-7.3104
 20
-19.1332
 30
18.3224
 70
192
 0
VERTEX
 8
TUBE
 10
-7.3104
 20
-19.1332
 30
18.3224
 70
192
 0
VERTEX
 8
TUBE
 10
-8.1743
 20
-19.6271
 30
18.3918
 70
192
 0
VERTEX
 8
TUBE
 10
-8.1743
 20
-19.6271
 30
18.3918
 70
192
 0
VERTEX
 8
TUBE
 10
-8.1743
 20
-19.7001
 30
17.8719
 70
192
 0
VERTEX
 8
TUBE
 10
-8.1743
 20
-19.7001
 30
17.8719
 70
192
 0
VERTEX
 8
TUBE
 10
-7.3104
 20
-19.2062
 30
17.8025
 70
192
 0
VERTEX
 8
TUBE
 10
-7.3104
 20
-19.2062
 30
17.8025
 70
192
 0
VERTEX
 8
TUBE
 10
-7.3104
 20
-19.1332
 30
18.3224
 70
192
 0
VERTEX
 8
TUBE
 10
-7.3104
 20
-19.1332
 30
18.3224
 70
192
 0
VERTEX
 8
TUBE
 10
-8.3079
 20
-19.1332
 30
18.3224
 70
192
 0
VERTEX
 8
TUBE
 10
-8.3079
 20
-19.1332
 30
18.3224
 70
192
 0
VERTEX
 8
TUBE
 10
-8.3079
 20
-19.2062
 30
17.8025
 70
192
 0
VERTEX
 8
TUBE
 10
-8.3079
 20
-19.2062
 30
17.8025
 70
192
 0
VERTEX
 8
TUBE
 10
-7.3104
 20
-19.2062
 30
17.8025
 70
192
 0
VERTEX
 8
TUBE
 10
-7.3104
 20
-19.2062
 30
17.8025
 70
192
 0
VERTEX
 8
TUBE
 10
-7.3104
 20
-19.1332
 30
18.3224
 70
192
 0
VERTEX
 8
TUBE
 10
-7.3104
 20
-19.1332
 30
18.3224
 70
192
 0
VERTEX
 8
TUBE
 10
-8.1743
 20
-18.6393
 30
18.253
 70
192
 0
VERTEX
 8
TUBE
 10
-8.1743
 20
-18.6393
 30
18.253
 70
192
 0
VERTEX
 8
TUBE
 10
-8.1743
 20
-18.7123
 30
17.7331
 70
192
 0
VERTEX
 8
TUBE
 10
-8.1743
 20
-18.7123
 30
17.7331
 70
192
 0
VERTEX
 8
TUBE
 10
-7.3104
 20
-19.2062
 30
17.8025
 70
192
 0
VERTEX
 8
TUBE
 10
-7.3104
 20
-19.2062
 30
17.8025
 70
192
 0
VERTEX
 8
TUBE
 10
-7.3104
 20
-19.1332
 30
18.3224
 70
192
 0
VERTEX
 8
TUBE
 10
-7.3104
 20
-19.1332
 30
18.3224
 70
192
 0
VERTEX
 8
TUBE
 10
-7.8092
 20
-18.2777
 30
18.2021
 70
192
 0
VERTEX
 8
TUBE
 10
-7.8092
 20
-18.2777
 30
18.2021
 70
192
 0
VERTEX
 8
TUBE
 10
-7.8092
 20
-18.3508
 30
17.6823
 70
192
 0
VERTEX
 8
TUBE
 10
-7.8092
 20
-18.3508
 30
17.6823
 70
192
 0
VERTEX
 8
TUBE
 10
-7.3104
 20
-19.2062
 30
17.8025
 70
192
 0
VERTEX
 8
TUBE
 10
-7.3104
 20
-19.2062
 30
17.8025
 70
192
 0
VERTEX
 8
TUBE
 10
-7.3104
 20
-19.1332
 30
18.3224
 70
192
 0
VERTEX
 8
TUBE
 10
0
 20
0
 30
0
 70
128
 71
1
 72
2
 73
10
 74
10
 0
VERTEX
 8
TUBE
 10
0
 20
0
 30
0
 70
128
 71
3
 72
4
 73
12
 74
11
 0
VERTEX
 8
TUBE
 10
0
 20
0
 30
0
 70
128
 71
5
 72
14
 73
13
 74
13
 0
VERTEX
 8
TUBE
 10
0
 20
0
 30
0
 70
128
 71
9
 72
10
 73
18
 74
18
 0
VERTEX
 8
TUBE
 10
0
 20
0
 30
0
 70
128
 71
11
 72
12
 73
20
 74
19
 0
VERTEX
 8
TUBE
 10
0
 20
0
 30
0
 70
128
 71
13
 72
22
 73
21
 74
21
 0
VERTEX
 8
TUBE
 10
0
 20
0
 30
0
 70
128
 71
17
 72
18
 73
26
 74
26
 0
VERTEX
 8
TUBE
 10
0
 20
0
 30
0
 70
128
 71
19
 72
20
 73
28
 74
27
 0
VERTEX
 8
TUBE
 10
0
 20
0
 30
0
 70
128
 71
21
 72
30
 73
29
 74
29
 0
VERTEX
 8
TUBE
 10
0
 20
0
 30
0
 70
128
 71
25
 72
26
 73
34
 74
34
 0
VERTEX
 8
TUBE
 10
0
 20
0
 30
0
 70
128
 71
27
 72
28
 73
36
 74
35
 0
VERTEX
 8
TUBE
 10
0
 20
0
 30
0
 70
128
 71
29
 72
38
 73
37
 74
37
 0
VERTEX
 8
TUBE
 10
0
 20
0
 30
0
 70
128
 71
33
 72
34
 73
42
 74
42
 0
VERTEX
 8
TUBE
 10
0
 20
0
 30
0
 70
128
 71
35
 72
36
 73
44
 74
43
 0
VERTEX
 8
TUBE
 10
0
 20
0
 30
0
 70
128
 71
37
 72
46
 73
45
 74
45
 0
VERTEX
 8
TUBE
 10
0
 20
0
 30
0
 70
128
 71
41
 72
42
 73
50
 74
50
 0
VERTEX
 8
TUBE
 10
0
 20
0
 30
0
 70
128
 71
43
 72
44
 73
52
 74
51
 0
VERTEX
 8
TUBE
 10
0
 20
0
 30
0
 70
128
 71
45
 72
54
 73
53
 74
53
 0
VERTEX
 8
TUBE
 10
0
 20
0
 30
0
 70
128
 71
49
 72
50
 73
58
 74
58
 0
VERTEX
 8
TUBE
 10
0
 20
0
 30
0
 70
128
 71
51
 72
52
 73
60
 74
59
 0
VERTEX
 8
TUBE
 10
0
 20
0
 30
0
 70
128
 71
53
 72
62
 73
61
 74
61
 0
VERTEX
 8
TUBE
 10
0
 20
0
 30
0
 70
128
 71
57
 72
58
 73
66
 74
66
 0
VERTEX
 8
TUBE
 10
0
 20
0
 30
0
 70
128
 71
59
 72
60
 73
68
 74
67
 0
VERTEX
 8
TUBE
 10
0
 20
0
 30
0
 70
128
 71
61
 72
70
 73
69
 74
69
 0
VERTEX
 8
TUBE
 10
0
 20
0
 30
0
 70
128
 71
65
 72
66
 73
74
 74
74
 0
VERTEX
 8
TUBE
 10
0
 20
0
 30
0
 70
128
 71
67
 72
68
 73
76
 74
75
 0
VERTEX
 8
TUBE
 10
0
 20
0
 30
0
 70
128
 71
69
 72
78
 73
77
 74
77
 0
VERTEX
 8
TUBE
 10
0
 20
0
 30
0
 70
128
 71
73
 72
74
 73
82
 74
82
 0
VERTEX
 8
TUBE
 10
0
 20
0
 30
0
 70
128
 71
75
 72
76
 73
84
 74
83
 0
VERTEX
 8
TUBE
 10
0
 20
0
 30
0
 70
128
 71
77
 72
86
 73
85
 74
85
 0
VERTEX
 8
TUBE
 10
0
 20
0
 30
0
 70
128
 71
81
 72
82
 73
90
 74
90
 0
VERTEX
 8
TUBE
 10
0
 20
0
 30
0
 70
128
 71
83
 72
84
 73
92
 74
91
 0
VERTEX
 8
TUBE
 10
0
 20
0
 30
0
 70
128
 71
85
 72
94
 73
93
 74
93
 0
VERTEX
 8
TUBE
 10
0
 20
0
 30
0
 70
128
 71
89
 72
90
 73
2
 74
2
 0
VERTEX
 8
TUBE
 10
0
 20
0
 30
0
 70
128
 71
91
 72
92
 73
4
 74
3
 0
VERTEX
 8
TUBE
 10
0
 20
0
 30
0
 70
128
 71
93
 72
6
 73
5
 74
5
 0
SEQEND
 0
POLYLINE
 8
PELATOR_3
 66
1
 10
0.0
 20
0.0
 30
0.0
 70
64
 71
108
 72
104
 0
VERTEX
 8
PELATOR_3
 10
-6.0641
 20
-18.9941
 30
19.2025
 70
192
 0
VERTEX
 8
PELATOR_3
 10
-6.1141
 20
-18.9872
 30
19.252
 70
192
 0
VERTEX
 8
PELATOR_3
 10
-6.2641
 20
-18.9872
 30
19.252
 70
192
 0
VERTEX
 8
PELATOR_3
 10
-6.3141
 20
-18.9941
 30
19.2025
 70
192
 0
VERTEX
 8
PELATOR_3
 10
-6.3141
 20
-19.189
 30
17.8161
 70
192
 0
VERTEX
 8
PELATOR_3
 10
-6.2641
 20
-19.1959
 30
17.7666
 70
192
 0
VERTEX
 8
PELATOR_3
 10
-6.4047
 20
-18.676
 30
17.6935
 70
192
 0
VERTEX
 8
PELATOR_3
 10
-6.2748
 20
-18.6017
 30
17.6831
 70
192
 0
VERTEX
 8
PELATOR_3
 10
-6.2315
 20
-18.57
 30
17.7291
 70
192
 0
VERTEX
 8
PELATOR_3
 10
-6.2315
 20
-18.3752
 30
19.1155
 70
192
 0
VERTEX
 8
PELATOR_3
 10
-6.2748
 20
-18.393
 30
19.1685
 70
192
 0
VERTEX
 8
PELATOR_3
 10
-6.4047
 20
-18.4673
 30
19.1789
 70
192
 0
VERTEX
 8
PELATOR_3
 10
-6.448
 20
-18.499
 30
19.1329
 70
192
 0
VERTEX
 8
PELATOR_3
 10
-6.448
 20
-18.6938
 30
17.7465
 70
192
 0
VERTEX
 8
PELATOR_3
 10
-6.7891
 20
-18.2954
 30
17.6401
 70
192
 0
VERTEX
 8
PELATOR_3
 10
-6.7141
 20
-18.1668
 30
17.622
 70
192
 0
VERTEX
 8
PELATOR_3
 10
-6.6891
 20
-18.117
 30
17.6655
 70
192
 0
VERTEX
 8
PELATOR_3
 10
-6.6891
 20
-17.9221
 30
19.0518
 70
192
 0
VERTEX
 8
PELATOR_3
 10
-6.7141
 20
-17.958
 30
19.1074
 70
192
 0
VERTEX
 8
PELATOR_3
 10
-6.7891
 20
-18.0867
 30
19.1255
 70
192
 0
VERTEX
 8
PELATOR_3
 10
-6.8141
 20
-18.1365
 30
19.082
 70
192
 0
VERTEX
 8
PELATOR_3
 10
-6.8141
 20
-18.3314
 30
17.6956
 70
192
 0
VERTEX
 8
PELATOR_3
 10
-7.3141
 20
-18.1561
 30
17.6205
 70
192
 0
VERTEX
 8
PELATOR_3
 10
-7.3141
 20
-18.0076
 30
17.5996
 70
192
 0
VERTEX
 8
PELATOR_3
 10
-7.3141
 20
-17.9511
 30
17.6422
 70
192
 0
VERTEX
 8
PELATOR_3
 10
-7.3141
 20
-17.7563
 30
19.0285
 70
192
 0
VERTEX
 8
PELATOR_3
 10
-7.3141
 20
-17.7988
 30
19.085
 70
192
 0
VERTEX
 8
PELATOR_3
 10
-7.3141
 20
-17.9474
 30
19.1059
 70
192
 0
VERTEX
 8
PELATOR_3
 10
-7.3141
 20
-18.0038
 30
19.0633
 70
192
 0
VERTEX
 8
PELATOR_3
 10
-7.3141
 20
-18.1987
 30
17.6769
 70
192
 0
VERTEX
 8
PELATOR_3
 10
-7.8391
 20
-18.2954
 30
17.6401
 70
192
 0
VERTEX
 8
PELATOR_3
 10
-7.9141
 20
-18.1668
 30
17.622
 70
192
 0
VERTEX
 8
PELATOR_3
 10
-7.9391
 20
-18.117
 30
17.6655
 70
192
 0
VERTEX
 8
PELATOR_3
 10
-7.9391
 20
-17.9221
 30
19.0518
 70
192
 0
VERTEX
 8
PELATOR_3
 10
-7.9141
 20
-17.958
 30
19.1074
 70
192
 0
VERTEX
 8
PELATOR_3
 10
-7.8391
 20
-18.0867
 30
19.1255
 70
192
 0
VERTEX
 8
PELATOR_3
 10
-7.8141
 20
-18.1365
 30
19.082
 70
192
 0
VERTEX
 8
PELATOR_3
 10
-7.8141
 20
-18.3314
 30
17.6956
 70
192
 0
VERTEX
 8
PELATOR_3
 10
-8.3533
 20
-18.6017
 30
17.6831
 70
192
 0
VERTEX
 8
PELATOR_3
 10
-8.3966
 20
-18.57
 30
17.7291
 70
192
 0
VERTEX
 8
PELATOR_3
 10
-8.3966
 20
-18.3752
 30
19.1155
 70
192
 0
VERTEX
 8
PELATOR_3
 10
-8.3533
 20
-18.393
 30
19.1685
 70
192
 0
VERTEX
 8
PELATOR_3
 10
-8.2234
 20
-18.4673
 30
19.1789
 70
192
 0
VERTEX
 8
PELATOR_3
 10
-8.1801
 20
-18.499
 30
19.1329
 70
192
 0
VERTEX
 8
PELATOR_3
 10
-8.1801
 20
-18.6938
 30
17.7465
 70
192
 0
VERTEX
 8
PELATOR_3
 10
-8.2234
 20
-18.676
 30
17.6935
 70
192
 0
VERTEX
 8
PELATOR_3
 10
-8.3641
 20
-19.1959
 30
17.7666
 70
192
 0
VERTEX
 8
PELATOR_3
 10
-8.5641
 20
-18.9941
 30
19.2025
 70
192
 0
VERTEX
 8
PELATOR_3
 10
-8.5141
 20
-18.9872
 30
19.252
 70
192
 0
VERTEX
 8
PELATOR_3
 10
-8.3641
 20
-18.9872
 30
19.252
 70
192
 0
VERTEX
 8
PELATOR_3
 10
-8.3141
 20
-18.9941
 30
19.2025
 70
192
 0
VERTEX
 8
PELATOR_3
 10
-8.3141
 20
-19.189
 30
17.8161
 70
192
 0
VERTEX
 8
PELATOR_3
 10
-8.2234
 20
-19.7158
 30
17.8397
 70
192
 0
VERTEX
 8
PELATOR_3
 10
-8.3533
 20
-19.7901
 30
17.8501
 70
192
 0
VERTEX
 8
PELATOR_3
 10
-8.3966
 20
-19.8079
 30
17.9031
 70
192
 0
VERTEX
 8
PELATOR_3
 10
-8.3966
 20
-19.613
 30
19.2895
 70
192
 0
VERTEX
 8
PELATOR_3
 10
-8.3533
 20
-19.5813
 30
19.3355
 70
192
 0
VERTEX
 8
PELATOR_3
 10
-8.2234
 20
-19.507
 30
19.3251
 70
192
 0
VERTEX
 8
PELATOR_3
 10
-8.1801
 20
-19.4892
 30
19.2721
 70
192
 0
VERTEX
 8
PELATOR_3
 10
-8.1801
 20
-19.6841
 30
17.8857
 70
192
 0
VERTEX
 8
PELATOR_3
 10
-7.8391
 20
-20.0964
 30
17.8932
 70
192
 0
VERTEX
 8
PELATOR_3
 10
-7.9141
 20
-20.225
 30
17.9112
 70
192
 0
VERTEX
 8
PELATOR_3
 10
-7.9391
 20
-20.2609
 30
17.9668
 70
192
 0
VERTEX
 8
PELATOR_3
 10
-7.9391
 20
-20.0661
 30
19.3532
 70
192
 0
VERTEX
 8
PELATOR_3
 10
-7.9141
 20
-20.0163
 30
19.3966
 70
192
 0
VERTEX
 8
PELATOR_3
 10
-7.8391
 20
-19.8876
 30
19.3786
 70
192
 0
VERTEX
 8
PELATOR_3
 10
-7.8141
 20
-19.8517
 30
19.323
 70
192
 0
VERTEX
 8
PELATOR_3
 10
-7.8141
 20
-20.0465
 30
17.9366
 70
192
 0
VERTEX
 8
PELATOR_3
 10
-7.3141
 20
-20.2357
 30
17.9127
 70
192
 0
VERTEX
 8
PELATOR_3
 10
-7.3141
 20
-20.3842
 30
17.9336
 70
192
 0
VERTEX
 8
PELATOR_3
 10
-7.3141
 20
-20.4268
 30
17.9901
 70
192
 0
VERTEX
 8
PELATOR_3
 10
-7.3141
 20
-20.2319
 30
19.3765
 70
192
 0
VERTEX
 8
PELATOR_3
 10
-7.3141
 20
-20.1755
 30
19.419
 70
192
 0
VERTEX
 8
PELATOR_3
 10
-7.3141
 20
-20.0269
 30
19.3981
 70
192
 0
VERTEX
 8
PELATOR_3
 10
-7.3141
 20
-19.9844
 30
19.3417
 70
192
 0
VERTEX
 8
PELATOR_3
 10
-7.3141
 20
-20.1792
 30
17.9553
 70
192
 0
VERTEX
 8
PELATOR_3
 10
-6.7891
 20
-20.0964
 30
17.8932
 70
192
 0
VERTEX
 8
PELATOR_3
 10
-6.7141
 20
-20.225
 30
17.9112
 70
192
 0
VERTEX
 8
PELATOR_3
 10
-6.6891
 20
-20.2609
 30
17.9668
 70
192
 0
VERTEX
 8
PELATOR_3
 10
-6.6891
 20
-20.0661
 30
19.3532
 70
192
 0
VERTEX
 8
PELATOR_3
 10
-6.7141
 20
-20.0163
 30
19.3966
 70
192
 0
VERTEX
 8
PELATOR_3
 10
-6.7891
 20
-19.8876
 30
19.3786
 70
192
 0
VERTEX
 8
PELATOR_3
 10
-6.8141
 20
-19.8517
 30
19.323
 70
192
 0
VERTEX
 8
PELATOR_3
 10
-6.8141
 20
-20.0465
 30
17.9366
 70
192
 0
VERTEX
 8
PELATOR_3
 10
-6.4047
 20
-19.7158
 30
17.8397
 70
192
 0
VERTEX
 8
PELATOR_3
 10
-6.2748
 20
-19.7901
 30
17.8501
 70
192
 0
VERTEX
 8
PELATOR_3
 10
-6.2315
 20
-19.8079
 30
17.9031
 70
192
 0
VERTEX
 8
PELATOR_3
 10
-6.2315
 20
-19.613
 30
19.2895
 70
192
 0
VERTEX
 8
PELATOR_3
 10
-6.2748
 20
-19.5813
 30
19.3355
 70
192
 0
VERTEX
 8
PELATOR_3
 10
-6.4047
 20
-19.507
 30
19.3251
 70
192
 0
VERTEX
 8
PELATOR_3
 10
-6.448
 20
-19.4892
 30
19.2721
 70
192
 0
VERTEX
 8
PELATOR_3
 10
-6.448
 20
-19.6841
 30
17.8857
 70
192
 0
VERTEX
 8
PELATOR_3
 10
-6.1982
 20
-19.1959
 30
17.7666
 70
192
 0
VERTEX
 8
PELATOR_3
 10
-6.1982
 20
-18.885
 30
17.7229
 70
192
 0
VERTEX
 8
PELATOR_3
 10
-6.1982
 20
-18.6933
 30
17.7465
 70
192
 0
VERTEX
 8
PELATOR_3
 10
-8.4151
 20
-19.1959
 30
17.7666
 70
192
 0
VERTEX
 8
PELATOR_3
 10
-6.0641
 20
-19.1561
 30
18.0498
 70
192
 0
VERTEX
 8
PELATOR_3
 10
-8.4151
 20
-18.8302
 30
17.7152
 70
192
 0
VERTEX
 8
PELATOR_3
 10
-8.4151
 20
-18.6384
 30
17.7388
 70
192
 0
VERTEX
 8
PELATOR_3
 10
-8.5641
 20
-19.1559
 30
18.051
 70
192
 0
VERTEX
 8
PELATOR_3
 10
-8.4151
 20
-19.5616
 30
17.818
 70
192
 0
VERTEX
 8
PELATOR_3
 10
-8.4151
 20
-19.7395
 30
17.8935
 70
192
 0
VERTEX
 8
PELATOR_3
 10
-6.1982
 20
-19.5068
 30
17.8103
 70
192
 0
VERTEX
 8
PELATOR_3
 10
-6.1982
 20
-19.6846
 30
17.8858
 70
192
 0
VERTEX
 8
PELATOR_3
 10
-8.4151
 20
-18.6054
 30
17.9736
 70
192
 0
VERTEX
 8
PELATOR_3
 10
-6.1982
 20
-18.6605
 30
17.9801
 70
192
 0
VERTEX
 8
PELATOR_3
 10
-6.1982
 20
-19.6518
 30
18.1195
 70
192
 0
VERTEX
 8
PELATOR_3
 10
-8.4151
 20
-19.7065
 30
18.1283
 70
192
 0
VERTEX
 8
PELATOR_3
 10
0
 20
0
 30
0
 70
128
 71
6
 72
93
 73
8
 74
7
 0
VERTEX
 8
PELATOR_3
 10
0
 20
0
 30
0
 70
128
 71
94
 72
8
 73
93
 74
93
 0
VERTEX
 8
PELATOR_3
 10
0
 20
0
 30
0
 70
128
 71
9
 72
8
 73
94
 74
95
 0
VERTEX
 8
PELATOR_3
 10
0
 20
0
 30
0
 70
128
 71
106
 72
97
 73
1
 74
10
 0
VERTEX
 8
PELATOR_3
 10
0
 20
0
 30
0
 70
128
 71
9
 72
95
 73
106
 74
10
 0
VERTEX
 8
PELATOR_3
 10
0
 20
0
 30
0
 70
128
 71
1
 72
2
 73
11
 74
10
 0
VERTEX
 8
PELATOR_3
 10
0
 20
0
 30
0
 70
128
 71
2
 72
3
 73
12
 74
11
 0
VERTEX
 8
PELATOR_3
 10
0
 20
0
 30
0
 70
128
 71
3
 72
4
 73
13
 74
12
 0
VERTEX
 8
PELATOR_3
 10
0
 20
0
 30
0
 70
128
 71
4
 72
5
 73
14
 74
13
 0
VERTEX
 8
PELATOR_3
 10
0
 20
0
 30
0
 70
128
 71
5
 72
6
 73
7
 74
14
 0
VERTEX
 8
PELATOR_3
 10
0
 20
0
 30
0
 70
128
 71
7
 72
8
 73
16
 74
15
 0
VERTEX
 8
PELATOR_3
 10
0
 20
0
 30
0
 70
128
 71
8
 72
9
 73
17
 74
16
 0
VERTEX
 8
PELATOR_3
 10
0
 20
0
 30
0
 70
128
 71
9
 72
10
 73
18
 74
17
 0
VERTEX
 8
PELATOR_3
 10
0
 20
0
 30
0
 70
128
 71
10
 72
11
 73
19
 74
18
 0
VERTEX
 8
PELATOR_3
 10
0
 20
0
 30
0
 70
128
 71
11
 72
12
 73
20
 74
19
 0
VERTEX
 8
PELATOR_3
 10
0
 20
0
 30
0
 70
128
 71
12
 72
13
 73
21
 74
20
 0
VERTEX
 8
PELATOR_3
 10
0
 20
0
 30
0
 70
128
 71
13
 72
14
 73
22
 74
21
 0
VERTEX
 8
PELATOR_3
 10
0
 20
0
 30
0
 70
128
 71
14
 72
7
 73
15
 74
22
 0
VERTEX
 8
PELATOR_3
 10
0
 20
0
 30
0
 70
128
 71
15
 72
16
 73
24
 74
23
 0
VERTEX
 8
PELATOR_3
 10
0
 20
0
 30
0
 70
128
 71
16
 72
17
 73
25
 74
24
 0
VERTEX
 8
PELATOR_3
 10
0
 20
0
 30
0
 70
128
 71
17
 72
18
 73
26
 74
25
 0
VERTEX
 8
PELATOR_3
 10
0
 20
0
 30
0
 70
128
 71
18
 72
19
 73
27
 74
26
 0
VERTEX
 8
PELATOR_3
 10
0
 20
0
 30
0
 70
128
 71
19
 72
20
 73
28
 74
27
 0
VERTEX
 8
PELATOR_3
 10
0
 20
0
 30
0
 70
128
 71
20
 72
21
 73
29
 74
28
 0
VERTEX
 8
PELATOR_3
 10
0
 20
0
 30
0
 70
128
 71
21
 72
22
 73
30
 74
29
 0
VERTEX
 8
PELATOR_3
 10
0
 20
0
 30
0
 70
128
 71
22
 72
15
 73
23
 74
30
 0
VERTEX
 8
PELATOR_3
 10
0
 20
0
 30
0
 70
128
 71
23
 72
24
 73
32
 74
31
 0
VERTEX
 8
PELATOR_3
 10
0
 20
0
 30
0
 70
128
 71
24
 72
25
 73
33
 74
32
 0
VERTEX
 8
PELATOR_3
 10
0
 20
0
 30
0
 70
128
 71
25
 72
26
 73
34
 74
33
 0
VERTEX
 8
PELATOR_3
 10
0
 20
0
 30
0
 70
128
 71
26
 72
27
 73
35
 74
34
 0
VERTEX
 8
PELATOR_3
 10
0
 20
0
 30
0
 70
128
 71
27
 72
28
 73
36
 74
35
 0
VERTEX
 8
PELATOR_3
 10
0
 20
0
 30
0
 70
128
 71
28
 72
29
 73
37
 74
36
 0
VERTEX
 8
PELATOR_3
 10
0
 20
0
 30
0
 70
128
 71
29
 72
30
 73
38
 74
37
 0
VERTEX
 8
PELATOR_3
 10
0
 20
0
 30
0
 70
128
 71
30
 72
23
 73
31
 74
38
 0
VERTEX
 8
PELATOR_3
 10
0
 20
0
 30
0
 70
128
 71
31
 72
32
 73
39
 74
46
 0
VERTEX
 8
PELATOR_3
 10
0
 20
0
 30
0
 70
128
 71
32
 72
33
 73
40
 74
39
 0
VERTEX
 8
PELATOR_3
 10
0
 20
0
 30
0
 70
128
 71
33
 72
34
 73
41
 74
40
 0
VERTEX
 8
PELATOR_3
 10
0
 20
0
 30
0
 70
128
 71
34
 72
35
 73
42
 74
41
 0
VERTEX
 8
PELATOR_3
 10
0
 20
0
 30
0
 70
128
 71
35
 72
36
 73
43
 74
42
 0
VERTEX
 8
PELATOR_3
 10
0
 20
0
 30
0
 70
128
 71
36
 72
37
 73
44
 74
43
 0
VERTEX
 8
PELATOR_3
 10
0
 20
0
 30
0
 70
128
 71
37
 72
38
 73
45
 74
44
 0
VERTEX
 8
PELATOR_3
 10
0
 20
0
 30
0
 70
128
 71
38
 72
31
 73
46
 74
45
 0
VERTEX
 8
PELATOR_3
 10
0
 20
0
 30
0
 70
128
 71
46
 72
39
 73
98
 74
96
 0
VERTEX
 8
PELATOR_3
 10
0
 20
0
 30
0
 70
128
 71
47
 72
46
 73
96
 74
96
 0
VERTEX
 8
PELATOR_3
 10
0
 20
0
 30
0
 70
128
 71
98
 72
39
 73
40
 74
99
 0
VERTEX
 8
PELATOR_3
 10
0
 20
0
 30
0
 70
128
 71
99
 72
40
 73
41
 74
105
 0
VERTEX
 8
PELATOR_3
 10
0
 20
0
 30
0
 70
128
 71
41
 72
48
 73
100
 74
105
 0
VERTEX
 8
PELATOR_3
 10
0
 20
0
 30
0
 70
128
 71
41
 72
42
 73
49
 74
48
 0
VERTEX
 8
PELATOR_3
 10
0
 20
0
 30
0
 70
128
 71
42
 72
43
 73
50
 74
49
 0
VERTEX
 8
PELATOR_3
 10
0
 20
0
 30
0
 70
128
 71
43
 72
44
 73
51
 74
50
 0
VERTEX
 8
PELATOR_3
 10
0
 20
0
 30
0
 70
128
 71
44
 72
45
 73
52
 74
51
 0
VERTEX
 8
PELATOR_3
 10
0
 20
0
 30
0
 70
128
 71
45
 72
46
 73
47
 74
52
 0
VERTEX
 8
PELATOR_3
 10
0
 20
0
 30
0
 70
128
 71
47
 72
96
 73
54
 74
53
 0
VERTEX
 8
PELATOR_3
 10
0
 20
0
 30
0
 70
128
 71
101
 72
54
 73
96
 74
96
 0
VERTEX
 8
PELATOR_3
 10
0
 20
0
 30
0
 70
128
 71
55
 72
54
 73
101
 74
102
 0
VERTEX
 8
PELATOR_3
 10
0
 20
0
 30
0
 70
128
 71
100
 72
48
 73
56
 74
108
 0
VERTEX
 8
PELATOR_3
 10
0
 20
0
 30
0
 70
128
 71
56
 72
55
 73
102
 74
108
 0
VERTEX
 8
PELATOR_3
 10
0
 20
0
 30
0
 70
128
 71
48
 72
49
 73
57
 74
56
 0
VERTEX
 8
PELATOR_3
 10
0
 20
0
 30
0
 70
128
 71
49
 72
50
 73
58
 74
57
 0
VERTEX
 8
PELATOR_3
 10
0
 20
0
 30
0
 70
128
 71
50
 72
51
 73
59
 74
58
 0
VERTEX
 8
PELATOR_3
 10
0
 20
0
 30
0
 70
128
 71
51
 72
52
 73
60
 74
59
 0
VERTEX
 8
PELATOR_3
 10
0
 20
0
 30
0
 70
128
 71
52
 72
47
 73
53
 74
60
 0
VERTEX
 8
PELATOR_3
 10
0
 20
0
 30
0
 70
128
 71
53
 72
54
 73
62
 74
61
 0
VERTEX
 8
PELATOR_3
 10
0
 20
0
 30
0
 70
128
 71
54
 72
55
 73
63
 74
62
 0
VERTEX
 8
PELATOR_3
 10
0
 20
0
 30
0
 70
128
 71
55
 72
56
 73
64
 74
63
 0
VERTEX
 8
PELATOR_3
 10
0
 20
0
 30
0
 70
128
 71
56
 72
57
 73
65
 74
64
 0
VERTEX
 8
PELATOR_3
 10
0
 20
0
 30
0
 70
128
 71
57
 72
58
 73
66
 74
65
 0
VERTEX
 8
PELATOR_3
 10
0
 20
0
 30
0
 70
128
 71
58
 72
59
 73
67
 74
66
 0
VERTEX
 8
PELATOR_3
 10
0
 20
0
 30
0
 70
128
 71
59
 72
60
 73
68
 74
67
 0
VERTEX
 8
PELATOR_3
 10
0
 20
0
 30
0
 70
128
 71
60
 72
53
 73
61
 74
68
 0
VERTEX
 8
PELATOR_3
 10
0
 20
0
 30
0
 70
128
 71
61
 72
62
 73
70
 74
69
 0
VERTEX
 8
PELATOR_3
 10
0
 20
0
 30
0
 70
128
 71
62
 72
63
 73
71
 74
70
 0
VERTEX
 8
PELATOR_3
 10
0
 20
0
 30
0
 70
128
 71
63
 72
64
 73
72
 74
71
 0
VERTEX
 8
PELATOR_3
 10
0
 20
0
 30
0
 70
128
 71
64
 72
65
 73
73
 74
72
 0
VERTEX
 8
PELATOR_3
 10
0
 20
0
 30
0
 70
128
 71
65
 72
66
 73
74
 74
73
 0
VERTEX
 8
PELATOR_3
 10
0
 20
0
 30
0
 70
128
 71
66
 72
67
 73
75
 74
74
 0
VERTEX
 8
PELATOR_3
 10
0
 20
0
 30
0
 70
128
 71
67
 72
68
 73
76
 74
75
 0
VERTEX
 8
PELATOR_3
 10
0
 20
0
 30
0
 70
128
 71
68
 72
61
 73
69
 74
76
 0
VERTEX
 8
PELATOR_3
 10
0
 20
0
 30
0
 70
128
 71
69
 72
70
 73
78
 74
77
 0
VERTEX
 8
PELATOR_3
 10
0
 20
0
 30
0
 70
128
 71
70
 72
71
 73
79
 74
78
 0
VERTEX
 8
PELATOR_3
 10
0
 20
0
 30
0
 70
128
 71
71
 72
72
 73
80
 74
79
 0
VERTEX
 8
PELATOR_3
 10
0
 20
0
 30
0
 70
128
 71
72
 72
73
 73
81
 74
80
 0
VERTEX
 8
PELATOR_3
 10
0
 20
0
 30
0
 70
128
 71
73
 72
74
 73
82
 74
81
 0
VERTEX
 8
PELATOR_3
 10
0
 20
0
 30
0
 70
128
 71
74
 72
75
 73
83
 74
82
 0
VERTEX
 8
PELATOR_3
 10
0
 20
0
 30
0
 70
128
 71
75
 72
76
 73
84
 74
83
 0
VERTEX
 8
PELATOR_3
 10
0
 20
0
 30
0
 70
128
 71
76
 72
69
 73
77
 74
84
 0
VERTEX
 8
PELATOR_3
 10
0
 20
0
 30
0
 70
128
 71
77
 72
78
 73
86
 74
85
 0
VERTEX
 8
PELATOR_3
 10
0
 20
0
 30
0
 70
128
 71
78
 72
79
 73
87
 74
86
 0
VERTEX
 8
PELATOR_3
 10
0
 20
0
 30
0
 70
128
 71
79
 72
80
 73
88
 74
87
 0
VERTEX
 8
PELATOR_3
 10
0
 20
0
 30
0
 70
128
 71
80
 72
81
 73
89
 74
88
 0
VERTEX
 8
PELATOR_3
 10
0
 20
0
 30
0
 70
128
 71
81
 72
82
 73
90
 74
89
 0
VERTEX
 8
PELATOR_3
 10
0
 20
0
 30
0
 70
128
 71
82
 72
83
 73
91
 74
90
 0
VERTEX
 8
PELATOR_3
 10
0
 20
0
 30
0
 70
128
 71
83
 72
84
 73
92
 74
91
 0
VERTEX
 8
PELATOR_3
 10
0
 20
0
 30
0
 70
128
 71
84
 72
77
 73
85
 74
92
 0
VERTEX
 8
PELATOR_3
 10
0
 20
0
 30
0
 70
128
 71
103
 72
93
 73
86
 74
86
 0
VERTEX
 8
PELATOR_3
 10
0
 20
0
 30
0
 70
128
 71
6
 72
85
 73
86
 74
93
 0
VERTEX
 8
PELATOR_3
 10
0
 20
0
 30
0
 70
128
 71
103
 72
86
 73
87
 74
104
 0
VERTEX
 8
PELATOR_3
 10
0
 20
0
 30
0
 70
128
 71
107
 72
104
 73
87
 74
88
 0
VERTEX
 8
PELATOR_3
 10
0
 20
0
 30
0
 70
128
 71
1
 72
97
 73
107
 74
88
 0
VERTEX
 8
PELATOR_3
 10
0
 20
0
 30
0
 70
128
 71
88
 72
89
 73
2
 74
1
 0
VERTEX
 8
PELATOR_3
 10
0
 20
0
 30
0
 70
128
 71
89
 72
90
 73
3
 74
2
 0
VERTEX
 8
PELATOR_3
 10
0
 20
0
 30
0
 70
128
 71
90
 72
91
 73
4
 74
3
 0
VERTEX
 8
PELATOR_3
 10
0
 20
0
 30
0
 70
128
 71
91
 72
92
 73
5
 74
4
 0
VERTEX
 8
PELATOR_3
 10
0
 20
0
 30
0
 70
128
 71
92
 72
85
 73
6
 74
5
 0
SEQEND
 0
POLYLINE
 8
AUSLAUF_1
 66
1
 10
0.0
 20
0.0
 30
0.0
 70
64
 71
8
 72
4
 0
VERTEX
 8
AUSLAUF_1
 10
-8.4151
 20
-18.6054
 30
17.9736
 70
192
 0
VERTEX
 8
AUSLAUF_1
 10
-8.4151
 20
-19.7065
 30
18.1283
 70
192
 0
VERTEX
 8
AUSLAUF_1
 10
-8.4151
 20
-18.8302
 30
17.7152
 70
192
 0
VERTEX
 8
AUSLAUF_1
 10
-8.4151
 20
-19.1959
 30
17.7666
 70
192
 0
VERTEX
 8
AUSLAUF_1
 10
-8.4151
 20
-18.6384
 30
17.7388
 70
192
 0
VERTEX
 8
AUSLAUF_1
 10
-8.4151
 20
-19.5616
 30
17.818
 70
192
 0
VERTEX
 8
AUSLAUF_1
 10
-8.4151
 20
-19.7395
 30
17.8935
 70
192
 0
VERTEX
 8
AUSLAUF_1
 10
-8.5641
 20
-19.1559
 30
18.051
 70
192
 0
VERTEX
 8
AUSLAUF_1
 10
0
 20
0
 30
0
 70
128
 71
2
 72
7
 73
1
 74
1
 0
VERTEX
 8
AUSLAUF_1
 10
0
 20
0
 30
0
 70
128
 71
5
 72
1
 73
4
 74
3
 0
VERTEX
 8
AUSLAUF_1
 10
0
 20
0
 30
0
 70
128
 71
7
 72
6
 73
4
 74
1
 0
VERTEX
 8
AUSLAUF_1
 10
0
 20
0
 30
0
 70
128
 71
2
 72
1
 73
8
 74
8
 0
SEQEND
 0
POLYLINE
 8
AUSLAUF_2
 66
1
 10
0.0
 20
0.0
 30
0.0
 70
64
 71
8
 72
4
 0
VERTEX
 8
AUSLAUF_2
 10
-6.1982
 20
-19.6518
 30
18.1195
 70
192
 0
VERTEX
 8
AUSLAUF_2
 10
-6.1982
 20
-18.6605
 30
17.9801
 70
192
 0
VERTEX
 8
AUSLAUF_2
 10
-6.1982
 20
-19.1959
 30
17.7666
 70
192
 0
VERTEX
 8
AUSLAUF_2
 10
-6.1982
 20
-18.885
 30
17.7229
 70
192
 0
VERTEX
 8
AUSLAUF_2
 10
-6.1982
 20
-18.6933
 30
17.7465
 70
192
 0
VERTEX
 8
AUSLAUF_2
 10
-6.0641
 20
-19.1561
 30
18.0498
 70
192
 0
VERTEX
 8
AUSLAUF_2
 10
-6.1982
 20
-19.5068
 30
17.8103
 70
192
 0
VERTEX
 8
AUSLAUF_2
 10
-6.1982
 20
-19.6846
 30
17.8858
 70
192
 0
VERTEX
 8
AUSLAUF_2
 10
0
 20
0
 30
0
 70
128
 71
2
 72
5
 73
1
 74
1
 0
VERTEX
 8
AUSLAUF_2
 10
0
 20
0
 30
0
 70
128
 71
8
 72
1
 73
3
 74
7
 0
VERTEX
 8
AUSLAUF_2
 10
0
 20
0
 30
0
 70
128
 71
5
 72
4
 73
3
 74
1
 0
VERTEX
 8
AUSLAUF_2
 10
0
 20
0
 30
0
 70
128
 71
2
 72
1
 73
6
 74
6
 0
SEQEND
 0
POLYLINE
 8
AUSLAUF_3
 66
1
 10
0.0
 20
0.0
 30
0.0
 70
64
 71
24
 72
26
 0
VERTEX
 8
AUSLAUF_3
 10
-9.2813
 20
5.4394
 30
18.3643
 70
192
 0
VERTEX
 8
AUSLAUF_3
 10
-9.2813
 20
-20.7374
 30
18.3643
 70
192
 0
VERTEX
 8
AUSLAUF_3
 10
-5.3613
 20
-20.7374
 30
18.3643
 70
192
 0
VERTEX
 8
AUSLAUF_3
 10
-5.3613
 20
5.4394
 30
18.3643
 70
192
 0
VERTEX
 8
AUSLAUF_3
 10
-9.3213
 20
5.4394
 30
18.4043
 70
192
 0
VERTEX
 8
AUSLAUF_3
 10
-9.3213
 20
-20.7374
 30
18.4043
 70
192
 0
VERTEX
 8
AUSLAUF_3
 10
-9.2813
 20
-20.7774
 30
18.4043
 70
192
 0
VERTEX
 8
AUSLAUF_3
 10
-5.3613
 20
-20.7774
 30
18.4043
 70
192
 0
VERTEX
 8
AUSLAUF_3
 10
-5.3213
 20
-20.7374
 30
18.4043
 70
192
 0
VERTEX
 8
AUSLAUF_3
 10
-5.3213
 20
5.4394
 30
18.4043
 70
192
 0
VERTEX
 8
AUSLAUF_3
 10
-5.3613
 20
5.4794
 30
18.4043
 70
192
 0
VERTEX
 8
AUSLAUF_3
 10
-9.2813
 20
5.4794
 30
18.4043
 70
192
 0
VERTEX
 8
AUSLAUF_3
 10
-9.3213
 20
5.4394
 30
19.9243
 70
192
 0
VERTEX
 8
AUSLAUF_3
 10
-9.3213
 20
-20.7374
 30
19.9243
 70
192
 0
VERTEX
 8
AUSLAUF_3
 10
-9.2813
 20
-20.7774
 30
19.9243
 70
192
 0
VERTEX
 8
AUSLAUF_3
 10
-5.3613
 20
-20.7774
 30
19.9243
 70
192
 0
VERTEX
 8
AUSLAUF_3
 10
-5.3213
 20
-20.7374
 30
19.9243
 70
192
 0
VERTEX
 8
AUSLAUF_3
 10
-5.3213
 20
5.4394
 30
19.9243
 70
192
 0
VERTEX
 8
AUSLAUF_3
 10
-5.3613
 20
5.4794
 30
19.9243
 70
192
 0
VERTEX
 8
AUSLAUF_3
 10
-9.2813
 20
5.4794
 30
19.9243
 70
192
 0
VERTEX
 8
AUSLAUF_3
 10
-9.2813
 20
5.4394
 30
19.9643
 70
192
 0
VERTEX
 8
AUSLAUF_3
 10
-9.2813
 20
-20.7374
 30
19.9643
 70
192
 0
VERTEX
 8
AUSLAUF_3
 10
-5.3613
 20
-20.7374
 30
19.9643
 70
192
 0
VERTEX
 8
AUSLAUF_3
 10
-5.3613
 20
5.4394
 30
19.9643
 70
192
 0
VERTEX
 8
AUSLAUF_3
 10
0
 20
0
 30
0
 70
128
 71
1
 72
5
 73
6
 74
2
 0
VERTEX
 8
AUSLAUF_3
 10
0
 20
0
 30
0
 70
128
 71
5
 72
13
 73
14
 74
6
 0
VERTEX
 8
AUSLAUF_3
 10
0
 20
0
 30
0
 70
128
 71
13
 72
21
 73
22
 74
14
 0
VERTEX
 8
AUSLAUF_3
 10
0
 20
0
 30
0
 70
128
 71
2
 72
6
 73
7
 74
7
 0
VERTEX
 8
AUSLAUF_3
 10
0
 20
0
 30
0
 70
128
 71
6
 72
14
 73
15
 74
7
 0
VERTEX
 8
AUSLAUF_3
 10
0
 20
0
 30
0
 70
128
 71
14
 72
22
 73
15
 74
15
 0
VERTEX
 8
AUSLAUF_3
 10
0
 20
0
 30
0
 70
128
 71
2
 72
7
 73
8
 74
3
 0
VERTEX
 8
AUSLAUF_3
 10
0
 20
0
 30
0
 70
128
 71
7
 72
15
 73
16
 74
8
 0
VERTEX
 8
AUSLAUF_3
 10
0
 20
0
 30
0
 70
128
 71
15
 72
22
 73
23
 74
16
 0
VERTEX
 8
AUSLAUF_3
 10
0
 20
0
 30
0
 70
128
 71
3
 72
8
 73
9
 74
9
 0
VERTEX
 8
AUSLAUF_3
 10
0
 20
0
 30
0
 70
128
 71
8
 72
16
 73
17
 74
9
 0
VERTEX
 8
AUSLAUF_3
 10
0
 20
0
 30
0
 70
128
 71
16
 72
23
 73
17
 74
17
 0
VERTEX
 8
AUSLAUF_3
 10
0
 20
0
 30
0
 70
128
 71
3
 72
9
 73
10
 74
4
 0
VERTEX
 8
AUSLAUF_3
 10
0
 20
0
 30
0
 70
128
 71
9
 72
17
 73
18
 74
10
 0
VERTEX
 8
AUSLAUF_3
 10
0
 20
0
 30
0
 70
128
 71
17
 72
23
 73
24
 74
18
 0
VERTEX
 8
AUSLAUF_3
 10
0
 20
0
 30
0
 70
128
 71
4
 72
10
 73
11
 74
11
 0
VERTEX
 8
AUSLAUF_3
 10
0
 20
0
 30
0
 70
128
 71
10
 72
18
 73
19
 74
11
 0
VERTEX
 8
AUSLAUF_3
 10
0
 20
0
 30
0
 70
128
 71
18
 72
24
 73
19
 74
19
 0
VERTEX
 8
AUSLAUF_3
 10
0
 20
0
 30
0
 70
128
 71
4
 72
11
 73
12
 74
1
 0
VERTEX
 8
AUSLAUF_3
 10
0
 20
0
 30
0
 70
128
 71
11
 72
19
 73
20
 74
12
 0
VERTEX
 8
AUSLAUF_3
 10
0
 20
0
 30
0
 70
128
 71
19
 72
24
 73
21
 74
20
 0
VERTEX
 8
AUSLAUF_3
 10
0
 20
0
 30
0
 70
128
 71
1
 72
12
 73
5
 74
5
 0
VERTEX
 8
AUSLAUF_3
 10
0
 20
0
 30
0
 70
128
 71
12
 72
20
 73
13
 74
5
 0
VERTEX
 8
AUSLAUF_3
 10
0
 20
0
 30
0
 70
128
 71
20
 72
21
 73
13
 74
13
 0
VERTEX
 8
AUSLAUF_3
 10
0
 20
0
 30
0
 70
128
 71
21
 72
24
 73
23
 74
22
 0
VERTEX
 8
AUSLAUF_3
 10
0
 20
0
 30
0
 70
128
 71
1
 72
2
 73
3
 74
4
 0
SEQEND
 0
POLYLINE
 8
HEBEL
 66
1
 10
0.0
 20
0.0
 30
0.0
 70
64
 71
24
 72
26
 0
VERTEX
 8
HEBEL
 10
5.0392
 20
2.7916
 30
21.0821
 70
192
 0
VERTEX
 8
HEBEL
 10
5.0392
 20
2.7916
 30
10.1621
 70
192
 0
VERTEX
 8
HEBEL
 10
8.9592
 20
2.7916
 30
10.1621
 70
192
 0
VERTEX
 8
HEBEL
 10
8.9592
 20
2.7916
 30
21.0821
 70
192
 0
VERTEX
 8
HEBEL
 10
4.9992
 20
2.7516
 30
21.0821
 70
192
 0
VERTEX
 8
HEBEL
 10
4.9992
 20
2.7516
 30
10.1621
 70
192
 0
VERTEX
 8
HEBEL
 10
5.0392
 20
2.7516
 30
10.1221
 70
192
 0
VERTEX
 8
HEBEL
 10
8.9592
 20
2.7516
 30
10.1221
 70
192
 0
VERTEX
 8
HEBEL
 10
8.9992
 20
2.7516
 30
10.1621
 70
192
 0
VERTEX
 8
HEBEL
 10
8.9992
 20
2.7516
 30
21.0821
 70
192
 0
VERTEX
 8
HEBEL
 10
8.9592
 20
2.7516
 30
21.1221
 70
192
 0
VERTEX
 8
HEBEL
 10
5.0392
 20
2.7516
 30
21.1221
 70
192
 0
VERTEX
 8
HEBEL
 10
4.9992
 20
2.5316
 30
21.0821
 70
192
 0
VERTEX
 8
HEBEL
 10
4.9992
 20
2.5316
 30
10.1621
 70
192
 0
VERTEX
 8
HEBEL
 10
5.0392
 20
2.5316
 30
10.1221
 70
192
 0
VERTEX
 8
HEBEL
 10
8.9592
 20
2.5316
 30
10.1221
 70
192
 0
VERTEX
 8
HEBEL
 10
8.9992
 20
2.5316
 30
10.1621
 70
192
 0
VERTEX
 8
HEBEL
 10
8.9992
 20
2.5316
 30
21.0821
 70
192
 0
VERTEX
 8
HEBEL
 10
8.9592
 20
2.5316
 30
21.1221
 70
192
 0
VERTEX
 8
HEBEL
 10
5.0392
 20
2.5316
 30
21.1221
 70
192
 0
VERTEX
 8
HEBEL
 10
5.0392
 20
2.4916
 30
21.0821
 70
192
 0
VERTEX
 8
HEBEL
 10
5.0392
 20
2.4916
 30
10.1621
 70
192
 0
VERTEX
 8
HEBEL
 10
8.9592
 20
2.4916
 30
10.1621
 70
192
 0
VERTEX
 8
HEBEL
 10
8.9592
 20
2.4916
 30
21.0821
 70
192
 0
VERTEX
 8
HEBEL
 10
0
 20
0
 30
0
 70
128
 71
1
 72
5
 73
6
 74
2
 0
VERTEX
 8
HEBEL
 10
0
 20
0
 30
0
 70
128
 71
5
 72
13
 73
14
 74
6
 0
VERTEX
 8
HEBEL
 10
0
 20
0
 30
0
 70
128
 71
13
 72
21
 73
22
 74
14
 0
VERTEX
 8
HEBEL
 10
0
 20
0
 30
0
 70
128
 71
2
 72
6
 73
7
 74
7
 0
VERTEX
 8
HEBEL
 10
0
 20
0
 30
0
 70
128
 71
6
 72
14
 73
15
 74
7
 0
VERTEX
 8
HEBEL
 10
0
 20
0
 30
0
 70
128
 71
14
 72
22
 73
15
 74
15
 0
VERTEX
 8
HEBEL
 10
0
 20
0
 30
0
 70
128
 71
2
 72
7
 73
8
 74
3
 0
VERTEX
 8
HEBEL
 10
0
 20
0
 30
0
 70
128
 71
7
 72
15
 73
16
 74
8
 0
VERTEX
 8
HEBEL
 10
0
 20
0
 30
0
 70
128
 71
15
 72
22
 73
23
 74
16
 0
VERTEX
 8
HEBEL
 10
0
 20
0
 30
0
 70
128
 71
3
 72
8
 73
9
 74
9
 0
VERTEX
 8
HEBEL
 10
0
 20
0
 30
0
 70
128
 71
8
 72
16
 73
17
 74
9
 0
VERTEX
 8
HEBEL
 10
0
 20
0
 30
0
 70
128
 71
16
 72
23
 73
17
 74
17
 0
VERTEX
 8
HEBEL
 10
0
 20
0
 30
0
 70
128
 71
3
 72
9
 73
10
 74
4
 0
VERTEX
 8
HEBEL
 10
0
 20
0
 30
0
 70
128
 71
9
 72
17
 73
18
 74
10
 0
VERTEX
 8
HEBEL
 10
0
 20
0
 30
0
 70
128
 71
17
 72
23
 73
24
 74
18
 0
VERTEX
 8
HEBEL
 10
0
 20
0
 30
0
 70
128
 71
4
 72
10
 73
11
 74
11
 0
VERTEX
 8
HEBEL
 10
0
 20
0
 30
0
 70
128
 71
10
 72
18
 73
19
 74
11
 0
VERTEX
 8
HEBEL
 10
0
 20
0
 30
0
 70
128
 71
18
 72
24
 73
19
 74
19
 0
VERTEX
 8
HEBEL
 10
0
 20
0
 30
0
 70
128
 71
4
 72
11
 73
12
 74
1
 0
VERTEX
 8
HEBEL
 10
0
 20
0
 30
0
 70
128
 71
11
 72
19
 73
20
 74
12
 0
VERTEX
 8
HEBEL
 10
0
 20
0
 30
0
 70
128
 71
19
 72
24
 73
21
 74
20
 0
VERTEX
 8
HEBEL
 10
0
 20
0
 30
0
 70
128
 71
1
 72
12
 73
5
 74
5
 0
VERTEX
 8
HEBEL
 10
0
 20
0
 30
0
 70
128
 71
12
 72
20
 73
13
 74
5
 0
VERTEX
 8
HEBEL
 10
0
 20
0
 30
0
 70
128
 71
20
 72
21
 73
13
 74
13
 0
VERTEX
 8
HEBEL
 10
0
 20
0
 30
0
 70
128
 71
21
 72
24
 73
23
 74
22
 0
VERTEX
 8
HEBEL
 10
0
 20
0
 30
0
 70
128
 71
1
 72
2
 73
3
 74
4
 0
SEQEND
 0
POLYLINE
 8
TEMP
 66
1
 10
0.0
 20
0.0
 30
0.0
 70
64
 71
26
 72
18
 0
VERTEX
 8
TEMP
 10
6.9992
 20
3.5489
 30
21.1473
 70
192
 0
VERTEX
 8
TEMP
 10
6.9992
 20
3.5489
 30
20.1473
 70
192
 0
VERTEX
 8
TEMP
 10
6.9992
 20
3.7989
 30
21.1473
 70
192
 0
VERTEX
 8
TEMP
 10
6.9992
 20
3.7989
 30
21.1473
 70
192
 0
VERTEX
 8
TEMP
 10
6.9992
 20
3.7989
 30
20.1473
 70
192
 0
VERTEX
 8
TEMP
 10
6.9992
 20
3.7989
 30
20.1473
 70
192
 0
VERTEX
 8
TEMP
 10
7.2157
 20
3.6739
 30
21.1473
 70
192
 0
VERTEX
 8
TEMP
 10
7.2157
 20
3.6739
 30
21.1473
 70
192
 0
VERTEX
 8
TEMP
 10
7.2157
 20
3.6739
 30
20.1473
 70
192
 0
VERTEX
 8
TEMP
 10
7.2157
 20
3.6739
 30
20.1473
 70
192
 0
VERTEX
 8
TEMP
 10
7.2157
 20
3.4239
 30
21.1473
 70
192
 0
VERTEX
 8
TEMP
 10
7.2157
 20
3.4239
 30
21.1473
 70
192
 0
VERTEX
 8
TEMP
 10
7.2157
 20
3.4239
 30
20.1473
 70
192
 0
VERTEX
 8
TEMP
 10
7.2157
 20
3.4239
 30
20.1473
 70
192
 0
VERTEX
 8
TEMP
 10
6.9992
 20
3.2989
 30
21.1473
 70
192
 0
VERTEX
 8
TEMP
 10
6.9992
 20
3.2989
 30
21.1473
 70
192
 0
VERTEX
 8
TEMP
 10
6.9992
 20
3.2989
 30
20.1473
 70
192
 0
VERTEX
 8
TEMP
 10
6.9992
 20
3.2989
 30
20.1473
 70
192
 0
VERTEX
 8
TEMP
 10
6.7827
 20
3.4239
 30
21.1473
 70
192
 0
VERTEX
 8
TEMP
 10
6.7827
 20
3.4239
 30
21.1473
 70
192
 0
VERTEX
 8
TEMP
 10
6.7827
 20
3.4239
 30
20.1473
 70
192
 0
VERTEX
 8
TEMP
 10
6.7827
 20
3.4239
 30
20.1473
 70
192
 0
VERTEX
 8
TEMP
 10
6.7827
 20
3.6739
 30
21.1473
 70
192
 0
VERTEX
 8
TEMP
 10
6.7827
 20
3.6739
 30
21.1473
 70
192
 0
VERTEX
 8
TEMP
 10
6.7827
 20
3.6739
 30
20.1473
 70
192
 0
VERTEX
 8
TEMP
 10
6.7827
 20
3.6739
 30
20.1473
 70
192
 0
VERTEX
 8
TEMP
 10
0
 20
0
 30
0
 70
128
 71
1
 72
3
 73
7
 74
7
 0
VERTEX
 8
TEMP
 10
0
 20
0
 30
0
 70
128
 71
4
 72
5
 73
9
 74
8
 0
VERTEX
 8
TEMP
 10
0
 20
0
 30
0
 70
128
 71
6
 72
2
 73
10
 74
10
 0
VERTEX
 8
TEMP
 10
0
 20
0
 30
0
 70
128
 71
1
 72
7
 73
11
 74
11
 0
VERTEX
 8
TEMP
 10
0
 20
0
 30
0
 70
128
 71
8
 72
9
 73
13
 74
12
 0
VERTEX
 8
TEMP
 10
0
 20
0
 30
0
 70
128
 71
10
 72
2
 73
14
 74
14
 0
VERTEX
 8
TEMP
 10
0
 20
0
 30
0
 70
128
 71
1
 72
11
 73
15
 74
15
 0
VERTEX
 8
TEMP
 10
0
 20
0
 30
0
 70
128
 71
12
 72
13
 73
17
 74
16
 0
VERTEX
 8
TEMP
 10
0
 20
0
 30
0
 70
128
 71
14
 72
2
 73
18
 74
18
 0
VERTEX
 8
TEMP
 10
0
 20
0
 30
0
 70
128
 71
1
 72
15
 73
19
 74
19
 0
VERTEX
 8
TEMP
 10
0
 20
0
 30
0
 70
128
 71
16
 72
17
 73
21
 74
20
 0
VERTEX
 8
TEMP
 10
0
 20
0
 30
0
 70
128
 71
18
 72
2
 73
22
 74
22
 0
VERTEX
 8
TEMP
 10
0
 20
0
 30
0
 70
128
 71
1
 72
19
 73
23
 74
23
 0
VERTEX
 8
TEMP
 10
0
 20
0
 30
0
 70
128
 71
20
 72
21
 73
25
 74
24
 0
VERTEX
 8
TEMP
 10
0
 20
0
 30
0
 70
128
 71
22
 72
2
 73
26
 74
26
 0
VERTEX
 8
TEMP
 10
0
 20
0
 30
0
 70
128
 71
1
 72
23
 73
3
 74
3
 0
VERTEX
 8
TEMP
 10
0
 20
0
 30
0
 70
128
 71
24
 72
25
 73
5
 74
4
 0
VERTEX
 8
TEMP
 10
0
 20
0
 30
0
 70
128
 71
26
 72
2
 73
6
 74
6
 0
SEQEND
 0
POLYLINE
 8
GRIFF_3
 66
1
 10
0.0
 20
0.0
 30
0.0
 70
64
 71
26
 72
25
 0
VERTEX
 8
GRIFF_3
 10
5.0392
 20
5.0618
 30
17.1554
 70
192
 0
VERTEX
 8
GRIFF_3
 10
8.9592
 20
5.0618
 30
17.1554
 70
192
 0
VERTEX
 8
GRIFF_3
 10
4.9992
 20
5.0218
 30
17.1554
 70
192
 0
VERTEX
 8
GRIFF_3
 10
5.0392
 20
5.0218
 30
17.1154
 70
192
 0
VERTEX
 8
GRIFF_3
 10
8.9592
 20
5.0218
 30
17.1154
 70
192
 0
VERTEX
 8
GRIFF_3
 10
8.9992
 20
5.0218
 30
17.1554
 70
192
 0
VERTEX
 8
GRIFF_3
 10
4.9992
 20
2.8018
 30
21.0754
 70
192
 0
VERTEX
 8
GRIFF_3
 10
4.9992
 20
2.8018
 30
17.1554
 70
192
 0
VERTEX
 8
GRIFF_3
 10
5.0392
 20
2.8018
 30
17.1154
 70
192
 0
VERTEX
 8
GRIFF_3
 10
8.9592
 20
2.8018
 30
17.1154
 70
192
 0
VERTEX
 8
GRIFF_3
 10
8.9992
 20
2.8018
 30
17.1554
 70
192
 0
VERTEX
 8
GRIFF_3
 10
8.9992
 20
2.8018
 30
21.0754
 70
192
 0
VERTEX
 8
GRIFF_3
 10
8.9592
 20
2.8018
 30
21.1154
 70
192
 0
VERTEX
 8
GRIFF_3
 10
5.0392
 20
2.8018
 30
21.1154
 70
192
 0
VERTEX
 8
GRIFF_3
 10
5.0392
 20
2.7618
 30
21.0754
 70
192
 0
VERTEX
 8
GRIFF_3
 10
5.0392
 20
2.7618
 30
17.1554
 70
192
 0
VERTEX
 8
GRIFF_3
 10
8.9592
 20
2.7618
 30
17.1554
 70
192
 0
VERTEX
 8
GRIFF_3
 10
8.9592
 20
2.7618
 30
21.0754
 70
192
 0
VERTEX
 8
GRIFF_3
 10
4.9992
 20
5.0218
 30
19.0119
 70
192
 0
VERTEX
 8
GRIFF_3
 10
5.0392
 20
5.0618
 30
18.902
 70
192
 0
VERTEX
 8
GRIFF_3
 10
4.9992
 20
4.2708
 30
21.0754
 70
192
 0
VERTEX
 8
GRIFF_3
 10
8.9992
 20
5.0218
 30
19.0119
 70
192
 0
VERTEX
 8
GRIFF_3
 10
8.9592
 20
5.0618
 30
18.902
 70
192
 0
VERTEX
 8
GRIFF_3
 10
8.9992
 20
4.2708
 30
21.0754
 70
192
 0
VERTEX
 8
GRIFF_3
 10
8.9592
 20
4.2562
 30
21.1154
 70
192
 0
VERTEX
 8
GRIFF_3
 10
5.0392
 20
4.2562
 30
21.1154
 70
192
 0
VERTEX
 8
GRIFF_3
 10
0
 20
0
 30
0
 70
128
 71
19
 72
3
 73
1
 74
20
 0
VERTEX
 8
GRIFF_3
 10
0
 20
0
 30
0
 70
128
 71
21
 72
7
 73
8
 74
8
 0
VERTEX
 8
GRIFF_3
 10
0
 20
0
 30
0
 70
128
 71
8
 72
3
 73
19
 74
21
 0
VERTEX
 8
GRIFF_3
 10
0
 20
0
 30
0
 70
128
 71
7
 72
15
 73
16
 74
8
 0
VERTEX
 8
GRIFF_3
 10
0
 20
0
 30
0
 70
128
 71
1
 72
3
 73
4
 74
4
 0
VERTEX
 8
GRIFF_3
 10
0
 20
0
 30
0
 70
128
 71
3
 72
8
 73
9
 74
4
 0
VERTEX
 8
GRIFF_3
 10
0
 20
0
 30
0
 70
128
 71
8
 72
16
 73
9
 74
9
 0
VERTEX
 8
GRIFF_3
 10
0
 20
0
 30
0
 70
128
 71
1
 72
4
 73
5
 74
2
 0
VERTEX
 8
GRIFF_3
 10
0
 20
0
 30
0
 70
128
 71
4
 72
9
 73
10
 74
5
 0
VERTEX
 8
GRIFF_3
 10
0
 20
0
 30
0
 70
128
 71
9
 72
16
 73
17
 74
10
 0
VERTEX
 8
GRIFF_3
 10
0
 20
0
 30
0
 70
128
 71
2
 72
5
 73
6
 74
6
 0
VERTEX
 8
GRIFF_3
 10
0
 20
0
 30
0
 70
128
 71
5
 72
10
 73
11
 74
6
 0
VERTEX
 8
GRIFF_3
 10
0
 20
0
 30
0
 70
128
 71
10
 72
17
 73
11
 74
11
 0
VERTEX
 8
GRIFF_3
 10
0
 20
0
 30
0
 70
128
 71
23
 72
2
 73
6
 74
22
 0
VERTEX
 8
GRIFF_3
 10
0
 20
0
 30
0
 70
128
 71
22
 72
6
 73
11
 74
24
 0
VERTEX
 8
GRIFF_3
 10
0
 20
0
 30
0
 70
128
 71
11
 72
12
 73
24
 74
24
 0
VERTEX
 8
GRIFF_3
 10
0
 20
0
 30
0
 70
128
 71
11
 72
17
 73
18
 74
12
 0
VERTEX
 8
GRIFF_3
 10
0
 20
0
 30
0
 70
128
 71
24
 72
12
 73
13
 74
25
 0
VERTEX
 8
GRIFF_3
 10
0
 20
0
 30
0
 70
128
 71
12
 72
18
 73
13
 74
13
 0
VERTEX
 8
GRIFF_3
 10
0
 20
0
 30
0
 70
128
 71
25
 72
13
 73
14
 74
26
 0
VERTEX
 8
GRIFF_3
 10
0
 20
0
 30
0
 70
128
 71
13
 72
18
 73
15
 74
14
 0
VERTEX
 8
GRIFF_3
 10
0
 20
0
 30
0
 70
128
 71
26
 72
14
 73
7
 74
21
 0
VERTEX
 8
GRIFF_3
 10
0
 20
0
 30
0
 70
128
 71
14
 72
15
 73
7
 74
7
 0
VERTEX
 8
GRIFF_3
 10
0
 20
0
 30
0
 70
128
 71
15
 72
18
 73
17
 74
16
 0
VERTEX
 8
GRIFF_3
 10
0
 20
0
 30
0
 70
128
 71
20
 72
1
 73
2
 74
23
 0
SEQEND
 0
POLYLINE
 8
GRIFF_4
 66
1
 10
0.0
 20
0.0
 30
0.0
 70
64
 71
8
 72
4
 0
VERTEX
 8
GRIFF_4
 10
4.9992
 20
5.0218
 30
19.0119
 70
192
 0
VERTEX
 8
GRIFF_4
 10
5.0392
 20
5.0618
 30
18.902
 70
192
 0
VERTEX
 8
GRIFF_4
 10
4.9992
 20
4.2708
 30
21.0754
 70
192
 0
VERTEX
 8
GRIFF_4
 10
8.9992
 20
5.0218
 30
19.0119
 70
192
 0
VERTEX
 8
GRIFF_4
 10
8.9592
 20
5.0618
 30
18.902
 70
192
 0
VERTEX
 8
GRIFF_4
 10
8.9992
 20
4.2708
 30
21.0754
 70
192
 0
VERTEX
 8
GRIFF_4
 10
8.9592
 20
4.2562
 30
21.1154
 70
192
 0
VERTEX
 8
GRIFF_4
 10
5.0392
 20
4.2562
 30
21.1154
 70
192
 0
VERTEX
 8
GRIFF_4
 10
0
 20
0
 30
0
 70
128
 71
2
 72
5
 73
1
 74
1
 0
VERTEX
 8
GRIFF_4
 10
0
 20
0
 30
0
 70
128
 71
8
 72
3
 73
4
 74
6
 0
VERTEX
 8
GRIFF_4
 10
0
 20
0
 30
0
 70
128
 71
6
 72
7
 73
8
 74
8
 0
VERTEX
 8
GRIFF_4
 10
0
 20
0
 30
0
 70
128
 71
4
 72
3
 73
1
 74
5
 0
SEQEND
 0
POLYLINE
 8
CYLINDER
 66
1
 10
0.0
 20
0.0
 30
0.0
 70
64
 71
82
 72
60
 0
VERTEX
 8
CYLINDER
 10
6.9981
 20
5.7772
 30
19.1286
 70
192
 0
VERTEX
 8
CYLINDER
 10
6.9981
 20
5.2869
 30
19.1286
 70
192
 0
VERTEX
 8
CYLINDER
 10
6.9981
 20
5.7772
 30
17.1286
 70
192
 0
VERTEX
 8
CYLINDER
 10
6.9981
 20
5.7772
 30
17.1286
 70
192
 0
VERTEX
 8
CYLINDER
 10
6.9981
 20
5.2869
 30
17.1286
 70
192
 0
VERTEX
 8
CYLINDER
 10
6.9981
 20
5.2869
 30
17.1286
 70
192
 0
VERTEX
 8
CYLINDER
 10
7.6162
 20
5.7772
 30
17.2265
 70
192
 0
VERTEX
 8
CYLINDER
 10
7.6162
 20
5.7772
 30
17.2265
 70
192
 0
VERTEX
 8
CYLINDER
 10
7.6162
 20
5.2869
 30
17.2265
 70
192
 0
VERTEX
 8
CYLINDER
 10
7.6162
 20
5.2869
 30
17.2265
 70
192
 0
VERTEX
 8
CYLINDER
 10
8.1737
 20
5.7772
 30
17.5106
 70
192
 0
VERTEX
 8
CYLINDER
 10
8.1737
 20
5.7772
 30
17.5106
 70
192
 0
VERTEX
 8
CYLINDER
 10
8.1737
 20
5.2869
 30
17.5106
 70
192
 0
VERTEX
 8
CYLINDER
 10
8.1737
 20
5.2869
 30
17.5106
 70
192
 0
VERTEX
 8
CYLINDER
 10
8.6162
 20
5.7772
 30
17.953
 70
192
 0
VERTEX
 8
CYLINDER
 10
8.6162
 20
5.7772
 30
17.953
 70
192
 0
VERTEX
 8
CYLINDER
 10
8.6162
 20
5.2869
 30
17.953
 70
192
 0
VERTEX
 8
CYLINDER
 10
8.6162
 20
5.2869
 30
17.953
 70
192
 0
VERTEX
 8
CYLINDER
 10
8.9002
 20
5.7772
 30
18.5106
 70
192
 0
VERTEX
 8
CYLINDER
 10
8.9002
 20
5.7772
 30
18.5106
 70
192
 0
VERTEX
 8
CYLINDER
 10
8.9002
 20
5.2869
 30
18.5106
 70
192
 0
VERTEX
 8
CYLINDER
 10
8.9002
 20
5.2869
 30
18.5106
 70
192
 0
VERTEX
 8
CYLINDER
 10
8.9981
 20
5.7772
 30
19.1286
 70
192
 0
VERTEX
 8
CYLINDER
 10
8.9981
 20
5.7772
 30
19.1286
 70
192
 0
VERTEX
 8
CYLINDER
 10
8.9981
 20
5.2869
 30
19.1286
 70
192
 0
VERTEX
 8
CYLINDER
 10
8.9981
 20
5.2869
 30
19.1286
 70
192
 0
VERTEX
 8
CYLINDER
 10
8.9002
 20
5.7772
 30
19.7466
 70
192
 0
VERTEX
 8
CYLINDER
 10
8.9002
 20
5.7772
 30
19.7466
 70
192
 0
VERTEX
 8
CYLINDER
 10
8.9002
 20
5.2869
 30
19.7466
 70
192
 0
VERTEX
 8
CYLINDER
 10
8.9002
 20
5.2869
 30
19.7466
 70
192
 0
VERTEX
 8
CYLINDER
 10
8.6162
 20
5.7772
 30
20.3042
 70
192
 0
VERTEX
 8
CYLINDER
 10
8.6162
 20
5.7772
 30
20.3042
 70
192
 0
VERTEX
 8
CYLINDER
 10
8.6162
 20
5.2869
 30
20.3042
 70
192
 0
VERTEX
 8
CYLINDER
 10
8.6162
 20
5.2869
 30
20.3042
 70
192
 0
VERTEX
 8
CYLINDER
 10
8.1737
 20
5.7772
 30
20.7466
 70
192
 0
VERTEX
 8
CYLINDER
 10
8.1737
 20
5.7772
 30
20.7466
 70
192
 0
VERTEX
 8
CYLINDER
 10
8.1737
 20
5.2869
 30
20.7466
 70
192
 0
VERTEX
 8
CYLINDER
 10
8.1737
 20
5.2869
 30
20.7466
 70
192
 0
VERTEX
 8
CYLINDER
 10
7.6162
 20
5.7772
 30
21.0307
 70
192
 0
VERTEX
 8
CYLINDER
 10
7.6162
 20
5.7772
 30
21.0307
 70
192
 0
VERTEX
 8
CYLINDER
 10
7.6162
 20
5.2869
 30
21.0307
 70
192
 0
VERTEX
 8
CYLINDER
 10
7.6162
 20
5.2869
 30
21.0307
 70
192
 0
VERTEX
 8
CYLINDER
 10
6.9981
 20
5.7772
 30
21.1286
 70
192
 0
VERTEX
 8
CYLINDER
 10
6.9981
 20
5.7772
 30
21.1286
 70
192
 0
VERTEX
 8
CYLINDER
 10
6.9981
 20
5.2869
 30
21.1286
 70
192
 0
VERTEX
 8
CYLINDER
 10
6.9981
 20
5.2869
 30
21.1286
 70
192
 0
VERTEX
 8
CYLINDER
 10
6.3801
 20
5.7772
 30
21.0307
 70
192
 0
VERTEX
 8
CYLINDER
 10
6.3801
 20
5.7772
 30
21.0307
 70
192
 0
VERTEX
 8
CYLINDER
 10
6.3801
 20
5.2869
 30
21.0307
 70
192
 0
VERTEX
 8
CYLINDER
 10
6.3801
 20
5.2869
 30
21.0307
 70
192
 0
VERTEX
 8
CYLINDER
 10
5.8226
 20
5.7772
 30
20.7466
 70
192
 0
VERTEX
 8
CYLINDER
 10
5.8226
 20
5.7772
 30
20.7466
 70
192
 0
VERTEX
 8
CYLINDER
 10
5.8226
 20
5.2869
 30
20.7466
 70
192
 0
VERTEX
 8
CYLINDER
 10
5.8226
 20
5.2869
 30
20.7466
 70
192
 0
VERTEX
 8
CYLINDER
 10
5.3801
 20
5.7772
 30
20.3042
 70
192
 0
VERTEX
 8
CYLINDER
 10
5.3801
 20
5.7772
 30
20.3042
 70
192
 0
VERTEX
 8
CYLINDER
 10
5.3801
 20
5.2869
 30
20.3042
 70
192
 0
VERTEX
 8
CYLINDER
 10
5.3801
 20
5.2869
 30
20.3042
 70
192
 0
VERTEX
 8
CYLINDER
 10
5.096
 20
5.7772
 30
19.7466
 70
192
 0
VERTEX
 8
CYLINDER
 10
5.096
 20
5.7772
 30
19.7466
 70
192
 0
VERTEX
 8
CYLINDER
 10
5.096
 20
5.2869
 30
19.7466
 70
192
 0
VERTEX
 8
CYLINDER
 10
5.096
 20
5.2869
 30
19.7466
 70
192
 0
VERTEX
 8
CYLINDER
 10
4.9981
 20
5.7772
 30
19.1286
 70
192
 0
VERTEX
 8
CYLINDER
 10
4.9981
 20
5.7772
 30
19.1286
 70
192
 0
VERTEX
 8
CYLINDER
 10
4.9981
 20
5.2869
 30
19.1286
 70
192
 0
VERTEX
 8
CYLINDER
 10
4.9981
 20
5.2869
 30
19.1286
 70
192
 0
VERTEX
 8
CYLINDER
 10
5.096
 20
5.7772
 30
18.5106
 70
192
 0
VERTEX
 8
CYLINDER
 10
5.096
 20
5.7772
 30
18.5106
 70
192
 0
VERTEX
 8
CYLINDER
 10
5.096
 20
5.2869
 30
18.5106
 70
192
 0
VERTEX
 8
CYLINDER
 10
5.096
 20
5.2869
 30
18.5106
 70
192
 0
VERTEX
 8
CYLINDER
 10
5.3801
 20
5.7772
 30
17.953
 70
192
 0
VERTEX
 8
CYLINDER
 10
5.3801
 20
5.7772
 30
17.953
 70
192
 0
VERTEX
 8
CYLINDER
 10
5.3801
 20
5.2869
 30
17.953
 70
192
 0
VERTEX
 8
CYLINDER
 10
5.3801
 20
5.2869
 30
17.953
 70
192
 0
VERTEX
 8
CYLINDER
 10
5.8226
 20
5.7772
 30
17.5106
 70
192
 0
VERTEX
 8
CYLINDER
 10
5.8226
 20
5.7772
 30
17.5106
 70
192
 0
VERTEX
 8
CYLINDER
 10
5.8226
 20
5.2869
 30
17.5106
 70
192
 0
VERTEX
 8
CYLINDER
 10
5.8226
 20
5.2869
 30
17.5106
 70
192
 0
VERTEX
 8
CYLINDER
 10
6.3801
 20
5.7772
 30
17.2265
 70
192
 0
VERTEX
 8
CYLINDER
 10
6.3801
 20
5.7772
 30
17.2265
 70
192
 0
VERTEX
 8
CYLINDER
 10
6.3801
 20
5.2869
 30
17.2265
 70
192
 0
VERTEX
 8
CYLINDER
 10
6.3801
 20
5.2869
 30
17.2265
 70
192
 0
VERTEX
 8
CYLINDER
 10
0
 20
0
 30
0
 70
128
 71
1
 72
3
 73
7
 74
7
 0
VERTEX
 8
CYLINDER
 10
0
 20
0
 30
0
 70
128
 71
4
 72
5
 73
9
 74
8
 0
VERTEX
 8
CYLINDER
 10
0
 20
0
 30
0
 70
128
 71
6
 72
2
 73
10
 74
10
 0
VERTEX
 8
CYLINDER
 10
0
 20
0
 30
0
 70
128
 71
1
 72
7
 73
11
 74
11
 0
VERTEX
 8
CYLINDER
 10
0
 20
0
 30
0
 70
128
 71
8
 72
9
 73
13
 74
12
 0
VERTEX
 8
CYLINDER
 10
0
 20
0
 30
0
 70
128
 71
10
 72
2
 73
14
 74
14
 0
VERTEX
 8
CYLINDER
 10
0
 20
0
 30
0
 70
128
 71
1
 72
11
 73
15
 74
15
 0
VERTEX
 8
CYLINDER
 10
0
 20
0
 30
0
 70
128
 71
12
 72
13
 73
17
 74
16
 0
VERTEX
 8
CYLINDER
 10
0
 20
0
 30
0
 70
128
 71
14
 72
2
 73
18
 74
18
 0
VERTEX
 8
CYLINDER
 10
0
 20
0
 30
0
 70
128
 71
1
 72
15
 73
19
 74
19
 0
VERTEX
 8
CYLINDER
 10
0
 20
0
 30
0
 70
128
 71
16
 72
17
 73
21
 74
20
 0
VERTEX
 8
CYLINDER
 10
0
 20
0
 30
0
 70
128
 71
18
 72
2
 73
22
 74
22
 0
VERTEX
 8
CYLINDER
 10
0
 20
0
 30
0
 70
128
 71
1
 72
19
 73
23
 74
23
 0
VERTEX
 8
CYLINDER
 10
0
 20
0
 30
0
 70
128
 71
20
 72
21
 73
25
 74
24
 0
VERTEX
 8
CYLINDER
 10
0
 20
0
 30
0
 70
128
 71
22
 72
2
 73
26
 74
26
 0
VERTEX
 8
CYLINDER
 10
0
 20
0
 30
0
 70
128
 71
1
 72
23
 73
27
 74
27
 0
VERTEX
 8
CYLINDER
 10
0
 20
0
 30
0
 70
128
 71
24
 72
25
 73
29
 74
28
 0
VERTEX
 8
CYLINDER
 10
0
 20
0
 30
0
 70
128
 71
26
 72
2
 73
30
 74
30
 0
VERTEX
 8
CYLINDER
 10
0
 20
0
 30
0
 70
128
 71
1
 72
27
 73
31
 74
31
 0
VERTEX
 8
CYLINDER
 10
0
 20
0
 30
0
 70
128
 71
28
 72
29
 73
33
 74
32
 0
VERTEX
 8
CYLINDER
 10
0
 20
0
 30
0
 70
128
 71
30
 72
2
 73
34
 74
34
 0
VERTEX
 8
CYLINDER
 10
0
 20
0
 30
0
 70
128
 71
1
 72
31
 73
35
 74
35
 0
VERTEX
 8
CYLINDER
 10
0
 20
0
 30
0
 70
128
 71
32
 72
33
 73
37
 74
36
 0
VERTEX
 8
CYLINDER
 10
0
 20
0
 30
0
 70
128
 71
34
 72
2
 73
38
 74
38
 0
VERTEX
 8
CYLINDER
 10
0
 20
0
 30
0
 70
128
 71
1
 72
35
 73
39
 74
39
 0
VERTEX
 8
CYLINDER
 10
0
 20
0
 30
0
 70
128
 71
36
 72
37
 73
41
 74
40
 0
VERTEX
 8
CYLINDER
 10
0
 20
0
 30
0
 70
128
 71
38
 72
2
 73
42
 74
42
 0
VERTEX
 8
CYLINDER
 10
0
 20
0
 30
0
 70
128
 71
1
 72
39
 73
43
 74
43
 0
VERTEX
 8
CYLINDER
 10
0
 20
0
 30
0
 70
128
 71
40
 72
41
 73
45
 74
44
 0
VERTEX
 8
CYLINDER
 10
0
 20
0
 30
0
 70
128
 71
42
 72
2
 73
46
 74
46
 0
VERTEX
 8
CYLINDER
 10
0
 20
0
 30
0
 70
128
 71
1
 72
43
 73
47
 74
47
 0
VERTEX
 8
CYLINDER
 10
0
 20
0
 30
0
 70
128
 71
44
 72
45
 73
49
 74
48
 0
VERTEX
 8
CYLINDER
 10
0
 20
0
 30
0
 70
128
 71
46
 72
2
 73
50
 74
50
 0
VERTEX
 8
CYLINDER
 10
0
 20
0
 30
0
 70
128
 71
1
 72
47
 73
51
 74
51
 0
VERTEX
 8
CYLINDER
 10
0
 20
0
 30
0
 70
128
 71
48
 72
49
 73
53
 74
52
 0
VERTEX
 8
CYLINDER
 10
0
 20
0
 30
0
 70
128
 71
50
 72
2
 73
54
 74
54
 0
VERTEX
 8
CYLINDER
 10
0
 20
0
 30
0
 70
128
 71
1
 72
51
 73
55
 74
55
 0
VERTEX
 8
CYLINDER
 10
0
 20
0
 30
0
 70
128
 71
52
 72
53
 73
57
 74
56
 0
VERTEX
 8
CYLINDER
 10
0
 20
0
 30
0
 70
128
 71
54
 72
2
 73
58
 74
58
 0
VERTEX
 8
CYLINDER
 10
0
 20
0
 30
0
 70
128
 71
1
 72
55
 73
59
 74
59
 0
VERTEX
 8
CYLINDER
 10
0
 20
0
 30
0
 70
128
 71
56
 72
57
 73
61
 74
60
 0
VERTEX
 8
CYLINDER
 10
0
 20
0
 30
0
 70
128
 71
58
 72
2
 73
62
 74
62
 0
VERTEX
 8
CYLINDER
 10
0
 20
0
 30
0
 70
128
 71
1
 72
59
 73
63
 74
63
 0
VERTEX
 8
CYLINDER
 10
0
 20
0
 30
0
 70
128
 71
60
 72
61
 73
65
 74
64
 0
VERTEX
 8
CYLINDER
 10
0
 20
0
 30
0
 70
128
 71
62
 72
2
 73
66
 74
66
 0
VERTEX
 8
CYLINDER
 10
0
 20
0
 30
0
 70
128
 71
1
 72
63
 73
67
 74
67
 0
VERTEX
 8
CYLINDER
 10
0
 20
0
 30
0
 70
128
 71
64
 72
65
 73
69
 74
68
 0
VERTEX
 8
CYLINDER
 10
0
 20
0
 30
0
 70
128
 71
66
 72
2
 73
70
 74
70
 0
VERTEX
 8
CYLINDER
 10
0
 20
0
 30
0
 70
128
 71
1
 72
67
 73
71
 74
71
 0
VERTEX
 8
CYLINDER
 10
0
 20
0
 30
0
 70
128
 71
68
 72
69
 73
73
 74
72
 0
VERTEX
 8
CYLINDER
 10
0
 20
0
 30
0
 70
128
 71
70
 72
2
 73
74
 74
74
 0
VERTEX
 8
CYLINDER
 10
0
 20
0
 30
0
 70
128
 71
1
 72
71
 73
75
 74
75
 0
VERTEX
 8
CYLINDER
 10
0
 20
0
 30
0
 70
128
 71
72
 72
73
 73
77
 74
76
 0
VERTEX
 8
CYLINDER
 10
0
 20
0
 30
0
 70
128
 71
74
 72
2
 73
78
 74
78
 0
VERTEX
 8
CYLINDER
 10
0
 20
0
 30
0
 70
128
 71
1
 72
75
 73
79
 74
79
 0
VERTEX
 8
CYLINDER
 10
0
 20
0
 30
0
 70
128
 71
76
 72
77
 73
81
 74
80
 0
VERTEX
 8
CYLINDER
 10
0
 20
0
 30
0
 70
128
 71
78
 72
2
 73
82
 74
82
 0
VERTEX
 8
CYLINDER
 10
0
 20
0
 30
0
 70
128
 71
1
 72
79
 73
3
 74
3
 0
VERTEX
 8
CYLINDER
 10
0
 20
0
 30
0
 70
128
 71
80
 72
81
 73
5
 74
4
 0
VERTEX
 8
CYLINDER
 10
0
 20
0
 30
0
 70
128
 71
82
 72
2
 73
6
 74
6
 0
SEQEND
 0
POLYLINE
 8
KARTUSCHE
 66
1
 10
0.0
 20
0.0
 30
0.0
 70
64
 71
60
 72
40
 0
VERTEX
 8
KARTUSCHE
 10
5.4611
 20
5.6534
 30
20.245
 70
192
 0
VERTEX
 8
KARTUSCHE
 10
7.5067
 20
3.5034
 30
20.6931
 70
192
 0
VERTEX
 8
KARTUSCHE
 10
5.8814
 20
5.6534
 30
17.5911
 70
192
 0
VERTEX
 8
KARTUSCHE
 10
5.4611
 20
4.4534
 30
20.245
 70
192
 0
VERTEX
 8
KARTUSCHE
 10
6.9982
 20
5.6534
 30
17.2282
 70
192
 0
VERTEX
 8
KARTUSCHE
 10
6.9982
 20
4.4534
 30
17.2282
 70
192
 0
VERTEX
 8
KARTUSCHE
 10
6.9982
 20
3.5034
 30
17.4828
 70
192
 0
VERTEX
 8
KARTUSCHE
 10
5.8814
 20
4.4534
 30
17.5911
 70
192
 0
VERTEX
 8
KARTUSCHE
 10
5.667
 20
3.5034
 30
20.0954
 70
192
 0
VERTEX
 8
KARTUSCHE
 10
6.9982
 20
5.6534
 30
21.0282
 70
192
 0
VERTEX
 8
KARTUSCHE
 10
7.5853
 20
5.6534
 30
17.3212
 70
192
 0
VERTEX
 8
KARTUSCHE
 10
7.5853
 20
4.4534
 30
17.3212
 70
192
 0
VERTEX
 8
KARTUSCHE
 10
7.5067
 20
3.5034
 30
17.5633
 70
192
 0
VERTEX
 8
KARTUSCHE
 10
6.9982
 20
4.4534
 30
21.0282
 70
192
 0
VERTEX
 8
KARTUSCHE
 10
5.1912
 20
5.6534
 30
19.7154
 70
192
 0
VERTEX
 8
KARTUSCHE
 10
5.1912
 20
4.4534
 30
19.7154
 70
192
 0
VERTEX
 8
KARTUSCHE
 10
8.115
 20
5.6534
 30
17.5911
 70
192
 0
VERTEX
 8
KARTUSCHE
 10
8.115
 20
4.4534
 30
17.5911
 70
192
 0
VERTEX
 8
KARTUSCHE
 10
7.9654
 20
3.5034
 30
17.797
 70
192
 0
VERTEX
 8
KARTUSCHE
 10
6.9982
 20
3.5034
 30
20.7737
 70
192
 0
VERTEX
 8
KARTUSCHE
 10
5.4333
 20
3.5034
 30
19.6367
 70
192
 0
VERTEX
 8
KARTUSCHE
 10
6.031
 20
3.5034
 30
17.797
 70
192
 0
VERTEX
 8
KARTUSCHE
 10
8.5353
 20
5.6534
 30
18.0114
 70
192
 0
VERTEX
 8
KARTUSCHE
 10
8.5353
 20
4.4534
 30
18.0114
 70
192
 0
VERTEX
 8
KARTUSCHE
 10
8.3294
 20
3.5034
 30
18.1611
 70
192
 0
VERTEX
 8
KARTUSCHE
 10
6.4111
 20
5.6534
 30
20.9352
 70
192
 0
VERTEX
 8
KARTUSCHE
 10
5.0982
 20
5.6534
 30
19.1282
 70
192
 0
VERTEX
 8
KARTUSCHE
 10
5.0982
 20
4.4534
 30
19.1282
 70
192
 0
VERTEX
 8
KARTUSCHE
 10
8.8052
 20
5.6534
 30
18.5411
 70
192
 0
VERTEX
 8
KARTUSCHE
 10
8.8052
 20
4.4534
 30
18.5411
 70
192
 0
VERTEX
 8
KARTUSCHE
 10
8.5631
 20
3.5034
 30
18.6198
 70
192
 0
VERTEX
 8
KARTUSCHE
 10
6.4111
 20
4.4534
 30
20.9352
 70
192
 0
VERTEX
 8
KARTUSCHE
 10
5.3527
 20
3.5034
 30
19.1282
 70
192
 0
VERTEX
 8
KARTUSCHE
 10
6.4897
 20
3.5034
 30
20.6931
 70
192
 0
VERTEX
 8
KARTUSCHE
 10
8.8982
 20
5.6534
 30
19.1282
 70
192
 0
VERTEX
 8
KARTUSCHE
 10
8.8982
 20
4.4534
 30
19.1282
 70
192
 0
VERTEX
 8
KARTUSCHE
 10
8.6436
 20
3.5034
 30
19.1282
 70
192
 0
VERTEX
 8
KARTUSCHE
 10
6.4111
 20
5.6534
 30
17.3212
 70
192
 0
VERTEX
 8
KARTUSCHE
 10
5.1912
 20
5.6534
 30
18.5411
 70
192
 0
VERTEX
 8
KARTUSCHE
 10
5.1912
 20
4.4534
 30
18.5411
 70
192
 0
VERTEX
 8
KARTUSCHE
 10
8.8052
 20
5.6534
 30
19.7154
 70
192
 0
VERTEX
 8
KARTUSCHE
 10
8.8052
 20
4.4534
 30
19.7154
 70
192
 0
VERTEX
 8
KARTUSCHE
 10
8.5631
 20
3.5034
 30
19.6367
 70
192
 0
VERTEX
 8
KARTUSCHE
 10
6.4111
 20
4.4534
 30
17.3212
 70
192
 0
VERTEX
 8
KARTUSCHE
 10
5.4333
 20
3.5034
 30
18.6198
 70
192
 0
VERTEX
 8
KARTUSCHE
 10
5.8814
 20
5.6534
 30
20.6654
 70
192
 0
VERTEX
 8
KARTUSCHE
 10
8.5353
 20
5.6534
 30
20.245
 70
192
 0
VERTEX
 8
KARTUSCHE
 10
8.5353
 20
4.4534
 30
20.245
 70
192
 0
VERTEX
 8
KARTUSCHE
 10
8.3294
 20
3.5034
 30
20.0954
 70
192
 0
VERTEX
 8
KARTUSCHE
 10
5.8814
 20
4.4534
 30
20.6654
 70
192
 0
VERTEX
 8
KARTUSCHE
 10
5.4611
 20
5.6534
 30
18.0114
 70
192
 0
VERTEX
 8
KARTUSCHE
 10
5.4611
 20
4.4534
 30
18.0114
 70
192
 0
VERTEX
 8
KARTUSCHE
 10
8.115
 20
5.6534
 30
20.6654
 70
192
 0
VERTEX
 8
KARTUSCHE
 10
8.115
 20
4.4534
 30
20.6654
 70
192
 0
VERTEX
 8
KARTUSCHE
 10
7.9654
 20
3.5034
 30
20.4594
 70
192
 0
VERTEX
 8
KARTUSCHE
 10
6.031
 20
3.5034
 30
20.4594
 70
192
 0
VERTEX
 8
KARTUSCHE
 10
5.667
 20
3.5034
 30
18.1611
 70
192
 0
VERTEX
 8
KARTUSCHE
 10
6.4897
 20
3.5034
 30
17.5633
 70
192
 0
VERTEX
 8
KARTUSCHE
 10
7.5853
 20
5.6534
 30
20.9352
 70
192
 0
VERTEX
 8
KARTUSCHE
 10
7.5853
 20
4.4534
 30
20.9352
 70
192
 0
VERTEX
 8
KARTUSCHE
 10
0
 20
0
 30
0
 70
128
 71
50
 72
56
 73
9
 74
4
 0
VERTEX
 8
KARTUSCHE
 10
0
 20
0
 30
0
 70
128
 71
15
 72
16
 73
28
 74
27
 0
VERTEX
 8
KARTUSCHE
 10
0
 20
0
 30
0
 70
128
 71
28
 72
33
 73
45
 74
40
 0
VERTEX
 8
KARTUSCHE
 10
0
 20
0
 30
0
 70
128
 71
5
 72
6
 73
12
 74
11
 0
VERTEX
 8
KARTUSCHE
 10
0
 20
0
 30
0
 70
128
 71
6
 72
7
 73
13
 74
12
 0
VERTEX
 8
KARTUSCHE
 10
0
 20
0
 30
0
 70
128
 71
54
 72
55
 73
2
 74
60
 0
VERTEX
 8
KARTUSCHE
 10
0
 20
0
 30
0
 70
128
 71
16
 72
21
 73
33
 74
28
 0
VERTEX
 8
KARTUSCHE
 10
0
 20
0
 30
0
 70
128
 71
51
 72
52
 73
8
 74
3
 0
VERTEX
 8
KARTUSCHE
 10
0
 20
0
 30
0
 70
128
 71
52
 72
57
 73
22
 74
8
 0
VERTEX
 8
KARTUSCHE
 10
0
 20
0
 30
0
 70
128
 71
41
 72
42
 73
48
 74
47
 0
VERTEX
 8
KARTUSCHE
 10
0
 20
0
 30
0
 70
128
 71
11
 72
12
 73
18
 74
17
 0
VERTEX
 8
KARTUSCHE
 10
0
 20
0
 30
0
 70
128
 71
12
 72
13
 73
19
 74
18
 0
VERTEX
 8
KARTUSCHE
 10
0
 20
0
 30
0
 70
128
 71
26
 72
32
 73
50
 74
46
 0
VERTEX
 8
KARTUSCHE
 10
0
 20
0
 30
0
 70
128
 71
32
 72
34
 73
56
 74
50
 0
VERTEX
 8
KARTUSCHE
 10
0
 20
0
 30
0
 70
128
 71
1
 72
4
 73
16
 74
15
 0
VERTEX
 8
KARTUSCHE
 10
0
 20
0
 30
0
 70
128
 71
4
 72
9
 73
21
 74
16
 0
VERTEX
 8
KARTUSCHE
 10
0
 20
0
 30
0
 70
128
 71
42
 72
43
 73
49
 74
48
 0
VERTEX
 8
KARTUSCHE
 10
0
 20
0
 30
0
 70
128
 71
17
 72
18
 73
24
 74
23
 0
VERTEX
 8
KARTUSCHE
 10
0
 20
0
 30
0
 70
128
 71
18
 72
19
 73
25
 74
24
 0
VERTEX
 8
KARTUSCHE
 10
0
 20
0
 30
0
 70
128
 71
10
 72
14
 73
32
 74
26
 0
VERTEX
 8
KARTUSCHE
 10
0
 20
0
 30
0
 70
128
 71
59
 72
60
 73
14
 74
10
 0
VERTEX
 8
KARTUSCHE
 10
0
 20
0
 30
0
 70
128
 71
60
 72
2
 73
20
 74
14
 0
VERTEX
 8
KARTUSCHE
 10
0
 20
0
 30
0
 70
128
 71
40
 72
45
 73
57
 74
52
 0
VERTEX
 8
KARTUSCHE
 10
0
 20
0
 30
0
 70
128
 71
14
 72
20
 73
34
 74
32
 0
VERTEX
 8
KARTUSCHE
 10
0
 20
0
 30
0
 70
128
 71
23
 72
24
 73
30
 74
29
 0
VERTEX
 8
KARTUSCHE
 10
0
 20
0
 30
0
 70
128
 71
24
 72
25
 73
31
 74
30
 0
VERTEX
 8
KARTUSCHE
 10
0
 20
0
 30
0
 70
128
 71
47
 72
48
 73
54
 74
53
 0
VERTEX
 8
KARTUSCHE
 10
0
 20
0
 30
0
 70
128
 71
39
 72
40
 73
52
 74
51
 0
VERTEX
 8
KARTUSCHE
 10
0
 20
0
 30
0
 70
128
 71
48
 72
49
 73
55
 74
54
 0
VERTEX
 8
KARTUSCHE
 10
0
 20
0
 30
0
 70
128
 71
3
 72
8
 73
44
 74
38
 0
VERTEX
 8
KARTUSCHE
 10
0
 20
0
 30
0
 70
128
 71
38
 72
44
 73
6
 74
5
 0
VERTEX
 8
KARTUSCHE
 10
0
 20
0
 30
0
 70
128
 71
29
 72
30
 73
36
 74
35
 0
VERTEX
 8
KARTUSCHE
 10
0
 20
0
 30
0
 70
128
 71
30
 72
31
 73
37
 74
36
 0
VERTEX
 8
KARTUSCHE
 10
0
 20
0
 30
0
 70
128
 71
44
 72
58
 73
7
 74
6
 0
VERTEX
 8
KARTUSCHE
 10
0
 20
0
 30
0
 70
128
 71
46
 72
50
 73
4
 74
1
 0
VERTEX
 8
KARTUSCHE
 10
0
 20
0
 30
0
 70
128
 71
8
 72
22
 73
58
 74
44
 0
VERTEX
 8
KARTUSCHE
 10
0
 20
0
 30
0
 70
128
 71
27
 72
28
 73
40
 74
39
 0
VERTEX
 8
KARTUSCHE
 10
0
 20
0
 30
0
 70
128
 71
53
 72
54
 73
60
 74
59
 0
VERTEX
 8
KARTUSCHE
 10
0
 20
0
 30
0
 70
128
 71
35
 72
36
 73
42
 74
41
 0
VERTEX
 8
KARTUSCHE
 10
0
 20
0
 30
0
 70
128
 71
36
 72
37
 73
43
 74
42
 0
SEQEND
 0
POLYLINE
 8
ROSETTE
 66
1
 10
0.0
 20
0.0
 30
0.0
 70
64
 71
24
 72
26
 0
VERTEX
 8
ROSETTE
 10
3.225
 20
5.9019
 30
16.3537
 70
192
 0
VERTEX
 8
ROSETTE
 10
3.225
 20
5.3819
 30
16.3537
 70
192
 0
VERTEX
 8
ROSETTE
 10
10.645
 20
5.3819
 30
16.3537
 70
192
 0
VERTEX
 8
ROSETTE
 10
10.645
 20
5.9019
 30
16.3537
 70
192
 0
VERTEX
 8
ROSETTE
 10
3.185
 20
5.9019
 30
16.3937
 70
192
 0
VERTEX
 8
ROSETTE
 10
3.185
 20
5.3819
 30
16.3937
 70
192
 0
VERTEX
 8
ROSETTE
 10
3.225
 20
5.3419
 30
16.3937
 70
192
 0
VERTEX
 8
ROSETTE
 10
10.645
 20
5.3419
 30
16.3937
 70
192
 0
VERTEX
 8
ROSETTE
 10
10.685
 20
5.3819
 30
16.3937
 70
192
 0
VERTEX
 8
ROSETTE
 10
10.685
 20
5.9019
 30
16.3937
 70
192
 0
VERTEX
 8
ROSETTE
 10
10.645
 20
5.9419
 30
16.3937
 70
192
 0
VERTEX
 8
ROSETTE
 10
3.225
 20
5.9419
 30
16.3937
 70
192
 0
VERTEX
 8
ROSETTE
 10
3.185
 20
5.9019
 30
21.8137
 70
192
 0
VERTEX
 8
ROSETTE
 10
3.185
 20
5.3819
 30
21.8137
 70
192
 0
VERTEX
 8
ROSETTE
 10
3.225
 20
5.3419
 30
21.8137
 70
192
 0
VERTEX
 8
ROSETTE
 10
10.645
 20
5.3419
 30
21.8137
 70
192
 0
VERTEX
 8
ROSETTE
 10
10.685
 20
5.3819
 30
21.8137
 70
192
 0
VERTEX
 8
ROSETTE
 10
10.685
 20
5.9019
 30
21.8137
 70
192
 0
VERTEX
 8
ROSETTE
 10
10.645
 20
5.9419
 30
21.8137
 70
192
 0
VERTEX
 8
ROSETTE
 10
3.225
 20
5.9419
 30
21.8137
 70
192
 0
VERTEX
 8
ROSETTE
 10
3.225
 20
5.9019
 30
21.8537
 70
192
 0
VERTEX
 8
ROSETTE
 10
3.225
 20
5.3819
 30
21.8537
 70
192
 0
VERTEX
 8
ROSETTE
 10
10.645
 20
5.3819
 30
21.8537
 70
192
 0
VERTEX
 8
ROSETTE
 10
10.645
 20
5.9019
 30
21.8537
 70
192
 0
VERTEX
 8
ROSETTE
 10
0
 20
0
 30
0
 70
128
 71
1
 72
5
 73
6
 74
2
 0
VERTEX
 8
ROSETTE
 10
0
 20
0
 30
0
 70
128
 71
5
 72
13
 73
14
 74
6
 0
VERTEX
 8
ROSETTE
 10
0
 20
0
 30
0
 70
128
 71
13
 72
21
 73
22
 74
14
 0
VERTEX
 8
ROSETTE
 10
0
 20
0
 30
0
 70
128
 71
2
 72
6
 73
7
 74
7
 0
VERTEX
 8
ROSETTE
 10
0
 20
0
 30
0
 70
128
 71
6
 72
14
 73
15
 74
7
 0
VERTEX
 8
ROSETTE
 10
0
 20
0
 30
0
 70
128
 71
14
 72
22
 73
15
 74
15
 0
VERTEX
 8
ROSETTE
 10
0
 20
0
 30
0
 70
128
 71
2
 72
7
 73
8
 74
3
 0
VERTEX
 8
ROSETTE
 10
0
 20
0
 30
0
 70
128
 71
7
 72
15
 73
16
 74
8
 0
VERTEX
 8
ROSETTE
 10
0
 20
0
 30
0
 70
128
 71
15
 72
22
 73
23
 74
16
 0
VERTEX
 8
ROSETTE
 10
0
 20
0
 30
0
 70
128
 71
3
 72
8
 73
9
 74
9
 0
VERTEX
 8
ROSETTE
 10
0
 20
0
 30
0
 70
128
 71
8
 72
16
 73
17
 74
9
 0
VERTEX
 8
ROSETTE
 10
0
 20
0
 30
0
 70
128
 71
16
 72
23
 73
17
 74
17
 0
VERTEX
 8
ROSETTE
 10
0
 20
0
 30
0
 70
128
 71
3
 72
9
 73
10
 74
4
 0
VERTEX
 8
ROSETTE
 10
0
 20
0
 30
0
 70
128
 71
9
 72
17
 73
18
 74
10
 0
VERTEX
 8
ROSETTE
 10
0
 20
0
 30
0
 70
128
 71
17
 72
23
 73
24
 74
18
 0
VERTEX
 8
ROSETTE
 10
0
 20
0
 30
0
 70
128
 71
4
 72
10
 73
11
 74
11
 0
VERTEX
 8
ROSETTE
 10
0
 20
0
 30
0
 70
128
 71
10
 72
18
 73
19
 74
11
 0
VERTEX
 8
ROSETTE
 10
0
 20
0
 30
0
 70
128
 71
18
 72
24
 73
19
 74
19
 0
VERTEX
 8
ROSETTE
 10
0
 20
0
 30
0
 70
128
 71
4
 72
11
 73
12
 74
1
 0
VERTEX
 8
ROSETTE
 10
0
 20
0
 30
0
 70
128
 71
11
 72
19
 73
20
 74
12
 0
VERTEX
 8
ROSETTE
 10
0
 20
0
 30
0
 70
128
 71
19
 72
24
 73
21
 74
20
 0
VERTEX
 8
ROSETTE
 10
0
 20
0
 30
0
 70
128
 71
1
 72
12
 73
5
 74
5
 0
VERTEX
 8
ROSETTE
 10
0
 20
0
 30
0
 70
128
 71
12
 72
20
 73
13
 74
5
 0
VERTEX
 8
ROSETTE
 10
0
 20
0
 30
0
 70
128
 71
20
 72
21
 73
13
 74
13
 0
VERTEX
 8
ROSETTE
 10
0
 20
0
 30
0
 70
128
 71
21
 72
24
 73
23
 74
22
 0
VERTEX
 8
ROSETTE
 10
0
 20
0
 30
0
 70
128
 71
1
 72
2
 73
3
 74
4
 0
SEQEND
 0
POLYLINE
 8
ROSETTE_1
 66
1
 10
0.0
 20
0.0
 30
0.0
 70
64
 71
24
 72
26
 0
VERTEX
 8
ROSETTE_1
 10
-10.9942
 20
5.9019
 30
16.3537
 70
192
 0
VERTEX
 8
ROSETTE_1
 10
-10.9942
 20
5.3819
 30
16.3537
 70
192
 0
VERTEX
 8
ROSETTE_1
 10
-3.5742
 20
5.3819
 30
16.3537
 70
192
 0
VERTEX
 8
ROSETTE_1
 10
-3.5742
 20
5.9019
 30
16.3537
 70
192
 0
VERTEX
 8
ROSETTE_1
 10
-11.0342
 20
5.9019
 30
16.3937
 70
192
 0
VERTEX
 8
ROSETTE_1
 10
-11.0342
 20
5.3819
 30
16.3937
 70
192
 0
VERTEX
 8
ROSETTE_1
 10
-10.9942
 20
5.3419
 30
16.3937
 70
192
 0
VERTEX
 8
ROSETTE_1
 10
-3.5742
 20
5.3419
 30
16.3937
 70
192
 0
VERTEX
 8
ROSETTE_1
 10
-3.5342
 20
5.3819
 30
16.3937
 70
192
 0
VERTEX
 8
ROSETTE_1
 10
-3.5342
 20
5.9019
 30
16.3937
 70
192
 0
VERTEX
 8
ROSETTE_1
 10
-3.5742
 20
5.9419
 30
16.3937
 70
192
 0
VERTEX
 8
ROSETTE_1
 10
-10.9942
 20
5.9419
 30
16.3937
 70
192
 0
VERTEX
 8
ROSETTE_1
 10
-11.0342
 20
5.9019
 30
21.8137
 70
192
 0
VERTEX
 8
ROSETTE_1
 10
-11.0342
 20
5.3819
 30
21.8137
 70
192
 0
VERTEX
 8
ROSETTE_1
 10
-10.9942
 20
5.3419
 30
21.8137
 70
192
 0
VERTEX
 8
ROSETTE_1
 10
-3.5742
 20
5.3419
 30
21.8137
 70
192
 0
VERTEX
 8
ROSETTE_1
 10
-3.5342
 20
5.3819
 30
21.8137
 70
192
 0
VERTEX
 8
ROSETTE_1
 10
-3.5342
 20
5.9019
 30
21.8137
 70
192
 0
VERTEX
 8
ROSETTE_1
 10
-3.5742
 20
5.9419
 30
21.8137
 70
192
 0
VERTEX
 8
ROSETTE_1
 10
-10.9942
 20
5.9419
 30
21.8137
 70
192
 0
VERTEX
 8
ROSETTE_1
 10
-10.9942
 20
5.9019
 30
21.8537
 70
192
 0
VERTEX
 8
ROSETTE_1
 10
-10.9942
 20
5.3819
 30
21.8537
 70
192
 0
VERTEX
 8
ROSETTE_1
 10
-3.5742
 20
5.3819
 30
21.8537
 70
192
 0
VERTEX
 8
ROSETTE_1
 10
-3.5742
 20
5.9019
 30
21.8537
 70
192
 0
VERTEX
 8
ROSETTE_1
 10
0
 20
0
 30
0
 70
128
 71
1
 72
5
 73
6
 74
2
 0
VERTEX
 8
ROSETTE_1
 10
0
 20
0
 30
0
 70
128
 71
5
 72
13
 73
14
 74
6
 0
VERTEX
 8
ROSETTE_1
 10
0
 20
0
 30
0
 70
128
 71
13
 72
21
 73
22
 74
14
 0
VERTEX
 8
ROSETTE_1
 10
0
 20
0
 30
0
 70
128
 71
2
 72
6
 73
7
 74
7
 0
VERTEX
 8
ROSETTE_1
 10
0
 20
0
 30
0
 70
128
 71
6
 72
14
 73
15
 74
7
 0
VERTEX
 8
ROSETTE_1
 10
0
 20
0
 30
0
 70
128
 71
14
 72
22
 73
15
 74
15
 0
VERTEX
 8
ROSETTE_1
 10
0
 20
0
 30
0
 70
128
 71
2
 72
7
 73
8
 74
3
 0
VERTEX
 8
ROSETTE_1
 10
0
 20
0
 30
0
 70
128
 71
7
 72
15
 73
16
 74
8
 0
VERTEX
 8
ROSETTE_1
 10
0
 20
0
 30
0
 70
128
 71
15
 72
22
 73
23
 74
16
 0
VERTEX
 8
ROSETTE_1
 10
0
 20
0
 30
0
 70
128
 71
3
 72
8
 73
9
 74
9
 0
VERTEX
 8
ROSETTE_1
 10
0
 20
0
 30
0
 70
128
 71
8
 72
16
 73
17
 74
9
 0
VERTEX
 8
ROSETTE_1
 10
0
 20
0
 30
0
 70
128
 71
16
 72
23
 73
17
 74
17
 0
VERTEX
 8
ROSETTE_1
 10
0
 20
0
 30
0
 70
128
 71
3
 72
9
 73
10
 74
4
 0
VERTEX
 8
ROSETTE_1
 10
0
 20
0
 30
0
 70
128
 71
9
 72
17
 73
18
 74
10
 0
VERTEX
 8
ROSETTE_1
 10
0
 20
0
 30
0
 70
128
 71
17
 72
23
 73
24
 74
18
 0
VERTEX
 8
ROSETTE_1
 10
0
 20
0
 30
0
 70
128
 71
4
 72
10
 73
11
 74
11
 0
VERTEX
 8
ROSETTE_1
 10
0
 20
0
 30
0
 70
128
 71
10
 72
18
 73
19
 74
11
 0
VERTEX
 8
ROSETTE_1
 10
0
 20
0
 30
0
 70
128
 71
18
 72
24
 73
19
 74
19
 0
VERTEX
 8
ROSETTE_1
 10
0
 20
0
 30
0
 70
128
 71
4
 72
11
 73
12
 74
1
 0
VERTEX
 8
ROSETTE_1
 10
0
 20
0
 30
0
 70
128
 71
11
 72
19
 73
20
 74
12
 0
VERTEX
 8
ROSETTE_1
 10
0
 20
0
 30
0
 70
128
 71
19
 72
24
 73
21
 74
20
 0
VERTEX
 8
ROSETTE_1
 10
0
 20
0
 30
0
 70
128
 71
1
 72
12
 73
5
 74
5
 0
VERTEX
 8
ROSETTE_1
 10
0
 20
0
 30
0
 70
128
 71
12
 72
20
 73
13
 74
5
 0
VERTEX
 8
ROSETTE_1
 10
0
 20
0
 30
0
 70
128
 71
20
 72
21
 73
13
 74
13
 0
VERTEX
 8
ROSETTE_1
 10
0
 20
0
 30
0
 70
128
 71
21
 72
24
 73
23
 74
22
 0
VERTEX
 8
ROSETTE_1
 10
0
 20
0
 30
0
 70
128
 71
1
 72
2
 73
3
 74
4
 0
SEQEND
 0
ENDSEC
 0
EOF
