 0
SECTION
 2
HEADER
 9
$ACADVER
 1
AC1009
 0
ENDSEC
 0
SECTION
 2
TABLES
 0
TABLE
 2
LTYPE
 70
1
 0
LTYPE
 2
CONTINUOUS
 70
64
 3
solid line
 72
65
 73
0
 40
0.0
 0
ENDTAB
 0
TABLE
 2
LAYER
 70
6
 0
LAYER
 2
0
 70
0
 62
7
 6
CONTINUOUS
 0
LAYER
 2
160_2402_M
 70
64
 62
7
 6
CONTINUOUS
 0
LAYER
 2
ROSETTE_3
 70
64
 62
250
 6
CONTINUOUS
 0
LAYER
 2
R_HRE_2
 70
64
 62
250
 6
CONTINUOUS
 0
LAYER
 2
GRIFF_1
 70
64
 62
250
 6
CONTINUOUS
 0
LAYER
 2
ROSETTE_2
 70
64
 62
250
 6
CONTINUOUS
 0
LAYER
 2
R_HRE_1
 70
64
 62
250
 6
CONTINUOUS
 0
LAYER
 2
GRIFF
 70
64
 62
250
 6
CONTINUOUS
 0
LAYER
 2
ROSETTE_1
 70
64
 62
250
 6
CONTINUOUS
 0
LAYER
 2
AUSLAUF_2
 70
64
 62
250
 6
CONTINUOUS
 0
LAYER
 2
ROSETTE
 70
64
 62
250
 6
CONTINUOUS
 0
LAYER
 2
PELATOR
 70
64
 62
250
 6
CONTINUOUS
 0
LAYER
 2
R_HRE
 70
64
 62
253
 6
CONTINUOUS
 0
LAYER
 2
AUSLAUF-EXENTER
 70
64
 62
250
 6
CONTINUOUS
 0
LAYER
 2
EXENTER_1
 70
64
 62
250
 6
CONTINUOUS
 0
LAYER
 2
EXENTER_2
 70
64
 62
250
 6
CONTINUOUS
 0
LAYER
 2
KEGEL
 70
64
 62
250
 6
CONTINUOUS
 0
LAYER
 2
HANDBRAUSE_1
 70
64
 62
250
 6
CONTINUOUS
 0
ENDTAB
 0
ENDSEC
 0
SECTION
 2
BLOCKS
 0
ENDSEC
 0
SECTION
 2
ENTITIES
 0
POLYLINE
 8
ROSETTE_3
 66
1
 10
0.0
 20
0.0
 30
0.0
 70
64
 71
8
 72
6
 0
VERTEX
 8
ROSETTE_3
 10
-23.7486
 20
-2.6282
 30
9.9917
 70
192
 0
VERTEX
 8
ROSETTE_3
 10
-23.7486
 20
2.8718
 30
9.9917
 70
192
 0
VERTEX
 8
ROSETTE_3
 10
-23.7486
 20
-2.6282
 30
10.4917
 70
192
 0
VERTEX
 8
ROSETTE_3
 10
-23.7486
 20
2.8718
 30
10.4917
 70
192
 0
VERTEX
 8
ROSETTE_3
 10
-18.2486
 20
-2.6282
 30
10.4917
 70
192
 0
VERTEX
 8
ROSETTE_3
 10
-18.2486
 20
2.8718
 30
10.4917
 70
192
 0
VERTEX
 8
ROSETTE_3
 10
-18.2486
 20
-2.6282
 30
9.9917
 70
192
 0
VERTEX
 8
ROSETTE_3
 10
-18.2486
 20
2.8718
 30
9.9917
 70
192
 0
VERTEX
 8
ROSETTE_3
 10
0
 20
0
 30
0
 70
128
 71
1
 72
2
 73
4
 74
3
 0
VERTEX
 8
ROSETTE_3
 10
0
 20
0
 30
0
 70
128
 71
3
 72
4
 73
6
 74
5
 0
VERTEX
 8
ROSETTE_3
 10
0
 20
0
 30
0
 70
128
 71
5
 72
6
 73
8
 74
7
 0
VERTEX
 8
ROSETTE_3
 10
0
 20
0
 30
0
 70
128
 71
7
 72
8
 73
2
 74
1
 0
VERTEX
 8
ROSETTE_3
 10
0
 20
0
 30
0
 70
128
 71
2
 72
8
 73
6
 74
4
 0
VERTEX
 8
ROSETTE_3
 10
0
 20
0
 30
0
 70
128
 71
7
 72
1
 73
3
 74
5
 0
SEQEND
 0
POLYLINE
 8
R_HRE_2
 66
1
 10
0.0
 20
0.0
 30
0.0
 70
64
 71
64
 72
32
 0
VERTEX
 8
R_HRE_2
 10
-21.0343
 20
-0.2465
 30
10.2699
 70
192
 0
VERTEX
 8
R_HRE_2
 10
-21.0343
 20
-0.5765
 30
10.2699
 70
192
 0
VERTEX
 8
R_HRE_2
 10
-21.0343
 20
-0.5765
 30
10.2699
 70
192
 0
VERTEX
 8
R_HRE_2
 10
-21.0343
 20
-0.5765
 30
10.7699
 70
192
 0
VERTEX
 8
R_HRE_2
 10
-21.0343
 20
-0.5765
 30
10.7699
 70
192
 0
VERTEX
 8
R_HRE_2
 10
-21.0343
 20
-0.2465
 30
10.7699
 70
192
 0
VERTEX
 8
R_HRE_2
 10
-21.0343
 20
-0.2465
 30
10.7699
 70
192
 0
VERTEX
 8
R_HRE_2
 10
-21.0343
 20
-0.2465
 30
10.2699
 70
192
 0
VERTEX
 8
R_HRE_2
 10
-20.8221
 20
-0.1586
 30
10.2699
 70
192
 0
VERTEX
 8
R_HRE_2
 10
-20.5888
 20
-0.392
 30
10.2699
 70
192
 0
VERTEX
 8
R_HRE_2
 10
-20.5888
 20
-0.392
 30
10.2699
 70
192
 0
VERTEX
 8
R_HRE_2
 10
-20.5888
 20
-0.392
 30
10.7699
 70
192
 0
VERTEX
 8
R_HRE_2
 10
-20.5888
 20
-0.392
 30
10.7699
 70
192
 0
VERTEX
 8
R_HRE_2
 10
-20.8221
 20
-0.1586
 30
10.7699
 70
192
 0
VERTEX
 8
R_HRE_2
 10
-20.8221
 20
-0.1586
 30
10.7699
 70
192
 0
VERTEX
 8
R_HRE_2
 10
-20.8221
 20
-0.1586
 30
10.2699
 70
192
 0
VERTEX
 8
R_HRE_2
 10
-20.7343
 20
0.0535
 30
10.2699
 70
192
 0
VERTEX
 8
R_HRE_2
 10
-20.4043
 20
0.0535
 30
10.2699
 70
192
 0
VERTEX
 8
R_HRE_2
 10
-20.4043
 20
0.0535
 30
10.2699
 70
192
 0
VERTEX
 8
R_HRE_2
 10
-20.4043
 20
0.0535
 30
10.7699
 70
192
 0
VERTEX
 8
R_HRE_2
 10
-20.4043
 20
0.0535
 30
10.7699
 70
192
 0
VERTEX
 8
R_HRE_2
 10
-20.7343
 20
0.0535
 30
10.7699
 70
192
 0
VERTEX
 8
R_HRE_2
 10
-20.7343
 20
0.0535
 30
10.7699
 70
192
 0
VERTEX
 8
R_HRE_2
 10
-20.7343
 20
0.0535
 30
10.2699
 70
192
 0
VERTEX
 8
R_HRE_2
 10
-20.8221
 20
0.2656
 30
10.2699
 70
192
 0
VERTEX
 8
R_HRE_2
 10
-20.5888
 20
0.499
 30
10.2699
 70
192
 0
VERTEX
 8
R_HRE_2
 10
-20.5888
 20
0.499
 30
10.2699
 70
192
 0
VERTEX
 8
R_HRE_2
 10
-20.5888
 20
0.499
 30
10.7699
 70
192
 0
VERTEX
 8
R_HRE_2
 10
-20.5888
 20
0.499
 30
10.7699
 70
192
 0
VERTEX
 8
R_HRE_2
 10
-20.8221
 20
0.2656
 30
10.7699
 70
192
 0
VERTEX
 8
R_HRE_2
 10
-20.8221
 20
0.2656
 30
10.7699
 70
192
 0
VERTEX
 8
R_HRE_2
 10
-20.8221
 20
0.2656
 30
10.2699
 70
192
 0
VERTEX
 8
R_HRE_2
 10
-21.0343
 20
0.3535
 30
10.2699
 70
192
 0
VERTEX
 8
R_HRE_2
 10
-21.0343
 20
0.6835
 30
10.2699
 70
192
 0
VERTEX
 8
R_HRE_2
 10
-21.0343
 20
0.6835
 30
10.2699
 70
192
 0
VERTEX
 8
R_HRE_2
 10
-21.0343
 20
0.6835
 30
10.7699
 70
192
 0
VERTEX
 8
R_HRE_2
 10
-21.0343
 20
0.6835
 30
10.7699
 70
192
 0
VERTEX
 8
R_HRE_2
 10
-21.0343
 20
0.3535
 30
10.7699
 70
192
 0
VERTEX
 8
R_HRE_2
 10
-21.0343
 20
0.3535
 30
10.7699
 70
192
 0
VERTEX
 8
R_HRE_2
 10
-21.0343
 20
0.3535
 30
10.2699
 70
192
 0
VERTEX
 8
R_HRE_2
 10
-21.2464
 20
0.2656
 30
10.2699
 70
192
 0
VERTEX
 8
R_HRE_2
 10
-21.4798
 20
0.499
 30
10.2699
 70
192
 0
VERTEX
 8
R_HRE_2
 10
-21.4798
 20
0.499
 30
10.2699
 70
192
 0
VERTEX
 8
R_HRE_2
 10
-21.4798
 20
0.499
 30
10.7699
 70
192
 0
VERTEX
 8
R_HRE_2
 10
-21.4798
 20
0.499
 30
10.7699
 70
192
 0
VERTEX
 8
R_HRE_2
 10
-21.2464
 20
0.2656
 30
10.7699
 70
192
 0
VERTEX
 8
R_HRE_2
 10
-21.2464
 20
0.2656
 30
10.7699
 70
192
 0
VERTEX
 8
R_HRE_2
 10
-21.2464
 20
0.2656
 30
10.2699
 70
192
 0
VERTEX
 8
R_HRE_2
 10
-21.3343
 20
0.0535
 30
10.2699
 70
192
 0
VERTEX
 8
R_HRE_2
 10
-21.6643
 20
0.0535
 30
10.2699
 70
192
 0
VERTEX
 8
R_HRE_2
 10
-21.6643
 20
0.0535
 30
10.2699
 70
192
 0
VERTEX
 8
R_HRE_2
 10
-21.6643
 20
0.0535
 30
10.7699
 70
192
 0
VERTEX
 8
R_HRE_2
 10
-21.6643
 20
0.0535
 30
10.7699
 70
192
 0
VERTEX
 8
R_HRE_2
 10
-21.3343
 20
0.0535
 30
10.7699
 70
192
 0
VERTEX
 8
R_HRE_2
 10
-21.3343
 20
0.0535
 30
10.7699
 70
192
 0
VERTEX
 8
R_HRE_2
 10
-21.3343
 20
0.0535
 30
10.2699
 70
192
 0
VERTEX
 8
R_HRE_2
 10
-21.2464
 20
-0.1586
 30
10.2699
 70
192
 0
VERTEX
 8
R_HRE_2
 10
-21.4798
 20
-0.392
 30
10.2699
 70
192
 0
VERTEX
 8
R_HRE_2
 10
-21.4798
 20
-0.392
 30
10.2699
 70
192
 0
VERTEX
 8
R_HRE_2
 10
-21.4798
 20
-0.392
 30
10.7699
 70
192
 0
VERTEX
 8
R_HRE_2
 10
-21.4798
 20
-0.392
 30
10.7699
 70
192
 0
VERTEX
 8
R_HRE_2
 10
-21.2464
 20
-0.1586
 30
10.7699
 70
192
 0
VERTEX
 8
R_HRE_2
 10
-21.2464
 20
-0.1586
 30
10.7699
 70
192
 0
VERTEX
 8
R_HRE_2
 10
-21.2464
 20
-0.1586
 30
10.2699
 70
192
 0
VERTEX
 8
R_HRE_2
 10
0
 20
0
 30
0
 70
128
 71
1
 72
2
 73
10
 74
9
 0
VERTEX
 8
R_HRE_2
 10
0
 20
0
 30
0
 70
128
 71
3
 72
4
 73
12
 74
11
 0
VERTEX
 8
R_HRE_2
 10
0
 20
0
 30
0
 70
128
 71
5
 72
6
 73
14
 74
13
 0
VERTEX
 8
R_HRE_2
 10
0
 20
0
 30
0
 70
128
 71
7
 72
8
 73
16
 74
15
 0
VERTEX
 8
R_HRE_2
 10
0
 20
0
 30
0
 70
128
 71
9
 72
10
 73
18
 74
17
 0
VERTEX
 8
R_HRE_2
 10
0
 20
0
 30
0
 70
128
 71
11
 72
12
 73
20
 74
19
 0
VERTEX
 8
R_HRE_2
 10
0
 20
0
 30
0
 70
128
 71
13
 72
14
 73
22
 74
21
 0
VERTEX
 8
R_HRE_2
 10
0
 20
0
 30
0
 70
128
 71
15
 72
16
 73
24
 74
23
 0
VERTEX
 8
R_HRE_2
 10
0
 20
0
 30
0
 70
128
 71
17
 72
18
 73
26
 74
25
 0
VERTEX
 8
R_HRE_2
 10
0
 20
0
 30
0
 70
128
 71
19
 72
20
 73
28
 74
27
 0
VERTEX
 8
R_HRE_2
 10
0
 20
0
 30
0
 70
128
 71
21
 72
22
 73
30
 74
29
 0
VERTEX
 8
R_HRE_2
 10
0
 20
0
 30
0
 70
128
 71
23
 72
24
 73
32
 74
31
 0
VERTEX
 8
R_HRE_2
 10
0
 20
0
 30
0
 70
128
 71
25
 72
26
 73
34
 74
33
 0
VERTEX
 8
R_HRE_2
 10
0
 20
0
 30
0
 70
128
 71
27
 72
28
 73
36
 74
35
 0
VERTEX
 8
R_HRE_2
 10
0
 20
0
 30
0
 70
128
 71
29
 72
30
 73
38
 74
37
 0
VERTEX
 8
R_HRE_2
 10
0
 20
0
 30
0
 70
128
 71
31
 72
32
 73
40
 74
39
 0
VERTEX
 8
R_HRE_2
 10
0
 20
0
 30
0
 70
128
 71
33
 72
34
 73
42
 74
41
 0
VERTEX
 8
R_HRE_2
 10
0
 20
0
 30
0
 70
128
 71
35
 72
36
 73
44
 74
43
 0
VERTEX
 8
R_HRE_2
 10
0
 20
0
 30
0
 70
128
 71
37
 72
38
 73
46
 74
45
 0
VERTEX
 8
R_HRE_2
 10
0
 20
0
 30
0
 70
128
 71
39
 72
40
 73
48
 74
47
 0
VERTEX
 8
R_HRE_2
 10
0
 20
0
 30
0
 70
128
 71
41
 72
42
 73
50
 74
49
 0
VERTEX
 8
R_HRE_2
 10
0
 20
0
 30
0
 70
128
 71
43
 72
44
 73
52
 74
51
 0
VERTEX
 8
R_HRE_2
 10
0
 20
0
 30
0
 70
128
 71
45
 72
46
 73
54
 74
53
 0
VERTEX
 8
R_HRE_2
 10
0
 20
0
 30
0
 70
128
 71
47
 72
48
 73
56
 74
55
 0
VERTEX
 8
R_HRE_2
 10
0
 20
0
 30
0
 70
128
 71
49
 72
50
 73
58
 74
57
 0
VERTEX
 8
R_HRE_2
 10
0
 20
0
 30
0
 70
128
 71
51
 72
52
 73
60
 74
59
 0
VERTEX
 8
R_HRE_2
 10
0
 20
0
 30
0
 70
128
 71
53
 72
54
 73
62
 74
61
 0
VERTEX
 8
R_HRE_2
 10
0
 20
0
 30
0
 70
128
 71
55
 72
56
 73
64
 74
63
 0
VERTEX
 8
R_HRE_2
 10
0
 20
0
 30
0
 70
128
 71
57
 72
58
 73
2
 74
1
 0
VERTEX
 8
R_HRE_2
 10
0
 20
0
 30
0
 70
128
 71
59
 72
60
 73
4
 74
3
 0
VERTEX
 8
R_HRE_2
 10
0
 20
0
 30
0
 70
128
 71
61
 72
62
 73
6
 74
5
 0
VERTEX
 8
R_HRE_2
 10
0
 20
0
 30
0
 70
128
 71
63
 72
64
 73
8
 74
7
 0
SEQEND
 0
POLYLINE
 8
GRIFF_1
 66
1
 10
0.0
 20
0.0
 30
0.0
 70
64
 71
8
 72
6
 0
VERTEX
 8
GRIFF_1
 10
-23.2486
 20
-0.2782
 30
10.7218
 70
192
 0
VERTEX
 8
GRIFF_1
 10
-23.2486
 20
0.5218
 30
10.7218
 70
192
 0
VERTEX
 8
GRIFF_1
 10
-23.2486
 20
-0.2782
 30
14.7218
 70
192
 0
VERTEX
 8
GRIFF_1
 10
-23.2486
 20
0.5218
 30
14.7218
 70
192
 0
VERTEX
 8
GRIFF_1
 10
-18.7486
 20
-0.2782
 30
14.7218
 70
192
 0
VERTEX
 8
GRIFF_1
 10
-18.7486
 20
0.5218
 30
14.7218
 70
192
 0
VERTEX
 8
GRIFF_1
 10
-18.7486
 20
-0.2782
 30
10.7218
 70
192
 0
VERTEX
 8
GRIFF_1
 10
-18.7486
 20
0.5218
 30
10.7218
 70
192
 0
VERTEX
 8
GRIFF_1
 10
0
 20
0
 30
0
 70
128
 71
1
 72
2
 73
4
 74
3
 0
VERTEX
 8
GRIFF_1
 10
0
 20
0
 30
0
 70
128
 71
3
 72
4
 73
6
 74
5
 0
VERTEX
 8
GRIFF_1
 10
0
 20
0
 30
0
 70
128
 71
5
 72
6
 73
8
 74
7
 0
VERTEX
 8
GRIFF_1
 10
0
 20
0
 30
0
 70
128
 71
7
 72
8
 73
2
 74
1
 0
VERTEX
 8
GRIFF_1
 10
0
 20
0
 30
0
 70
128
 71
2
 72
8
 73
6
 74
4
 0
VERTEX
 8
GRIFF_1
 10
0
 20
0
 30
0
 70
128
 71
7
 72
1
 73
3
 74
5
 0
SEQEND
 0
POLYLINE
 8
ROSETTE_2
 66
1
 10
0.0
 20
0.0
 30
0.0
 70
64
 71
8
 72
6
 0
VERTEX
 8
ROSETTE_2
 10
4.2602
 20
-2.6282
 30
9.9916
 70
192
 0
VERTEX
 8
ROSETTE_2
 10
4.2602
 20
2.8718
 30
9.9916
 70
192
 0
VERTEX
 8
ROSETTE_2
 10
4.2602
 20
-2.6282
 30
10.4916
 70
192
 0
VERTEX
 8
ROSETTE_2
 10
4.2602
 20
2.8718
 30
10.4916
 70
192
 0
VERTEX
 8
ROSETTE_2
 10
9.7602
 20
-2.6282
 30
10.4916
 70
192
 0
VERTEX
 8
ROSETTE_2
 10
9.7602
 20
2.8718
 30
10.4916
 70
192
 0
VERTEX
 8
ROSETTE_2
 10
9.7602
 20
-2.6282
 30
9.9916
 70
192
 0
VERTEX
 8
ROSETTE_2
 10
9.7602
 20
2.8718
 30
9.9916
 70
192
 0
VERTEX
 8
ROSETTE_2
 10
0
 20
0
 30
0
 70
128
 71
1
 72
2
 73
4
 74
3
 0
VERTEX
 8
ROSETTE_2
 10
0
 20
0
 30
0
 70
128
 71
3
 72
4
 73
6
 74
5
 0
VERTEX
 8
ROSETTE_2
 10
0
 20
0
 30
0
 70
128
 71
5
 72
6
 73
8
 74
7
 0
VERTEX
 8
ROSETTE_2
 10
0
 20
0
 30
0
 70
128
 71
7
 72
8
 73
2
 74
1
 0
VERTEX
 8
ROSETTE_2
 10
0
 20
0
 30
0
 70
128
 71
2
 72
8
 73
6
 74
4
 0
VERTEX
 8
ROSETTE_2
 10
0
 20
0
 30
0
 70
128
 71
7
 72
1
 73
3
 74
5
 0
SEQEND
 0
POLYLINE
 8
R_HRE_1
 66
1
 10
0.0
 20
0.0
 30
0.0
 70
64
 71
64
 72
32
 0
VERTEX
 8
R_HRE_1
 10
6.9746
 20
-0.2465
 30
10.2699
 70
192
 0
VERTEX
 8
R_HRE_1
 10
6.9746
 20
-0.5765
 30
10.2699
 70
192
 0
VERTEX
 8
R_HRE_1
 10
6.9746
 20
-0.5765
 30
10.2699
 70
192
 0
VERTEX
 8
R_HRE_1
 10
6.9746
 20
-0.5765
 30
10.7699
 70
192
 0
VERTEX
 8
R_HRE_1
 10
6.9746
 20
-0.5765
 30
10.7699
 70
192
 0
VERTEX
 8
R_HRE_1
 10
6.9746
 20
-0.2465
 30
10.7699
 70
192
 0
VERTEX
 8
R_HRE_1
 10
6.9746
 20
-0.2465
 30
10.7699
 70
192
 0
VERTEX
 8
R_HRE_1
 10
6.9746
 20
-0.2465
 30
10.2699
 70
192
 0
VERTEX
 8
R_HRE_1
 10
7.1867
 20
-0.1586
 30
10.2699
 70
192
 0
VERTEX
 8
R_HRE_1
 10
7.42
 20
-0.392
 30
10.2699
 70
192
 0
VERTEX
 8
R_HRE_1
 10
7.42
 20
-0.392
 30
10.2699
 70
192
 0
VERTEX
 8
R_HRE_1
 10
7.42
 20
-0.392
 30
10.7699
 70
192
 0
VERTEX
 8
R_HRE_1
 10
7.42
 20
-0.392
 30
10.7699
 70
192
 0
VERTEX
 8
R_HRE_1
 10
7.1867
 20
-0.1586
 30
10.7699
 70
192
 0
VERTEX
 8
R_HRE_1
 10
7.1867
 20
-0.1586
 30
10.7699
 70
192
 0
VERTEX
 8
R_HRE_1
 10
7.1867
 20
-0.1586
 30
10.2699
 70
192
 0
VERTEX
 8
R_HRE_1
 10
7.2746
 20
0.0535
 30
10.2699
 70
192
 0
VERTEX
 8
R_HRE_1
 10
7.6046
 20
0.0535
 30
10.2699
 70
192
 0
VERTEX
 8
R_HRE_1
 10
7.6046
 20
0.0535
 30
10.2699
 70
192
 0
VERTEX
 8
R_HRE_1
 10
7.6046
 20
0.0535
 30
10.7699
 70
192
 0
VERTEX
 8
R_HRE_1
 10
7.6046
 20
0.0535
 30
10.7699
 70
192
 0
VERTEX
 8
R_HRE_1
 10
7.2746
 20
0.0535
 30
10.7699
 70
192
 0
VERTEX
 8
R_HRE_1
 10
7.2746
 20
0.0535
 30
10.7699
 70
192
 0
VERTEX
 8
R_HRE_1
 10
7.2746
 20
0.0535
 30
10.2699
 70
192
 0
VERTEX
 8
R_HRE_1
 10
7.1867
 20
0.2656
 30
10.2699
 70
192
 0
VERTEX
 8
R_HRE_1
 10
7.42
 20
0.499
 30
10.2699
 70
192
 0
VERTEX
 8
R_HRE_1
 10
7.42
 20
0.499
 30
10.2699
 70
192
 0
VERTEX
 8
R_HRE_1
 10
7.42
 20
0.499
 30
10.7699
 70
192
 0
VERTEX
 8
R_HRE_1
 10
7.42
 20
0.499
 30
10.7699
 70
192
 0
VERTEX
 8
R_HRE_1
 10
7.1867
 20
0.2656
 30
10.7699
 70
192
 0
VERTEX
 8
R_HRE_1
 10
7.1867
 20
0.2656
 30
10.7699
 70
192
 0
VERTEX
 8
R_HRE_1
 10
7.1867
 20
0.2656
 30
10.2699
 70
192
 0
VERTEX
 8
R_HRE_1
 10
6.9746
 20
0.3535
 30
10.2699
 70
192
 0
VERTEX
 8
R_HRE_1
 10
6.9746
 20
0.6835
 30
10.2699
 70
192
 0
VERTEX
 8
R_HRE_1
 10
6.9746
 20
0.6835
 30
10.2699
 70
192
 0
VERTEX
 8
R_HRE_1
 10
6.9746
 20
0.6835
 30
10.7699
 70
192
 0
VERTEX
 8
R_HRE_1
 10
6.9746
 20
0.6835
 30
10.7699
 70
192
 0
VERTEX
 8
R_HRE_1
 10
6.9746
 20
0.3535
 30
10.7699
 70
192
 0
VERTEX
 8
R_HRE_1
 10
6.9746
 20
0.3535
 30
10.7699
 70
192
 0
VERTEX
 8
R_HRE_1
 10
6.9746
 20
0.3535
 30
10.2699
 70
192
 0
VERTEX
 8
R_HRE_1
 10
6.7624
 20
0.2656
 30
10.2699
 70
192
 0
VERTEX
 8
R_HRE_1
 10
6.5291
 20
0.499
 30
10.2699
 70
192
 0
VERTEX
 8
R_HRE_1
 10
6.5291
 20
0.499
 30
10.2699
 70
192
 0
VERTEX
 8
R_HRE_1
 10
6.5291
 20
0.499
 30
10.7699
 70
192
 0
VERTEX
 8
R_HRE_1
 10
6.5291
 20
0.499
 30
10.7699
 70
192
 0
VERTEX
 8
R_HRE_1
 10
6.7624
 20
0.2656
 30
10.7699
 70
192
 0
VERTEX
 8
R_HRE_1
 10
6.7624
 20
0.2656
 30
10.7699
 70
192
 0
VERTEX
 8
R_HRE_1
 10
6.7624
 20
0.2656
 30
10.2699
 70
192
 0
VERTEX
 8
R_HRE_1
 10
6.6746
 20
0.0535
 30
10.2699
 70
192
 0
VERTEX
 8
R_HRE_1
 10
6.3446
 20
0.0535
 30
10.2699
 70
192
 0
VERTEX
 8
R_HRE_1
 10
6.3446
 20
0.0535
 30
10.2699
 70
192
 0
VERTEX
 8
R_HRE_1
 10
6.3446
 20
0.0535
 30
10.7699
 70
192
 0
VERTEX
 8
R_HRE_1
 10
6.3446
 20
0.0535
 30
10.7699
 70
192
 0
VERTEX
 8
R_HRE_1
 10
6.6746
 20
0.0535
 30
10.7699
 70
192
 0
VERTEX
 8
R_HRE_1
 10
6.6746
 20
0.0535
 30
10.7699
 70
192
 0
VERTEX
 8
R_HRE_1
 10
6.6746
 20
0.0535
 30
10.2699
 70
192
 0
VERTEX
 8
R_HRE_1
 10
6.7624
 20
-0.1586
 30
10.2699
 70
192
 0
VERTEX
 8
R_HRE_1
 10
6.5291
 20
-0.392
 30
10.2699
 70
192
 0
VERTEX
 8
R_HRE_1
 10
6.5291
 20
-0.392
 30
10.2699
 70
192
 0
VERTEX
 8
R_HRE_1
 10
6.5291
 20
-0.392
 30
10.7699
 70
192
 0
VERTEX
 8
R_HRE_1
 10
6.5291
 20
-0.392
 30
10.7699
 70
192
 0
VERTEX
 8
R_HRE_1
 10
6.7624
 20
-0.1586
 30
10.7699
 70
192
 0
VERTEX
 8
R_HRE_1
 10
6.7624
 20
-0.1586
 30
10.7699
 70
192
 0
VERTEX
 8
R_HRE_1
 10
6.7624
 20
-0.1586
 30
10.2699
 70
192
 0
VERTEX
 8
R_HRE_1
 10
0
 20
0
 30
0
 70
128
 71
1
 72
2
 73
10
 74
9
 0
VERTEX
 8
R_HRE_1
 10
0
 20
0
 30
0
 70
128
 71
3
 72
4
 73
12
 74
11
 0
VERTEX
 8
R_HRE_1
 10
0
 20
0
 30
0
 70
128
 71
5
 72
6
 73
14
 74
13
 0
VERTEX
 8
R_HRE_1
 10
0
 20
0
 30
0
 70
128
 71
7
 72
8
 73
16
 74
15
 0
VERTEX
 8
R_HRE_1
 10
0
 20
0
 30
0
 70
128
 71
9
 72
10
 73
18
 74
17
 0
VERTEX
 8
R_HRE_1
 10
0
 20
0
 30
0
 70
128
 71
11
 72
12
 73
20
 74
19
 0
VERTEX
 8
R_HRE_1
 10
0
 20
0
 30
0
 70
128
 71
13
 72
14
 73
22
 74
21
 0
VERTEX
 8
R_HRE_1
 10
0
 20
0
 30
0
 70
128
 71
15
 72
16
 73
24
 74
23
 0
VERTEX
 8
R_HRE_1
 10
0
 20
0
 30
0
 70
128
 71
17
 72
18
 73
26
 74
25
 0
VERTEX
 8
R_HRE_1
 10
0
 20
0
 30
0
 70
128
 71
19
 72
20
 73
28
 74
27
 0
VERTEX
 8
R_HRE_1
 10
0
 20
0
 30
0
 70
128
 71
21
 72
22
 73
30
 74
29
 0
VERTEX
 8
R_HRE_1
 10
0
 20
0
 30
0
 70
128
 71
23
 72
24
 73
32
 74
31
 0
VERTEX
 8
R_HRE_1
 10
0
 20
0
 30
0
 70
128
 71
25
 72
26
 73
34
 74
33
 0
VERTEX
 8
R_HRE_1
 10
0
 20
0
 30
0
 70
128
 71
27
 72
28
 73
36
 74
35
 0
VERTEX
 8
R_HRE_1
 10
0
 20
0
 30
0
 70
128
 71
29
 72
30
 73
38
 74
37
 0
VERTEX
 8
R_HRE_1
 10
0
 20
0
 30
0
 70
128
 71
31
 72
32
 73
40
 74
39
 0
VERTEX
 8
R_HRE_1
 10
0
 20
0
 30
0
 70
128
 71
33
 72
34
 73
42
 74
41
 0
VERTEX
 8
R_HRE_1
 10
0
 20
0
 30
0
 70
128
 71
35
 72
36
 73
44
 74
43
 0
VERTEX
 8
R_HRE_1
 10
0
 20
0
 30
0
 70
128
 71
37
 72
38
 73
46
 74
45
 0
VERTEX
 8
R_HRE_1
 10
0
 20
0
 30
0
 70
128
 71
39
 72
40
 73
48
 74
47
 0
VERTEX
 8
R_HRE_1
 10
0
 20
0
 30
0
 70
128
 71
41
 72
42
 73
50
 74
49
 0
VERTEX
 8
R_HRE_1
 10
0
 20
0
 30
0
 70
128
 71
43
 72
44
 73
52
 74
51
 0
VERTEX
 8
R_HRE_1
 10
0
 20
0
 30
0
 70
128
 71
45
 72
46
 73
54
 74
53
 0
VERTEX
 8
R_HRE_1
 10
0
 20
0
 30
0
 70
128
 71
47
 72
48
 73
56
 74
55
 0
VERTEX
 8
R_HRE_1
 10
0
 20
0
 30
0
 70
128
 71
49
 72
50
 73
58
 74
57
 0
VERTEX
 8
R_HRE_1
 10
0
 20
0
 30
0
 70
128
 71
51
 72
52
 73
60
 74
59
 0
VERTEX
 8
R_HRE_1
 10
0
 20
0
 30
0
 70
128
 71
53
 72
54
 73
62
 74
61
 0
VERTEX
 8
R_HRE_1
 10
0
 20
0
 30
0
 70
128
 71
55
 72
56
 73
64
 74
63
 0
VERTEX
 8
R_HRE_1
 10
0
 20
0
 30
0
 70
128
 71
57
 72
58
 73
2
 74
1
 0
VERTEX
 8
R_HRE_1
 10
0
 20
0
 30
0
 70
128
 71
59
 72
60
 73
4
 74
3
 0
VERTEX
 8
R_HRE_1
 10
0
 20
0
 30
0
 70
128
 71
61
 72
62
 73
6
 74
5
 0
VERTEX
 8
R_HRE_1
 10
0
 20
0
 30
0
 70
128
 71
63
 72
64
 73
8
 74
7
 0
SEQEND
 0
POLYLINE
 8
GRIFF
 66
1
 10
0.0
 20
0.0
 30
0.0
 70
64
 71
8
 72
6
 0
VERTEX
 8
GRIFF
 10
4.7602
 20
-0.2782
 30
10.7218
 70
192
 0
VERTEX
 8
GRIFF
 10
4.7602
 20
0.5218
 30
10.7218
 70
192
 0
VERTEX
 8
GRIFF
 10
4.7602
 20
-0.2782
 30
14.7218
 70
192
 0
VERTEX
 8
GRIFF
 10
4.7602
 20
0.5218
 30
14.7218
 70
192
 0
VERTEX
 8
GRIFF
 10
9.2602
 20
-0.2782
 30
14.7218
 70
192
 0
VERTEX
 8
GRIFF
 10
9.2602
 20
0.5218
 30
14.7218
 70
192
 0
VERTEX
 8
GRIFF
 10
9.2602
 20
-0.2782
 30
10.7218
 70
192
 0
VERTEX
 8
GRIFF
 10
9.2602
 20
0.5218
 30
10.7218
 70
192
 0
VERTEX
 8
GRIFF
 10
0
 20
0
 30
0
 70
128
 71
1
 72
2
 73
4
 74
3
 0
VERTEX
 8
GRIFF
 10
0
 20
0
 30
0
 70
128
 71
3
 72
4
 73
6
 74
5
 0
VERTEX
 8
GRIFF
 10
0
 20
0
 30
0
 70
128
 71
5
 72
6
 73
8
 74
7
 0
VERTEX
 8
GRIFF
 10
0
 20
0
 30
0
 70
128
 71
7
 72
8
 73
2
 74
1
 0
VERTEX
 8
GRIFF
 10
0
 20
0
 30
0
 70
128
 71
2
 72
8
 73
6
 74
4
 0
VERTEX
 8
GRIFF
 10
0
 20
0
 30
0
 70
128
 71
7
 72
1
 73
3
 74
5
 0
SEQEND
 0
POLYLINE
 8
ROSETTE_1
 66
1
 10
0.0
 20
0.0
 30
0.0
 70
64
 71
8
 72
6
 0
VERTEX
 8
ROSETTE_1
 10
18.2801
 20
-2.6282
 30
9.9916
 70
192
 0
VERTEX
 8
ROSETTE_1
 10
18.2801
 20
2.8718
 30
9.9916
 70
192
 0
VERTEX
 8
ROSETTE_1
 10
18.2801
 20
-2.6282
 30
10.4916
 70
192
 0
VERTEX
 8
ROSETTE_1
 10
18.2801
 20
2.8718
 30
10.4916
 70
192
 0
VERTEX
 8
ROSETTE_1
 10
23.7801
 20
-2.6282
 30
10.4916
 70
192
 0
VERTEX
 8
ROSETTE_1
 10
23.7801
 20
2.8718
 30
10.4916
 70
192
 0
VERTEX
 8
ROSETTE_1
 10
23.7801
 20
-2.6282
 30
9.9916
 70
192
 0
VERTEX
 8
ROSETTE_1
 10
23.7801
 20
2.8718
 30
9.9916
 70
192
 0
VERTEX
 8
ROSETTE_1
 10
0
 20
0
 30
0
 70
128
 71
1
 72
2
 73
4
 74
3
 0
VERTEX
 8
ROSETTE_1
 10
0
 20
0
 30
0
 70
128
 71
3
 72
4
 73
6
 74
5
 0
VERTEX
 8
ROSETTE_1
 10
0
 20
0
 30
0
 70
128
 71
5
 72
6
 73
8
 74
7
 0
VERTEX
 8
ROSETTE_1
 10
0
 20
0
 30
0
 70
128
 71
7
 72
8
 73
2
 74
1
 0
VERTEX
 8
ROSETTE_1
 10
0
 20
0
 30
0
 70
128
 71
2
 72
8
 73
6
 74
4
 0
VERTEX
 8
ROSETTE_1
 10
0
 20
0
 30
0
 70
128
 71
7
 72
1
 73
3
 74
5
 0
SEQEND
 0
POLYLINE
 8
AUSLAUF_2
 66
1
 10
0.0
 20
0.0
 30
0.0
 70
64
 71
8
 72
6
 0
VERTEX
 8
AUSLAUF_2
 10
-9.1079
 20
-0.9233
 30
25.2926
 70
192
 0
VERTEX
 8
AUSLAUF_2
 10
-9.1079
 20
-0.9233
 30
26.8926
 70
192
 0
VERTEX
 8
AUSLAUF_2
 10
-9.1079
 20
-22.9233
 30
25.2926
 70
192
 0
VERTEX
 8
AUSLAUF_2
 10
-9.1079
 20
-22.9233
 30
26.8926
 70
192
 0
VERTEX
 8
AUSLAUF_2
 10
-5.1079
 20
-22.9233
 30
25.2926
 70
192
 0
VERTEX
 8
AUSLAUF_2
 10
-5.1079
 20
-22.9233
 30
26.8926
 70
192
 0
VERTEX
 8
AUSLAUF_2
 10
-5.1079
 20
-0.9233
 30
25.2926
 70
192
 0
VERTEX
 8
AUSLAUF_2
 10
-5.1079
 20
-0.9233
 30
26.8926
 70
192
 0
VERTEX
 8
AUSLAUF_2
 10
0
 20
0
 30
0
 70
128
 71
1
 72
2
 73
4
 74
3
 0
VERTEX
 8
AUSLAUF_2
 10
0
 20
0
 30
0
 70
128
 71
3
 72
4
 73
6
 74
5
 0
VERTEX
 8
AUSLAUF_2
 10
0
 20
0
 30
0
 70
128
 71
5
 72
6
 73
8
 74
7
 0
VERTEX
 8
AUSLAUF_2
 10
0
 20
0
 30
0
 70
128
 71
7
 72
8
 73
2
 74
1
 0
VERTEX
 8
AUSLAUF_2
 10
0
 20
0
 30
0
 70
128
 71
2
 72
8
 73
6
 74
4
 0
VERTEX
 8
AUSLAUF_2
 10
0
 20
0
 30
0
 70
128
 71
7
 72
1
 73
3
 74
5
 0
SEQEND
 0
POLYLINE
 8
ROSETTE
 66
1
 10
0.0
 20
0.0
 30
0.0
 70
64
 71
8
 72
6
 0
VERTEX
 8
ROSETTE
 10
-9.9354
 20
-2.6282
 30
9.9917
 70
192
 0
VERTEX
 8
ROSETTE
 10
-9.9354
 20
2.8718
 30
9.9917
 70
192
 0
VERTEX
 8
ROSETTE
 10
-9.9354
 20
-2.6282
 30
10.4917
 70
192
 0
VERTEX
 8
ROSETTE
 10
-9.9354
 20
2.8718
 30
10.4917
 70
192
 0
VERTEX
 8
ROSETTE
 10
-4.4354
 20
-2.6282
 30
10.4917
 70
192
 0
VERTEX
 8
ROSETTE
 10
-4.4354
 20
2.8718
 30
10.4917
 70
192
 0
VERTEX
 8
ROSETTE
 10
-4.4354
 20
-2.6282
 30
9.9917
 70
192
 0
VERTEX
 8
ROSETTE
 10
-4.4354
 20
2.8718
 30
9.9917
 70
192
 0
VERTEX
 8
ROSETTE
 10
0
 20
0
 30
0
 70
128
 71
1
 72
2
 73
4
 74
3
 0
VERTEX
 8
ROSETTE
 10
0
 20
0
 30
0
 70
128
 71
3
 72
4
 73
6
 74
5
 0
VERTEX
 8
ROSETTE
 10
0
 20
0
 30
0
 70
128
 71
5
 72
6
 73
8
 74
7
 0
VERTEX
 8
ROSETTE
 10
0
 20
0
 30
0
 70
128
 71
7
 72
8
 73
2
 74
1
 0
VERTEX
 8
ROSETTE
 10
0
 20
0
 30
0
 70
128
 71
2
 72
8
 73
6
 74
4
 0
VERTEX
 8
ROSETTE
 10
0
 20
0
 30
0
 70
128
 71
7
 72
1
 73
3
 74
5
 0
SEQEND
 0
POLYLINE
 8
PELATOR
 66
1
 10
0.0
 20
0.0
 30
0.0
 70
64
 71
80
 72
40
 0
VERTEX
 8
PELATOR
 10
-5.9926
 20
-21.061
 30
24.6957
 70
192
 0
VERTEX
 8
PELATOR
 10
-5.7426
 20
-21.061
 30
24.6957
 70
192
 0
VERTEX
 8
PELATOR
 10
-5.7426
 20
-21.061
 30
24.6957
 70
192
 0
VERTEX
 8
PELATOR
 10
-5.7426
 20
-20.8522
 30
26.1811
 70
192
 0
VERTEX
 8
PELATOR
 10
-5.7426
 20
-20.8522
 30
26.1811
 70
192
 0
VERTEX
 8
PELATOR
 10
-5.9926
 20
-20.8522
 30
26.1811
 70
192
 0
VERTEX
 8
PELATOR
 10
-5.9926
 20
-20.8522
 30
26.1811
 70
192
 0
VERTEX
 8
PELATOR
 10
-5.9926
 20
-21.061
 30
24.6957
 70
192
 0
VERTEX
 8
PELATOR
 10
-6.1836
 20
-20.4789
 30
24.6139
 70
192
 0
VERTEX
 8
PELATOR
 10
-5.9813
 20
-20.3334
 30
24.5934
 70
192
 0
VERTEX
 8
PELATOR
 10
-5.9813
 20
-20.3334
 30
24.5934
 70
192
 0
VERTEX
 8
PELATOR
 10
-5.9813
 20
-20.1247
 30
26.0788
 70
192
 0
VERTEX
 8
PELATOR
 10
-5.9813
 20
-20.1247
 30
26.0788
 70
192
 0
VERTEX
 8
PELATOR
 10
-6.1836
 20
-20.2702
 30
26.0993
 70
192
 0
VERTEX
 8
PELATOR
 10
-6.1836
 20
-20.2702
 30
26.0993
 70
192
 0
VERTEX
 8
PELATOR
 10
-6.1836
 20
-20.4789
 30
24.6139
 70
192
 0
VERTEX
 8
PELATOR
 10
-6.6836
 20
-20.1192
 30
24.5633
 70
192
 0
VERTEX
 8
PELATOR
 10
-6.6063
 20
-19.8838
 30
24.5302
 70
192
 0
VERTEX
 8
PELATOR
 10
-6.6063
 20
-19.8838
 30
24.5302
 70
192
 0
VERTEX
 8
PELATOR
 10
-6.6063
 20
-19.675
 30
26.0156
 70
192
 0
VERTEX
 8
PELATOR
 10
-6.6063
 20
-19.675
 30
26.0156
 70
192
 0
VERTEX
 8
PELATOR
 10
-6.6836
 20
-19.9104
 30
26.0487
 70
192
 0
VERTEX
 8
PELATOR
 10
-6.6836
 20
-19.9104
 30
26.0487
 70
192
 0
VERTEX
 8
PELATOR
 10
-6.6836
 20
-20.1192
 30
24.5633
 70
192
 0
VERTEX
 8
PELATOR
 10
-7.3016
 20
-20.1192
 30
24.5633
 70
192
 0
VERTEX
 8
PELATOR
 10
-7.3789
 20
-19.8838
 30
24.5302
 70
192
 0
VERTEX
 8
PELATOR
 10
-7.3789
 20
-19.8838
 30
24.5302
 70
192
 0
VERTEX
 8
PELATOR
 10
-7.3789
 20
-19.675
 30
26.0156
 70
192
 0
VERTEX
 8
PELATOR
 10
-7.3789
 20
-19.675
 30
26.0156
 70
192
 0
VERTEX
 8
PELATOR
 10
-7.3016
 20
-19.9104
 30
26.0487
 70
192
 0
VERTEX
 8
PELATOR
 10
-7.3016
 20
-19.9104
 30
26.0487
 70
192
 0
VERTEX
 8
PELATOR
 10
-7.3016
 20
-20.1192
 30
24.5633
 70
192
 0
VERTEX
 8
PELATOR
 10
-7.8016
 20
-20.4789
 30
24.6139
 70
192
 0
VERTEX
 8
PELATOR
 10
-8.0039
 20
-20.3334
 30
24.5934
 70
192
 0
VERTEX
 8
PELATOR
 10
-8.0039
 20
-20.3334
 30
24.5934
 70
192
 0
VERTEX
 8
PELATOR
 10
-8.0039
 20
-20.1247
 30
26.0788
 70
192
 0
VERTEX
 8
PELATOR
 10
-8.0039
 20
-20.1247
 30
26.0788
 70
192
 0
VERTEX
 8
PELATOR
 10
-7.8016
 20
-20.2702
 30
26.0993
 70
192
 0
VERTEX
 8
PELATOR
 10
-7.8016
 20
-20.2702
 30
26.0993
 70
192
 0
VERTEX
 8
PELATOR
 10
-7.8016
 20
-20.4789
 30
24.6139
 70
192
 0
VERTEX
 8
PELATOR
 10
-7.9926
 20
-21.061
 30
24.6957
 70
192
 0
VERTEX
 8
PELATOR
 10
-8.2426
 20
-21.061
 30
24.6957
 70
192
 0
VERTEX
 8
PELATOR
 10
-8.2426
 20
-21.061
 30
24.6957
 70
192
 0
VERTEX
 8
PELATOR
 10
-8.2426
 20
-20.8522
 30
26.1811
 70
192
 0
VERTEX
 8
PELATOR
 10
-8.2426
 20
-20.8522
 30
26.1811
 70
192
 0
VERTEX
 8
PELATOR
 10
-7.9926
 20
-20.8522
 30
26.1811
 70
192
 0
VERTEX
 8
PELATOR
 10
-7.9926
 20
-20.8522
 30
26.1811
 70
192
 0
VERTEX
 8
PELATOR
 10
-7.9926
 20
-21.061
 30
24.6957
 70
192
 0
VERTEX
 8
PELATOR
 10
-7.8016
 20
-21.6431
 30
24.7775
 70
192
 0
VERTEX
 8
PELATOR
 10
-8.0039
 20
-21.7886
 30
24.7979
 70
192
 0
VERTEX
 8
PELATOR
 10
-8.0039
 20
-21.7886
 30
24.7979
 70
192
 0
VERTEX
 8
PELATOR
 10
-8.0039
 20
-21.5798
 30
26.2833
 70
192
 0
VERTEX
 8
PELATOR
 10
-8.0039
 20
-21.5798
 30
26.2833
 70
192
 0
VERTEX
 8
PELATOR
 10
-7.8016
 20
-21.4343
 30
26.2629
 70
192
 0
VERTEX
 8
PELATOR
 10
-7.8016
 20
-21.4343
 30
26.2629
 70
192
 0
VERTEX
 8
PELATOR
 10
-7.8016
 20
-21.6431
 30
24.7775
 70
192
 0
VERTEX
 8
PELATOR
 10
-7.3016
 20
-22.0028
 30
24.828
 70
192
 0
VERTEX
 8
PELATOR
 10
-7.3789
 20
-22.2383
 30
24.8611
 70
192
 0
VERTEX
 8
PELATOR
 10
-7.3789
 20
-22.2383
 30
24.8611
 70
192
 0
VERTEX
 8
PELATOR
 10
-7.3789
 20
-22.0295
 30
26.3465
 70
192
 0
VERTEX
 8
PELATOR
 10
-7.3789
 20
-22.0295
 30
26.3465
 70
192
 0
VERTEX
 8
PELATOR
 10
-7.3016
 20
-21.794
 30
26.3134
 70
192
 0
VERTEX
 8
PELATOR
 10
-7.3016
 20
-21.794
 30
26.3134
 70
192
 0
VERTEX
 8
PELATOR
 10
-7.3016
 20
-22.0028
 30
24.828
 70
192
 0
VERTEX
 8
PELATOR
 10
-6.6836
 20
-22.0028
 30
24.828
 70
192
 0
VERTEX
 8
PELATOR
 10
-6.6063
 20
-22.2383
 30
24.8611
 70
192
 0
VERTEX
 8
PELATOR
 10
-6.6063
 20
-22.2383
 30
24.8611
 70
192
 0
VERTEX
 8
PELATOR
 10
-6.6063
 20
-22.0295
 30
26.3465
 70
192
 0
VERTEX
 8
PELATOR
 10
-6.6063
 20
-22.0295
 30
26.3465
 70
192
 0
VERTEX
 8
PELATOR
 10
-6.6836
 20
-21.794
 30
26.3134
 70
192
 0
VERTEX
 8
PELATOR
 10
-6.6836
 20
-21.794
 30
26.3134
 70
192
 0
VERTEX
 8
PELATOR
 10
-6.6836
 20
-22.0028
 30
24.828
 70
192
 0
VERTEX
 8
PELATOR
 10
-6.1836
 20
-21.6431
 30
24.7775
 70
192
 0
VERTEX
 8
PELATOR
 10
-5.9813
 20
-21.7886
 30
24.7979
 70
192
 0
VERTEX
 8
PELATOR
 10
-5.9813
 20
-21.7886
 30
24.7979
 70
192
 0
VERTEX
 8
PELATOR
 10
-5.9813
 20
-21.5798
 30
26.2833
 70
192
 0
VERTEX
 8
PELATOR
 10
-5.9813
 20
-21.5798
 30
26.2833
 70
192
 0
VERTEX
 8
PELATOR
 10
-6.1836
 20
-21.4343
 30
26.2629
 70
192
 0
VERTEX
 8
PELATOR
 10
-6.1836
 20
-21.4343
 30
26.2629
 70
192
 0
VERTEX
 8
PELATOR
 10
-6.1836
 20
-21.6431
 30
24.7775
 70
192
 0
VERTEX
 8
PELATOR
 10
0
 20
0
 30
0
 70
128
 71
1
 72
2
 73
10
 74
9
 0
VERTEX
 8
PELATOR
 10
0
 20
0
 30
0
 70
128
 71
3
 72
4
 73
12
 74
11
 0
VERTEX
 8
PELATOR
 10
0
 20
0
 30
0
 70
128
 71
5
 72
6
 73
14
 74
13
 0
VERTEX
 8
PELATOR
 10
0
 20
0
 30
0
 70
128
 71
7
 72
8
 73
16
 74
15
 0
VERTEX
 8
PELATOR
 10
0
 20
0
 30
0
 70
128
 71
9
 72
10
 73
18
 74
17
 0
VERTEX
 8
PELATOR
 10
0
 20
0
 30
0
 70
128
 71
11
 72
12
 73
20
 74
19
 0
VERTEX
 8
PELATOR
 10
0
 20
0
 30
0
 70
128
 71
13
 72
14
 73
22
 74
21
 0
VERTEX
 8
PELATOR
 10
0
 20
0
 30
0
 70
128
 71
15
 72
16
 73
24
 74
23
 0
VERTEX
 8
PELATOR
 10
0
 20
0
 30
0
 70
128
 71
17
 72
18
 73
26
 74
25
 0
VERTEX
 8
PELATOR
 10
0
 20
0
 30
0
 70
128
 71
19
 72
20
 73
28
 74
27
 0
VERTEX
 8
PELATOR
 10
0
 20
0
 30
0
 70
128
 71
21
 72
22
 73
30
 74
29
 0
VERTEX
 8
PELATOR
 10
0
 20
0
 30
0
 70
128
 71
23
 72
24
 73
32
 74
31
 0
VERTEX
 8
PELATOR
 10
0
 20
0
 30
0
 70
128
 71
25
 72
26
 73
34
 74
33
 0
VERTEX
 8
PELATOR
 10
0
 20
0
 30
0
 70
128
 71
27
 72
28
 73
36
 74
35
 0
VERTEX
 8
PELATOR
 10
0
 20
0
 30
0
 70
128
 71
29
 72
30
 73
38
 74
37
 0
VERTEX
 8
PELATOR
 10
0
 20
0
 30
0
 70
128
 71
31
 72
32
 73
40
 74
39
 0
VERTEX
 8
PELATOR
 10
0
 20
0
 30
0
 70
128
 71
33
 72
34
 73
42
 74
41
 0
VERTEX
 8
PELATOR
 10
0
 20
0
 30
0
 70
128
 71
35
 72
36
 73
44
 74
43
 0
VERTEX
 8
PELATOR
 10
0
 20
0
 30
0
 70
128
 71
37
 72
38
 73
46
 74
45
 0
VERTEX
 8
PELATOR
 10
0
 20
0
 30
0
 70
128
 71
39
 72
40
 73
48
 74
47
 0
VERTEX
 8
PELATOR
 10
0
 20
0
 30
0
 70
128
 71
41
 72
42
 73
50
 74
49
 0
VERTEX
 8
PELATOR
 10
0
 20
0
 30
0
 70
128
 71
43
 72
44
 73
52
 74
51
 0
VERTEX
 8
PELATOR
 10
0
 20
0
 30
0
 70
128
 71
45
 72
46
 73
54
 74
53
 0
VERTEX
 8
PELATOR
 10
0
 20
0
 30
0
 70
128
 71
47
 72
48
 73
56
 74
55
 0
VERTEX
 8
PELATOR
 10
0
 20
0
 30
0
 70
128
 71
49
 72
50
 73
58
 74
57
 0
VERTEX
 8
PELATOR
 10
0
 20
0
 30
0
 70
128
 71
51
 72
52
 73
60
 74
59
 0
VERTEX
 8
PELATOR
 10
0
 20
0
 30
0
 70
128
 71
53
 72
54
 73
62
 74
61
 0
VERTEX
 8
PELATOR
 10
0
 20
0
 30
0
 70
128
 71
55
 72
56
 73
64
 74
63
 0
VERTEX
 8
PELATOR
 10
0
 20
0
 30
0
 70
128
 71
57
 72
58
 73
66
 74
65
 0
VERTEX
 8
PELATOR
 10
0
 20
0
 30
0
 70
128
 71
59
 72
60
 73
68
 74
67
 0
VERTEX
 8
PELATOR
 10
0
 20
0
 30
0
 70
128
 71
61
 72
62
 73
70
 74
69
 0
VERTEX
 8
PELATOR
 10
0
 20
0
 30
0
 70
128
 71
63
 72
64
 73
72
 74
71
 0
VERTEX
 8
PELATOR
 10
0
 20
0
 30
0
 70
128
 71
65
 72
66
 73
74
 74
73
 0
VERTEX
 8
PELATOR
 10
0
 20
0
 30
0
 70
128
 71
67
 72
68
 73
76
 74
75
 0
VERTEX
 8
PELATOR
 10
0
 20
0
 30
0
 70
128
 71
69
 72
70
 73
78
 74
77
 0
VERTEX
 8
PELATOR
 10
0
 20
0
 30
0
 70
128
 71
71
 72
72
 73
80
 74
79
 0
VERTEX
 8
PELATOR
 10
0
 20
0
 30
0
 70
128
 71
73
 72
74
 73
2
 74
1
 0
VERTEX
 8
PELATOR
 10
0
 20
0
 30
0
 70
128
 71
75
 72
76
 73
4
 74
3
 0
VERTEX
 8
PELATOR
 10
0
 20
0
 30
0
 70
128
 71
77
 72
78
 73
6
 74
5
 0
VERTEX
 8
PELATOR
 10
0
 20
0
 30
0
 70
128
 71
79
 72
80
 73
8
 74
7
 0
SEQEND
 0
POLYLINE
 8
R_HRE
 66
1
 10
0.0
 20
0.0
 30
0.0
 70
64
 71
80
 72
30
 0
VERTEX
 8
R_HRE
 10
-6.9925
 20
-20.9939
 30
25.2392
 70
192
 0
VERTEX
 8
R_HRE
 10
-6.9925
 20
-20.0061
 30
25.1004
 70
192
 0
VERTEX
 8
R_HRE
 10
-6.9925
 20
-20.0061
 30
25.1004
 70
192
 0
VERTEX
 8
R_HRE
 10
-6.9925
 20
-20.0792
 30
24.5805
 70
192
 0
VERTEX
 8
R_HRE
 10
-6.9925
 20
-20.0792
 30
24.5805
 70
192
 0
VERTEX
 8
R_HRE
 10
-6.9925
 20
-21.067
 30
24.7193
 70
192
 0
VERTEX
 8
R_HRE
 10
-6.9925
 20
-21.067
 30
24.7193
 70
192
 0
VERTEX
 8
R_HRE
 10
-6.9925
 20
-20.9939
 30
25.2392
 70
192
 0
VERTEX
 8
R_HRE
 10
-6.9925
 20
-20.9939
 30
25.2392
 70
192
 0
VERTEX
 8
R_HRE
 10
-6.4061
 20
-20.1948
 30
25.1269
 70
192
 0
VERTEX
 8
R_HRE
 10
-6.4061
 20
-20.1948
 30
25.1269
 70
192
 0
VERTEX
 8
R_HRE
 10
-6.4061
 20
-20.2678
 30
24.607
 70
192
 0
VERTEX
 8
R_HRE
 10
-6.4061
 20
-20.2678
 30
24.607
 70
192
 0
VERTEX
 8
R_HRE
 10
-6.9925
 20
-21.067
 30
24.7193
 70
192
 0
VERTEX
 8
R_HRE
 10
-6.9925
 20
-21.067
 30
24.7193
 70
192
 0
VERTEX
 8
R_HRE
 10
-6.9925
 20
-20.9939
 30
25.2392
 70
192
 0
VERTEX
 8
R_HRE
 10
-6.9925
 20
-20.9939
 30
25.2392
 70
192
 0
VERTEX
 8
R_HRE
 10
-6.0438
 20
-20.6887
 30
25.1963
 70
192
 0
VERTEX
 8
R_HRE
 10
-6.0438
 20
-20.6887
 30
25.1963
 70
192
 0
VERTEX
 8
R_HRE
 10
-6.0438
 20
-20.7617
 30
24.6764
 70
192
 0
VERTEX
 8
R_HRE
 10
-6.0438
 20
-20.7617
 30
24.6764
 70
192
 0
VERTEX
 8
R_HRE
 10
-6.9925
 20
-21.067
 30
24.7193
 70
192
 0
VERTEX
 8
R_HRE
 10
-6.9925
 20
-21.067
 30
24.7193
 70
192
 0
VERTEX
 8
R_HRE
 10
-6.9925
 20
-20.9939
 30
25.2392
 70
192
 0
VERTEX
 8
R_HRE
 10
-6.9925
 20
-20.9939
 30
25.2392
 70
192
 0
VERTEX
 8
R_HRE
 10
-6.0438
 20
-21.2992
 30
25.2821
 70
192
 0
VERTEX
 8
R_HRE
 10
-6.0438
 20
-21.2992
 30
25.2821
 70
192
 0
VERTEX
 8
R_HRE
 10
-6.0438
 20
-21.3722
 30
24.7622
 70
192
 0
VERTEX
 8
R_HRE
 10
-6.0438
 20
-21.3722
 30
24.7622
 70
192
 0
VERTEX
 8
R_HRE
 10
-6.9925
 20
-21.067
 30
24.7193
 70
192
 0
VERTEX
 8
R_HRE
 10
-6.9925
 20
-21.067
 30
24.7193
 70
192
 0
VERTEX
 8
R_HRE
 10
-6.9925
 20
-20.9939
 30
25.2392
 70
192
 0
VERTEX
 8
R_HRE
 10
-6.9925
 20
-20.9939
 30
25.2392
 70
192
 0
VERTEX
 8
R_HRE
 10
-6.4061
 20
-21.793
 30
25.3515
 70
192
 0
VERTEX
 8
R_HRE
 10
-6.4061
 20
-21.793
 30
25.3515
 70
192
 0
VERTEX
 8
R_HRE
 10
-6.4061
 20
-21.8661
 30
24.8316
 70
192
 0
VERTEX
 8
R_HRE
 10
-6.4061
 20
-21.8661
 30
24.8316
 70
192
 0
VERTEX
 8
R_HRE
 10
-6.9925
 20
-21.067
 30
24.7193
 70
192
 0
VERTEX
 8
R_HRE
 10
-6.9925
 20
-21.067
 30
24.7193
 70
192
 0
VERTEX
 8
R_HRE
 10
-6.9925
 20
-20.9939
 30
25.2392
 70
192
 0
VERTEX
 8
R_HRE
 10
-6.9925
 20
-20.9939
 30
25.2392
 70
192
 0
VERTEX
 8
R_HRE
 10
-6.9925
 20
-21.9817
 30
25.378
 70
192
 0
VERTEX
 8
R_HRE
 10
-6.9925
 20
-21.9817
 30
25.378
 70
192
 0
VERTEX
 8
R_HRE
 10
-6.9925
 20
-22.0548
 30
24.8581
 70
192
 0
VERTEX
 8
R_HRE
 10
-6.9925
 20
-22.0548
 30
24.8581
 70
192
 0
VERTEX
 8
R_HRE
 10
-6.9925
 20
-21.067
 30
24.7193
 70
192
 0
VERTEX
 8
R_HRE
 10
-6.9925
 20
-21.067
 30
24.7193
 70
192
 0
VERTEX
 8
R_HRE
 10
-6.9925
 20
-20.9939
 30
25.2392
 70
192
 0
VERTEX
 8
R_HRE
 10
-6.9925
 20
-20.9939
 30
25.2392
 70
192
 0
VERTEX
 8
R_HRE
 10
-7.5788
 20
-21.793
 30
25.3515
 70
192
 0
VERTEX
 8
R_HRE
 10
-7.5788
 20
-21.793
 30
25.3515
 70
192
 0
VERTEX
 8
R_HRE
 10
-7.5788
 20
-21.8661
 30
24.8316
 70
192
 0
VERTEX
 8
R_HRE
 10
-7.5788
 20
-21.8661
 30
24.8316
 70
192
 0
VERTEX
 8
R_HRE
 10
-6.9925
 20
-21.067
 30
24.7193
 70
192
 0
VERTEX
 8
R_HRE
 10
-6.9925
 20
-21.067
 30
24.7193
 70
192
 0
VERTEX
 8
R_HRE
 10
-6.9925
 20
-20.9939
 30
25.2392
 70
192
 0
VERTEX
 8
R_HRE
 10
-6.9925
 20
-20.9939
 30
25.2392
 70
192
 0
VERTEX
 8
R_HRE
 10
-7.9411
 20
-21.2992
 30
25.2821
 70
192
 0
VERTEX
 8
R_HRE
 10
-7.9411
 20
-21.2992
 30
25.2821
 70
192
 0
VERTEX
 8
R_HRE
 10
-7.9411
 20
-21.3722
 30
24.7622
 70
192
 0
VERTEX
 8
R_HRE
 10
-7.9411
 20
-21.3722
 30
24.7622
 70
192
 0
VERTEX
 8
R_HRE
 10
-6.9925
 20
-21.067
 30
24.7193
 70
192
 0
VERTEX
 8
R_HRE
 10
-6.9925
 20
-21.067
 30
24.7193
 70
192
 0
VERTEX
 8
R_HRE
 10
-6.9925
 20
-20.9939
 30
25.2392
 70
192
 0
VERTEX
 8
R_HRE
 10
-6.9925
 20
-20.9939
 30
25.2392
 70
192
 0
VERTEX
 8
R_HRE
 10
-7.9411
 20
-20.6887
 30
25.1963
 70
192
 0
VERTEX
 8
R_HRE
 10
-7.9411
 20
-20.6887
 30
25.1963
 70
192
 0
VERTEX
 8
R_HRE
 10
-7.9411
 20
-20.7617
 30
24.6764
 70
192
 0
VERTEX
 8
R_HRE
 10
-7.9411
 20
-20.7617
 30
24.6764
 70
192
 0
VERTEX
 8
R_HRE
 10
-6.9925
 20
-21.067
 30
24.7193
 70
192
 0
VERTEX
 8
R_HRE
 10
-6.9925
 20
-21.067
 30
24.7193
 70
192
 0
VERTEX
 8
R_HRE
 10
-6.9925
 20
-20.9939
 30
25.2392
 70
192
 0
VERTEX
 8
R_HRE
 10
-6.9925
 20
-20.9939
 30
25.2392
 70
192
 0
VERTEX
 8
R_HRE
 10
-7.5788
 20
-20.1948
 30
25.1269
 70
192
 0
VERTEX
 8
R_HRE
 10
-7.5788
 20
-20.1948
 30
25.1269
 70
192
 0
VERTEX
 8
R_HRE
 10
-7.5788
 20
-20.2678
 30
24.607
 70
192
 0
VERTEX
 8
R_HRE
 10
-7.5788
 20
-20.2678
 30
24.607
 70
192
 0
VERTEX
 8
R_HRE
 10
-6.9925
 20
-21.067
 30
24.7193
 70
192
 0
VERTEX
 8
R_HRE
 10
-6.9925
 20
-21.067
 30
24.7193
 70
192
 0
VERTEX
 8
R_HRE
 10
-6.9925
 20
-20.9939
 30
25.2392
 70
192
 0
VERTEX
 8
R_HRE
 10
0
 20
0
 30
0
 70
128
 71
1
 72
2
 73
10
 74
10
 0
VERTEX
 8
R_HRE
 10
0
 20
0
 30
0
 70
128
 71
3
 72
4
 73
12
 74
11
 0
VERTEX
 8
R_HRE
 10
0
 20
0
 30
0
 70
128
 71
5
 72
14
 73
13
 74
13
 0
VERTEX
 8
R_HRE
 10
0
 20
0
 30
0
 70
128
 71
9
 72
10
 73
18
 74
18
 0
VERTEX
 8
R_HRE
 10
0
 20
0
 30
0
 70
128
 71
11
 72
12
 73
20
 74
19
 0
VERTEX
 8
R_HRE
 10
0
 20
0
 30
0
 70
128
 71
13
 72
22
 73
21
 74
21
 0
VERTEX
 8
R_HRE
 10
0
 20
0
 30
0
 70
128
 71
17
 72
18
 73
26
 74
26
 0
VERTEX
 8
R_HRE
 10
0
 20
0
 30
0
 70
128
 71
19
 72
20
 73
28
 74
27
 0
VERTEX
 8
R_HRE
 10
0
 20
0
 30
0
 70
128
 71
21
 72
30
 73
29
 74
29
 0
VERTEX
 8
R_HRE
 10
0
 20
0
 30
0
 70
128
 71
25
 72
26
 73
34
 74
34
 0
VERTEX
 8
R_HRE
 10
0
 20
0
 30
0
 70
128
 71
27
 72
28
 73
36
 74
35
 0
VERTEX
 8
R_HRE
 10
0
 20
0
 30
0
 70
128
 71
29
 72
38
 73
37
 74
37
 0
VERTEX
 8
R_HRE
 10
0
 20
0
 30
0
 70
128
 71
33
 72
34
 73
42
 74
42
 0
VERTEX
 8
R_HRE
 10
0
 20
0
 30
0
 70
128
 71
35
 72
36
 73
44
 74
43
 0
VERTEX
 8
R_HRE
 10
0
 20
0
 30
0
 70
128
 71
37
 72
46
 73
45
 74
45
 0
VERTEX
 8
R_HRE
 10
0
 20
0
 30
0
 70
128
 71
41
 72
42
 73
50
 74
50
 0
VERTEX
 8
R_HRE
 10
0
 20
0
 30
0
 70
128
 71
43
 72
44
 73
52
 74
51
 0
VERTEX
 8
R_HRE
 10
0
 20
0
 30
0
 70
128
 71
45
 72
54
 73
53
 74
53
 0
VERTEX
 8
R_HRE
 10
0
 20
0
 30
0
 70
128
 71
49
 72
50
 73
58
 74
58
 0
VERTEX
 8
R_HRE
 10
0
 20
0
 30
0
 70
128
 71
51
 72
52
 73
60
 74
59
 0
VERTEX
 8
R_HRE
 10
0
 20
0
 30
0
 70
128
 71
53
 72
62
 73
61
 74
61
 0
VERTEX
 8
R_HRE
 10
0
 20
0
 30
0
 70
128
 71
57
 72
58
 73
66
 74
66
 0
VERTEX
 8
R_HRE
 10
0
 20
0
 30
0
 70
128
 71
59
 72
60
 73
68
 74
67
 0
VERTEX
 8
R_HRE
 10
0
 20
0
 30
0
 70
128
 71
61
 72
70
 73
69
 74
69
 0
VERTEX
 8
R_HRE
 10
0
 20
0
 30
0
 70
128
 71
65
 72
66
 73
74
 74
74
 0
VERTEX
 8
R_HRE
 10
0
 20
0
 30
0
 70
128
 71
67
 72
68
 73
76
 74
75
 0
VERTEX
 8
R_HRE
 10
0
 20
0
 30
0
 70
128
 71
69
 72
78
 73
77
 74
77
 0
VERTEX
 8
R_HRE
 10
0
 20
0
 30
0
 70
128
 71
73
 72
74
 73
2
 74
2
 0
VERTEX
 8
R_HRE
 10
0
 20
0
 30
0
 70
128
 71
75
 72
76
 73
4
 74
3
 0
VERTEX
 8
R_HRE
 10
0
 20
0
 30
0
 70
128
 71
77
 72
6
 73
5
 74
5
 0
SEQEND
 0
POLYLINE
 8
AUSLAUF-EXENTER
 66
1
 10
0.0
 20
0.0
 30
0.0
 70
64
 71
20
 72
23
 0
VERTEX
 8
AUSLAUF-EXENTER
 10
-9.1092
 20
0.6675
 30
10.4918
 70
192
 0
VERTEX
 8
AUSLAUF-EXENTER
 10
-9.1092
 20
0.6675
 30
26.8918
 70
192
 0
VERTEX
 8
AUSLAUF-EXENTER
 10
-9.1092
 20
-0.9325
 30
10.4918
 70
192
 0
VERTEX
 8
AUSLAUF-EXENTER
 10
-9.1092
 20
-0.9325
 30
26.8918
 70
192
 0
VERTEX
 8
AUSLAUF-EXENTER
 10
-5.1092
 20
-0.9325
 30
10.4918
 70
192
 0
VERTEX
 8
AUSLAUF-EXENTER
 10
-5.1092
 20
-0.9325
 30
26.8918
 70
192
 0
VERTEX
 8
AUSLAUF-EXENTER
 10
-5.1092
 20
0.6675
 30
10.4918
 70
192
 0
VERTEX
 8
AUSLAUF-EXENTER
 10
-5.1092
 20
0.6675
 30
26.8918
 70
192
 0
VERTEX
 8
AUSLAUF-EXENTER
 10
-6.9914
 20
0.6675
 30
10.9867
 70
192
 0
VERTEX
 8
AUSLAUF-EXENTER
 10
-6.9035
 20
0.6675
 30
11.1988
 70
192
 0
VERTEX
 8
AUSLAUF-EXENTER
 10
-6.9035
 20
0.6675
 30
14.5988
 70
192
 0
VERTEX
 8
AUSLAUF-EXENTER
 10
-6.9914
 20
0.6675
 30
14.8109
 70
192
 0
VERTEX
 8
AUSLAUF-EXENTER
 10
-7.0082
 20
0.6675
 30
10.9867
 70
192
 0
VERTEX
 8
AUSLAUF-EXENTER
 10
-7.0961
 20
0.6675
 30
11.1988
 70
192
 0
VERTEX
 8
AUSLAUF-EXENTER
 10
-7.0961
 20
0.6675
 30
14.5988
 70
192
 0
VERTEX
 8
AUSLAUF-EXENTER
 10
-7.0082
 20
0.6675
 30
14.8109
 70
192
 0
VERTEX
 8
AUSLAUF-EXENTER
 10
-6.9998
 20
0.6254
 30
10.9867
 70
192
 0
VERTEX
 8
AUSLAUF-EXENTER
 10
-6.9998
 20
0.1861
 30
11.1988
 70
192
 0
VERTEX
 8
AUSLAUF-EXENTER
 10
-6.9998
 20
0.1861
 30
14.5988
 70
192
 0
VERTEX
 8
AUSLAUF-EXENTER
 10
-6.9998
 20
0.6254
 30
14.8109
 70
192
 0
VERTEX
 8
AUSLAUF-EXENTER
 10
0
 20
0
 30
0
 70
128
 71
1
 72
2
 73
4
 74
3
 0
VERTEX
 8
AUSLAUF-EXENTER
 10
0
 20
0
 30
0
 70
128
 71
3
 72
4
 73
6
 74
5
 0
VERTEX
 8
AUSLAUF-EXENTER
 10
0
 20
0
 30
0
 70
128
 71
5
 72
6
 73
8
 74
7
 0
VERTEX
 8
AUSLAUF-EXENTER
 10
0
 20
0
 30
0
 70
128
 71
13
 72
1
 73
7
 74
7
 0
VERTEX
 8
AUSLAUF-EXENTER
 10
0
 20
0
 30
0
 70
128
 71
1
 72
13
 73
14
 74
14
 0
VERTEX
 8
AUSLAUF-EXENTER
 10
0
 20
0
 30
0
 70
128
 71
9
 72
13
 73
7
 74
7
 0
VERTEX
 8
AUSLAUF-EXENTER
 10
0
 20
0
 30
0
 70
128
 71
10
 72
9
 73
7
 74
7
 0
VERTEX
 8
AUSLAUF-EXENTER
 10
0
 20
0
 30
0
 70
128
 71
11
 72
10
 73
7
 74
8
 0
VERTEX
 8
AUSLAUF-EXENTER
 10
0
 20
0
 30
0
 70
128
 71
2
 72
1
 73
14
 74
15
 0
VERTEX
 8
AUSLAUF-EXENTER
 10
0
 20
0
 30
0
 70
128
 71
2
 72
15
 73
16
 74
16
 0
VERTEX
 8
AUSLAUF-EXENTER
 10
0
 20
0
 30
0
 70
128
 71
11
 72
8
 73
12
 74
12
 0
VERTEX
 8
AUSLAUF-EXENTER
 10
0
 20
0
 30
0
 70
128
 71
12
 72
8
 73
16
 74
16
 0
VERTEX
 8
AUSLAUF-EXENTER
 10
0
 20
0
 30
0
 70
128
 71
2
 72
16
 73
8
 74
8
 0
VERTEX
 8
AUSLAUF-EXENTER
 10
0
 20
0
 30
0
 70
128
 71
2
 72
8
 73
6
 74
4
 0
VERTEX
 8
AUSLAUF-EXENTER
 10
0
 20
0
 30
0
 70
128
 71
7
 72
1
 73
3
 74
5
 0
VERTEX
 8
AUSLAUF-EXENTER
 10
0
 20
0
 30
0
 70
128
 71
17
 72
13
 73
9
 74
9
 0
VERTEX
 8
AUSLAUF-EXENTER
 10
0
 20
0
 30
0
 70
128
 71
18
 72
17
 73
9
 74
10
 0
VERTEX
 8
AUSLAUF-EXENTER
 10
0
 20
0
 30
0
 70
128
 71
18
 72
10
 73
11
 74
19
 0
VERTEX
 8
AUSLAUF-EXENTER
 10
0
 20
0
 30
0
 70
128
 71
19
 72
11
 73
12
 74
20
 0
VERTEX
 8
AUSLAUF-EXENTER
 10
0
 20
0
 30
0
 70
128
 71
20
 72
12
 73
16
 74
16
 0
VERTEX
 8
AUSLAUF-EXENTER
 10
0
 20
0
 30
0
 70
128
 71
13
 72
17
 73
18
 74
14
 0
VERTEX
 8
AUSLAUF-EXENTER
 10
0
 20
0
 30
0
 70
128
 71
19
 72
15
 73
14
 74
18
 0
VERTEX
 8
AUSLAUF-EXENTER
 10
0
 20
0
 30
0
 70
128
 71
16
 72
15
 73
19
 74
20
 0
SEQEND
 0
POLYLINE
 8
EXENTER_1
 66
1
 10
0.0
 20
0.0
 30
0.0
 70
64
 71
8
 72
6
 0
VERTEX
 8
EXENTER_1
 10
-7.7498
 20
2.973
 30
12.2844
 70
192
 0
VERTEX
 8
EXENTER_1
 10
-7.7498
 20
2.973
 30
12.8844
 70
192
 0
VERTEX
 8
EXENTER_1
 10
-7.7498
 20
0.973
 30
12.2844
 70
192
 0
VERTEX
 8
EXENTER_1
 10
-7.7498
 20
0.973
 30
12.8844
 70
192
 0
VERTEX
 8
EXENTER_1
 10
-6.2498
 20
0.973
 30
12.2844
 70
192
 0
VERTEX
 8
EXENTER_1
 10
-6.2498
 20
0.973
 30
12.8844
 70
192
 0
VERTEX
 8
EXENTER_1
 10
-6.2498
 20
2.973
 30
12.2844
 70
192
 0
VERTEX
 8
EXENTER_1
 10
-6.2498
 20
2.973
 30
12.8844
 70
192
 0
VERTEX
 8
EXENTER_1
 10
0
 20
0
 30
0
 70
128
 71
1
 72
2
 73
4
 74
3
 0
VERTEX
 8
EXENTER_1
 10
0
 20
0
 30
0
 70
128
 71
3
 72
4
 73
6
 74
5
 0
VERTEX
 8
EXENTER_1
 10
0
 20
0
 30
0
 70
128
 71
5
 72
6
 73
8
 74
7
 0
VERTEX
 8
EXENTER_1
 10
0
 20
0
 30
0
 70
128
 71
7
 72
8
 73
2
 74
1
 0
VERTEX
 8
EXENTER_1
 10
0
 20
0
 30
0
 70
128
 71
2
 72
8
 73
6
 74
4
 0
VERTEX
 8
EXENTER_1
 10
0
 20
0
 30
0
 70
128
 71
7
 72
1
 73
3
 74
5
 0
SEQEND
 0
POLYLINE
 8
EXENTER_2
 66
1
 10
0.0
 20
0.0
 30
0.0
 70
64
 71
12
 72
6
 0
VERTEX
 8
EXENTER_2
 10
-6.9998
 20
1.462
 30
12.3954
 70
192
 0
VERTEX
 8
EXENTER_2
 10
-6.9998
 20
-0.4005
 30
12.3954
 70
192
 0
VERTEX
 8
EXENTER_2
 10
-6.8266
 20
1.462
 30
12.4954
 70
192
 0
VERTEX
 8
EXENTER_2
 10
-6.8266
 20
-0.4005
 30
12.4954
 70
192
 0
VERTEX
 8
EXENTER_2
 10
-6.8266
 20
1.462
 30
12.6954
 70
192
 0
VERTEX
 8
EXENTER_2
 10
-6.8266
 20
-0.4005
 30
12.6954
 70
192
 0
VERTEX
 8
EXENTER_2
 10
-6.9998
 20
1.462
 30
12.7954
 70
192
 0
VERTEX
 8
EXENTER_2
 10
-6.9998
 20
-0.4005
 30
12.7954
 70
192
 0
VERTEX
 8
EXENTER_2
 10
-7.173
 20
1.462
 30
12.6954
 70
192
 0
VERTEX
 8
EXENTER_2
 10
-7.173
 20
-0.4005
 30
12.6954
 70
192
 0
VERTEX
 8
EXENTER_2
 10
-7.173
 20
1.462
 30
12.4954
 70
192
 0
VERTEX
 8
EXENTER_2
 10
-7.173
 20
-0.4005
 30
12.4954
 70
192
 0
VERTEX
 8
EXENTER_2
 10
0
 20
0
 30
0
 70
128
 71
1
 72
2
 73
4
 74
3
 0
VERTEX
 8
EXENTER_2
 10
0
 20
0
 30
0
 70
128
 71
3
 72
4
 73
6
 74
5
 0
VERTEX
 8
EXENTER_2
 10
0
 20
0
 30
0
 70
128
 71
5
 72
6
 73
8
 74
7
 0
VERTEX
 8
EXENTER_2
 10
0
 20
0
 30
0
 70
128
 71
7
 72
8
 73
10
 74
9
 0
VERTEX
 8
EXENTER_2
 10
0
 20
0
 30
0
 70
128
 71
9
 72
10
 73
12
 74
11
 0
VERTEX
 8
EXENTER_2
 10
0
 20
0
 30
0
 70
128
 71
11
 72
12
 73
2
 74
1
 0
SEQEND
 0
POLYLINE
 8
KEGEL
 66
1
 10
0.0
 20
0.0
 30
0.0
 70
64
 71
14
 72
14
 0
VERTEX
 8
KEGEL
 10
20.8487
 20
0.9319
 30
10.1421
 70
192
 0
VERTEX
 8
KEGEL
 10
19.7774
 20
0.7842
 30
12.1421
 70
192
 0
VERTEX
 8
KEGEL
 10
21.1613
 20
-0.8408
 30
10.1421
 70
192
 0
VERTEX
 8
KEGEL
 10
20.3155
 20
-0.533
 30
10.1421
 70
192
 0
VERTEX
 8
KEGEL
 10
22.1998
 20
0.7503
 30
12.1421
 70
192
 0
VERTEX
 8
KEGEL
 10
22.1998
 20
-0.6592
 30
12.1421
 70
192
 0
VERTEX
 8
KEGEL
 10
20.1186
 20
-0.1107
 30
10.1421
 70
192
 0
VERTEX
 8
KEGEL
 10
21.455
 20
0.825
 30
10.1421
 70
192
 0
VERTEX
 8
KEGEL
 10
20.3155
 20
0.6241
 30
10.1421
 70
192
 0
VERTEX
 8
KEGEL
 10
21.8913
 20
0.2018
 30
10.1421
 70
192
 0
VERTEX
 8
KEGEL
 10
19.7102
 20
-0.604
 30
12.1421
 70
192
 0
VERTEX
 8
KEGEL
 10
19.7774
 20
-0.6931
 30
12.1421
 70
192
 0
VERTEX
 8
KEGEL
 10
21.7844
 20
-0.4044
 30
10.1421
 70
192
 0
VERTEX
 8
KEGEL
 10
20.6972
 20
-0.8002
 30
10.1421
 70
192
 0
VERTEX
 8
KEGEL
 10
0
 20
0
 30
0
 70
128
 71
1
 72
5
 73
2
 74
2
 0
VERTEX
 8
KEGEL
 10
0
 20
0
 30
0
 70
128
 71
1
 72
11
 73
9
 74
9
 0
VERTEX
 8
KEGEL
 10
0
 20
0
 30
0
 70
128
 71
7
 72
11
 73
4
 74
4
 0
VERTEX
 8
KEGEL
 10
0
 20
0
 30
0
 70
128
 71
14
 72
6
 73
3
 74
3
 0
VERTEX
 8
KEGEL
 10
0
 20
0
 30
0
 70
128
 71
3
 72
6
 73
13
 74
13
 0
VERTEX
 8
KEGEL
 10
0
 20
0
 30
0
 70
128
 71
8
 72
5
 73
1
 74
1
 0
VERTEX
 8
KEGEL
 10
0
 20
0
 30
0
 70
128
 71
14
 72
12
 73
6
 74
6
 0
VERTEX
 8
KEGEL
 10
0
 20
0
 30
0
 70
128
 71
13
 72
6
 73
5
 74
5
 0
VERTEX
 8
KEGEL
 10
0
 20
0
 30
0
 70
128
 71
14
 72
11
 73
12
 74
12
 0
VERTEX
 8
KEGEL
 10
0
 20
0
 30
0
 70
128
 71
1
 72
2
 73
11
 74
11
 0
VERTEX
 8
KEGEL
 10
0
 20
0
 30
0
 70
128
 71
10
 72
5
 73
8
 74
8
 0
VERTEX
 8
KEGEL
 10
0
 20
0
 30
0
 70
128
 71
13
 72
5
 73
10
 74
10
 0
VERTEX
 8
KEGEL
 10
0
 20
0
 30
0
 70
128
 71
4
 72
11
 73
14
 74
14
 0
VERTEX
 8
KEGEL
 10
0
 20
0
 30
0
 70
128
 71
9
 72
11
 73
7
 74
7
 0
SEQEND
 0
POLYLINE
 8
HANDBRAUSE_1
 66
1
 10
0.0
 20
0.0
 30
0.0
 70
64
 71
240
 72
245
 0
VERTEX
 8
HANDBRAUSE_1
 10
19.7107
 20
0.7933
 30
12.0436
 70
192
 0
VERTEX
 8
HANDBRAUSE_1
 10
19.7107
 20
0.7143
 30
13.25
 70
192
 0
VERTEX
 8
HANDBRAUSE_1
 10
19.7107
 20
0.4318
 30
14.4636
 70
192
 0
VERTEX
 8
HANDBRAUSE_1
 10
21.2963
 20
-7.299
 30
31.3333
 70
192
 0
VERTEX
 8
HANDBRAUSE_1
 10
20.4814
 20
-6.9793
 30
30.4549
 70
192
 0
VERTEX
 8
HANDBRAUSE_1
 10
20.4814
 20
-6.928
 30
30.314
 70
192
 0
VERTEX
 8
HANDBRAUSE_1
 10
20.6314
 20
-6.928
 30
30.314
 70
192
 0
VERTEX
 8
HANDBRAUSE_1
 10
20.6314
 20
-6.9793
 30
30.4549
 70
192
 0
VERTEX
 8
HANDBRAUSE_1
 10
20.4814
 20
-7.1376
 30
30.8897
 70
192
 0
VERTEX
 8
HANDBRAUSE_1
 10
20.4814
 20
-7.0863
 30
30.7488
 70
192
 0
VERTEX
 8
HANDBRAUSE_1
 10
20.6314
 20
-7.0863
 30
30.7488
 70
192
 0
VERTEX
 8
HANDBRAUSE_1
 10
20.6314
 20
-7.1376
 30
30.8897
 70
192
 0
VERTEX
 8
HANDBRAUSE_1
 10
20.8794
 20
-6.9793
 30
30.4549
 70
192
 0
VERTEX
 8
HANDBRAUSE_1
 10
20.8794
 20
-6.928
 30
30.314
 70
192
 0
VERTEX
 8
HANDBRAUSE_1
 10
21.0294
 20
-6.928
 30
30.314
 70
192
 0
VERTEX
 8
HANDBRAUSE_1
 10
21.6943
 20
-7.299
 30
31.3333
 70
192
 0
VERTEX
 8
HANDBRAUSE_1
 10
19.7107
 20
-4.1563
 30
27.0843
 70
192
 0
VERTEX
 8
HANDBRAUSE_1
 10
19.7107
 20
-4.4827
 30
27.9813
 70
192
 0
VERTEX
 8
HANDBRAUSE_1
 10
19.7107
 20
-4.8092
 30
28.8783
 70
192
 0
VERTEX
 8
HANDBRAUSE_1
 10
19.7107
 20
-5.1357
 30
29.7753
 70
192
 0
VERTEX
 8
HANDBRAUSE_1
 10
19.7107
 20
-5.4621
 30
30.6723
 70
192
 0
VERTEX
 8
HANDBRAUSE_1
 10
19.7107
 20
-5.7886
 30
31.5692
 70
192
 0
VERTEX
 8
HANDBRAUSE_1
 10
19.7107
 20
-6.1151
 30
32.4662
 70
192
 0
VERTEX
 8
HANDBRAUSE_1
 10
19.7107
 20
-0.7067
 30
12.0436
 70
192
 0
VERTEX
 8
HANDBRAUSE_1
 10
19.7107
 20
-0.7699
 30
13.0327
 70
192
 0
VERTEX
 8
HANDBRAUSE_1
 10
19.7107
 20
-0.9958
 30
14.0032
 70
192
 0
VERTEX
 8
HANDBRAUSE_1
 10
21.2963
 20
-7.2477
 30
31.1924
 70
192
 0
VERTEX
 8
HANDBRAUSE_1
 10
21.0294
 20
-6.9793
 30
30.4549
 70
192
 0
VERTEX
 8
HANDBRAUSE_1
 10
20.8794
 20
-7.1376
 30
30.8897
 70
192
 0
VERTEX
 8
HANDBRAUSE_1
 10
20.8794
 20
-7.0863
 30
30.7488
 70
192
 0
VERTEX
 8
HANDBRAUSE_1
 10
21.0294
 20
-7.0863
 30
30.7488
 70
192
 0
VERTEX
 8
HANDBRAUSE_1
 10
21.0294
 20
-7.1376
 30
30.8897
 70
192
 0
VERTEX
 8
HANDBRAUSE_1
 10
21.2963
 20
-6.9793
 30
30.4549
 70
192
 0
VERTEX
 8
HANDBRAUSE_1
 10
21.2963
 20
-6.928
 30
30.314
 70
192
 0
VERTEX
 8
HANDBRAUSE_1
 10
21.4463
 20
-6.928
 30
30.314
 70
192
 0
VERTEX
 8
HANDBRAUSE_1
 10
21.4463
 20
-6.9793
 30
30.4549
 70
192
 0
VERTEX
 8
HANDBRAUSE_1
 10
21.2963
 20
-7.1376
 30
30.8897
 70
192
 0
VERTEX
 8
HANDBRAUSE_1
 10
21.2963
 20
-7.0863
 30
30.7488
 70
192
 0
VERTEX
 8
HANDBRAUSE_1
 10
21.6943
 20
-7.2477
 30
31.1924
 70
192
 0
VERTEX
 8
HANDBRAUSE_1
 10
19.7107
 20
-5.5658
 30
26.5713
 70
192
 0
VERTEX
 8
HANDBRAUSE_1
 10
19.7107
 20
-5.8923
 30
27.4683
 70
192
 0
VERTEX
 8
HANDBRAUSE_1
 10
19.7107
 20
-6.2187
 30
28.3653
 70
192
 0
VERTEX
 8
HANDBRAUSE_1
 10
19.7107
 20
-6.5452
 30
29.2622
 70
192
 0
VERTEX
 8
HANDBRAUSE_1
 10
19.7107
 20
-6.8717
 30
30.1592
 70
192
 0
VERTEX
 8
HANDBRAUSE_1
 10
19.7107
 20
-7.1982
 30
31.0562
 70
192
 0
VERTEX
 8
HANDBRAUSE_1
 10
19.7107
 20
-7.5246
 30
31.9532
 70
192
 0
VERTEX
 8
HANDBRAUSE_1
 10
22.2107
 20
-0.7067
 30
12.0436
 70
192
 0
VERTEX
 8
HANDBRAUSE_1
 10
22.2107
 20
-0.7699
 30
13.0327
 70
192
 0
VERTEX
 8
HANDBRAUSE_1
 10
22.2107
 20
-0.9958
 30
14.0032
 70
192
 0
VERTEX
 8
HANDBRAUSE_1
 10
21.4463
 20
-7.2477
 30
31.1924
 70
192
 0
VERTEX
 8
HANDBRAUSE_1
 10
21.4463
 20
-7.0863
 30
30.7488
 70
192
 0
VERTEX
 8
HANDBRAUSE_1
 10
21.4463
 20
-7.1376
 30
30.8897
 70
192
 0
VERTEX
 8
HANDBRAUSE_1
 10
21.6943
 20
-6.9793
 30
30.4549
 70
192
 0
VERTEX
 8
HANDBRAUSE_1
 10
21.6943
 20
-6.928
 30
30.314
 70
192
 0
VERTEX
 8
HANDBRAUSE_1
 10
21.8443
 20
-6.928
 30
30.314
 70
192
 0
VERTEX
 8
HANDBRAUSE_1
 10
21.8443
 20
-6.9793
 30
30.4549
 70
192
 0
VERTEX
 8
HANDBRAUSE_1
 10
21.6943
 20
-7.1376
 30
30.8897
 70
192
 0
VERTEX
 8
HANDBRAUSE_1
 10
21.6943
 20
-7.0863
 30
30.7488
 70
192
 0
VERTEX
 8
HANDBRAUSE_1
 10
21.8443
 20
-7.0863
 30
30.7488
 70
192
 0
VERTEX
 8
HANDBRAUSE_1
 10
21.8443
 20
-7.1376
 30
30.8897
 70
192
 0
VERTEX
 8
HANDBRAUSE_1
 10
20.0834
 20
-7.299
 30
31.3333
 70
192
 0
VERTEX
 8
HANDBRAUSE_1
 10
21.8443
 20
-7.2477
 30
31.1924
 70
192
 0
VERTEX
 8
HANDBRAUSE_1
 10
22.2107
 20
-5.5658
 30
26.5713
 70
192
 0
VERTEX
 8
HANDBRAUSE_1
 10
22.2107
 20
-5.8923
 30
27.4683
 70
192
 0
VERTEX
 8
HANDBRAUSE_1
 10
22.2107
 20
-6.2187
 30
28.3653
 70
192
 0
VERTEX
 8
HANDBRAUSE_1
 10
22.2107
 20
-6.5452
 30
29.2622
 70
192
 0
VERTEX
 8
HANDBRAUSE_1
 10
22.2107
 20
-6.8717
 30
30.1592
 70
192
 0
VERTEX
 8
HANDBRAUSE_1
 10
22.2107
 20
-7.1982
 30
31.0562
 70
192
 0
VERTEX
 8
HANDBRAUSE_1
 10
22.2107
 20
-7.5246
 30
31.9532
 70
192
 0
VERTEX
 8
HANDBRAUSE_1
 10
22.2107
 20
0.7933
 30
12.0436
 70
192
 0
VERTEX
 8
HANDBRAUSE_1
 10
22.2107
 20
0.7143
 30
13.25
 70
192
 0
VERTEX
 8
HANDBRAUSE_1
 10
22.2107
 20
0.4318
 30
14.4636
 70
192
 0
VERTEX
 8
HANDBRAUSE_1
 10
21.4463
 20
-7.299
 30
31.3333
 70
192
 0
VERTEX
 8
HANDBRAUSE_1
 10
20.0834
 20
-7.2477
 30
31.1924
 70
192
 0
VERTEX
 8
HANDBRAUSE_1
 10
20.2334
 20
-7.2477
 30
31.1924
 70
192
 0
VERTEX
 8
HANDBRAUSE_1
 10
20.2334
 20
-7.299
 30
31.3333
 70
192
 0
VERTEX
 8
HANDBRAUSE_1
 10
20.4814
 20
-7.299
 30
31.3333
 70
192
 0
VERTEX
 8
HANDBRAUSE_1
 10
20.4814
 20
-7.2477
 30
31.1924
 70
192
 0
VERTEX
 8
HANDBRAUSE_1
 10
20.6314
 20
-7.2477
 30
31.1924
 70
192
 0
VERTEX
 8
HANDBRAUSE_1
 10
20.6314
 20
-7.299
 30
31.3333
 70
192
 0
VERTEX
 8
HANDBRAUSE_1
 10
20.8794
 20
-7.299
 30
31.3333
 70
192
 0
VERTEX
 8
HANDBRAUSE_1
 10
20.8794
 20
-7.2477
 30
31.1924
 70
192
 0
VERTEX
 8
HANDBRAUSE_1
 10
21.0294
 20
-7.2477
 30
31.1924
 70
192
 0
VERTEX
 8
HANDBRAUSE_1
 10
21.0294
 20
-7.299
 30
31.3333
 70
192
 0
VERTEX
 8
HANDBRAUSE_1
 10
21.8443
 20
-7.299
 30
31.3333
 70
192
 0
VERTEX
 8
HANDBRAUSE_1
 10
22.2107
 20
-4.1563
 30
27.0843
 70
192
 0
VERTEX
 8
HANDBRAUSE_1
 10
22.2107
 20
-4.4827
 30
27.9813
 70
192
 0
VERTEX
 8
HANDBRAUSE_1
 10
22.2107
 20
-4.8092
 30
28.8783
 70
192
 0
VERTEX
 8
HANDBRAUSE_1
 10
22.2107
 20
-5.1357
 30
29.7753
 70
192
 0
VERTEX
 8
HANDBRAUSE_1
 10
22.2107
 20
-5.4621
 30
30.6723
 70
192
 0
VERTEX
 8
HANDBRAUSE_1
 10
22.2107
 20
-5.7886
 30
31.5692
 70
192
 0
VERTEX
 8
HANDBRAUSE_1
 10
22.2107
 20
-6.1151
 30
32.4662
 70
192
 0
VERTEX
 8
HANDBRAUSE_1
 10
20.0834
 20
-5.8496
 30
27.3512
 70
192
 0
VERTEX
 8
HANDBRAUSE_1
 10
20.0834
 20
-5.7983
 30
27.2102
 70
192
 0
VERTEX
 8
HANDBRAUSE_1
 10
20.2334
 20
-5.7983
 30
27.2102
 70
192
 0
VERTEX
 8
HANDBRAUSE_1
 10
20.2334
 20
-5.8496
 30
27.3512
 70
192
 0
VERTEX
 8
HANDBRAUSE_1
 10
20.4814
 20
-5.8496
 30
27.3512
 70
192
 0
VERTEX
 8
HANDBRAUSE_1
 10
20.4814
 20
-5.7983
 30
27.2102
 70
192
 0
VERTEX
 8
HANDBRAUSE_1
 10
20.6314
 20
-5.7983
 30
27.2102
 70
192
 0
VERTEX
 8
HANDBRAUSE_1
 10
20.6314
 20
-5.8496
 30
27.3512
 70
192
 0
VERTEX
 8
HANDBRAUSE_1
 10
20.8794
 20
-5.8496
 30
27.3512
 70
192
 0
VERTEX
 8
HANDBRAUSE_1
 10
20.8794
 20
-5.7983
 30
27.2102
 70
192
 0
VERTEX
 8
HANDBRAUSE_1
 10
21.0294
 20
-5.7983
 30
27.2102
 70
192
 0
VERTEX
 8
HANDBRAUSE_1
 10
21.0294
 20
-5.8496
 30
27.3512
 70
192
 0
VERTEX
 8
HANDBRAUSE_1
 10
21.2963
 20
-5.8496
 30
27.3512
 70
192
 0
VERTEX
 8
HANDBRAUSE_1
 10
21.2963
 20
-5.7983
 30
27.2102
 70
192
 0
VERTEX
 8
HANDBRAUSE_1
 10
21.4463
 20
-5.7983
 30
27.2102
 70
192
 0
VERTEX
 8
HANDBRAUSE_1
 10
21.4463
 20
-5.8496
 30
27.3512
 70
192
 0
VERTEX
 8
HANDBRAUSE_1
 10
21.6943
 20
-5.8496
 30
27.3512
 70
192
 0
VERTEX
 8
HANDBRAUSE_1
 10
21.6943
 20
-5.7983
 30
27.2102
 70
192
 0
VERTEX
 8
HANDBRAUSE_1
 10
21.8443
 20
-5.7983
 30
27.2102
 70
192
 0
VERTEX
 8
HANDBRAUSE_1
 10
21.8443
 20
-5.8496
 30
27.3512
 70
192
 0
VERTEX
 8
HANDBRAUSE_1
 10
20.0834
 20
-6.0076
 30
27.7852
 70
192
 0
VERTEX
 8
HANDBRAUSE_1
 10
20.0834
 20
-5.9563
 30
27.6442
 70
192
 0
VERTEX
 8
HANDBRAUSE_1
 10
20.2334
 20
-5.9563
 30
27.6442
 70
192
 0
VERTEX
 8
HANDBRAUSE_1
 10
20.2334
 20
-6.0076
 30
27.7852
 70
192
 0
VERTEX
 8
HANDBRAUSE_1
 10
20.0834
 20
-6.1757
 30
28.2471
 70
192
 0
VERTEX
 8
HANDBRAUSE_1
 10
20.0834
 20
-6.1244
 30
28.1061
 70
192
 0
VERTEX
 8
HANDBRAUSE_1
 10
20.2334
 20
-6.1244
 30
28.1061
 70
192
 0
VERTEX
 8
HANDBRAUSE_1
 10
20.2334
 20
-6.1757
 30
28.2471
 70
192
 0
VERTEX
 8
HANDBRAUSE_1
 10
20.4814
 20
-6.0076
 30
27.7852
 70
192
 0
VERTEX
 8
HANDBRAUSE_1
 10
20.4814
 20
-5.9563
 30
27.6442
 70
192
 0
VERTEX
 8
HANDBRAUSE_1
 10
20.6314
 20
-5.9563
 30
27.6442
 70
192
 0
VERTEX
 8
HANDBRAUSE_1
 10
20.6314
 20
-6.0076
 30
27.7852
 70
192
 0
VERTEX
 8
HANDBRAUSE_1
 10
20.4814
 20
-6.1757
 30
28.2471
 70
192
 0
VERTEX
 8
HANDBRAUSE_1
 10
20.4814
 20
-6.1244
 30
28.1061
 70
192
 0
VERTEX
 8
HANDBRAUSE_1
 10
20.6314
 20
-6.1244
 30
28.1061
 70
192
 0
VERTEX
 8
HANDBRAUSE_1
 10
20.6314
 20
-6.1757
 30
28.2471
 70
192
 0
VERTEX
 8
HANDBRAUSE_1
 10
20.8794
 20
-6.0076
 30
27.7852
 70
192
 0
VERTEX
 8
HANDBRAUSE_1
 10
20.8794
 20
-5.9563
 30
27.6442
 70
192
 0
VERTEX
 8
HANDBRAUSE_1
 10
21.0294
 20
-5.9563
 30
27.6442
 70
192
 0
VERTEX
 8
HANDBRAUSE_1
 10
21.0294
 20
-6.0076
 30
27.7852
 70
192
 0
VERTEX
 8
HANDBRAUSE_1
 10
20.8794
 20
-6.1757
 30
28.2471
 70
192
 0
VERTEX
 8
HANDBRAUSE_1
 10
20.8794
 20
-6.1244
 30
28.1061
 70
192
 0
VERTEX
 8
HANDBRAUSE_1
 10
21.0294
 20
-6.1244
 30
28.1061
 70
192
 0
VERTEX
 8
HANDBRAUSE_1
 10
21.0294
 20
-6.1757
 30
28.2471
 70
192
 0
VERTEX
 8
HANDBRAUSE_1
 10
21.2963
 20
-6.0076
 30
27.7852
 70
192
 0
VERTEX
 8
HANDBRAUSE_1
 10
21.2963
 20
-5.9563
 30
27.6442
 70
192
 0
VERTEX
 8
HANDBRAUSE_1
 10
21.4463
 20
-5.9563
 30
27.6442
 70
192
 0
VERTEX
 8
HANDBRAUSE_1
 10
21.4463
 20
-6.0076
 30
27.7852
 70
192
 0
VERTEX
 8
HANDBRAUSE_1
 10
21.2963
 20
-6.1757
 30
28.2471
 70
192
 0
VERTEX
 8
HANDBRAUSE_1
 10
21.2963
 20
-6.1244
 30
28.1061
 70
192
 0
VERTEX
 8
HANDBRAUSE_1
 10
21.4463
 20
-6.1244
 30
28.1061
 70
192
 0
VERTEX
 8
HANDBRAUSE_1
 10
21.4463
 20
-6.1757
 30
28.2471
 70
192
 0
VERTEX
 8
HANDBRAUSE_1
 10
21.6943
 20
-6.0076
 30
27.7852
 70
192
 0
VERTEX
 8
HANDBRAUSE_1
 10
21.6943
 20
-5.9563
 30
27.6442
 70
192
 0
VERTEX
 8
HANDBRAUSE_1
 10
21.8443
 20
-5.9563
 30
27.6442
 70
192
 0
VERTEX
 8
HANDBRAUSE_1
 10
21.8443
 20
-6.0076
 30
27.7852
 70
192
 0
VERTEX
 8
HANDBRAUSE_1
 10
21.6943
 20
-6.1757
 30
28.2471
 70
192
 0
VERTEX
 8
HANDBRAUSE_1
 10
21.6943
 20
-6.1244
 30
28.1061
 70
192
 0
VERTEX
 8
HANDBRAUSE_1
 10
21.8443
 20
-6.1244
 30
28.1061
 70
192
 0
VERTEX
 8
HANDBRAUSE_1
 10
21.8443
 20
-6.1757
 30
28.2471
 70
192
 0
VERTEX
 8
HANDBRAUSE_1
 10
20.0834
 20
-6.3357
 30
28.6865
 70
192
 0
VERTEX
 8
HANDBRAUSE_1
 10
20.0834
 20
-6.2844
 30
28.5456
 70
192
 0
VERTEX
 8
HANDBRAUSE_1
 10
20.2334
 20
-6.2844
 30
28.5456
 70
192
 0
VERTEX
 8
HANDBRAUSE_1
 10
20.2334
 20
-6.3357
 30
28.6865
 70
192
 0
VERTEX
 8
HANDBRAUSE_1
 10
20.0834
 20
-6.5005
 30
29.1394
 70
192
 0
VERTEX
 8
HANDBRAUSE_1
 10
20.0834
 20
-6.4492
 30
28.9984
 70
192
 0
VERTEX
 8
HANDBRAUSE_1
 10
20.2334
 20
-6.4492
 30
28.9984
 70
192
 0
VERTEX
 8
HANDBRAUSE_1
 10
20.2334
 20
-6.5005
 30
29.1394
 70
192
 0
VERTEX
 8
HANDBRAUSE_1
 10
20.4814
 20
-6.3357
 30
28.6865
 70
192
 0
VERTEX
 8
HANDBRAUSE_1
 10
20.4814
 20
-6.2844
 30
28.5456
 70
192
 0
VERTEX
 8
HANDBRAUSE_1
 10
20.6314
 20
-6.2844
 30
28.5456
 70
192
 0
VERTEX
 8
HANDBRAUSE_1
 10
20.6314
 20
-6.3357
 30
28.6865
 70
192
 0
VERTEX
 8
HANDBRAUSE_1
 10
20.4814
 20
-6.5005
 30
29.1394
 70
192
 0
VERTEX
 8
HANDBRAUSE_1
 10
20.4814
 20
-6.4492
 30
28.9984
 70
192
 0
VERTEX
 8
HANDBRAUSE_1
 10
20.6314
 20
-6.4492
 30
28.9984
 70
192
 0
VERTEX
 8
HANDBRAUSE_1
 10
20.6314
 20
-6.5005
 30
29.1394
 70
192
 0
VERTEX
 8
HANDBRAUSE_1
 10
20.8794
 20
-6.3357
 30
28.6865
 70
192
 0
VERTEX
 8
HANDBRAUSE_1
 10
20.8794
 20
-6.2844
 30
28.5456
 70
192
 0
VERTEX
 8
HANDBRAUSE_1
 10
21.0294
 20
-6.2844
 30
28.5456
 70
192
 0
VERTEX
 8
HANDBRAUSE_1
 10
21.0294
 20
-6.3357
 30
28.6865
 70
192
 0
VERTEX
 8
HANDBRAUSE_1
 10
20.8794
 20
-6.5005
 30
29.1394
 70
192
 0
VERTEX
 8
HANDBRAUSE_1
 10
20.8794
 20
-6.4492
 30
28.9984
 70
192
 0
VERTEX
 8
HANDBRAUSE_1
 10
21.0294
 20
-6.4492
 30
28.9984
 70
192
 0
VERTEX
 8
HANDBRAUSE_1
 10
21.0294
 20
-6.5005
 30
29.1394
 70
192
 0
VERTEX
 8
HANDBRAUSE_1
 10
21.2963
 20
-6.3357
 30
28.6865
 70
192
 0
VERTEX
 8
HANDBRAUSE_1
 10
21.2963
 20
-6.2844
 30
28.5456
 70
192
 0
VERTEX
 8
HANDBRAUSE_1
 10
21.4463
 20
-6.2844
 30
28.5456
 70
192
 0
VERTEX
 8
HANDBRAUSE_1
 10
21.4463
 20
-6.3357
 30
28.6865
 70
192
 0
VERTEX
 8
HANDBRAUSE_1
 10
21.2963
 20
-6.5005
 30
29.1394
 70
192
 0
VERTEX
 8
HANDBRAUSE_1
 10
21.2963
 20
-6.4492
 30
28.9984
 70
192
 0
VERTEX
 8
HANDBRAUSE_1
 10
21.4463
 20
-6.4492
 30
28.9984
 70
192
 0
VERTEX
 8
HANDBRAUSE_1
 10
21.4463
 20
-6.5005
 30
29.1394
 70
192
 0
VERTEX
 8
HANDBRAUSE_1
 10
21.6943
 20
-6.3357
 30
28.6865
 70
192
 0
VERTEX
 8
HANDBRAUSE_1
 10
21.6943
 20
-6.2844
 30
28.5456
 70
192
 0
VERTEX
 8
HANDBRAUSE_1
 10
21.8443
 20
-6.2844
 30
28.5456
 70
192
 0
VERTEX
 8
HANDBRAUSE_1
 10
21.8443
 20
-6.3357
 30
28.6865
 70
192
 0
VERTEX
 8
HANDBRAUSE_1
 10
21.6943
 20
-6.5005
 30
29.1394
 70
192
 0
VERTEX
 8
HANDBRAUSE_1
 10
21.6943
 20
-6.4492
 30
28.9984
 70
192
 0
VERTEX
 8
HANDBRAUSE_1
 10
21.8443
 20
-6.4492
 30
28.9984
 70
192
 0
VERTEX
 8
HANDBRAUSE_1
 10
21.8443
 20
-6.5005
 30
29.1394
 70
192
 0
VERTEX
 8
HANDBRAUSE_1
 10
20.0834
 20
-6.6683
 30
29.6004
 70
192
 0
VERTEX
 8
HANDBRAUSE_1
 10
20.0834
 20
-6.617
 30
29.4594
 70
192
 0
VERTEX
 8
HANDBRAUSE_1
 10
20.2334
 20
-6.617
 30
29.4594
 70
192
 0
VERTEX
 8
HANDBRAUSE_1
 10
20.2334
 20
-6.6683
 30
29.6004
 70
192
 0
VERTEX
 8
HANDBRAUSE_1
 10
20.0834
 20
-6.8239
 30
30.0279
 70
192
 0
VERTEX
 8
HANDBRAUSE_1
 10
20.0834
 20
-6.7726
 30
29.887
 70
192
 0
VERTEX
 8
HANDBRAUSE_1
 10
20.2334
 20
-6.7726
 30
29.887
 70
192
 0
VERTEX
 8
HANDBRAUSE_1
 10
20.2334
 20
-6.8239
 30
30.0279
 70
192
 0
VERTEX
 8
HANDBRAUSE_1
 10
20.4814
 20
-6.6683
 30
29.6004
 70
192
 0
VERTEX
 8
HANDBRAUSE_1
 10
20.4814
 20
-6.617
 30
29.4594
 70
192
 0
VERTEX
 8
HANDBRAUSE_1
 10
20.6314
 20
-6.617
 30
29.4594
 70
192
 0
VERTEX
 8
HANDBRAUSE_1
 10
20.6314
 20
-6.6683
 30
29.6004
 70
192
 0
VERTEX
 8
HANDBRAUSE_1
 10
20.4814
 20
-6.8239
 30
30.0279
 70
192
 0
VERTEX
 8
HANDBRAUSE_1
 10
20.4814
 20
-6.7726
 30
29.887
 70
192
 0
VERTEX
 8
HANDBRAUSE_1
 10
20.6314
 20
-6.7726
 30
29.887
 70
192
 0
VERTEX
 8
HANDBRAUSE_1
 10
20.6314
 20
-6.8239
 30
30.0279
 70
192
 0
VERTEX
 8
HANDBRAUSE_1
 10
20.8794
 20
-6.6683
 30
29.6004
 70
192
 0
VERTEX
 8
HANDBRAUSE_1
 10
20.8794
 20
-6.617
 30
29.4594
 70
192
 0
VERTEX
 8
HANDBRAUSE_1
 10
21.0294
 20
-6.617
 30
29.4594
 70
192
 0
VERTEX
 8
HANDBRAUSE_1
 10
21.0294
 20
-6.6683
 30
29.6004
 70
192
 0
VERTEX
 8
HANDBRAUSE_1
 10
20.8794
 20
-6.8239
 30
30.0279
 70
192
 0
VERTEX
 8
HANDBRAUSE_1
 10
20.8794
 20
-6.7726
 30
29.887
 70
192
 0
VERTEX
 8
HANDBRAUSE_1
 10
21.0294
 20
-6.7726
 30
29.887
 70
192
 0
VERTEX
 8
HANDBRAUSE_1
 10
21.0294
 20
-6.8239
 30
30.0279
 70
192
 0
VERTEX
 8
HANDBRAUSE_1
 10
21.2963
 20
-6.6683
 30
29.6004
 70
192
 0
VERTEX
 8
HANDBRAUSE_1
 10
21.2963
 20
-6.617
 30
29.4594
 70
192
 0
VERTEX
 8
HANDBRAUSE_1
 10
21.4463
 20
-6.617
 30
29.4594
 70
192
 0
VERTEX
 8
HANDBRAUSE_1
 10
21.4463
 20
-6.6683
 30
29.6004
 70
192
 0
VERTEX
 8
HANDBRAUSE_1
 10
21.2963
 20
-6.8239
 30
30.0279
 70
192
 0
VERTEX
 8
HANDBRAUSE_1
 10
21.2963
 20
-6.7726
 30
29.887
 70
192
 0
VERTEX
 8
HANDBRAUSE_1
 10
21.4463
 20
-6.7726
 30
29.887
 70
192
 0
VERTEX
 8
HANDBRAUSE_1
 10
21.4463
 20
-6.8239
 30
30.0279
 70
192
 0
VERTEX
 8
HANDBRAUSE_1
 10
21.6943
 20
-6.6683
 30
29.6004
 70
192
 0
VERTEX
 8
HANDBRAUSE_1
 10
21.6943
 20
-6.617
 30
29.4594
 70
192
 0
VERTEX
 8
HANDBRAUSE_1
 10
21.8443
 20
-6.617
 30
29.4594
 70
192
 0
VERTEX
 8
HANDBRAUSE_1
 10
21.8443
 20
-6.6683
 30
29.6004
 70
192
 0
VERTEX
 8
HANDBRAUSE_1
 10
21.6943
 20
-6.8239
 30
30.0279
 70
192
 0
VERTEX
 8
HANDBRAUSE_1
 10
21.6943
 20
-6.7726
 30
29.887
 70
192
 0
VERTEX
 8
HANDBRAUSE_1
 10
21.8443
 20
-6.7726
 30
29.887
 70
192
 0
VERTEX
 8
HANDBRAUSE_1
 10
21.8443
 20
-6.8239
 30
30.0279
 70
192
 0
VERTEX
 8
HANDBRAUSE_1
 10
20.0834
 20
-6.9793
 30
30.4549
 70
192
 0
VERTEX
 8
HANDBRAUSE_1
 10
20.0834
 20
-6.928
 30
30.314
 70
192
 0
VERTEX
 8
HANDBRAUSE_1
 10
20.2334
 20
-6.928
 30
30.314
 70
192
 0
VERTEX
 8
HANDBRAUSE_1
 10
20.2334
 20
-6.9793
 30
30.4549
 70
192
 0
VERTEX
 8
HANDBRAUSE_1
 10
20.0834
 20
-7.1376
 30
30.8897
 70
192
 0
VERTEX
 8
HANDBRAUSE_1
 10
20.0834
 20
-7.0863
 30
30.7488
 70
192
 0
VERTEX
 8
HANDBRAUSE_1
 10
20.2334
 20
-7.0863
 30
30.7488
 70
192
 0
VERTEX
 8
HANDBRAUSE_1
 10
20.2334
 20
-7.1376
 30
30.8897
 70
192
 0
VERTEX
 8
HANDBRAUSE_1
 10
0
 20
0
 30
0
 70
128
 71
1
 72
2
 73
25
 74
24
 0
VERTEX
 8
HANDBRAUSE_1
 10
0
 20
0
 30
0
 70
128
 71
2
 72
3
 73
26
 74
25
 0
VERTEX
 8
HANDBRAUSE_1
 10
0
 20
0
 30
0
 70
128
 71
74
 72
75
 73
45
 74
45
 0
VERTEX
 8
HANDBRAUSE_1
 10
0
 20
0
 30
0
 70
128
 71
16
 72
73
 73
46
 74
46
 0
VERTEX
 8
HANDBRAUSE_1
 10
0
 20
0
 30
0
 70
128
 71
82
 72
83
 73
45
 74
45
 0
VERTEX
 8
HANDBRAUSE_1
 10
0
 20
0
 30
0
 70
128
 71
4
 72
84
 73
46
 74
46
 0
VERTEX
 8
HANDBRAUSE_1
 10
0
 20
0
 30
0
 70
128
 71
46
 72
73
 73
4
 74
4
 0
VERTEX
 8
HANDBRAUSE_1
 10
0
 20
0
 30
0
 70
128
 71
79
 72
82
 73
45
 74
45
 0
VERTEX
 8
HANDBRAUSE_1
 10
0
 20
0
 30
0
 70
128
 71
46
 72
84
 73
80
 74
80
 0
VERTEX
 8
HANDBRAUSE_1
 10
0
 20
0
 30
0
 70
128
 71
74
 72
45
 73
46
 74
61
 0
VERTEX
 8
HANDBRAUSE_1
 10
0
 20
0
 30
0
 70
128
 71
46
 72
80
 73
77
 74
77
 0
VERTEX
 8
HANDBRAUSE_1
 10
0
 20
0
 30
0
 70
128
 71
46
 72
76
 73
61
 74
61
 0
VERTEX
 8
HANDBRAUSE_1
 10
0
 20
0
 30
0
 70
128
 71
47
 72
48
 73
71
 74
70
 0
VERTEX
 8
HANDBRAUSE_1
 10
0
 20
0
 30
0
 70
128
 71
48
 72
49
 73
72
 74
71
 0
VERTEX
 8
HANDBRAUSE_1
 10
0
 20
0
 30
0
 70
128
 71
86
 72
87
 73
18
 74
17
 0
VERTEX
 8
HANDBRAUSE_1
 10
0
 20
0
 30
0
 70
128
 71
87
 72
88
 73
19
 74
18
 0
VERTEX
 8
HANDBRAUSE_1
 10
0
 20
0
 30
0
 70
128
 71
17
 72
18
 73
41
 74
40
 0
VERTEX
 8
HANDBRAUSE_1
 10
0
 20
0
 30
0
 70
128
 71
18
 72
19
 73
42
 74
41
 0
VERTEX
 8
HANDBRAUSE_1
 10
0
 20
0
 30
0
 70
128
 71
19
 72
20
 73
43
 74
42
 0
VERTEX
 8
HANDBRAUSE_1
 10
0
 20
0
 30
0
 70
128
 71
20
 72
21
 73
44
 74
43
 0
VERTEX
 8
HANDBRAUSE_1
 10
0
 20
0
 30
0
 70
128
 71
21
 72
22
 73
45
 74
44
 0
VERTEX
 8
HANDBRAUSE_1
 10
0
 20
0
 30
0
 70
128
 71
22
 72
23
 73
46
 74
45
 0
VERTEX
 8
HANDBRAUSE_1
 10
0
 20
0
 30
0
 70
128
 71
24
 72
25
 73
48
 74
47
 0
VERTEX
 8
HANDBRAUSE_1
 10
0
 20
0
 30
0
 70
128
 71
25
 72
26
 73
49
 74
48
 0
VERTEX
 8
HANDBRAUSE_1
 10
0
 20
0
 30
0
 70
128
 71
90
 72
91
 73
22
 74
21
 0
VERTEX
 8
HANDBRAUSE_1
 10
0
 20
0
 30
0
 70
128
 71
91
 72
92
 73
23
 74
22
 0
VERTEX
 8
HANDBRAUSE_1
 10
0
 20
0
 30
0
 70
128
 71
63
 72
64
 73
87
 74
86
 0
VERTEX
 8
HANDBRAUSE_1
 10
0
 20
0
 30
0
 70
128
 71
64
 72
65
 73
88
 74
87
 0
VERTEX
 8
HANDBRAUSE_1
 10
0
 20
0
 30
0
 70
128
 71
65
 72
66
 73
89
 74
88
 0
VERTEX
 8
HANDBRAUSE_1
 10
0
 20
0
 30
0
 70
128
 71
66
 72
67
 73
90
 74
89
 0
VERTEX
 8
HANDBRAUSE_1
 10
0
 20
0
 30
0
 70
128
 71
67
 72
68
 73
91
 74
90
 0
VERTEX
 8
HANDBRAUSE_1
 10
0
 20
0
 30
0
 70
128
 71
68
 72
69
 73
92
 74
91
 0
VERTEX
 8
HANDBRAUSE_1
 10
0
 20
0
 30
0
 70
128
 71
70
 72
71
 73
2
 74
1
 0
VERTEX
 8
HANDBRAUSE_1
 10
0
 20
0
 30
0
 70
128
 71
71
 72
72
 73
3
 74
2
 0
VERTEX
 8
HANDBRAUSE_1
 10
0
 20
0
 30
0
 70
128
 71
23
 72
92
 73
69
 74
46
 0
VERTEX
 8
HANDBRAUSE_1
 10
0
 20
0
 30
0
 70
128
 71
70
 72
1
 73
24
 74
47
 0
VERTEX
 8
HANDBRAUSE_1
 10
0
 20
0
 30
0
 70
128
 71
88
 72
89
 73
20
 74
19
 0
VERTEX
 8
HANDBRAUSE_1
 10
0
 20
0
 30
0
 70
128
 71
89
 72
90
 73
21
 74
20
 0
VERTEX
 8
HANDBRAUSE_1
 10
0
 20
0
 30
0
 70
128
 71
109
 72
110
 73
107
 74
108
 0
VERTEX
 8
HANDBRAUSE_1
 10
0
 20
0
 30
0
 70
128
 71
101
 72
102
 73
99
 74
100
 0
VERTEX
 8
HANDBRAUSE_1
 10
0
 20
0
 30
0
 70
128
 71
102
 72
103
 73
40
 74
40
 0
VERTEX
 8
HANDBRAUSE_1
 10
0
 20
0
 30
0
 70
128
 71
106
 72
107
 73
40
 74
40
 0
VERTEX
 8
HANDBRAUSE_1
 10
0
 20
0
 30
0
 70
128
 71
105
 72
106
 73
103
 74
104
 0
VERTEX
 8
HANDBRAUSE_1
 10
0
 20
0
 30
0
 70
128
 71
97
 72
98
 73
95
 74
96
 0
VERTEX
 8
HANDBRAUSE_1
 10
0
 20
0
 30
0
 70
128
 71
63
 72
111
 73
112
 74
64
 0
VERTEX
 8
HANDBRAUSE_1
 10
0
 20
0
 30
0
 70
128
 71
107
 72
110
 73
40
 74
40
 0
VERTEX
 8
HANDBRAUSE_1
 10
0
 20
0
 30
0
 70
128
 71
111
 72
63
 73
40
 74
110
 0
VERTEX
 8
HANDBRAUSE_1
 10
0
 20
0
 30
0
 70
128
 71
97
 72
96
 73
41
 74
41
 0
VERTEX
 8
HANDBRAUSE_1
 10
0
 20
0
 30
0
 70
128
 71
108
 72
105
 73
41
 74
41
 0
VERTEX
 8
HANDBRAUSE_1
 10
0
 20
0
 30
0
 70
128
 71
95
 72
102
 73
40
 74
40
 0
VERTEX
 8
HANDBRAUSE_1
 10
0
 20
0
 30
0
 70
128
 71
112
 72
109
 73
41
 74
64
 0
VERTEX
 8
HANDBRAUSE_1
 10
0
 20
0
 30
0
 70
128
 71
103
 72
106
 73
40
 74
40
 0
VERTEX
 8
HANDBRAUSE_1
 10
0
 20
0
 30
0
 70
128
 71
41
 72
109
 73
108
 74
108
 0
VERTEX
 8
HANDBRAUSE_1
 10
0
 20
0
 30
0
 70
128
 71
105
 72
104
 73
41
 74
41
 0
VERTEX
 8
HANDBRAUSE_1
 10
0
 20
0
 30
0
 70
128
 71
94
 72
95
 73
40
 74
40
 0
VERTEX
 8
HANDBRAUSE_1
 10
0
 20
0
 30
0
 70
128
 71
41
 72
104
 73
100
 74
100
 0
VERTEX
 8
HANDBRAUSE_1
 10
0
 20
0
 30
0
 70
128
 71
93
 72
94
 73
40
 74
41
 0
VERTEX
 8
HANDBRAUSE_1
 10
0
 20
0
 30
0
 70
128
 71
41
 72
100
 73
97
 74
97
 0
VERTEX
 8
HANDBRAUSE_1
 10
0
 20
0
 30
0
 70
128
 71
41
 72
96
 73
93
 74
93
 0
VERTEX
 8
HANDBRAUSE_1
 10
0
 20
0
 30
0
 70
128
 71
141
 72
142
 73
135
 74
136
 0
VERTEX
 8
HANDBRAUSE_1
 10
0
 20
0
 30
0
 70
128
 71
137
 72
138
 73
131
 74
131
 0
VERTEX
 8
HANDBRAUSE_1
 10
0
 20
0
 30
0
 70
128
 71
149
 72
150
 73
143
 74
144
 0
VERTEX
 8
HANDBRAUSE_1
 10
0
 20
0
 30
0
 70
128
 71
121
 72
122
 73
115
 74
116
 0
VERTEX
 8
HANDBRAUSE_1
 10
0
 20
0
 30
0
 70
128
 71
129
 72
130
 73
123
 74
124
 0
VERTEX
 8
HANDBRAUSE_1
 10
0
 20
0
 30
0
 70
128
 71
150
 72
151
 73
148
 74
148
 0
VERTEX
 8
HANDBRAUSE_1
 10
0
 20
0
 30
0
 70
128
 71
147
 72
64
 73
146
 74
146
 0
VERTEX
 8
HANDBRAUSE_1
 10
0
 20
0
 30
0
 70
128
 71
148
 72
151
 73
65
 74
65
 0
VERTEX
 8
HANDBRAUSE_1
 10
0
 20
0
 30
0
 70
128
 71
122
 72
123
 73
41
 74
41
 0
VERTEX
 8
HANDBRAUSE_1
 10
0
 20
0
 30
0
 70
128
 71
139
 72
146
 73
64
 74
41
 0
VERTEX
 8
HANDBRAUSE_1
 10
0
 20
0
 30
0
 70
128
 71
142
 72
143
 73
145
 74
145
 0
VERTEX
 8
HANDBRAUSE_1
 10
0
 20
0
 30
0
 70
128
 71
131
 72
138
 73
41
 74
41
 0
VERTEX
 8
HANDBRAUSE_1
 10
0
 20
0
 30
0
 70
128
 71
146
 72
139
 73
140
 74
140
 0
VERTEX
 8
HANDBRAUSE_1
 10
0
 20
0
 30
0
 70
128
 71
133
 72
134
 73
127
 74
128
 0
VERTEX
 8
HANDBRAUSE_1
 10
0
 20
0
 30
0
 70
128
 71
126
 72
119
 73
120
 74
125
 0
VERTEX
 8
HANDBRAUSE_1
 10
0
 20
0
 30
0
 70
128
 71
64
 72
147
 73
148
 74
65
 0
VERTEX
 8
HANDBRAUSE_1
 10
0
 20
0
 30
0
 70
128
 71
115
 72
122
 73
41
 74
41
 0
VERTEX
 8
HANDBRAUSE_1
 10
0
 20
0
 30
0
 70
128
 71
119
 72
127
 73
116
 74
116
 0
VERTEX
 8
HANDBRAUSE_1
 10
0
 20
0
 30
0
 70
128
 71
150
 72
148
 73
145
 74
143
 0
VERTEX
 8
HANDBRAUSE_1
 10
0
 20
0
 30
0
 70
128
 71
65
 72
151
 73
152
 74
152
 0
VERTEX
 8
HANDBRAUSE_1
 10
0
 20
0
 30
0
 70
128
 71
138
 72
139
 73
41
 74
41
 0
VERTEX
 8
HANDBRAUSE_1
 10
0
 20
0
 30
0
 70
128
 71
121
 72
116
 73
134
 74
142
 0
VERTEX
 8
HANDBRAUSE_1
 10
0
 20
0
 30
0
 70
128
 71
136
 72
133
 73
42
 74
42
 0
VERTEX
 8
HANDBRAUSE_1
 10
0
 20
0
 30
0
 70
128
 71
125
 72
120
 73
42
 74
42
 0
VERTEX
 8
HANDBRAUSE_1
 10
0
 20
0
 30
0
 70
128
 71
152
 72
149
 73
65
 74
65
 0
VERTEX
 8
HANDBRAUSE_1
 10
0
 20
0
 30
0
 70
128
 71
114
 72
115
 73
41
 74
41
 0
VERTEX
 8
HANDBRAUSE_1
 10
0
 20
0
 30
0
 70
128
 71
142
 72
145
 73
146
 74
140
 0
VERTEX
 8
HANDBRAUSE_1
 10
0
 20
0
 30
0
 70
128
 71
65
 72
149
 73
144
 74
144
 0
VERTEX
 8
HANDBRAUSE_1
 10
0
 20
0
 30
0
 70
128
 71
130
 72
131
 73
41
 74
41
 0
VERTEX
 8
HANDBRAUSE_1
 10
0
 20
0
 30
0
 70
128
 71
137
 72
131
 73
132
 74
142
 0
VERTEX
 8
HANDBRAUSE_1
 10
0
 20
0
 30
0
 70
128
 71
142
 72
140
 73
137
 74
137
 0
VERTEX
 8
HANDBRAUSE_1
 10
0
 20
0
 30
0
 70
128
 71
123
 72
130
 73
41
 74
41
 0
VERTEX
 8
HANDBRAUSE_1
 10
0
 20
0
 30
0
 70
128
 71
142
 72
132
 73
124
 74
124
 0
VERTEX
 8
HANDBRAUSE_1
 10
0
 20
0
 30
0
 70
128
 71
142
 72
124
 73
121
 74
121
 0
VERTEX
 8
HANDBRAUSE_1
 10
0
 20
0
 30
0
 70
128
 71
113
 72
114
 73
41
 74
42
 0
VERTEX
 8
HANDBRAUSE_1
 10
0
 20
0
 30
0
 70
128
 71
127
 72
134
 73
116
 74
116
 0
VERTEX
 8
HANDBRAUSE_1
 10
0
 20
0
 30
0
 70
128
 71
118
 72
119
 73
116
 74
116
 0
VERTEX
 8
HANDBRAUSE_1
 10
0
 20
0
 30
0
 70
128
 71
118
 72
116
 73
113
 74
42
 0
VERTEX
 8
HANDBRAUSE_1
 10
0
 20
0
 30
0
 70
128
 71
117
 72
118
 73
42
 74
42
 0
VERTEX
 8
HANDBRAUSE_1
 10
0
 20
0
 30
0
 70
128
 71
120
 72
117
 73
42
 74
42
 0
VERTEX
 8
HANDBRAUSE_1
 10
0
 20
0
 30
0
 70
128
 71
128
 72
125
 73
42
 74
42
 0
VERTEX
 8
HANDBRAUSE_1
 10
0
 20
0
 30
0
 70
128
 71
133
 72
128
 73
42
 74
42
 0
VERTEX
 8
HANDBRAUSE_1
 10
0
 20
0
 30
0
 70
128
 71
65
 72
144
 73
136
 74
42
 0
VERTEX
 8
HANDBRAUSE_1
 10
0
 20
0
 30
0
 70
128
 71
162
 72
155
 73
156
 74
156
 0
VERTEX
 8
HANDBRAUSE_1
 10
0
 20
0
 30
0
 70
128
 71
185
 72
186
 73
179
 74
179
 0
VERTEX
 8
HANDBRAUSE_1
 10
0
 20
0
 30
0
 70
128
 71
178
 72
171
 73
172
 74
177
 0
VERTEX
 8
HANDBRAUSE_1
 10
0
 20
0
 30
0
 70
128
 71
173
 72
174
 73
167
 74
168
 0
VERTEX
 8
HANDBRAUSE_1
 10
0
 20
0
 30
0
 70
128
 71
169
 72
170
 73
163
 74
164
 0
VERTEX
 8
HANDBRAUSE_1
 10
0
 20
0
 30
0
 70
128
 71
191
 72
188
 73
185
 74
185
 0
VERTEX
 8
HANDBRAUSE_1
 10
0
 20
0
 30
0
 70
128
 71
187
 72
65
 73
186
 74
186
 0
VERTEX
 8
HANDBRAUSE_1
 10
0
 20
0
 30
0
 70
128
 71
188
 72
191
 73
66
 74
66
 0
VERTEX
 8
HANDBRAUSE_1
 10
0
 20
0
 30
0
 70
128
 71
162
 72
163
 73
42
 74
42
 0
VERTEX
 8
HANDBRAUSE_1
 10
0
 20
0
 30
0
 70
128
 71
170
 72
171
 73
42
 74
42
 0
VERTEX
 8
HANDBRAUSE_1
 10
0
 20
0
 30
0
 70
128
 71
174
 72
175
 73
161
 74
161
 0
VERTEX
 8
HANDBRAUSE_1
 10
0
 20
0
 30
0
 70
128
 71
182
 72
175
 73
176
 74
181
 0
VERTEX
 8
HANDBRAUSE_1
 10
0
 20
0
 30
0
 70
128
 71
190
 72
183
 73
184
 74
189
 0
VERTEX
 8
HANDBRAUSE_1
 10
0
 20
0
 30
0
 70
128
 71
185
 72
179
 73
180
 74
191
 0
VERTEX
 8
HANDBRAUSE_1
 10
0
 20
0
 30
0
 70
128
 71
166
 72
159
 73
160
 74
165
 0
VERTEX
 8
HANDBRAUSE_1
 10
0
 20
0
 30
0
 70
128
 71
66
 72
65
 73
187
 74
188
 0
VERTEX
 8
HANDBRAUSE_1
 10
0
 20
0
 30
0
 70
128
 71
179
 72
186
 73
65
 74
42
 0
VERTEX
 8
HANDBRAUSE_1
 10
0
 20
0
 30
0
 70
128
 71
155
 72
162
 73
42
 74
42
 0
VERTEX
 8
HANDBRAUSE_1
 10
0
 20
0
 30
0
 70
128
 71
66
 72
191
 73
192
 74
192
 0
VERTEX
 8
HANDBRAUSE_1
 10
0
 20
0
 30
0
 70
128
 71
178
 72
179
 73
42
 74
42
 0
VERTEX
 8
HANDBRAUSE_1
 10
0
 20
0
 30
0
 70
128
 71
172
 72
169
 73
190
 74
190
 0
VERTEX
 8
HANDBRAUSE_1
 10
0
 20
0
 30
0
 70
128
 71
165
 72
160
 73
43
 74
43
 0
VERTEX
 8
HANDBRAUSE_1
 10
0
 20
0
 30
0
 70
128
 71
180
 72
177
 73
190
 74
191
 0
VERTEX
 8
HANDBRAUSE_1
 10
0
 20
0
 30
0
 70
128
 71
162
 72
156
 73
158
 74
158
 0
VERTEX
 8
HANDBRAUSE_1
 10
0
 20
0
 30
0
 70
128
 71
159
 72
174
 73
161
 74
161
 0
VERTEX
 8
HANDBRAUSE_1
 10
0
 20
0
 30
0
 70
128
 71
154
 72
155
 73
42
 74
42
 0
VERTEX
 8
HANDBRAUSE_1
 10
0
 20
0
 30
0
 70
128
 71
190
 72
177
 73
172
 74
172
 0
VERTEX
 8
HANDBRAUSE_1
 10
0
 20
0
 30
0
 70
128
 71
171
 72
178
 73
42
 74
42
 0
VERTEX
 8
HANDBRAUSE_1
 10
0
 20
0
 30
0
 70
128
 71
190
 72
169
 73
164
 74
164
 0
VERTEX
 8
HANDBRAUSE_1
 10
0
 20
0
 30
0
 70
128
 71
163
 72
170
 73
42
 74
42
 0
VERTEX
 8
HANDBRAUSE_1
 10
0
 20
0
 30
0
 70
128
 71
43
 72
66
 73
192
 74
189
 0
VERTEX
 8
HANDBRAUSE_1
 10
0
 20
0
 30
0
 70
128
 71
189
 72
184
 73
43
 74
43
 0
VERTEX
 8
HANDBRAUSE_1
 10
0
 20
0
 30
0
 70
128
 71
43
 72
184
 73
168
 74
168
 0
VERTEX
 8
HANDBRAUSE_1
 10
0
 20
0
 30
0
 70
128
 71
153
 72
154
 73
42
 74
43
 0
VERTEX
 8
HANDBRAUSE_1
 10
0
 20
0
 30
0
 70
128
 71
183
 72
190
 73
164
 74
161
 0
VERTEX
 8
HANDBRAUSE_1
 10
0
 20
0
 30
0
 70
128
 71
43
 72
168
 73
165
 74
165
 0
VERTEX
 8
HANDBRAUSE_1
 10
0
 20
0
 30
0
 70
128
 71
182
 72
183
 73
161
 74
161
 0
VERTEX
 8
HANDBRAUSE_1
 10
0
 20
0
 30
0
 70
128
 71
43
 72
160
 73
157
 74
157
 0
VERTEX
 8
HANDBRAUSE_1
 10
0
 20
0
 30
0
 70
128
 71
43
 72
157
 73
158
 74
158
 0
VERTEX
 8
HANDBRAUSE_1
 10
0
 20
0
 30
0
 70
128
 71
175
 72
182
 73
161
 74
161
 0
VERTEX
 8
HANDBRAUSE_1
 10
0
 20
0
 30
0
 70
128
 71
158
 72
159
 73
161
 74
162
 0
VERTEX
 8
HANDBRAUSE_1
 10
0
 20
0
 30
0
 70
128
 71
158
 72
156
 73
153
 74
43
 0
VERTEX
 8
HANDBRAUSE_1
 10
0
 20
0
 30
0
 70
128
 71
209
 72
210
 73
203
 74
204
 0
VERTEX
 8
HANDBRAUSE_1
 10
0
 20
0
 30
0
 70
128
 71
217
 72
218
 73
211
 74
211
 0
VERTEX
 8
HANDBRAUSE_1
 10
0
 20
0
 30
0
 70
128
 71
225
 72
226
 73
219
 74
219
 0
VERTEX
 8
HANDBRAUSE_1
 10
0
 20
0
 30
0
 70
128
 71
221
 72
222
 73
215
 74
216
 0
VERTEX
 8
HANDBRAUSE_1
 10
0
 20
0
 30
0
 70
128
 71
205
 72
206
 73
199
 74
200
 0
VERTEX
 8
HANDBRAUSE_1
 10
0
 20
0
 30
0
 70
128
 71
213
 72
214
 73
207
 74
208
 0
VERTEX
 8
HANDBRAUSE_1
 10
0
 20
0
 30
0
 70
128
 71
227
 72
66
 73
43
 74
226
 0
VERTEX
 8
HANDBRAUSE_1
 10
0
 20
0
 30
0
 70
128
 71
227
 72
228
 73
66
 74
66
 0
VERTEX
 8
HANDBRAUSE_1
 10
0
 20
0
 30
0
 70
128
 71
206
 72
207
 73
196
 74
196
 0
VERTEX
 8
HANDBRAUSE_1
 10
0
 20
0
 30
0
 70
128
 71
218
 72
219
 73
43
 74
43
 0
VERTEX
 8
HANDBRAUSE_1
 10
0
 20
0
 30
0
 70
128
 71
230
 72
231
 73
228
 74
225
 0
VERTEX
 8
HANDBRAUSE_1
 10
0
 20
0
 30
0
 70
128
 71
217
 72
211
 73
212
 74
230
 0
VERTEX
 8
HANDBRAUSE_1
 10
0
 20
0
 30
0
 70
128
 71
230
 72
223
 73
224
 74
229
 0
VERTEX
 8
HANDBRAUSE_1
 10
0
 20
0
 30
0
 70
128
 71
225
 72
219
 73
220
 74
230
 0
VERTEX
 8
HANDBRAUSE_1
 10
0
 20
0
 30
0
 70
128
 71
202
 72
195
 73
196
 74
201
 0
VERTEX
 8
HANDBRAUSE_1
 10
0
 20
0
 30
0
 70
128
 71
66
 72
228
 73
231
 74
231
 0
VERTEX
 8
HANDBRAUSE_1
 10
0
 20
0
 30
0
 70
128
 71
199
 72
206
 73
196
 74
196
 0
VERTEX
 8
HANDBRAUSE_1
 10
0
 20
0
 30
0
 70
128
 71
195
 72
203
 73
43
 74
43
 0
VERTEX
 8
HANDBRAUSE_1
 10
0
 20
0
 30
0
 70
128
 71
210
 72
218
 73
43
 74
43
 0
VERTEX
 8
HANDBRAUSE_1
 10
0
 20
0
 30
0
 70
128
 71
67
 72
66
 73
231
 74
232
 0
VERTEX
 8
HANDBRAUSE_1
 10
0
 20
0
 30
0
 70
128
 71
219
 72
226
 73
43
 74
43
 0
VERTEX
 8
HANDBRAUSE_1
 10
0
 20
0
 30
0
 70
128
 71
201
 72
196
 73
215
 74
223
 0
VERTEX
 8
HANDBRAUSE_1
 10
0
 20
0
 30
0
 70
128
 71
220
 72
217
 73
230
 74
230
 0
VERTEX
 8
HANDBRAUSE_1
 10
0
 20
0
 30
0
 70
128
 71
198
 72
199
 73
196
 74
196
 0
VERTEX
 8
HANDBRAUSE_1
 10
0
 20
0
 30
0
 70
128
 71
212
 72
209
 73
230
 74
230
 0
VERTEX
 8
HANDBRAUSE_1
 10
0
 20
0
 30
0
 70
128
 71
67
 72
232
 73
229
 74
229
 0
VERTEX
 8
HANDBRAUSE_1
 10
0
 20
0
 30
0
 70
128
 71
203
 72
210
 73
43
 74
43
 0
VERTEX
 8
HANDBRAUSE_1
 10
0
 20
0
 30
0
 70
128
 71
209
 72
204
 73
230
 74
230
 0
VERTEX
 8
HANDBRAUSE_1
 10
0
 20
0
 30
0
 70
128
 71
194
 72
195
 73
43
 74
43
 0
VERTEX
 8
HANDBRAUSE_1
 10
0
 20
0
 30
0
 70
128
 71
67
 72
229
 73
224
 74
224
 0
VERTEX
 8
HANDBRAUSE_1
 10
0
 20
0
 30
0
 70
128
 71
224
 72
221
 73
67
 74
67
 0
VERTEX
 8
HANDBRAUSE_1
 10
0
 20
0
 30
0
 70
128
 71
193
 72
194
 73
43
 74
44
 0
VERTEX
 8
HANDBRAUSE_1
 10
0
 20
0
 30
0
 70
128
 71
223
 72
230
 73
204
 74
201
 0
VERTEX
 8
HANDBRAUSE_1
 10
0
 20
0
 30
0
 70
128
 71
67
 72
221
 73
208
 74
208
 0
VERTEX
 8
HANDBRAUSE_1
 10
0
 20
0
 30
0
 70
128
 71
214
 72
215
 73
196
 74
196
 0
VERTEX
 8
HANDBRAUSE_1
 10
0
 20
0
 30
0
 70
128
 71
67
 72
208
 73
205
 74
205
 0
VERTEX
 8
HANDBRAUSE_1
 10
0
 20
0
 30
0
 70
128
 71
207
 72
214
 73
196
 74
196
 0
VERTEX
 8
HANDBRAUSE_1
 10
0
 20
0
 30
0
 70
128
 71
44
 72
67
 73
205
 74
200
 0
VERTEX
 8
HANDBRAUSE_1
 10
0
 20
0
 30
0
 70
128
 71
44
 72
200
 73
197
 74
197
 0
VERTEX
 8
HANDBRAUSE_1
 10
0
 20
0
 30
0
 70
128
 71
44
 72
197
 73
198
 74
198
 0
VERTEX
 8
HANDBRAUSE_1
 10
0
 20
0
 30
0
 70
128
 71
198
 72
196
 73
193
 74
44
 0
VERTEX
 8
HANDBRAUSE_1
 10
0
 20
0
 30
0
 70
128
 71
58
 72
51
 73
52
 74
57
 0
VERTEX
 8
HANDBRAUSE_1
 10
0
 20
0
 30
0
 70
128
 71
34
 72
15
 73
33
 74
33
 0
VERTEX
 8
HANDBRAUSE_1
 10
0
 20
0
 30
0
 70
128
 71
10
 72
239
 73
240
 74
9
 0
VERTEX
 8
HANDBRAUSE_1
 10
0
 20
0
 30
0
 70
128
 71
38
 72
31
 73
32
 74
37
 0
VERTEX
 8
HANDBRAUSE_1
 10
0
 20
0
 30
0
 70
128
 71
54
 72
35
 73
36
 74
53
 0
VERTEX
 8
HANDBRAUSE_1
 10
0
 20
0
 30
0
 70
128
 71
29
 72
30
 73
11
 74
12
 0
VERTEX
 8
HANDBRAUSE_1
 10
0
 20
0
 30
0
 70
128
 71
13
 72
14
 73
7
 74
7
 0
VERTEX
 8
HANDBRAUSE_1
 10
0
 20
0
 30
0
 70
128
 71
58
 72
59
 73
56
 74
56
 0
VERTEX
 8
HANDBRAUSE_1
 10
0
 20
0
 30
0
 70
128
 71
55
 72
67
 73
54
 74
54
 0
VERTEX
 8
HANDBRAUSE_1
 10
0
 20
0
 30
0
 70
128
 71
56
 72
59
 73
68
 74
68
 0
VERTEX
 8
HANDBRAUSE_1
 10
0
 20
0
 30
0
 70
128
 71
6
 72
7
 73
44
 74
44
 0
VERTEX
 8
HANDBRAUSE_1
 10
0
 20
0
 30
0
 70
128
 71
30
 72
31
 73
8
 74
8
 0
VERTEX
 8
HANDBRAUSE_1
 10
0
 20
0
 30
0
 70
128
 71
14
 72
15
 73
44
 74
44
 0
VERTEX
 8
HANDBRAUSE_1
 10
0
 20
0
 30
0
 70
128
 71
51
 72
58
 73
56
 74
56
 0
VERTEX
 8
HANDBRAUSE_1
 10
0
 20
0
 30
0
 70
128
 71
33
 72
15
 73
28
 74
38
 0
VERTEX
 8
HANDBRAUSE_1
 10
0
 20
0
 30
0
 70
128
 71
13
 72
7
 73
8
 74
38
 0
VERTEX
 8
HANDBRAUSE_1
 10
0
 20
0
 30
0
 70
128
 71
5
 72
6
 73
235
 74
236
 0
VERTEX
 8
HANDBRAUSE_1
 10
0
 20
0
 30
0
 70
128
 71
68
 72
67
 73
55
 74
56
 0
VERTEX
 8
HANDBRAUSE_1
 10
0
 20
0
 30
0
 70
128
 71
35
 72
54
 73
67
 74
44
 0
VERTEX
 8
HANDBRAUSE_1
 10
0
 20
0
 30
0
 70
128
 71
235
 72
6
 73
44
 74
44
 0
VERTEX
 8
HANDBRAUSE_1
 10
0
 20
0
 30
0
 70
128
 71
38
 72
51
 73
56
 74
53
 0
VERTEX
 8
HANDBRAUSE_1
 10
0
 20
0
 30
0
 70
128
 71
68
 72
59
 73
60
 74
60
 0
VERTEX
 8
HANDBRAUSE_1
 10
0
 20
0
 30
0
 70
128
 71
34
 72
35
 73
44
 74
44
 0
VERTEX
 8
HANDBRAUSE_1
 10
0
 20
0
 30
0
 70
128
 71
28
 72
13
 73
38
 74
38
 0
VERTEX
 8
HANDBRAUSE_1
 10
0
 20
0
 30
0
 70
128
 71
32
 72
29
 73
68
 74
68
 0
VERTEX
 8
HANDBRAUSE_1
 10
0
 20
0
 30
0
 70
128
 71
53
 72
36
 73
38
 74
38
 0
VERTEX
 8
HANDBRAUSE_1
 10
0
 20
0
 30
0
 70
128
 71
5
 72
236
 73
238
 74
238
 0
VERTEX
 8
HANDBRAUSE_1
 10
0
 20
0
 30
0
 70
128
 71
234
 72
235
 73
44
 74
44
 0
VERTEX
 8
HANDBRAUSE_1
 10
0
 20
0
 30
0
 70
128
 71
68
 72
60
 73
57
 74
57
 0
VERTEX
 8
HANDBRAUSE_1
 10
0
 20
0
 30
0
 70
128
 71
15
 72
34
 73
44
 74
44
 0
VERTEX
 8
HANDBRAUSE_1
 10
0
 20
0
 30
0
 70
128
 71
36
 72
33
 73
38
 74
38
 0
VERTEX
 8
HANDBRAUSE_1
 10
0
 20
0
 30
0
 70
128
 71
57
 72
52
 73
68
 74
68
 0
VERTEX
 8
HANDBRAUSE_1
 10
0
 20
0
 30
0
 70
128
 71
238
 72
30
 73
8
 74
5
 0
VERTEX
 8
HANDBRAUSE_1
 10
0
 20
0
 30
0
 70
128
 71
68
 72
52
 73
32
 74
32
 0
VERTEX
 8
HANDBRAUSE_1
 10
0
 20
0
 30
0
 70
128
 71
7
 72
14
 73
44
 74
44
 0
VERTEX
 8
HANDBRAUSE_1
 10
0
 20
0
 30
0
 70
128
 71
68
 72
29
 73
12
 74
12
 0
VERTEX
 8
HANDBRAUSE_1
 10
0
 20
0
 30
0
 70
128
 71
234
 72
44
 73
45
 74
233
 0
VERTEX
 8
HANDBRAUSE_1
 10
0
 20
0
 30
0
 70
128
 71
31
 72
38
 73
8
 74
8
 0
VERTEX
 8
HANDBRAUSE_1
 10
0
 20
0
 30
0
 70
128
 71
68
 72
12
 73
9
 74
9
 0
VERTEX
 8
HANDBRAUSE_1
 10
0
 20
0
 30
0
 70
128
 71
45
 72
68
 73
9
 74
240
 0
VERTEX
 8
HANDBRAUSE_1
 10
0
 20
0
 30
0
 70
128
 71
238
 72
236
 73
233
 74
45
 0
VERTEX
 8
HANDBRAUSE_1
 10
0
 20
0
 30
0
 70
128
 71
45
 72
240
 73
237
 74
237
 0
VERTEX
 8
HANDBRAUSE_1
 10
0
 20
0
 30
0
 70
128
 71
45
 72
237
 73
238
 74
238
 0
VERTEX
 8
HANDBRAUSE_1
 10
0
 20
0
 30
0
 70
128
 71
16
 72
39
 73
50
 74
73
 0
VERTEX
 8
HANDBRAUSE_1
 10
0
 20
0
 30
0
 70
128
 71
4
 72
27
 73
83
 74
84
 0
VERTEX
 8
HANDBRAUSE_1
 10
0
 20
0
 30
0
 70
128
 71
77
 72
78
 73
76
 74
46
 0
VERTEX
 8
HANDBRAUSE_1
 10
0
 20
0
 30
0
 70
128
 71
81
 72
82
 73
79
 74
80
 0
VERTEX
 8
HANDBRAUSE_1
 10
0
 20
0
 30
0
 70
128
 71
62
 72
68
 73
39
 74
39
 0
VERTEX
 8
HANDBRAUSE_1
 10
0
 20
0
 30
0
 70
128
 71
78
 72
79
 73
45
 74
45
 0
VERTEX
 8
HANDBRAUSE_1
 10
0
 20
0
 30
0
 70
128
 71
83
 72
27
 73
45
 74
45
 0
VERTEX
 8
HANDBRAUSE_1
 10
0
 20
0
 30
0
 70
128
 71
50
 72
39
 73
68
 74
45
 0
VERTEX
 8
HANDBRAUSE_1
 10
0
 20
0
 30
0
 70
128
 71
78
 72
75
 73
76
 74
76
 0
VERTEX
 8
HANDBRAUSE_1
 10
0
 20
0
 30
0
 70
128
 71
69
 72
68
 73
62
 74
85
 0
VERTEX
 8
HANDBRAUSE_1
 10
0
 20
0
 30
0
 70
128
 71
75
 72
78
 73
45
 74
45
 0
VERTEX
 8
HANDBRAUSE_1
 10
0
 20
0
 30
0
 70
128
 71
69
 72
85
 73
16
 74
46
 0
VERTEX
 8
HANDBRAUSE_1
 10
0
 20
0
 30
0
 70
128
 71
27
 72
50
 73
45
 74
45
 0
VERTEX
 8
HANDBRAUSE_1
 10
0
 20
0
 30
0
 70
128
 71
17
 72
40
 73
26
 74
3
 0
VERTEX
 8
HANDBRAUSE_1
 10
0
 20
0
 30
0
 70
128
 71
3
 72
72
 73
86
 74
17
 0
VERTEX
 8
HANDBRAUSE_1
 10
0
 20
0
 30
0
 70
128
 71
63
 72
86
 73
72
 74
49
 0
VERTEX
 8
HANDBRAUSE_1
 10
0
 20
0
 30
0
 70
128
 71
49
 72
26
 73
40
 74
63
 0
SEQEND
 0
ENDSEC
 0
EOF
