 0
SECTION
 2
HEADER
 9
$ACADVER
 1
AC1009
 0
ENDSEC
 0
SECTION
 2
TABLES
 0
TABLE
 2
LTYPE
 70
1
 0
LTYPE
 2
CONTINUOUS
 70
64
 3
solid line
 72
65
 73
0
 40
0.0
 0
ENDTAB
 0
TABLE
 2
LAYER
 70
6
 0
LAYER
 2
0
 70
0
 62
7
 6
CONTINUOUS
 0
LAYER
 2
170_2450_M
 70
64
 62
7
 6
CONTINUOUS
 0
LAYER
 2
GRIFF_2
 70
64
 62
250
 6
CONTINUOUS
 0
LAYER
 2
AUS3
 70
64
 62
250
 6
CONTINUOUS
 0
LAYER
 2
W_RFEL
 70
64
 62
250
 6
CONTINUOUS
 0
LAYER
 2
ZYLINDER
 70
64
 62
250
 6
CONTINUOUS
 0
LAYER
 2
ZYLIND2
 70
64
 62
250
 6
CONTINUOUS
 0
LAYER
 2
ZYLINDER_1
 70
64
 62
250
 6
CONTINUOUS
 0
LAYER
 2
ZYLINDER_2
 70
64
 62
250
 6
CONTINUOUS
 0
LAYER
 2
ZYLIND2_1
 70
64
 62
250
 6
CONTINUOUS
 0
LAYER
 2
KARTUSCHE
 70
64
 62
250
 6
CONTINUOUS
 0
LAYER
 2
K_RPER
 70
64
 62
250
 6
CONTINUOUS
 0
LAYER
 2
ROSETTE
 70
64
 62
250
 6
CONTINUOUS
 0
LAYER
 2
R_HRE
 70
64
 62
250
 6
CONTINUOUS
 0
LAYER
 2
PELATOR
 70
64
 62
250
 6
CONTINUOUS
 0
LAYER
 2
ROSETTE_1
 70
64
 62
250
 6
CONTINUOUS
 0
ENDTAB
 0
ENDSEC
 0
SECTION
 2
BLOCKS
 0
ENDSEC
 0
SECTION
 2
ENTITIES
 0
POLYLINE
 8
GRIFF_2
 66
1
 10
0.0
 20
0.0
 30
0.0
 70
64
 71
99
 72
140
 0
VERTEX
 8
GRIFF_2
 10
-21.2663
 20
-8.9134
 30
14.9592
 70
192
 0
VERTEX
 8
GRIFF_2
 10
-18.9498
 20
-7.5407
 30
14.948
 70
192
 0
VERTEX
 8
GRIFF_2
 10
-22.8957
 20
-7.1769
 30
14.9773
 70
192
 0
VERTEX
 8
GRIFF_2
 10
-20.4276
 20
-2.0315
 30
11.4748
 70
192
 0
VERTEX
 8
GRIFF_2
 10
-22.5688
 20
-1.1567
 30
11.5743
 70
192
 0
VERTEX
 8
GRIFF_2
 10
-21.8092
 20
-1.8495
 30
11.5036
 70
192
 0
VERTEX
 8
GRIFF_2
 10
-22.7548
 20
-0.799
 30
11.5743
 70
192
 0
VERTEX
 8
GRIFF_2
 10
-22.7836
 20
0.1153
 30
14.9548
 70
192
 0
VERTEX
 8
GRIFF_2
 10
-18.8905
 20
-6.8857
 30
14.9439
 70
192
 0
VERTEX
 8
GRIFF_2
 10
-22.8666
 20
-0.4117
 30
11.5743
 70
192
 0
VERTEX
 8
GRIFF_2
 10
-22.8991
 20
-7.1457
 30
14.5966
 70
192
 0
VERTEX
 8
GRIFF_2
 10
-20.8652
 20
-2.0833
 30
11.5108
 70
192
 0
VERTEX
 8
GRIFF_2
 10
-20.4857
 20
-8.8056
 30
14.9548
 70
192
 0
VERTEX
 8
GRIFF_2
 10
-21.4369
 20
-2.0066
 30
14.6192
 70
192
 0
VERTEX
 8
GRIFF_2
 10
-19.7503
 20
1.6604
 30
14.9546
 70
192
 0
VERTEX
 8
GRIFF_2
 10
-20.8652
 20
-2.0854
 30
14.6196
 70
192
 0
VERTEX
 8
GRIFF_2
 10
-20.0786
 20
-1.9205
 30
11.5743
 70
192
 0
VERTEX
 8
GRIFF_2
 10
-22.6131
 20
-8.005
 30
14.5968
 70
192
 0
VERTEX
 8
GRIFF_2
 10
-21.9626
 20
-8.6192
 30
14.9533
 70
192
 0
VERTEX
 8
GRIFF_2
 10
-19.0296
 20
-0.9222
 30
11.5743
 70
192
 0
VERTEX
 8
GRIFF_2
 10
-22.8976
 20
-0.1435
 30
11.574
 70
192
 0
VERTEX
 8
GRIFF_2
 10
-19.252
 20
-8.1801
 30
14.5969
 70
192
 0
VERTEX
 8
GRIFF_2
 10
-19.5628
 20
1.5201
 30
14.9547
 70
192
 0
VERTEX
 8
GRIFF_2
 10
-20.2684
 20
1.9019
 30
14.9505
 70
192
 0
VERTEX
 8
GRIFF_2
 10
-22.7787
 20
0.6489
 30
14.9525
 70
192
 0
VERTEX
 8
GRIFF_2
 10
-22.316
 20
-8.3454
 30
14.9602
 70
192
 0
VERTEX
 8
GRIFF_2
 10
-18.8491
 20
0.1234
 30
14.9564
 70
192
 0
VERTEX
 8
GRIFF_2
 10
-22.7878
 20
-7.0138
 30
14.9548
 70
192
 0
VERTEX
 8
GRIFF_2
 10
-19.1637
 20
-1.1708
 30
14.6182
 70
192
 0
VERTEX
 8
GRIFF_2
 10
-22.1151
 20
-1.6495
 30
11.5743
 70
192
 0
VERTEX
 8
GRIFF_2
 10
-19.1615
 20
-1.1567
 30
11.5743
 70
192
 0
VERTEX
 8
GRIFF_2
 10
-20.2112
 20
-8.8232
 30
14.9433
 70
192
 0
VERTEX
 8
GRIFF_2
 10
-20.9967
 20
-8.9037
 30
14.9357
 70
192
 0
VERTEX
 8
GRIFF_2
 10
-21.7652
 20
-8.7763
 30
14.5966
 70
192
 0
VERTEX
 8
GRIFF_2
 10
-18.9056
 20
0.5083
 30
14.9543
 70
192
 0
VERTEX
 8
GRIFF_2
 10
-20.7979
 20
1.9903
 30
14.9535
 70
192
 0
VERTEX
 8
GRIFF_2
 10
-21.3338
 20
1.9338
 30
14.9543
 70
192
 0
VERTEX
 8
GRIFF_2
 10
-19.7815
 20
-1.7721
 30
11.4752
 70
192
 0
VERTEX
 8
GRIFF_2
 10
-22.6375
 20
-7.9157
 30
14.9691
 70
192
 0
VERTEX
 8
GRIFF_2
 10
-21.8337
 20
1.7461
 30
14.9558
 70
192
 0
VERTEX
 8
GRIFF_2
 10
-22.7737
 20
-0.7617
 30
14.6183
 70
192
 0
VERTEX
 8
GRIFF_2
 10
-22.6047
 20
1.0125
 30
14.955
 70
192
 0
VERTEX
 8
GRIFF_2
 10
-18.8366
 20
-0.3147
 30
14.6185
 70
192
 0
VERTEX
 8
GRIFF_2
 10
-19.4013
 20
-8.3237
 30
14.9541
 70
192
 0
VERTEX
 8
GRIFF_2
 10
-19.1993
 20
1.1251
 30
14.9535
 70
192
 0
VERTEX
 8
GRIFF_2
 10
-19.9043
 20
-8.7314
 30
14.5966
 70
192
 0
VERTEX
 8
GRIFF_2
 10
-21.3973
 20
-2.0078
 30
11.5743
 70
192
 0
VERTEX
 8
GRIFF_2
 10
-22.8879
 20
0.124
 30
14.9568
 70
192
 0
VERTEX
 8
GRIFF_2
 10
-20.464
 20
-2.0387
 30
14.5274
 70
192
 0
VERTEX
 8
GRIFF_2
 10
-19.3834
 20
-1.4431
 30
11.5006
 70
192
 0
VERTEX
 8
GRIFF_2
 10
-18.834
 20
-7.0192
 30
14.9451
 70
192
 0
VERTEX
 8
GRIFF_2
 10
-20.8652
 20
-8.9639
 30
14.5968
 70
192
 0
VERTEX
 8
GRIFF_2
 10
-22.5052
 20
-7.9898
 30
14.96
 70
192
 0
VERTEX
 8
GRIFF_2
 10
-19.0296
 20
-7.797
 30
14.5968
 70
192
 0
VERTEX
 8
GRIFF_2
 10
-22.1899
 20
-1.5964
 30
14.6183
 70
192
 0
VERTEX
 8
GRIFF_2
 10
-18.8311
 20
-7.1669
 30
14.5971
 70
192
 0
VERTEX
 8
GRIFF_2
 10
-19.0016
 20
0.7738
 30
14.9565
 70
192
 0
VERTEX
 8
GRIFF_2
 10
-22.3528
 20
1.3454
 30
14.9548
 70
192
 0
VERTEX
 8
GRIFF_2
 10
-20.1875
 20
-2.0107
 30
14.6185
 70
192
 0
VERTEX
 8
GRIFF_2
 10
-22.4211
 20
-1.3579
 30
11.4757
 70
192
 0
VERTEX
 8
GRIFF_2
 10
-22.8974
 20
-0.0436
 30
14.6183
 70
192
 0
VERTEX
 8
GRIFF_2
 10
-18.8702
 20
-0.4698
 30
11.4758
 70
192
 0
VERTEX
 8
GRIFF_2
 10
-20.4185
 20
1.9428
 30
12.2644
 70
192
 0
VERTEX
 8
GRIFF_2
 10
-20.0706
 20
1.8266
 30
12.2259
 70
192
 0
VERTEX
 8
GRIFF_2
 10
-21.9892
 20
1.6536
 30
12.1687
 70
192
 0
VERTEX
 8
GRIFF_2
 10
-21.7385
 20
1.7936
 30
12.215
 70
192
 0
VERTEX
 8
GRIFF_2
 10
-18.863
 20
-0.3866
 30
11.4936
 70
192
 0
VERTEX
 8
GRIFF_2
 10
-18.8739
 20
-0.4404
 30
11.4758
 70
192
 0
VERTEX
 8
GRIFF_2
 10
-21.2295
 20
1.9571
 30
12.2691
 70
192
 0
VERTEX
 8
GRIFF_2
 10
-21.1082
 20
1.9697
 30
12.2733
 70
192
 0
VERTEX
 8
GRIFF_2
 10
-19.1993
 20
1.1251
 30
11.9938
 70
192
 0
VERTEX
 8
GRIFF_2
 10
-19.0548
 20
0.8753
 30
11.9111
 70
192
 0
VERTEX
 8
GRIFF_2
 10
-22.4118
 20
1.2722
 30
12.0425
 70
192
 0
VERTEX
 8
GRIFF_2
 10
-22.6632
 20
0.9085
 30
11.9222
 70
192
 0
VERTEX
 8
GRIFF_2
 10
-19.2514
 20
1.1817
 30
12.0125
 70
192
 0
VERTEX
 8
GRIFF_2
 10
-19.0314
 20
-0.4406
 30
11.4757
 70
192
 0
VERTEX
 8
GRIFF_2
 10
-21.8112
 20
-0.4433
 30
11.4748
 70
192
 0
VERTEX
 8
GRIFF_2
 10
-22.8802
 20
0.2466
 30
11.7031
 70
192
 0
VERTEX
 8
GRIFF_2
 10
-22.8809
 20
0.2331
 30
11.6986
 70
192
 0
VERTEX
 8
GRIFF_2
 10
-22.8702
 20
-0.2264
 30
11.5466
 70
192
 0
VERTEX
 8
GRIFF_2
 10
-18.8316
 20
-0.0023
 30
11.6208
 70
192
 0
VERTEX
 8
GRIFF_2
 10
-18.8305
 20
-0.0145
 30
11.6167
 70
192
 0
VERTEX
 8
GRIFF_2
 10
-22.3666
 20
1.3319
 30
12.0622
 70
192
 0
VERTEX
 8
GRIFF_2
 10
-19.9634
 20
1.7769
 30
12.2095
 70
192
 0
VERTEX
 8
GRIFF_2
 10
-22.8718
 20
0.2861
 30
11.7162
 70
192
 0
VERTEX
 8
GRIFF_2
 10
-20.7979
 20
1.9903
 30
12.2801
 70
192
 0
VERTEX
 8
GRIFF_2
 10
-19.5672
 20
1.5254
 30
12.1263
 70
192
 0
VERTEX
 8
GRIFF_2
 10
-22.1295
 20
-0.4437
 30
11.4747
 70
192
 0
VERTEX
 8
GRIFF_2
 10
-18.8786
 20
0.3971
 30
11.7529
 70
192
 0
VERTEX
 8
GRIFF_2
 10
-21.4344
 20
1.9088
 30
12.2531
 70
192
 0
VERTEX
 8
GRIFF_2
 10
-20.5514
 20
1.9649
 30
12.2717
 70
192
 0
VERTEX
 8
GRIFF_2
 10
-22.6811
 20
-0.4426
 30
11.4751
 70
192
 0
VERTEX
 8
GRIFF_2
 10
-22.0948
 20
1.5725
 30
12.1419
 70
192
 0
VERTEX
 8
GRIFF_2
 10
-19.0278
 20
0.8272
 30
11.8952
 70
192
 0
VERTEX
 8
GRIFF_2
 10
-21.6348
 20
1.8326
 30
12.2279
 70
192
 0
VERTEX
 8
GRIFF_2
 10
-18.8845
 20
0.4135
 30
11.7584
 70
192
 0
VERTEX
 8
GRIFF_2
 10
-22.6825
 20
0.8683
 30
11.9088
 70
192
 0
VERTEX
 8
GRIFF_2
 10
-22.8173
 20
0.5302
 30
11.797
 70
192
 0
VERTEX
 8
GRIFF_2
 10
-19.5313
 20
1.4985
 30
12.1174
 70
192
 0
VERTEX
 8
GRIFF_2
 10
0
 20
0
 30
0
 70
128
 71
2
 72
44
 73
9
 74
9
 0
VERTEX
 8
GRIFF_2
 10
0
 20
0
 30
0
 70
128
 71
56
 72
27
 73
43
 74
43
 0
VERTEX
 8
GRIFF_2
 10
0
 20
0
 30
0
 70
128
 71
4
 72
59
 73
17
 74
17
 0
VERTEX
 8
GRIFF_2
 10
0
 20
0
 30
0
 70
128
 71
42
 72
58
 73
25
 74
25
 0
VERTEX
 8
GRIFF_2
 10
0
 20
0
 30
0
 70
128
 71
59
 72
52
 73
46
 74
46
 0
VERTEX
 8
GRIFF_2
 10
0
 20
0
 30
0
 70
128
 71
19
 72
13
 73
33
 74
33
 0
VERTEX
 8
GRIFF_2
 10
0
 20
0
 30
0
 70
128
 71
61
 72
3
 73
11
 74
11
 0
VERTEX
 8
GRIFF_2
 10
0
 20
0
 30
0
 70
128
 71
64
 72
24
 73
63
 74
63
 0
VERTEX
 8
GRIFF_2
 10
0
 20
0
 30
0
 70
128
 71
50
 72
20
 73
62
 74
62
 0
VERTEX
 8
GRIFF_2
 10
0
 20
0
 30
0
 70
128
 71
4
 72
6
 73
12
 74
12
 0
VERTEX
 8
GRIFF_2
 10
0
 20
0
 30
0
 70
128
 71
41
 72
11
 73
18
 74
18
 0
VERTEX
 8
GRIFF_2
 10
0
 20
0
 30
0
 70
128
 71
34
 72
26
 73
19
 74
19
 0
VERTEX
 8
GRIFF_2
 10
0
 20
0
 30
0
 70
128
 71
19
 72
58
 73
13
 74
13
 0
VERTEX
 8
GRIFF_2
 10
0
 20
0
 30
0
 70
128
 71
4
 72
49
 73
59
 74
59
 0
VERTEX
 8
GRIFF_2
 10
0
 20
0
 30
0
 70
128
 71
13
 72
58
 73
44
 74
44
 0
VERTEX
 8
GRIFF_2
 10
0
 20
0
 30
0
 70
128
 71
39
 72
53
 73
26
 74
26
 0
VERTEX
 8
GRIFF_2
 10
0
 20
0
 30
0
 70
128
 71
61
 72
11
 73
41
 74
41
 0
VERTEX
 8
GRIFF_2
 10
0
 20
0
 30
0
 70
128
 71
16
 72
59
 73
49
 74
49
 0
VERTEX
 8
GRIFF_2
 10
0
 20
0
 30
0
 70
128
 71
66
 72
40
 73
65
 74
65
 0
VERTEX
 8
GRIFF_2
 10
0
 20
0
 30
0
 70
128
 71
29
 72
22
 73
54
 74
54
 0
VERTEX
 8
GRIFF_2
 10
0
 20
0
 30
0
 70
128
 71
2
 72
9
 73
51
 74
51
 0
VERTEX
 8
GRIFF_2
 10
0
 20
0
 30
0
 70
128
 71
14
 72
34
 73
52
 74
52
 0
VERTEX
 8
GRIFF_2
 10
0
 20
0
 30
0
 70
128
 71
68
 72
62
 73
67
 74
67
 0
VERTEX
 8
GRIFF_2
 10
0
 20
0
 30
0
 70
128
 71
61
 72
48
 73
3
 74
3
 0
VERTEX
 8
GRIFF_2
 10
0
 20
0
 30
0
 70
128
 71
37
 72
69
 73
70
 74
36
 0
VERTEX
 8
GRIFF_2
 10
0
 20
0
 30
0
 70
128
 71
9
 72
35
 73
27
 74
27
 0
VERTEX
 8
GRIFF_2
 10
0
 20
0
 30
0
 70
128
 71
55
 72
34
 73
14
 74
14
 0
VERTEX
 8
GRIFF_2
 10
0
 20
0
 30
0
 70
128
 71
50
 72
59
 73
29
 74
29
 0
VERTEX
 8
GRIFF_2
 10
0
 20
0
 30
0
 70
128
 71
5
 72
41
 73
55
 74
55
 0
VERTEX
 8
GRIFF_2
 10
0
 20
0
 30
0
 70
128
 71
72
 72
45
 73
71
 74
71
 0
VERTEX
 8
GRIFF_2
 10
0
 20
0
 30
0
 70
128
 71
29
 72
54
 73
43
 74
43
 0
VERTEX
 8
GRIFF_2
 10
0
 20
0
 30
0
 70
128
 71
73
 72
42
 73
74
 74
74
 0
VERTEX
 8
GRIFF_2
 10
0
 20
0
 30
0
 70
128
 71
24
 72
37
 73
36
 74
36
 0
VERTEX
 8
GRIFF_2
 10
0
 20
0
 30
0
 70
128
 71
71
 72
45
 73
23
 74
75
 0
VERTEX
 8
GRIFF_2
 10
0
 20
0
 30
0
 70
128
 71
76
 72
62
 73
68
 74
68
 0
VERTEX
 8
GRIFF_2
 10
0
 20
0
 30
0
 70
128
 71
11
 72
3
 73
39
 74
39
 0
VERTEX
 8
GRIFF_2
 10
0
 20
0
 30
0
 70
128
 71
39
 72
3
 73
53
 74
53
 0
VERTEX
 8
GRIFF_2
 10
0
 20
0
 30
0
 70
128
 71
35
 72
58
 73
15
 74
15
 0
VERTEX
 8
GRIFF_2
 10
0
 20
0
 30
0
 70
128
 71
77
 72
38
 73
62
 74
76
 0
VERTEX
 8
GRIFF_2
 10
0
 20
0
 30
0
 70
128
 71
59
 72
46
 73
22
 74
22
 0
VERTEX
 8
GRIFF_2
 10
0
 20
0
 30
0
 70
128
 71
48
 72
58
 73
8
 74
8
 0
VERTEX
 8
GRIFF_2
 10
0
 20
0
 30
0
 70
128
 71
20
 72
29
 73
43
 74
43
 0
VERTEX
 8
GRIFF_2
 10
0
 20
0
 30
0
 70
128
 71
61
 72
79
 73
78
 74
48
 0
VERTEX
 8
GRIFF_2
 10
0
 20
0
 30
0
 70
128
 71
22
 72
44
 73
54
 74
54
 0
VERTEX
 8
GRIFF_2
 10
0
 20
0
 30
0
 70
128
 71
47
 72
16
 73
12
 74
12
 0
VERTEX
 8
GRIFF_2
 10
0
 20
0
 30
0
 70
128
 71
80
 72
21
 73
10
 74
10
 0
VERTEX
 8
GRIFF_2
 10
0
 20
0
 30
0
 70
128
 71
81
 72
82
 73
43
 74
35
 0
VERTEX
 8
GRIFF_2
 10
0
 20
0
 30
0
 70
128
 71
57
 72
35
 73
45
 74
45
 0
VERTEX
 8
GRIFF_2
 10
0
 20
0
 30
0
 70
128
 71
58
 72
42
 73
73
 74
83
 0
VERTEX
 8
GRIFF_2
 10
0
 20
0
 30
0
 70
128
 71
64
 72
84
 73
15
 74
24
 0
VERTEX
 8
GRIFF_2
 10
0
 20
0
 30
0
 70
128
 71
40
 72
37
 73
58
 74
58
 0
VERTEX
 8
GRIFF_2
 10
0
 20
0
 30
0
 70
128
 71
25
 72
58
 73
48
 74
48
 0
VERTEX
 8
GRIFF_2
 10
0
 20
0
 30
0
 70
128
 71
9
 72
44
 73
35
 74
35
 0
VERTEX
 8
GRIFF_2
 10
0
 20
0
 30
0
 70
128
 71
12
 72
49
 73
4
 74
4
 0
VERTEX
 8
GRIFF_2
 10
0
 20
0
 30
0
 70
128
 71
18
 72
39
 73
26
 74
26
 0
VERTEX
 8
GRIFF_2
 10
0
 20
0
 30
0
 70
128
 71
34
 72
19
 73
1
 74
1
 0
VERTEX
 8
GRIFF_2
 10
0
 20
0
 30
0
 70
128
 71
7
 72
41
 73
5
 74
5
 0
VERTEX
 8
GRIFF_2
 10
0
 20
0
 30
0
 70
128
 71
46
 72
44
 73
22
 74
22
 0
VERTEX
 8
GRIFF_2
 10
0
 20
0
 30
0
 70
128
 71
38
 72
59
 73
50
 74
50
 0
VERTEX
 8
GRIFF_2
 10
0
 20
0
 30
0
 70
128
 71
85
 72
25
 73
48
 74
78
 0
VERTEX
 8
GRIFF_2
 10
0
 20
0
 30
0
 70
128
 71
46
 72
32
 73
44
 74
44
 0
VERTEX
 8
GRIFF_2
 10
0
 20
0
 30
0
 70
128
 71
45
 72
15
 73
23
 74
23
 0
VERTEX
 8
GRIFF_2
 10
0
 20
0
 30
0
 70
128
 71
6
 72
55
 73
14
 74
14
 0
VERTEX
 8
GRIFF_2
 10
0
 20
0
 30
0
 70
128
 71
86
 72
36
 73
70
 74
70
 0
VERTEX
 8
GRIFF_2
 10
0
 20
0
 30
0
 70
128
 71
41
 72
18
 73
55
 74
55
 0
VERTEX
 8
GRIFF_2
 10
0
 20
0
 30
0
 70
128
 71
34
 72
1
 73
52
 74
52
 0
VERTEX
 8
GRIFF_2
 10
0
 20
0
 30
0
 70
128
 71
52
 72
33
 73
32
 74
32
 0
VERTEX
 8
GRIFF_2
 10
0
 20
0
 30
0
 70
128
 71
87
 72
15
 73
84
 74
84
 0
VERTEX
 8
GRIFF_2
 10
0
 20
0
 30
0
 70
128
 71
88
 72
4
 73
38
 74
77
 0
VERTEX
 8
GRIFF_2
 10
0
 20
0
 30
0
 70
128
 71
30
 72
55
 73
6
 74
6
 0
VERTEX
 8
GRIFF_2
 10
0
 20
0
 30
0
 70
128
 71
55
 72
18
 73
34
 74
34
 0
VERTEX
 8
GRIFF_2
 10
0
 20
0
 30
0
 70
128
 71
6
 72
60
 73
30
 74
30
 0
VERTEX
 8
GRIFF_2
 10
0
 20
0
 30
0
 70
128
 71
45
 72
35
 73
15
 74
15
 0
VERTEX
 8
GRIFF_2
 10
0
 20
0
 30
0
 70
128
 71
60
 72
55
 73
30
 74
30
 0
VERTEX
 8
GRIFF_2
 10
0
 20
0
 30
0
 70
128
 71
43
 72
27
 73
35
 74
35
 0
VERTEX
 8
GRIFF_2
 10
0
 20
0
 30
0
 70
128
 71
81
 72
35
 73
89
 74
89
 0
VERTEX
 8
GRIFF_2
 10
0
 20
0
 30
0
 70
128
 71
14
 72
16
 73
47
 74
47
 0
VERTEX
 8
GRIFF_2
 10
0
 20
0
 30
0
 70
128
 71
48
 72
28
 73
3
 74
3
 0
VERTEX
 8
GRIFF_2
 10
0
 20
0
 30
0
 70
128
 71
69
 72
37
 73
90
 74
90
 0
VERTEX
 8
GRIFF_2
 10
0
 20
0
 30
0
 70
128
 71
14
 72
52
 73
16
 74
16
 0
VERTEX
 8
GRIFF_2
 10
0
 20
0
 30
0
 70
128
 71
91
 72
36
 73
86
 74
86
 0
VERTEX
 8
GRIFF_2
 10
0
 20
0
 30
0
 70
128
 71
54
 72
44
 73
2
 74
2
 0
VERTEX
 8
GRIFF_2
 10
0
 20
0
 30
0
 70
128
 71
16
 72
52
 73
59
 74
59
 0
VERTEX
 8
GRIFF_2
 10
0
 20
0
 30
0
 70
128
 71
92
 72
80
 73
10
 74
60
 0
VERTEX
 8
GRIFF_2
 10
0
 20
0
 30
0
 70
128
 71
7
 72
5
 73
60
 74
60
 0
VERTEX
 8
GRIFF_2
 10
0
 20
0
 30
0
 70
128
 71
60
 72
6
 73
4
 74
4
 0
VERTEX
 8
GRIFF_2
 10
0
 20
0
 30
0
 70
128
 71
58
 72
93
 73
65
 74
40
 0
VERTEX
 8
GRIFF_2
 10
0
 20
0
 30
0
 70
128
 71
5
 72
55
 73
60
 74
60
 0
VERTEX
 8
GRIFF_2
 10
0
 20
0
 30
0
 70
128
 71
38
 72
50
 73
62
 74
62
 0
VERTEX
 8
GRIFF_2
 10
0
 20
0
 30
0
 70
128
 71
28
 72
58
 73
19
 74
19
 0
VERTEX
 8
GRIFF_2
 10
0
 20
0
 30
0
 70
128
 71
43
 72
82
 73
67
 74
67
 0
VERTEX
 8
GRIFF_2
 10
0
 20
0
 30
0
 70
128
 71
67
 72
62
 73
43
 74
43
 0
VERTEX
 8
GRIFF_2
 10
0
 20
0
 30
0
 70
128
 71
50
 72
31
 73
20
 74
20
 0
VERTEX
 8
GRIFF_2
 10
0
 20
0
 30
0
 70
128
 71
1
 72
33
 73
52
 74
52
 0
VERTEX
 8
GRIFF_2
 10
0
 20
0
 30
0
 70
128
 71
10
 72
41
 73
7
 74
7
 0
VERTEX
 8
GRIFF_2
 10
0
 20
0
 30
0
 70
128
 71
93
 72
58
 73
83
 74
83
 0
VERTEX
 8
GRIFF_2
 10
0
 20
0
 30
0
 70
128
 71
56
 72
51
 73
27
 74
27
 0
VERTEX
 8
GRIFF_2
 10
0
 20
0
 30
0
 70
128
 71
43
 72
54
 73
56
 74
56
 0
VERTEX
 8
GRIFF_2
 10
0
 20
0
 30
0
 70
128
 71
31
 72
29
 73
20
 74
20
 0
VERTEX
 8
GRIFF_2
 10
0
 20
0
 30
0
 70
128
 71
94
 72
57
 73
45
 74
72
 0
VERTEX
 8
GRIFF_2
 10
0
 20
0
 30
0
 70
128
 71
88
 72
92
 73
60
 74
4
 0
VERTEX
 8
GRIFF_2
 10
0
 20
0
 30
0
 70
128
 71
8
 72
58
 73
28
 74
28
 0
VERTEX
 8
GRIFF_2
 10
0
 20
0
 30
0
 70
128
 71
20
 72
43
 73
62
 74
62
 0
VERTEX
 8
GRIFF_2
 10
0
 20
0
 30
0
 70
128
 71
79
 72
61
 73
21
 74
21
 0
VERTEX
 8
GRIFF_2
 10
0
 20
0
 30
0
 70
128
 71
32
 72
13
 73
44
 74
44
 0
VERTEX
 8
GRIFF_2
 10
0
 20
0
 30
0
 70
128
 71
53
 72
28
 73
19
 74
19
 0
VERTEX
 8
GRIFF_2
 10
0
 20
0
 30
0
 70
128
 71
40
 72
66
 73
95
 74
37
 0
VERTEX
 8
GRIFF_2
 10
0
 20
0
 30
0
 70
128
 71
51
 72
9
 73
27
 74
27
 0
VERTEX
 8
GRIFF_2
 10
0
 20
0
 30
0
 70
128
 71
24
 72
15
 73
37
 74
37
 0
VERTEX
 8
GRIFF_2
 10
0
 20
0
 30
0
 70
128
 71
33
 72
13
 73
32
 74
32
 0
VERTEX
 8
GRIFF_2
 10
0
 20
0
 30
0
 70
128
 71
50
 72
29
 73
31
 74
31
 0
VERTEX
 8
GRIFF_2
 10
0
 20
0
 30
0
 70
128
 71
35
 72
57
 73
96
 74
89
 0
VERTEX
 8
GRIFF_2
 10
0
 20
0
 30
0
 70
128
 71
90
 72
37
 73
95
 74
95
 0
VERTEX
 8
GRIFF_2
 10
0
 20
0
 30
0
 70
128
 71
52
 72
32
 73
46
 74
46
 0
VERTEX
 8
GRIFF_2
 10
0
 20
0
 30
0
 70
128
 71
74
 72
42
 73
25
 74
97
 0
VERTEX
 8
GRIFF_2
 10
0
 20
0
 30
0
 70
128
 71
11
 72
39
 73
18
 74
18
 0
VERTEX
 8
GRIFF_2
 10
0
 20
0
 30
0
 70
128
 71
10
 72
7
 73
60
 74
60
 0
VERTEX
 8
GRIFF_2
 10
0
 20
0
 30
0
 70
128
 71
21
 72
61
 73
10
 74
10
 0
VERTEX
 8
GRIFF_2
 10
0
 20
0
 30
0
 70
128
 71
16
 72
49
 73
12
 74
12
 0
VERTEX
 8
GRIFF_2
 10
0
 20
0
 30
0
 70
128
 71
18
 72
26
 73
34
 74
34
 0
VERTEX
 8
GRIFF_2
 10
0
 20
0
 30
0
 70
128
 71
97
 72
25
 73
98
 74
98
 0
VERTEX
 8
GRIFF_2
 10
0
 20
0
 30
0
 70
128
 71
56
 72
2
 73
51
 74
51
 0
VERTEX
 8
GRIFF_2
 10
0
 20
0
 30
0
 70
128
 71
87
 72
99
 73
23
 74
15
 0
VERTEX
 8
GRIFF_2
 10
0
 20
0
 30
0
 70
128
 71
15
 72
58
 73
37
 74
37
 0
VERTEX
 8
GRIFF_2
 10
0
 20
0
 30
0
 70
128
 71
26
 72
53
 73
19
 74
19
 0
VERTEX
 8
GRIFF_2
 10
0
 20
0
 30
0
 70
128
 71
19
 72
33
 73
1
 74
1
 0
VERTEX
 8
GRIFF_2
 10
0
 20
0
 30
0
 70
128
 71
44
 72
58
 73
35
 74
35
 0
VERTEX
 8
GRIFF_2
 10
0
 20
0
 30
0
 70
128
 71
4
 72
17
 73
38
 74
38
 0
VERTEX
 8
GRIFF_2
 10
0
 20
0
 30
0
 70
128
 71
6
 72
14
 73
47
 74
47
 0
VERTEX
 8
GRIFF_2
 10
0
 20
0
 30
0
 70
128
 71
17
 72
59
 73
38
 74
38
 0
VERTEX
 8
GRIFF_2
 10
0
 20
0
 30
0
 70
128
 71
54
 72
2
 73
56
 74
56
 0
VERTEX
 8
GRIFF_2
 10
0
 20
0
 30
0
 70
128
 71
3
 72
28
 73
53
 74
53
 0
VERTEX
 8
GRIFF_2
 10
0
 20
0
 30
0
 70
128
 71
96
 72
57
 73
94
 74
94
 0
VERTEX
 8
GRIFF_2
 10
0
 20
0
 30
0
 70
128
 71
98
 72
25
 73
85
 74
85
 0
VERTEX
 8
GRIFF_2
 10
0
 20
0
 30
0
 70
128
 71
59
 72
22
 73
29
 74
29
 0
VERTEX
 8
GRIFF_2
 10
0
 20
0
 30
0
 70
128
 71
6
 72
47
 73
12
 74
12
 0
VERTEX
 8
GRIFF_2
 10
0
 20
0
 30
0
 70
128
 71
10
 72
61
 73
41
 74
41
 0
VERTEX
 8
GRIFF_2
 10
0
 20
0
 30
0
 70
128
 71
91
 72
63
 73
24
 74
36
 0
VERTEX
 8
GRIFF_2
 10
0
 20
0
 30
0
 70
128
 71
75
 72
23
 73
99
 74
99
 0
VERTEX
 8
GRIFF_2
 10
0
 20
0
 30
0
 70
128
 71
48
 72
8
 73
28
 74
28
 0
SEQEND
 0
POLYLINE
 8
AUS3
 66
1
 10
0.0
 20
0.0
 30
0.0
 70
64
 71
65
 72
98
 0
VERTEX
 8
AUS3
 10
-7.5088
 20
1.7833
 30
26.0503
 70
192
 0
VERTEX
 8
AUS3
 10
-8.8567
 20
-0.3146
 30
24.7561
 70
192
 0
VERTEX
 8
AUS3
 10
-7.0076
 20
-1.852
 30
9.4068
 70
192
 0
VERTEX
 8
AUS3
 10
-6.2551
 20
-1.6921
 30
9.4068
 70
192
 0
VERTEX
 8
AUS3
 10
-5.6328
 20
-1.2399
 30
9.4068
 70
192
 0
VERTEX
 8
AUS3
 10
-5.2481
 20
-0.5737
 30
9.4068
 70
192
 0
VERTEX
 8
AUS3
 10
-5.1677
 20
0.1914
 30
9.4068
 70
192
 0
VERTEX
 8
AUS3
 10
-5.2501
 20
-17.4729
 30
24.7177
 70
192
 0
VERTEX
 8
AUS3
 10
-5.4055
 20
0.923
 30
9.4068
 70
192
 0
VERTEX
 8
AUS3
 10
-5.9202
 20
1.4947
 30
9.4068
 70
192
 0
VERTEX
 8
AUS3
 10
-5.9202
 20
1.4947
 30
26.0463
 70
192
 0
VERTEX
 8
AUS3
 10
-6.623
 20
1.8076
 30
9.4068
 70
192
 0
VERTEX
 8
AUS3
 10
-6.623
 20
1.8076
 30
26.0463
 70
192
 0
VERTEX
 8
AUS3
 10
-7.3922
 20
1.8076
 30
9.4068
 70
192
 0
VERTEX
 8
AUS3
 10
-7.0076
 20
1.8551
 30
26.0529
 70
192
 0
VERTEX
 8
AUS3
 10
-8.095
 20
1.4947
 30
9.4068
 70
192
 0
VERTEX
 8
AUS3
 10
-5.1615
 20
-17.0406
 30
24.7232
 70
192
 0
VERTEX
 8
AUS3
 10
-8.6097
 20
0.923
 30
9.4068
 70
192
 0
VERTEX
 8
AUS3
 10
-5.5821
 20
-18.0471
 30
24.733
 70
192
 0
VERTEX
 8
AUS3
 10
-8.8475
 20
0.1914
 30
9.4068
 70
192
 0
VERTEX
 8
AUS3
 10
-5.2875
 20
0.679
 30
26.0507
 70
192
 0
VERTEX
 8
AUS3
 10
-8.7671
 20
-0.5737
 30
9.4068
 70
192
 0
VERTEX
 8
AUS3
 10
-8.3824
 20
-1.2399
 30
9.4068
 70
192
 0
VERTEX
 8
AUS3
 10
-7.7601
 20
-1.6921
 30
9.4068
 70
192
 0
VERTEX
 8
AUS3
 10
-5.1579
 20
-0.002
 30
26.0512
 70
192
 0
VERTEX
 8
AUS3
 10
-8.4985
 20
-17.9736
 30
24.7404
 70
192
 0
VERTEX
 8
AUS3
 10
-8.7367
 20
-17.5559
 30
26.0511
 70
192
 0
VERTEX
 8
AUS3
 10
-8.1868
 20
-18.2933
 30
24.7365
 70
192
 0
VERTEX
 8
AUS3
 10
-7.5642
 20
-18.6388
 30
24.7558
 70
192
 0
VERTEX
 8
AUS3
 10
-6.3033
 20
1.7597
 30
26.0463
 70
192
 0
VERTEX
 8
AUS3
 10
-8.8432
 20
0.2045
 30
26.0434
 70
192
 0
VERTEX
 8
AUS3
 10
-8.4274
 20
1.1952
 30
26.0498
 70
192
 0
VERTEX
 8
AUS3
 10
-5.1929
 20
0.3803
 30
26.0508
 70
192
 0
VERTEX
 8
AUS3
 10
-5.2014
 20
-17.3313
 30
26.051
 70
192
 0
VERTEX
 8
AUS3
 10
-8.7906
 20
-17.3967
 30
24.7179
 70
192
 0
VERTEX
 8
AUS3
 10
-5.5826
 20
-18.069
 30
26.0508
 70
192
 0
VERTEX
 8
AUS3
 10
-7.2395
 20
-18.7033
 30
26.0371
 70
192
 0
VERTEX
 8
AUS3
 10
-6.7757
 20
-18.7033
 30
24.7478
 70
192
 0
VERTEX
 8
AUS3
 10
-5.8997
 20
-18.3571
 30
24.7224
 70
192
 0
VERTEX
 8
AUS3
 10
-6.0163
 20
-18.4299
 30
26.0453
 70
192
 0
VERTEX
 8
AUS3
 10
-7.1238
 20
-18.7142
 30
24.7478
 70
192
 0
VERTEX
 8
AUS3
 10
-8.7671
 20
-0.5737
 30
24.7561
 70
192
 0
VERTEX
 8
AUS3
 10
-7.7601
 20
-1.6921
 30
24.7561
 70
192
 0
VERTEX
 8
AUS3
 10
-5.2009
 20
-0.1241
 30
24.6169
 70
192
 0
VERTEX
 8
AUS3
 10
-5.1585
 20
-0.3404
 30
24.7562
 70
192
 0
VERTEX
 8
AUS3
 10
-8.8537
 20
-16.9872
 30
24.7162
 70
192
 0
VERTEX
 8
AUS3
 10
-8.8573
 20
-0.002
 30
26.0444
 70
192
 0
VERTEX
 8
AUS3
 10
-8.8149
 20
-0.1188
 30
24.637
 70
192
 0
VERTEX
 8
AUS3
 10
-7.9879
 20
1.5753
 30
26.0498
 70
192
 0
VERTEX
 8
AUS3
 10
-8.8538
 20
-17.0403
 30
26.0436
 70
192
 0
VERTEX
 8
AUS3
 10
-8.295
 20
-18.2152
 30
26.0508
 70
192
 0
VERTEX
 8
AUS3
 10
-5.2046
 20
-0.1597
 30
24.6844
 70
192
 0
VERTEX
 8
AUS3
 10
-8.7943
 20
-0.315
 30
24.7561
 70
192
 0
VERTEX
 8
AUS3
 10
-5.2235
 20
-0.3399
 30
24.7562
 70
192
 0
VERTEX
 8
AUS3
 10
-5.2481
 20
-0.5737
 30
24.7562
 70
192
 0
VERTEX
 8
AUS3
 10
-8.3824
 20
-1.2399
 30
24.7561
 70
192
 0
VERTEX
 8
AUS3
 10
-7.0076
 20
-1.852
 30
24.7561
 70
192
 0
VERTEX
 8
AUS3
 10
-6.2551
 20
-1.6921
 30
24.7384
 70
192
 0
VERTEX
 8
AUS3
 10
-5.6328
 20
-1.2399
 30
24.7562
 70
192
 0
VERTEX
 8
AUS3
 10
-6.5077
 20
-18.6589
 30
26.0508
 70
192
 0
VERTEX
 8
AUS3
 10
-6.3266
 20
-18.5879
 30
24.7361
 70
192
 0
VERTEX
 8
AUS3
 10
-8.7081
 20
0.7382
 30
26.0512
 70
192
 0
VERTEX
 8
AUS3
 10
-7.6886
 20
-18.5879
 30
26.0371
 70
192
 0
VERTEX
 8
AUS3
 10
-5.1612
 20
-16.984
 30
26.0669
 70
192
 0
VERTEX
 8
AUS3
 10
-5.465
 20
1.0271
 30
26.0505
 70
192
 0
VERTEX
 8
AUS3
 10
0
 20
0
 30
0
 70
128
 71
14
 72
12
 73
15
 74
1
 0
VERTEX
 8
AUS3
 10
0
 20
0
 30
0
 70
128
 71
58
 72
4
 73
3
 74
57
 0
VERTEX
 8
AUS3
 10
0
 20
0
 30
0
 70
128
 71
14
 72
1
 73
49
 74
16
 0
VERTEX
 8
AUS3
 10
0
 20
0
 30
0
 70
128
 71
32
 72
62
 73
18
 74
18
 0
VERTEX
 8
AUS3
 10
0
 20
0
 30
0
 70
128
 71
59
 72
5
 73
4
 74
58
 0
VERTEX
 8
AUS3
 10
0
 20
0
 30
0
 70
128
 71
12
 72
13
 73
15
 74
15
 0
VERTEX
 8
AUS3
 10
0
 20
0
 30
0
 70
128
 71
62
 72
31
 73
20
 74
18
 0
VERTEX
 8
AUS3
 10
0
 20
0
 30
0
 70
128
 71
48
 72
22
 73
20
 74
31
 0
VERTEX
 8
AUS3
 10
0
 20
0
 30
0
 70
128
 71
30
 72
65
 73
21
 74
25
 0
VERTEX
 8
AUS3
 10
0
 20
0
 30
0
 70
128
 71
49
 72
32
 73
18
 74
16
 0
VERTEX
 8
AUS3
 10
0
 20
0
 30
0
 70
128
 71
21
 72
33
 73
25
 74
25
 0
VERTEX
 8
AUS3
 10
0
 20
0
 30
0
 70
128
 71
12
 72
10
 73
11
 74
30
 0
VERTEX
 8
AUS3
 10
0
 20
0
 30
0
 70
128
 71
55
 72
6
 73
5
 74
59
 0
VERTEX
 8
AUS3
 10
0
 20
0
 30
0
 70
128
 71
35
 72
45
 73
55
 74
55
 0
VERTEX
 8
AUS3
 10
0
 20
0
 30
0
 70
128
 71
38
 72
60
 73
61
 74
61
 0
VERTEX
 8
AUS3
 10
0
 20
0
 30
0
 70
128
 71
7
 72
33
 73
21
 74
9
 0
VERTEX
 8
AUS3
 10
0
 20
0
 30
0
 70
128
 71
47
 72
27
 73
50
 74
50
 0
VERTEX
 8
AUS3
 10
0
 20
0
 30
0
 70
128
 71
13
 72
12
 73
30
 74
30
 0
VERTEX
 8
AUS3
 10
0
 20
0
 30
0
 70
128
 71
7
 72
6
 73
55
 74
54
 0
VERTEX
 8
AUS3
 10
0
 20
0
 30
0
 70
128
 71
54
 72
52
 73
7
 74
7
 0
VERTEX
 8
AUS3
 10
0
 20
0
 30
0
 70
128
 71
2
 72
48
 73
31
 74
47
 0
VERTEX
 8
AUS3
 10
0
 20
0
 30
0
 70
128
 71
7
 72
52
 73
44
 74
44
 0
VERTEX
 8
AUS3
 10
0
 20
0
 30
0
 70
128
 71
44
 72
45
 73
25
 74
25
 0
VERTEX
 8
AUS3
 10
0
 20
0
 30
0
 70
128
 71
42
 72
22
 73
53
 74
53
 0
VERTEX
 8
AUS3
 10
0
 20
0
 30
0
 70
128
 71
40
 72
60
 73
36
 74
36
 0
VERTEX
 8
AUS3
 10
0
 20
0
 30
0
 70
128
 71
30
 72
1
 73
15
 74
13
 0
VERTEX
 8
AUS3
 10
0
 20
0
 30
0
 70
128
 71
53
 72
22
 73
48
 74
48
 0
VERTEX
 8
AUS3
 10
0
 20
0
 30
0
 70
128
 71
34
 72
36
 73
27
 74
27
 0
VERTEX
 8
AUS3
 10
0
 20
0
 30
0
 70
128
 71
51
 72
36
 73
60
 74
60
 0
VERTEX
 8
AUS3
 10
0
 20
0
 30
0
 70
128
 71
64
 72
34
 73
25
 74
25
 0
VERTEX
 8
AUS3
 10
0
 20
0
 30
0
 70
128
 71
38
 72
37
 73
60
 74
60
 0
VERTEX
 8
AUS3
 10
0
 20
0
 30
0
 70
128
 71
33
 72
7
 73
44
 74
25
 0
VERTEX
 8
AUS3
 10
0
 20
0
 30
0
 70
128
 71
21
 72
65
 73
9
 74
9
 0
VERTEX
 8
AUS3
 10
0
 20
0
 30
0
 70
128
 71
26
 72
28
 73
29
 74
29
 0
VERTEX
 8
AUS3
 10
0
 20
0
 30
0
 70
128
 71
30
 72
31
 73
62
 74
32
 0
VERTEX
 8
AUS3
 10
0
 20
0
 30
0
 70
128
 71
61
 72
60
 73
40
 74
40
 0
VERTEX
 8
AUS3
 10
0
 20
0
 30
0
 70
128
 71
11
 72
65
 73
30
 74
30
 0
VERTEX
 8
AUS3
 10
0
 20
0
 30
0
 70
128
 71
35
 72
59
 73
58
 74
58
 0
VERTEX
 8
AUS3
 10
0
 20
0
 30
0
 70
128
 71
43
 72
24
 73
23
 74
56
 0
VERTEX
 8
AUS3
 10
0
 20
0
 30
0
 70
128
 71
30
 72
25
 73
47
 74
31
 0
VERTEX
 8
AUS3
 10
0
 20
0
 30
0
 70
128
 71
26
 72
51
 73
28
 74
28
 0
VERTEX
 8
AUS3
 10
0
 20
0
 30
0
 70
128
 71
30
 72
32
 73
49
 74
1
 0
VERTEX
 8
AUS3
 10
0
 20
0
 30
0
 70
128
 71
47
 72
25
 73
34
 74
27
 0
VERTEX
 8
AUS3
 10
0
 20
0
 30
0
 70
128
 71
39
 72
40
 73
36
 74
36
 0
VERTEX
 8
AUS3
 10
0
 20
0
 30
0
 70
128
 71
56
 72
23
 73
22
 74
42
 0
VERTEX
 8
AUS3
 10
0
 20
0
 30
0
 70
128
 71
45
 72
17
 73
64
 74
64
 0
VERTEX
 8
AUS3
 10
0
 20
0
 30
0
 70
128
 71
45
 72
8
 73
17
 74
17
 0
VERTEX
 8
AUS3
 10
0
 20
0
 30
0
 70
128
 71
11
 72
10
 73
9
 74
65
 0
VERTEX
 8
AUS3
 10
0
 20
0
 30
0
 70
128
 71
48
 72
2
 73
53
 74
53
 0
VERTEX
 8
AUS3
 10
0
 20
0
 30
0
 70
128
 71
52
 72
45
 73
44
 74
44
 0
VERTEX
 8
AUS3
 10
0
 20
0
 30
0
 70
128
 71
8
 72
34
 73
17
 74
17
 0
VERTEX
 8
AUS3
 10
0
 20
0
 30
0
 70
128
 71
63
 72
51
 73
60
 74
60
 0
VERTEX
 8
AUS3
 10
0
 20
0
 30
0
 70
128
 71
28
 72
51
 73
63
 74
63
 0
VERTEX
 8
AUS3
 10
0
 20
0
 30
0
 70
128
 71
29
 72
63
 73
37
 74
37
 0
VERTEX
 8
AUS3
 10
0
 20
0
 30
0
 70
128
 71
56
 72
42
 73
35
 74
35
 0
VERTEX
 8
AUS3
 10
0
 20
0
 30
0
 70
128
 71
27
 72
36
 73
51
 74
51
 0
VERTEX
 8
AUS3
 10
0
 20
0
 30
0
 70
128
 71
26
 72
27
 73
51
 74
51
 0
VERTEX
 8
AUS3
 10
0
 20
0
 30
0
 70
128
 71
41
 72
37
 73
38
 74
38
 0
VERTEX
 8
AUS3
 10
0
 20
0
 30
0
 70
128
 71
45
 72
64
 73
25
 74
25
 0
VERTEX
 8
AUS3
 10
0
 20
0
 30
0
 70
128
 71
54
 72
45
 73
52
 74
52
 0
VERTEX
 8
AUS3
 10
0
 20
0
 30
0
 70
128
 71
57
 72
3
 73
24
 74
43
 0
VERTEX
 8
AUS3
 10
0
 20
0
 30
0
 70
128
 71
39
 72
19
 73
8
 74
8
 0
VERTEX
 8
AUS3
 10
0
 20
0
 30
0
 70
128
 71
19
 72
36
 73
8
 74
8
 0
VERTEX
 8
AUS3
 10
0
 20
0
 30
0
 70
128
 71
35
 72
58
 73
57
 74
57
 0
VERTEX
 8
AUS3
 10
0
 20
0
 30
0
 70
128
 71
29
 72
37
 73
41
 74
41
 0
VERTEX
 8
AUS3
 10
0
 20
0
 30
0
 70
128
 71
28
 72
63
 73
29
 74
29
 0
VERTEX
 8
AUS3
 10
0
 20
0
 30
0
 70
128
 71
2
 72
46
 73
35
 74
35
 0
VERTEX
 8
AUS3
 10
0
 20
0
 30
0
 70
128
 71
45
 72
26
 73
29
 74
29
 0
VERTEX
 8
AUS3
 10
0
 20
0
 30
0
 70
128
 71
46
 72
50
 73
35
 74
35
 0
VERTEX
 8
AUS3
 10
0
 20
0
 30
0
 70
128
 71
45
 72
39
 73
8
 74
8
 0
VERTEX
 8
AUS3
 10
0
 20
0
 30
0
 70
128
 71
57
 72
43
 73
35
 74
35
 0
VERTEX
 8
AUS3
 10
0
 20
0
 30
0
 70
128
 71
63
 72
60
 73
37
 74
37
 0
VERTEX
 8
AUS3
 10
0
 20
0
 30
0
 70
128
 71
35
 72
55
 73
59
 74
59
 0
VERTEX
 8
AUS3
 10
0
 20
0
 30
0
 70
128
 71
17
 72
34
 73
64
 74
64
 0
VERTEX
 8
AUS3
 10
0
 20
0
 30
0
 70
128
 71
61
 72
40
 73
39
 74
39
 0
VERTEX
 8
AUS3
 10
0
 20
0
 30
0
 70
128
 71
29
 72
41
 73
38
 74
38
 0
VERTEX
 8
AUS3
 10
0
 20
0
 30
0
 70
128
 71
6
 72
7
 73
5
 74
5
 0
VERTEX
 8
AUS3
 10
0
 20
0
 30
0
 70
128
 71
5
 72
7
 73
9
 74
3
 0
VERTEX
 8
AUS3
 10
0
 20
0
 30
0
 70
128
 71
9
 72
10
 73
12
 74
12
 0
VERTEX
 8
AUS3
 10
0
 20
0
 30
0
 70
128
 71
18
 72
9
 73
12
 74
14
 0
VERTEX
 8
AUS3
 10
0
 20
0
 30
0
 70
128
 71
3
 72
9
 73
18
 74
23
 0
VERTEX
 8
AUS3
 10
0
 20
0
 30
0
 70
128
 71
14
 72
16
 73
18
 74
18
 0
VERTEX
 8
AUS3
 10
0
 20
0
 30
0
 70
128
 71
23
 72
18
 73
20
 74
22
 0
VERTEX
 8
AUS3
 10
0
 20
0
 30
0
 70
128
 71
23
 72
24
 73
3
 74
3
 0
VERTEX
 8
AUS3
 10
0
 20
0
 30
0
 70
128
 71
3
 72
4
 73
5
 74
5
 0
VERTEX
 8
AUS3
 10
0
 20
0
 30
0
 70
128
 71
2
 72
47
 73
50
 74
50
 0
VERTEX
 8
AUS3
 10
0
 20
0
 30
0
 70
128
 71
29
 72
38
 73
39
 74
39
 0
VERTEX
 8
AUS3
 10
0
 20
0
 30
0
 70
128
 71
43
 72
56
 73
35
 74
35
 0
VERTEX
 8
AUS3
 10
0
 20
0
 30
0
 70
128
 71
35
 72
27
 73
26
 74
26
 0
VERTEX
 8
AUS3
 10
0
 20
0
 30
0
 70
128
 71
2
 72
50
 73
46
 74
46
 0
VERTEX
 8
AUS3
 10
0
 20
0
 30
0
 70
128
 71
8
 72
36
 73
34
 74
34
 0
VERTEX
 8
AUS3
 10
0
 20
0
 30
0
 70
128
 71
35
 72
50
 73
27
 74
27
 0
VERTEX
 8
AUS3
 10
0
 20
0
 30
0
 70
128
 71
45
 72
29
 73
39
 74
39
 0
VERTEX
 8
AUS3
 10
0
 20
0
 30
0
 70
128
 71
39
 72
36
 73
19
 74
19
 0
VERTEX
 8
AUS3
 10
0
 20
0
 30
0
 70
128
 71
45
 72
35
 73
26
 74
26
 0
VERTEX
 8
AUS3
 10
0
 20
0
 30
0
 70
128
 71
53
 72
2
 73
35
 74
42
 0
VERTEX
 8
AUS3
 10
0
 20
0
 30
0
 70
128
 71
45
 72
54
 73
55
 74
55
 0
VERTEX
 8
AUS3
 10
0
 20
0
 30
0
 70
128
 71
38
 72
61
 73
39
 74
39
 0
SEQEND
 0
POLYLINE
 8
W_RFEL
 66
1
 10
0.0
 20
0.0
 30
0.0
 70
64
 71
25
 72
46
 0
VERTEX
 8
W_RFEL
 10
4.6769
 20
-0.5246
 30
9.7329
 70
192
 0
VERTEX
 8
W_RFEL
 10
4.4403
 20
0.0946
 30
9.7842
 70
192
 0
VERTEX
 8
W_RFEL
 10
8.8651
 20
0.3128
 30
12.8842
 70
192
 0
VERTEX
 8
W_RFEL
 10
8.4517
 20
0.5896
 30
9.7696
 70
192
 0
VERTEX
 8
W_RFEL
 10
8.9349
 20
-0.1148
 30
9.7842
 70
192
 0
VERTEX
 8
W_RFEL
 10
8.9243
 20
-0.2221
 30
12.9339
 70
192
 0
VERTEX
 8
W_RFEL
 10
4.5101
 20
-0.333
 30
12.8842
 70
192
 0
VERTEX
 8
W_RFEL
 10
4.4403
 20
-0.1148
 30
12.8842
 70
192
 0
VERTEX
 8
W_RFEL
 10
4.8814
 20
-0.6092
 30
12.9336
 70
192
 0
VERTEX
 8
W_RFEL
 10
4.6769
 20
0.5044
 30
12.9354
 70
192
 0
VERTEX
 8
W_RFEL
 10
8.8651
 20
-0.333
 30
9.7842
 70
192
 0
VERTEX
 8
W_RFEL
 10
4.4509
 20
-0.2221
 30
9.7344
 70
192
 0
VERTEX
 8
W_RFEL
 10
4.6355
 20
-0.4826
 30
12.8842
 70
192
 0
VERTEX
 8
W_RFEL
 10
4.4509
 20
0.2019
 30
12.9339
 70
192
 0
VERTEX
 8
W_RFEL
 10
8.5625
 20
-0.608
 30
9.735
 70
192
 0
VERTEX
 8
W_RFEL
 10
4.5101
 20
0.3128
 30
9.7842
 70
192
 0
VERTEX
 8
W_RFEL
 10
8.9243
 20
0.2019
 30
9.7344
 70
192
 0
VERTEX
 8
W_RFEL
 10
8.5625
 20
0.5878
 30
12.9333
 70
192
 0
VERTEX
 8
W_RFEL
 10
4.9235
 20
0.5896
 30
12.8988
 70
192
 0
VERTEX
 8
W_RFEL
 10
8.9349
 20
0.0946
 30
12.8842
 70
192
 0
VERTEX
 8
W_RFEL
 10
4.8127
 20
0.5878
 30
9.735
 70
192
 0
VERTEX
 8
W_RFEL
 10
8.6983
 20
-0.5246
 30
12.9354
 70
192
 0
VERTEX
 8
W_RFEL
 10
8.4517
 20
-0.6099
 30
12.8988
 70
192
 0
VERTEX
 8
W_RFEL
 10
8.6983
 20
0.5044
 30
9.7329
 70
192
 0
VERTEX
 8
W_RFEL
 10
4.9235
 20
-0.6099
 30
9.7696
 70
192
 0
VERTEX
 8
W_RFEL
 10
0
 20
0
 30
0
 70
128
 71
12
 72
2
 73
14
 74
14
 0
VERTEX
 8
W_RFEL
 10
0
 20
0
 30
0
 70
128
 71
22
 72
18
 73
6
 74
6
 0
VERTEX
 8
W_RFEL
 10
0
 20
0
 30
0
 70
128
 71
6
 72
20
 73
17
 74
17
 0
VERTEX
 8
W_RFEL
 10
0
 20
0
 30
0
 70
128
 71
22
 72
11
 73
15
 74
15
 0
VERTEX
 8
W_RFEL
 10
0
 20
0
 30
0
 70
128
 71
21
 72
4
 73
18
 74
18
 0
VERTEX
 8
W_RFEL
 10
0
 20
0
 30
0
 70
128
 71
15
 72
25
 73
9
 74
9
 0
VERTEX
 8
W_RFEL
 10
0
 20
0
 30
0
 70
128
 71
15
 72
21
 73
1
 74
1
 0
VERTEX
 8
W_RFEL
 10
0
 20
0
 30
0
 70
128
 71
1
 72
7
 73
13
 74
13
 0
VERTEX
 8
W_RFEL
 10
0
 20
0
 30
0
 70
128
 71
8
 72
7
 73
12
 74
12
 0
VERTEX
 8
W_RFEL
 10
0
 20
0
 30
0
 70
128
 71
2
 72
16
 73
14
 74
14
 0
VERTEX
 8
W_RFEL
 10
0
 20
0
 30
0
 70
128
 71
17
 72
3
 73
24
 74
24
 0
VERTEX
 8
W_RFEL
 10
0
 20
0
 30
0
 70
128
 71
9
 72
10
 73
18
 74
18
 0
VERTEX
 8
W_RFEL
 10
0
 20
0
 30
0
 70
128
 71
6
 72
11
 73
22
 74
22
 0
VERTEX
 8
W_RFEL
 10
0
 20
0
 30
0
 70
128
 71
18
 72
4
 73
24
 74
24
 0
VERTEX
 8
W_RFEL
 10
0
 20
0
 30
0
 70
128
 71
10
 72
16
 73
21
 74
21
 0
VERTEX
 8
W_RFEL
 10
0
 20
0
 30
0
 70
128
 71
9
 72
25
 73
1
 74
1
 0
VERTEX
 8
W_RFEL
 10
0
 20
0
 30
0
 70
128
 71
5
 72
11
 73
6
 74
6
 0
VERTEX
 8
W_RFEL
 10
0
 20
0
 30
0
 70
128
 71
1
 72
21
 73
12
 74
12
 0
VERTEX
 8
W_RFEL
 10
0
 20
0
 30
0
 70
128
 71
15
 72
9
 73
23
 74
23
 0
VERTEX
 8
W_RFEL
 10
0
 20
0
 30
0
 70
128
 71
24
 72
4
 73
21
 74
21
 0
VERTEX
 8
W_RFEL
 10
0
 20
0
 30
0
 70
128
 71
11
 72
5
 73
15
 74
15
 0
VERTEX
 8
W_RFEL
 10
0
 20
0
 30
0
 70
128
 71
9
 72
14
 73
10
 74
10
 0
VERTEX
 8
W_RFEL
 10
0
 20
0
 30
0
 70
128
 71
9
 72
18
 73
22
 74
22
 0
VERTEX
 8
W_RFEL
 10
0
 20
0
 30
0
 70
128
 71
14
 72
16
 73
10
 74
10
 0
VERTEX
 8
W_RFEL
 10
0
 20
0
 30
0
 70
128
 71
9
 72
8
 73
14
 74
14
 0
VERTEX
 8
W_RFEL
 10
0
 20
0
 30
0
 70
128
 71
12
 72
7
 73
1
 74
1
 0
VERTEX
 8
W_RFEL
 10
0
 20
0
 30
0
 70
128
 71
15
 72
17
 73
24
 74
24
 0
VERTEX
 8
W_RFEL
 10
0
 20
0
 30
0
 70
128
 71
18
 72
20
 73
6
 74
6
 0
VERTEX
 8
W_RFEL
 10
0
 20
0
 30
0
 70
128
 71
18
 72
10
 73
19
 74
19
 0
VERTEX
 8
W_RFEL
 10
0
 20
0
 30
0
 70
128
 71
20
 72
3
 73
17
 74
17
 0
VERTEX
 8
W_RFEL
 10
0
 20
0
 30
0
 70
128
 71
22
 72
23
 73
9
 74
9
 0
VERTEX
 8
W_RFEL
 10
0
 20
0
 30
0
 70
128
 71
7
 72
9
 73
13
 74
13
 0
VERTEX
 8
W_RFEL
 10
0
 20
0
 30
0
 70
128
 71
1
 72
13
 73
9
 74
9
 0
VERTEX
 8
W_RFEL
 10
0
 20
0
 30
0
 70
128
 71
21
 72
2
 73
12
 74
12
 0
VERTEX
 8
W_RFEL
 10
0
 20
0
 30
0
 70
128
 71
21
 72
19
 73
10
 74
10
 0
VERTEX
 8
W_RFEL
 10
0
 20
0
 30
0
 70
128
 71
9
 72
7
 73
8
 74
8
 0
VERTEX
 8
W_RFEL
 10
0
 20
0
 30
0
 70
128
 71
12
 72
14
 73
8
 74
8
 0
VERTEX
 8
W_RFEL
 10
0
 20
0
 30
0
 70
128
 71
21
 72
18
 73
19
 74
19
 0
VERTEX
 8
W_RFEL
 10
0
 20
0
 30
0
 70
128
 71
24
 72
3
 73
18
 74
18
 0
VERTEX
 8
W_RFEL
 10
0
 20
0
 30
0
 70
128
 71
15
 72
5
 73
17
 74
17
 0
VERTEX
 8
W_RFEL
 10
0
 20
0
 30
0
 70
128
 71
18
 72
3
 73
20
 74
20
 0
VERTEX
 8
W_RFEL
 10
0
 20
0
 30
0
 70
128
 71
1
 72
25
 73
15
 74
15
 0
VERTEX
 8
W_RFEL
 10
0
 20
0
 30
0
 70
128
 71
16
 72
2
 73
21
 74
21
 0
VERTEX
 8
W_RFEL
 10
0
 20
0
 30
0
 70
128
 71
15
 72
24
 73
21
 74
21
 0
VERTEX
 8
W_RFEL
 10
0
 20
0
 30
0
 70
128
 71
15
 72
23
 73
22
 74
22
 0
VERTEX
 8
W_RFEL
 10
0
 20
0
 30
0
 70
128
 71
6
 72
17
 73
5
 74
5
 0
SEQEND
 0
POLYLINE
 8
ZYLINDER
 66
1
 10
0.0
 20
0.0
 30
0.0
 70
64
 71
12
 72
6
 0
VERTEX
 8
ZYLINDER
 10
6.6926
 20
-0.4643
 30
9.2392
 70
192
 0
VERTEX
 8
ZYLINDER
 10
6.6926
 20
-0.4643
 30
11.0254
 70
192
 0
VERTEX
 8
ZYLINDER
 10
7.0823
 20
-0.2393
 30
9.2392
 70
192
 0
VERTEX
 8
ZYLINDER
 10
7.0823
 20
-0.2393
 30
11.0254
 70
192
 0
VERTEX
 8
ZYLINDER
 10
7.0823
 20
0.2107
 30
9.2392
 70
192
 0
VERTEX
 8
ZYLINDER
 10
7.0823
 20
0.2107
 30
11.0254
 70
192
 0
VERTEX
 8
ZYLINDER
 10
6.6926
 20
0.4357
 30
9.2392
 70
192
 0
VERTEX
 8
ZYLINDER
 10
6.6926
 20
0.4357
 30
11.0254
 70
192
 0
VERTEX
 8
ZYLINDER
 10
6.3029
 20
0.2107
 30
9.2392
 70
192
 0
VERTEX
 8
ZYLINDER
 10
6.3029
 20
0.2107
 30
11.0254
 70
192
 0
VERTEX
 8
ZYLINDER
 10
6.3029
 20
-0.2393
 30
9.2392
 70
192
 0
VERTEX
 8
ZYLINDER
 10
6.3029
 20
-0.2393
 30
11.0254
 70
192
 0
VERTEX
 8
ZYLINDER
 10
0
 20
0
 30
0
 70
128
 71
1
 72
2
 73
4
 74
3
 0
VERTEX
 8
ZYLINDER
 10
0
 20
0
 30
0
 70
128
 71
3
 72
4
 73
6
 74
5
 0
VERTEX
 8
ZYLINDER
 10
0
 20
0
 30
0
 70
128
 71
5
 72
6
 73
8
 74
7
 0
VERTEX
 8
ZYLINDER
 10
0
 20
0
 30
0
 70
128
 71
7
 72
8
 73
10
 74
9
 0
VERTEX
 8
ZYLINDER
 10
0
 20
0
 30
0
 70
128
 71
9
 72
10
 73
12
 74
11
 0
VERTEX
 8
ZYLINDER
 10
0
 20
0
 30
0
 70
128
 71
11
 72
12
 73
2
 74
1
 0
SEQEND
 0
POLYLINE
 8
ZYLIND2
 66
1
 10
0.0
 20
0.0
 30
0.0
 70
64
 71
32
 72
45
 0
VERTEX
 8
ZYLIND2
 10
6.6926
 20
-0.0143
 30
8.9744
 70
192
 0
VERTEX
 8
ZYLIND2
 10
6.6926
 20
-0.0143
 30
9.5744
 70
192
 0
VERTEX
 8
ZYLIND2
 10
6.6926
 20
-2.6143
 30
8.9744
 70
192
 0
VERTEX
 8
ZYLIND2
 10
6.6926
 20
-2.6143
 30
9.5744
 70
192
 0
VERTEX
 8
ZYLIND2
 10
7.7501
 20
-2.3896
 30
8.9744
 70
192
 0
VERTEX
 8
ZYLIND2
 10
7.7501
 20
-2.3896
 30
9.5744
 70
192
 0
VERTEX
 8
ZYLIND2
 10
8.6247
 20
-1.7541
 30
8.9744
 70
192
 0
VERTEX
 8
ZYLIND2
 10
8.6247
 20
-1.7541
 30
9.5744
 70
192
 0
VERTEX
 8
ZYLIND2
 10
9.1653
 20
-0.8178
 30
8.9744
 70
192
 0
VERTEX
 8
ZYLIND2
 10
9.1653
 20
-0.8178
 30
9.5744
 70
192
 0
VERTEX
 8
ZYLIND2
 10
9.2783
 20
0.2574
 30
8.9744
 70
192
 0
VERTEX
 8
ZYLIND2
 10
9.2783
 20
0.2574
 30
9.5744
 70
192
 0
VERTEX
 8
ZYLIND2
 10
8.9442
 20
1.2857
 30
8.9744
 70
192
 0
VERTEX
 8
ZYLIND2
 10
8.9442
 20
1.2857
 30
9.5744
 70
192
 0
VERTEX
 8
ZYLIND2
 10
8.2208
 20
2.0891
 30
8.9744
 70
192
 0
VERTEX
 8
ZYLIND2
 10
8.2208
 20
2.0891
 30
9.5744
 70
192
 0
VERTEX
 8
ZYLIND2
 10
7.2331
 20
2.5288
 30
8.9744
 70
192
 0
VERTEX
 8
ZYLIND2
 10
7.2331
 20
2.5288
 30
9.5744
 70
192
 0
VERTEX
 8
ZYLIND2
 10
6.152
 20
2.5288
 30
8.9744
 70
192
 0
VERTEX
 8
ZYLIND2
 10
6.152
 20
2.5288
 30
9.5744
 70
192
 0
VERTEX
 8
ZYLIND2
 10
5.1643
 20
2.0891
 30
8.9744
 70
192
 0
VERTEX
 8
ZYLIND2
 10
5.1643
 20
2.0891
 30
9.5744
 70
192
 0
VERTEX
 8
ZYLIND2
 10
4.4409
 20
1.2857
 30
8.9744
 70
192
 0
VERTEX
 8
ZYLIND2
 10
4.4409
 20
1.2857
 30
9.5744
 70
192
 0
VERTEX
 8
ZYLIND2
 10
4.1068
 20
0.2574
 30
8.9744
 70
192
 0
VERTEX
 8
ZYLIND2
 10
4.1068
 20
0.2574
 30
9.5744
 70
192
 0
VERTEX
 8
ZYLIND2
 10
4.2198
 20
-0.8178
 30
8.9744
 70
192
 0
VERTEX
 8
ZYLIND2
 10
4.2198
 20
-0.8178
 30
9.5744
 70
192
 0
VERTEX
 8
ZYLIND2
 10
4.7604
 20
-1.7541
 30
8.9744
 70
192
 0
VERTEX
 8
ZYLIND2
 10
4.7604
 20
-1.7541
 30
9.5744
 70
192
 0
VERTEX
 8
ZYLIND2
 10
5.635
 20
-2.3896
 30
8.9744
 70
192
 0
VERTEX
 8
ZYLIND2
 10
5.635
 20
-2.3896
 30
9.5744
 70
192
 0
VERTEX
 8
ZYLIND2
 10
0
 20
0
 30
0
 70
128
 71
1
 72
3
 73
5
 74
5
 0
VERTEX
 8
ZYLIND2
 10
0
 20
0
 30
0
 70
128
 71
3
 72
4
 73
6
 74
5
 0
VERTEX
 8
ZYLIND2
 10
0
 20
0
 30
0
 70
128
 71
4
 72
2
 73
6
 74
6
 0
VERTEX
 8
ZYLIND2
 10
0
 20
0
 30
0
 70
128
 71
1
 72
5
 73
7
 74
7
 0
VERTEX
 8
ZYLIND2
 10
0
 20
0
 30
0
 70
128
 71
5
 72
6
 73
8
 74
7
 0
VERTEX
 8
ZYLIND2
 10
0
 20
0
 30
0
 70
128
 71
6
 72
2
 73
8
 74
8
 0
VERTEX
 8
ZYLIND2
 10
0
 20
0
 30
0
 70
128
 71
1
 72
7
 73
9
 74
9
 0
VERTEX
 8
ZYLIND2
 10
0
 20
0
 30
0
 70
128
 71
7
 72
8
 73
10
 74
9
 0
VERTEX
 8
ZYLIND2
 10
0
 20
0
 30
0
 70
128
 71
8
 72
2
 73
10
 74
10
 0
VERTEX
 8
ZYLIND2
 10
0
 20
0
 30
0
 70
128
 71
1
 72
9
 73
11
 74
11
 0
VERTEX
 8
ZYLIND2
 10
0
 20
0
 30
0
 70
128
 71
9
 72
10
 73
12
 74
11
 0
VERTEX
 8
ZYLIND2
 10
0
 20
0
 30
0
 70
128
 71
10
 72
2
 73
12
 74
12
 0
VERTEX
 8
ZYLIND2
 10
0
 20
0
 30
0
 70
128
 71
1
 72
11
 73
13
 74
13
 0
VERTEX
 8
ZYLIND2
 10
0
 20
0
 30
0
 70
128
 71
11
 72
12
 73
14
 74
13
 0
VERTEX
 8
ZYLIND2
 10
0
 20
0
 30
0
 70
128
 71
12
 72
2
 73
14
 74
14
 0
VERTEX
 8
ZYLIND2
 10
0
 20
0
 30
0
 70
128
 71
1
 72
13
 73
15
 74
15
 0
VERTEX
 8
ZYLIND2
 10
0
 20
0
 30
0
 70
128
 71
13
 72
14
 73
16
 74
15
 0
VERTEX
 8
ZYLIND2
 10
0
 20
0
 30
0
 70
128
 71
14
 72
2
 73
16
 74
16
 0
VERTEX
 8
ZYLIND2
 10
0
 20
0
 30
0
 70
128
 71
1
 72
15
 73
17
 74
17
 0
VERTEX
 8
ZYLIND2
 10
0
 20
0
 30
0
 70
128
 71
15
 72
16
 73
18
 74
17
 0
VERTEX
 8
ZYLIND2
 10
0
 20
0
 30
0
 70
128
 71
16
 72
2
 73
18
 74
18
 0
VERTEX
 8
ZYLIND2
 10
0
 20
0
 30
0
 70
128
 71
1
 72
17
 73
19
 74
19
 0
VERTEX
 8
ZYLIND2
 10
0
 20
0
 30
0
 70
128
 71
17
 72
18
 73
20
 74
19
 0
VERTEX
 8
ZYLIND2
 10
0
 20
0
 30
0
 70
128
 71
18
 72
2
 73
20
 74
20
 0
VERTEX
 8
ZYLIND2
 10
0
 20
0
 30
0
 70
128
 71
1
 72
19
 73
21
 74
21
 0
VERTEX
 8
ZYLIND2
 10
0
 20
0
 30
0
 70
128
 71
19
 72
20
 73
22
 74
21
 0
VERTEX
 8
ZYLIND2
 10
0
 20
0
 30
0
 70
128
 71
20
 72
2
 73
22
 74
22
 0
VERTEX
 8
ZYLIND2
 10
0
 20
0
 30
0
 70
128
 71
1
 72
21
 73
23
 74
23
 0
VERTEX
 8
ZYLIND2
 10
0
 20
0
 30
0
 70
128
 71
21
 72
22
 73
24
 74
23
 0
VERTEX
 8
ZYLIND2
 10
0
 20
0
 30
0
 70
128
 71
22
 72
2
 73
24
 74
24
 0
VERTEX
 8
ZYLIND2
 10
0
 20
0
 30
0
 70
128
 71
1
 72
23
 73
25
 74
25
 0
VERTEX
 8
ZYLIND2
 10
0
 20
0
 30
0
 70
128
 71
23
 72
24
 73
26
 74
25
 0
VERTEX
 8
ZYLIND2
 10
0
 20
0
 30
0
 70
128
 71
24
 72
2
 73
26
 74
26
 0
VERTEX
 8
ZYLIND2
 10
0
 20
0
 30
0
 70
128
 71
1
 72
25
 73
27
 74
27
 0
VERTEX
 8
ZYLIND2
 10
0
 20
0
 30
0
 70
128
 71
25
 72
26
 73
28
 74
27
 0
VERTEX
 8
ZYLIND2
 10
0
 20
0
 30
0
 70
128
 71
26
 72
2
 73
28
 74
28
 0
VERTEX
 8
ZYLIND2
 10
0
 20
0
 30
0
 70
128
 71
1
 72
27
 73
29
 74
29
 0
VERTEX
 8
ZYLIND2
 10
0
 20
0
 30
0
 70
128
 71
27
 72
28
 73
30
 74
29
 0
VERTEX
 8
ZYLIND2
 10
0
 20
0
 30
0
 70
128
 71
28
 72
2
 73
30
 74
30
 0
VERTEX
 8
ZYLIND2
 10
0
 20
0
 30
0
 70
128
 71
1
 72
29
 73
31
 74
31
 0
VERTEX
 8
ZYLIND2
 10
0
 20
0
 30
0
 70
128
 71
29
 72
30
 73
32
 74
31
 0
VERTEX
 8
ZYLIND2
 10
0
 20
0
 30
0
 70
128
 71
30
 72
2
 73
32
 74
32
 0
VERTEX
 8
ZYLIND2
 10
0
 20
0
 30
0
 70
128
 71
1
 72
31
 73
3
 74
3
 0
VERTEX
 8
ZYLIND2
 10
0
 20
0
 30
0
 70
128
 71
31
 72
32
 73
4
 74
3
 0
VERTEX
 8
ZYLIND2
 10
0
 20
0
 30
0
 70
128
 71
32
 72
2
 73
4
 74
4
 0
SEQEND
 0
POLYLINE
 8
ZYLINDER_1
 66
1
 10
0.0
 20
0.0
 30
0.0
 70
64
 71
138
 72
139
 0
VERTEX
 8
ZYLINDER_1
 10
21.0881
 20
0
 30
22.6746
 70
192
 0
VERTEX
 8
ZYLINDER_1
 10
21.0881
 20
0
 30
28.6746
 70
192
 0
VERTEX
 8
ZYLINDER_1
 10
21.0881
 20
-1.15
 30
22.6746
 70
192
 0
VERTEX
 8
ZYLINDER_1
 10
21.0881
 20
-1.15
 30
28.6746
 70
192
 0
VERTEX
 8
ZYLINDER_1
 10
21.6631
 20
-0.9959
 30
22.6746
 70
192
 0
VERTEX
 8
ZYLINDER_1
 10
21.6631
 20
-0.9959
 30
28.6746
 70
192
 0
VERTEX
 8
ZYLINDER_1
 10
22.0841
 20
-0.575
 30
22.6746
 70
192
 0
VERTEX
 8
ZYLINDER_1
 10
22.0841
 20
-0.575
 30
28.6746
 70
192
 0
VERTEX
 8
ZYLINDER_1
 10
22.2381
 20
0
 30
22.6746
 70
192
 0
VERTEX
 8
ZYLINDER_1
 10
22.2381
 20
0
 30
28.6746
 70
192
 0
VERTEX
 8
ZYLINDER_1
 10
22.0841
 20
0.575
 30
22.6746
 70
192
 0
VERTEX
 8
ZYLINDER_1
 10
22.0841
 20
0.575
 30
28.6746
 70
192
 0
VERTEX
 8
ZYLINDER_1
 10
21.6631
 20
0.9959
 30
22.6746
 70
192
 0
VERTEX
 8
ZYLINDER_1
 10
21.6631
 20
0.9959
 30
28.6746
 70
192
 0
VERTEX
 8
ZYLINDER_1
 10
21.0881
 20
1.15
 30
22.6746
 70
192
 0
VERTEX
 8
ZYLINDER_1
 10
21.0881
 20
1.15
 30
28.6746
 70
192
 0
VERTEX
 8
ZYLINDER_1
 10
20.5131
 20
0.9959
 30
22.6746
 70
192
 0
VERTEX
 8
ZYLINDER_1
 10
20.5131
 20
0.9959
 30
28.6746
 70
192
 0
VERTEX
 8
ZYLINDER_1
 10
20.0922
 20
0.575
 30
22.6746
 70
192
 0
VERTEX
 8
ZYLINDER_1
 10
20.0922
 20
0.575
 30
28.6746
 70
192
 0
VERTEX
 8
ZYLINDER_1
 10
19.9381
 20
0
 30
22.6746
 70
192
 0
VERTEX
 8
ZYLINDER_1
 10
19.9381
 20
0
 30
28.6746
 70
192
 0
VERTEX
 8
ZYLINDER_1
 10
20.0922
 20
-0.575
 30
22.6746
 70
192
 0
VERTEX
 8
ZYLINDER_1
 10
20.0922
 20
-0.575
 30
28.6746
 70
192
 0
VERTEX
 8
ZYLINDER_1
 10
20.5131
 20
-0.9959
 30
22.6746
 70
192
 0
VERTEX
 8
ZYLINDER_1
 10
20.5131
 20
-0.9959
 30
28.6746
 70
192
 0
VERTEX
 8
ZYLINDER_1
 10
21.0881
 20
-1.15
 30
25.0074
 70
192
 0
VERTEX
 8
ZYLINDER_1
 10
21.0881
 20
-1.15
 30
26.7032
 70
192
 0
VERTEX
 8
ZYLINDER_1
 10
21.0881
 20
-1.15
 30
26.5532
 70
192
 0
VERTEX
 8
ZYLINDER_1
 10
21.0881
 20
-1.15
 30
24.1901
 70
192
 0
VERTEX
 8
ZYLINDER_1
 10
21.0881
 20
-1.15
 30
24.6887
 70
192
 0
VERTEX
 8
ZYLINDER_1
 10
21.0881
 20
-1.15
 30
24.0401
 70
192
 0
VERTEX
 8
ZYLINDER_1
 10
21.0881
 20
-1.15
 30
24.5387
 70
192
 0
VERTEX
 8
ZYLINDER_1
 10
21.0881
 20
-1.15
 30
25.5061
 70
192
 0
VERTEX
 8
ZYLINDER_1
 10
21.0881
 20
-1.15
 30
26.0346
 70
192
 0
VERTEX
 8
ZYLINDER_1
 10
21.0881
 20
-1.15
 30
27.0818
 70
192
 0
VERTEX
 8
ZYLINDER_1
 10
21.0881
 20
-1.15
 30
27.5617
 70
192
 0
VERTEX
 8
ZYLINDER_1
 10
21.0881
 20
-1.15
 30
25.6561
 70
192
 0
VERTEX
 8
ZYLINDER_1
 10
21.0881
 20
-1.15
 30
27.2318
 70
192
 0
VERTEX
 8
ZYLINDER_1
 10
21.0881
 20
-1.15
 30
25.1574
 70
192
 0
VERTEX
 8
ZYLINDER_1
 10
21.0881
 20
-1.15
 30
26.1846
 70
192
 0
VERTEX
 8
ZYLINDER_1
 10
21.0881
 20
-1.15
 30
27.7117
 70
192
 0
VERTEX
 8
ZYLINDER_1
 10
21.1616
 20
-1.1303
 30
24.6887
 70
192
 0
VERTEX
 8
ZYLINDER_1
 10
21.4855
 20
-1.0435
 30
24.0401
 70
192
 0
VERTEX
 8
ZYLINDER_1
 10
21.6355
 20
-1.0033
 30
24.1901
 70
192
 0
VERTEX
 8
ZYLINDER_1
 10
21.1616
 20
-1.1303
 30
24.1901
 70
192
 0
VERTEX
 8
ZYLINDER_1
 10
21.1616
 20
-1.1303
 30
25.1574
 70
192
 0
VERTEX
 8
ZYLINDER_1
 10
21.1616
 20
-1.1303
 30
25.0074
 70
192
 0
VERTEX
 8
ZYLINDER_1
 10
21.6355
 20
-1.0033
 30
24.6887
 70
192
 0
VERTEX
 8
ZYLINDER_1
 10
21.4855
 20
-1.0435
 30
24.1901
 70
192
 0
VERTEX
 8
ZYLINDER_1
 10
21.6355
 20
-1.0033
 30
24.0401
 70
192
 0
VERTEX
 8
ZYLINDER_1
 10
21.6355
 20
-1.0033
 30
25.6561
 70
192
 0
VERTEX
 8
ZYLINDER_1
 10
21.6355
 20
-1.0033
 30
25.1574
 70
192
 0
VERTEX
 8
ZYLINDER_1
 10
21.4855
 20
-1.0435
 30
24.5387
 70
192
 0
VERTEX
 8
ZYLINDER_1
 10
21.1616
 20
-1.1303
 30
24.0401
 70
192
 0
VERTEX
 8
ZYLINDER_1
 10
21.1616
 20
-1.1303
 30
25.6561
 70
192
 0
VERTEX
 8
ZYLINDER_1
 10
21.1616
 20
-1.1303
 30
25.5061
 70
192
 0
VERTEX
 8
ZYLINDER_1
 10
21.4855
 20
-1.0435
 30
24.6887
 70
192
 0
VERTEX
 8
ZYLINDER_1
 10
21.6355
 20
-1.0033
 30
24.5387
 70
192
 0
VERTEX
 8
ZYLINDER_1
 10
21.6355
 20
-1.0033
 30
26.1846
 70
192
 0
VERTEX
 8
ZYLINDER_1
 10
21.4855
 20
-1.0435
 30
25.0074
 70
192
 0
VERTEX
 8
ZYLINDER_1
 10
21.4855
 20
-1.0435
 30
25.5061
 70
192
 0
VERTEX
 8
ZYLINDER_1
 10
21.4855
 20
-1.0435
 30
26.0346
 70
192
 0
VERTEX
 8
ZYLINDER_1
 10
21.1616
 20
-1.1303
 30
24.5387
 70
192
 0
VERTEX
 8
ZYLINDER_1
 10
21.1616
 20
-1.1303
 30
26.1846
 70
192
 0
VERTEX
 8
ZYLINDER_1
 10
21.1616
 20
-1.1303
 30
26.0346
 70
192
 0
VERTEX
 8
ZYLINDER_1
 10
21.4855
 20
-1.0435
 30
25.1574
 70
192
 0
VERTEX
 8
ZYLINDER_1
 10
21.6355
 20
-1.0033
 30
25.0074
 70
192
 0
VERTEX
 8
ZYLINDER_1
 10
21.6355
 20
-1.0033
 30
26.7032
 70
192
 0
VERTEX
 8
ZYLINDER_1
 10
21.4855
 20
-1.0435
 30
26.5532
 70
192
 0
VERTEX
 8
ZYLINDER_1
 10
21.6355
 20
-1.0033
 30
26.5532
 70
192
 0
VERTEX
 8
ZYLINDER_1
 10
21.1616
 20
-1.1303
 30
26.7032
 70
192
 0
VERTEX
 8
ZYLINDER_1
 10
21.1616
 20
-1.1303
 30
26.5532
 70
192
 0
VERTEX
 8
ZYLINDER_1
 10
21.4855
 20
-1.0435
 30
25.6561
 70
192
 0
VERTEX
 8
ZYLINDER_1
 10
21.4855
 20
-1.0435
 30
27.2318
 70
192
 0
VERTEX
 8
ZYLINDER_1
 10
21.6355
 20
-1.0033
 30
27.2318
 70
192
 0
VERTEX
 8
ZYLINDER_1
 10
21.6355
 20
-1.0033
 30
25.5061
 70
192
 0
VERTEX
 8
ZYLINDER_1
 10
21.4855
 20
-1.0435
 30
27.0818
 70
192
 0
VERTEX
 8
ZYLINDER_1
 10
21.6355
 20
-1.0033
 30
27.0818
 70
192
 0
VERTEX
 8
ZYLINDER_1
 10
21.1616
 20
-1.1303
 30
27.2318
 70
192
 0
VERTEX
 8
ZYLINDER_1
 10
21.1616
 20
-1.1303
 30
27.0818
 70
192
 0
VERTEX
 8
ZYLINDER_1
 10
21.4855
 20
-1.0435
 30
26.1846
 70
192
 0
VERTEX
 8
ZYLINDER_1
 10
21.4855
 20
-1.0435
 30
27.7117
 70
192
 0
VERTEX
 8
ZYLINDER_1
 10
21.6355
 20
-1.0033
 30
27.7117
 70
192
 0
VERTEX
 8
ZYLINDER_1
 10
21.6355
 20
-1.0033
 30
26.0346
 70
192
 0
VERTEX
 8
ZYLINDER_1
 10
21.4855
 20
-1.0435
 30
27.5617
 70
192
 0
VERTEX
 8
ZYLINDER_1
 10
21.6355
 20
-1.0033
 30
27.5617
 70
192
 0
VERTEX
 8
ZYLINDER_1
 10
21.1616
 20
-1.1303
 30
27.7117
 70
192
 0
VERTEX
 8
ZYLINDER_1
 10
21.1616
 20
-1.1303
 30
27.5617
 70
192
 0
VERTEX
 8
ZYLINDER_1
 10
21.4855
 20
-1.0435
 30
26.7032
 70
192
 0
VERTEX
 8
ZYLINDER_1
 10
20.5316
 20
-1.0009
 30
24.1901
 70
192
 0
VERTEX
 8
ZYLINDER_1
 10
20.6816
 20
-1.0411
 30
24.1901
 70
192
 0
VERTEX
 8
ZYLINDER_1
 10
20.5316
 20
-1.0009
 30
24.0401
 70
192
 0
VERTEX
 8
ZYLINDER_1
 10
20.6816
 20
-1.0411
 30
24.0401
 70
192
 0
VERTEX
 8
ZYLINDER_1
 10
21.0116
 20
-1.1295
 30
24.1901
 70
192
 0
VERTEX
 8
ZYLINDER_1
 10
21.0116
 20
-1.1295
 30
24.0401
 70
192
 0
VERTEX
 8
ZYLINDER_1
 10
20.5316
 20
-1.0009
 30
24.6887
 70
192
 0
VERTEX
 8
ZYLINDER_1
 10
20.6816
 20
-1.0411
 30
24.6887
 70
192
 0
VERTEX
 8
ZYLINDER_1
 10
20.5316
 20
-1.0009
 30
24.5387
 70
192
 0
VERTEX
 8
ZYLINDER_1
 10
20.6816
 20
-1.0411
 30
24.5387
 70
192
 0
VERTEX
 8
ZYLINDER_1
 10
21.0116
 20
-1.1295
 30
24.6887
 70
192
 0
VERTEX
 8
ZYLINDER_1
 10
21.0116
 20
-1.1295
 30
24.5387
 70
192
 0
VERTEX
 8
ZYLINDER_1
 10
20.5316
 20
-1.0009
 30
25.1574
 70
192
 0
VERTEX
 8
ZYLINDER_1
 10
20.6816
 20
-1.0411
 30
25.1574
 70
192
 0
VERTEX
 8
ZYLINDER_1
 10
20.5316
 20
-1.0009
 30
25.0074
 70
192
 0
VERTEX
 8
ZYLINDER_1
 10
20.6816
 20
-1.0411
 30
25.0074
 70
192
 0
VERTEX
 8
ZYLINDER_1
 10
21.0116
 20
-1.1295
 30
25.1574
 70
192
 0
VERTEX
 8
ZYLINDER_1
 10
21.0116
 20
-1.1295
 30
25.0074
 70
192
 0
VERTEX
 8
ZYLINDER_1
 10
20.5316
 20
-1.0009
 30
25.6561
 70
192
 0
VERTEX
 8
ZYLINDER_1
 10
20.6816
 20
-1.0411
 30
25.6561
 70
192
 0
VERTEX
 8
ZYLINDER_1
 10
20.6816
 20
-1.0411
 30
25.5061
 70
192
 0
VERTEX
 8
ZYLINDER_1
 10
20.5316
 20
-1.0009
 30
25.5061
 70
192
 0
VERTEX
 8
ZYLINDER_1
 10
21.0116
 20
-1.1295
 30
25.6561
 70
192
 0
VERTEX
 8
ZYLINDER_1
 10
21.0116
 20
-1.1295
 30
25.5061
 70
192
 0
VERTEX
 8
ZYLINDER_1
 10
20.5316
 20
-1.0009
 30
26.1846
 70
192
 0
VERTEX
 8
ZYLINDER_1
 10
20.6816
 20
-1.0411
 30
26.1846
 70
192
 0
VERTEX
 8
ZYLINDER_1
 10
20.6816
 20
-1.0411
 30
26.0346
 70
192
 0
VERTEX
 8
ZYLINDER_1
 10
20.5316
 20
-1.0009
 30
26.0346
 70
192
 0
VERTEX
 8
ZYLINDER_1
 10
21.0116
 20
-1.1295
 30
26.1846
 70
192
 0
VERTEX
 8
ZYLINDER_1
 10
21.0116
 20
-1.1295
 30
26.0346
 70
192
 0
VERTEX
 8
ZYLINDER_1
 10
20.5316
 20
-1.0009
 30
26.7032
 70
192
 0
VERTEX
 8
ZYLINDER_1
 10
20.6816
 20
-1.0411
 30
26.7032
 70
192
 0
VERTEX
 8
ZYLINDER_1
 10
20.6816
 20
-1.0411
 30
26.5532
 70
192
 0
VERTEX
 8
ZYLINDER_1
 10
20.5316
 20
-1.0009
 30
26.5532
 70
192
 0
VERTEX
 8
ZYLINDER_1
 10
21.0116
 20
-1.1295
 30
26.7032
 70
192
 0
VERTEX
 8
ZYLINDER_1
 10
21.0116
 20
-1.1295
 30
26.5532
 70
192
 0
VERTEX
 8
ZYLINDER_1
 10
20.5316
 20
-1.0009
 30
27.2318
 70
192
 0
VERTEX
 8
ZYLINDER_1
 10
20.5316
 20
-1.0009
 30
27.0818
 70
192
 0
VERTEX
 8
ZYLINDER_1
 10
20.6816
 20
-1.0411
 30
27.2318
 70
192
 0
VERTEX
 8
ZYLINDER_1
 10
20.6816
 20
-1.0411
 30
27.0818
 70
192
 0
VERTEX
 8
ZYLINDER_1
 10
21.0116
 20
-1.1295
 30
27.2318
 70
192
 0
VERTEX
 8
ZYLINDER_1
 10
21.0116
 20
-1.1295
 30
27.0818
 70
192
 0
VERTEX
 8
ZYLINDER_1
 10
20.5316
 20
-1.0009
 30
27.7117
 70
192
 0
VERTEX
 8
ZYLINDER_1
 10
20.5316
 20
-1.0009
 30
27.5617
 70
192
 0
VERTEX
 8
ZYLINDER_1
 10
20.6816
 20
-1.0411
 30
27.7117
 70
192
 0
VERTEX
 8
ZYLINDER_1
 10
20.6816
 20
-1.0411
 30
27.5617
 70
192
 0
VERTEX
 8
ZYLINDER_1
 10
21.0116
 20
-1.1295
 30
27.7117
 70
192
 0
VERTEX
 8
ZYLINDER_1
 10
21.0116
 20
-1.1295
 30
27.5617
 70
192
 0
VERTEX
 8
ZYLINDER_1
 10
0
 20
0
 30
0
 70
128
 71
1
 72
3
 73
5
 74
5
 0
VERTEX
 8
ZYLINDER_1
 10
0
 20
0
 30
0
 70
128
 71
54
 72
59
 73
45
 74
50
 0
VERTEX
 8
ZYLINDER_1
 10
0
 20
0
 30
0
 70
128
 71
41
 72
29
 73
73
 74
73
 0
VERTEX
 8
ZYLINDER_1
 10
0
 20
0
 30
0
 70
128
 71
5
 72
3
 73
32
 74
55
 0
VERTEX
 8
ZYLINDER_1
 10
0
 20
0
 30
0
 70
128
 71
46
 72
30
 73
33
 74
33
 0
VERTEX
 8
ZYLINDER_1
 10
0
 20
0
 30
0
 70
128
 71
43
 72
31
 73
27
 74
48
 0
VERTEX
 8
ZYLINDER_1
 10
0
 20
0
 30
0
 70
128
 71
39
 72
37
 73
89
 74
89
 0
VERTEX
 8
ZYLINDER_1
 10
0
 20
0
 30
0
 70
128
 71
44
 72
51
 73
5
 74
5
 0
VERTEX
 8
ZYLINDER_1
 10
0
 20
0
 30
0
 70
128
 71
5
 72
51
 73
45
 74
45
 0
VERTEX
 8
ZYLINDER_1
 10
0
 20
0
 30
0
 70
128
 71
45
 72
59
 73
5
 74
5
 0
VERTEX
 8
ZYLINDER_1
 10
0
 20
0
 30
0
 70
128
 71
60
 72
71
 73
5
 74
5
 0
VERTEX
 8
ZYLINDER_1
 10
0
 20
0
 30
0
 70
128
 71
79
 72
76
 73
6
 74
5
 0
VERTEX
 8
ZYLINDER_1
 10
0
 20
0
 30
0
 70
128
 71
88
 72
42
 73
4
 74
6
 0
VERTEX
 8
ZYLINDER_1
 10
0
 20
0
 30
0
 70
128
 71
38
 72
35
 73
66
 74
56
 0
VERTEX
 8
ZYLINDER_1
 10
0
 20
0
 30
0
 70
128
 71
72
 72
28
 73
36
 74
81
 0
VERTEX
 8
ZYLINDER_1
 10
0
 20
0
 30
0
 70
128
 71
46
 72
33
 73
64
 74
5
 0
VERTEX
 8
ZYLINDER_1
 10
0
 20
0
 30
0
 70
128
 71
47
 72
40
 73
34
 74
57
 0
VERTEX
 8
ZYLINDER_1
 10
0
 20
0
 30
0
 70
128
 71
80
 72
39
 73
89
 74
6
 0
VERTEX
 8
ZYLINDER_1
 10
0
 20
0
 30
0
 70
128
 71
85
 72
52
 73
74
 74
63
 0
VERTEX
 8
ZYLINDER_1
 10
0
 20
0
 30
0
 70
128
 71
79
 72
69
 73
90
 74
78
 0
VERTEX
 8
ZYLINDER_1
 10
0
 20
0
 30
0
 70
128
 71
70
 72
71
 73
60
 74
82
 0
VERTEX
 8
ZYLINDER_1
 10
0
 20
0
 30
0
 70
128
 71
62
 72
77
 73
53
 74
67
 0
VERTEX
 8
ZYLINDER_1
 10
0
 20
0
 30
0
 70
128
 71
86
 72
87
 73
76
 74
75
 0
VERTEX
 8
ZYLINDER_1
 10
0
 20
0
 30
0
 70
128
 71
61
 72
68
 73
49
 74
58
 0
VERTEX
 8
ZYLINDER_1
 10
0
 20
0
 30
0
 70
128
 71
52
 72
60
 73
5
 74
5
 0
VERTEX
 8
ZYLINDER_1
 10
0
 20
0
 30
0
 70
128
 71
76
 72
87
 73
6
 74
6
 0
VERTEX
 8
ZYLINDER_1
 10
0
 20
0
 30
0
 70
128
 71
89
 72
88
 73
6
 74
6
 0
VERTEX
 8
ZYLINDER_1
 10
0
 20
0
 30
0
 70
128
 71
5
 72
55
 73
46
 74
46
 0
VERTEX
 8
ZYLINDER_1
 10
0
 20
0
 30
0
 70
128
 71
5
 72
59
 73
49
 74
49
 0
VERTEX
 8
ZYLINDER_1
 10
0
 20
0
 30
0
 70
128
 71
54
 72
50
 73
66
 74
66
 0
VERTEX
 8
ZYLINDER_1
 10
0
 20
0
 30
0
 70
128
 71
64
 72
43
 73
5
 74
5
 0
VERTEX
 8
ZYLINDER_1
 10
0
 20
0
 30
0
 70
128
 71
72
 72
81
 73
6
 74
6
 0
VERTEX
 8
ZYLINDER_1
 10
0
 20
0
 30
0
 70
128
 71
66
 72
65
 73
83
 74
75
 0
VERTEX
 8
ZYLINDER_1
 10
0
 20
0
 30
0
 70
128
 71
49
 72
52
 73
5
 74
5
 0
VERTEX
 8
ZYLINDER_1
 10
0
 20
0
 30
0
 70
128
 71
5
 72
71
 73
69
 74
69
 0
VERTEX
 8
ZYLINDER_1
 10
0
 20
0
 30
0
 70
128
 71
48
 72
57
 73
44
 74
5
 0
VERTEX
 8
ZYLINDER_1
 10
0
 20
0
 30
0
 70
128
 71
41
 72
73
 73
83
 74
65
 0
VERTEX
 8
ZYLINDER_1
 10
0
 20
0
 30
0
 70
128
 71
81
 72
80
 73
6
 74
6
 0
VERTEX
 8
ZYLINDER_1
 10
0
 20
0
 30
0
 70
128
 71
5
 72
43
 73
48
 74
48
 0
VERTEX
 8
ZYLINDER_1
 10
0
 20
0
 30
0
 70
128
 71
5
 72
69
 73
79
 74
79
 0
VERTEX
 8
ZYLINDER_1
 10
0
 20
0
 30
0
 70
128
 71
57
 72
56
 73
44
 74
44
 0
VERTEX
 8
ZYLINDER_1
 10
0
 20
0
 30
0
 70
128
 71
73
 72
72
 73
6
 74
83
 0
VERTEX
 8
ZYLINDER_1
 10
0
 20
0
 30
0
 70
128
 71
6
 72
87
 73
84
 74
84
 0
VERTEX
 8
ZYLINDER_1
 10
0
 20
0
 30
0
 70
128
 71
6
 72
84
 73
83
 74
83
 0
VERTEX
 8
ZYLINDER_1
 10
0
 20
0
 30
0
 70
128
 71
44
 72
56
 73
66
 74
50
 0
VERTEX
 8
ZYLINDER_1
 10
0
 20
0
 30
0
 70
128
 71
75
 72
78
 73
66
 74
66
 0
VERTEX
 8
ZYLINDER_1
 10
0
 20
0
 30
0
 70
128
 71
54
 72
66
 73
78
 74
78
 0
VERTEX
 8
ZYLINDER_1
 10
0
 20
0
 30
0
 70
128
 71
4
 72
2
 73
6
 74
6
 0
VERTEX
 8
ZYLINDER_1
 10
0
 20
0
 30
0
 70
128
 71
1
 72
5
 73
7
 74
7
 0
VERTEX
 8
ZYLINDER_1
 10
0
 20
0
 30
0
 70
128
 71
5
 72
6
 73
8
 74
7
 0
VERTEX
 8
ZYLINDER_1
 10
0
 20
0
 30
0
 70
128
 71
6
 72
2
 73
8
 74
8
 0
VERTEX
 8
ZYLINDER_1
 10
0
 20
0
 30
0
 70
128
 71
1
 72
7
 73
9
 74
9
 0
VERTEX
 8
ZYLINDER_1
 10
0
 20
0
 30
0
 70
128
 71
7
 72
8
 73
10
 74
9
 0
VERTEX
 8
ZYLINDER_1
 10
0
 20
0
 30
0
 70
128
 71
8
 72
2
 73
10
 74
10
 0
VERTEX
 8
ZYLINDER_1
 10
0
 20
0
 30
0
 70
128
 71
1
 72
9
 73
11
 74
11
 0
VERTEX
 8
ZYLINDER_1
 10
0
 20
0
 30
0
 70
128
 71
9
 72
10
 73
12
 74
11
 0
VERTEX
 8
ZYLINDER_1
 10
0
 20
0
 30
0
 70
128
 71
10
 72
2
 73
12
 74
12
 0
VERTEX
 8
ZYLINDER_1
 10
0
 20
0
 30
0
 70
128
 71
1
 72
11
 73
13
 74
13
 0
VERTEX
 8
ZYLINDER_1
 10
0
 20
0
 30
0
 70
128
 71
11
 72
12
 73
14
 74
13
 0
VERTEX
 8
ZYLINDER_1
 10
0
 20
0
 30
0
 70
128
 71
12
 72
2
 73
14
 74
14
 0
VERTEX
 8
ZYLINDER_1
 10
0
 20
0
 30
0
 70
128
 71
1
 72
13
 73
15
 74
15
 0
VERTEX
 8
ZYLINDER_1
 10
0
 20
0
 30
0
 70
128
 71
13
 72
14
 73
16
 74
15
 0
VERTEX
 8
ZYLINDER_1
 10
0
 20
0
 30
0
 70
128
 71
14
 72
2
 73
16
 74
16
 0
VERTEX
 8
ZYLINDER_1
 10
0
 20
0
 30
0
 70
128
 71
1
 72
15
 73
17
 74
17
 0
VERTEX
 8
ZYLINDER_1
 10
0
 20
0
 30
0
 70
128
 71
15
 72
16
 73
18
 74
17
 0
VERTEX
 8
ZYLINDER_1
 10
0
 20
0
 30
0
 70
128
 71
16
 72
2
 73
18
 74
18
 0
VERTEX
 8
ZYLINDER_1
 10
0
 20
0
 30
0
 70
128
 71
1
 72
17
 73
19
 74
19
 0
VERTEX
 8
ZYLINDER_1
 10
0
 20
0
 30
0
 70
128
 71
17
 72
18
 73
20
 74
19
 0
VERTEX
 8
ZYLINDER_1
 10
0
 20
0
 30
0
 70
128
 71
18
 72
2
 73
20
 74
20
 0
VERTEX
 8
ZYLINDER_1
 10
0
 20
0
 30
0
 70
128
 71
1
 72
19
 73
21
 74
21
 0
VERTEX
 8
ZYLINDER_1
 10
0
 20
0
 30
0
 70
128
 71
19
 72
20
 73
22
 74
21
 0
VERTEX
 8
ZYLINDER_1
 10
0
 20
0
 30
0
 70
128
 71
20
 72
2
 73
22
 74
22
 0
VERTEX
 8
ZYLINDER_1
 10
0
 20
0
 30
0
 70
128
 71
1
 72
21
 73
23
 74
23
 0
VERTEX
 8
ZYLINDER_1
 10
0
 20
0
 30
0
 70
128
 71
21
 72
22
 73
24
 74
23
 0
VERTEX
 8
ZYLINDER_1
 10
0
 20
0
 30
0
 70
128
 71
22
 72
2
 73
24
 74
24
 0
VERTEX
 8
ZYLINDER_1
 10
0
 20
0
 30
0
 70
128
 71
1
 72
23
 73
25
 74
25
 0
VERTEX
 8
ZYLINDER_1
 10
0
 20
0
 30
0
 70
128
 71
23
 72
24
 73
26
 74
25
 0
VERTEX
 8
ZYLINDER_1
 10
0
 20
0
 30
0
 70
128
 71
24
 72
2
 73
26
 74
26
 0
VERTEX
 8
ZYLINDER_1
 10
0
 20
0
 30
0
 70
128
 71
1
 72
25
 73
3
 74
3
 0
VERTEX
 8
ZYLINDER_1
 10
0
 20
0
 30
0
 70
128
 71
134
 72
136
 73
129
 74
127
 0
VERTEX
 8
ZYLINDER_1
 10
0
 20
0
 30
0
 70
128
 71
114
 72
111
 73
110
 74
110
 0
VERTEX
 8
ZYLINDER_1
 10
0
 20
0
 30
0
 70
128
 71
132
 72
36
 73
28
 74
28
 0
VERTEX
 8
ZYLINDER_1
 10
0
 20
0
 30
0
 70
128
 71
125
 72
126
 73
122
 74
128
 0
VERTEX
 8
ZYLINDER_1
 10
0
 20
0
 30
0
 70
128
 71
126
 72
29
 73
41
 74
41
 0
VERTEX
 8
ZYLINDER_1
 10
0
 20
0
 30
0
 70
128
 71
120
 72
35
 73
38
 74
38
 0
VERTEX
 8
ZYLINDER_1
 10
0
 20
0
 30
0
 70
128
 71
132
 72
130
 73
129
 74
131
 0
VERTEX
 8
ZYLINDER_1
 10
0
 20
0
 30
0
 70
128
 71
102
 72
33
 73
30
 74
30
 0
VERTEX
 8
ZYLINDER_1
 10
0
 20
0
 30
0
 70
128
 71
114
 72
34
 73
40
 74
40
 0
VERTEX
 8
ZYLINDER_1
 10
0
 20
0
 30
0
 70
128
 71
108
 72
27
 73
31
 74
101
 0
VERTEX
 8
ZYLINDER_1
 10
0
 20
0
 30
0
 70
128
 71
101
 72
102
 73
100
 74
100
 0
VERTEX
 8
ZYLINDER_1
 10
0
 20
0
 30
0
 70
128
 71
96
 72
94
 73
92
 74
92
 0
VERTEX
 8
ZYLINDER_1
 10
0
 20
0
 30
0
 70
128
 71
105
 72
106
 73
98
 74
97
 0
VERTEX
 8
ZYLINDER_1
 10
0
 20
0
 30
0
 70
128
 71
138
 72
37
 73
39
 74
131
 0
VERTEX
 8
ZYLINDER_1
 10
0
 20
0
 30
0
 70
128
 71
128
 72
130
 73
125
 74
125
 0
VERTEX
 8
ZYLINDER_1
 10
0
 20
0
 30
0
 70
128
 71
96
 72
32
 73
3
 74
25
 0
VERTEX
 8
ZYLINDER_1
 10
0
 20
0
 30
0
 70
128
 71
26
 72
4
 73
42
 74
137
 0
VERTEX
 8
ZYLINDER_1
 10
0
 20
0
 30
0
 70
128
 71
120
 72
38
 73
113
 74
117
 0
VERTEX
 8
ZYLINDER_1
 10
0
 20
0
 30
0
 70
128
 71
123
 72
126
 73
41
 74
119
 0
VERTEX
 8
ZYLINDER_1
 10
0
 20
0
 30
0
 70
128
 71
100
 72
102
 73
30
 74
95
 0
VERTEX
 8
ZYLINDER_1
 10
0
 20
0
 30
0
 70
128
 71
111
 72
114
 73
40
 74
40
 0
VERTEX
 8
ZYLINDER_1
 10
0
 20
0
 30
0
 70
128
 71
126
 72
123
 73
122
 74
122
 0
VERTEX
 8
ZYLINDER_1
 10
0
 20
0
 30
0
 70
128
 71
95
 72
96
 73
99
 74
100
 0
VERTEX
 8
ZYLINDER_1
 10
0
 20
0
 30
0
 70
128
 71
113
 72
114
 73
118
 74
117
 0
VERTEX
 8
ZYLINDER_1
 10
0
 20
0
 30
0
 70
128
 71
120
 72
117
 73
116
 74
116
 0
VERTEX
 8
ZYLINDER_1
 10
0
 20
0
 30
0
 70
128
 71
101
 72
100
 73
98
 74
108
 0
VERTEX
 8
ZYLINDER_1
 10
0
 20
0
 30
0
 70
128
 71
94
 72
96
 73
25
 74
25
 0
VERTEX
 8
ZYLINDER_1
 10
0
 20
0
 30
0
 70
128
 71
98
 72
106
 73
108
 74
108
 0
VERTEX
 8
ZYLINDER_1
 10
0
 20
0
 30
0
 70
128
 71
132
 72
28
 73
125
 74
130
 0
VERTEX
 8
ZYLINDER_1
 10
0
 20
0
 30
0
 70
128
 71
26
 72
137
 73
138
 74
135
 0
VERTEX
 8
ZYLINDER_1
 10
0
 20
0
 30
0
 70
128
 71
134
 72
127
 73
26
 74
26
 0
VERTEX
 8
ZYLINDER_1
 10
0
 20
0
 30
0
 70
128
 71
107
 72
108
 73
104
 74
112
 0
VERTEX
 8
ZYLINDER_1
 10
0
 20
0
 30
0
 70
128
 71
93
 72
94
 73
25
 74
25
 0
VERTEX
 8
ZYLINDER_1
 10
0
 20
0
 30
0
 70
128
 71
124
 72
123
 73
119
 74
119
 0
VERTEX
 8
ZYLINDER_1
 10
0
 20
0
 30
0
 70
128
 71
138
 72
131
 73
129
 74
136
 0
VERTEX
 8
ZYLINDER_1
 10
0
 20
0
 30
0
 70
128
 71
108
 72
106
 73
104
 74
104
 0
VERTEX
 8
ZYLINDER_1
 10
0
 20
0
 30
0
 70
128
 71
99
 72
96
 73
92
 74
92
 0
VERTEX
 8
ZYLINDER_1
 10
0
 20
0
 30
0
 70
128
 71
111
 72
40
 73
107
 74
112
 0
VERTEX
 8
ZYLINDER_1
 10
0
 20
0
 30
0
 70
128
 71
138
 72
136
 73
135
 74
135
 0
VERTEX
 8
ZYLINDER_1
 10
0
 20
0
 30
0
 70
128
 71
118
 72
114
 73
110
 74
110
 0
VERTEX
 8
ZYLINDER_1
 10
0
 20
0
 30
0
 70
128
 71
128
 72
122
 73
121
 74
121
 0
VERTEX
 8
ZYLINDER_1
 10
0
 20
0
 30
0
 70
128
 71
99
 72
92
 73
91
 74
91
 0
VERTEX
 8
ZYLINDER_1
 10
0
 20
0
 30
0
 70
128
 71
124
 72
119
 73
120
 74
116
 0
VERTEX
 8
ZYLINDER_1
 10
0
 20
0
 30
0
 70
128
 71
91
 72
93
 73
25
 74
25
 0
VERTEX
 8
ZYLINDER_1
 10
0
 20
0
 30
0
 70
128
 71
118
 72
110
 73
109
 74
109
 0
VERTEX
 8
ZYLINDER_1
 10
0
 20
0
 30
0
 70
128
 71
124
 72
116
 73
115
 74
115
 0
VERTEX
 8
ZYLINDER_1
 10
0
 20
0
 30
0
 70
128
 71
112
 72
104
 73
103
 74
103
 0
VERTEX
 8
ZYLINDER_1
 10
0
 20
0
 30
0
 70
128
 71
91
 72
25
 73
99
 74
99
 0
VERTEX
 8
ZYLINDER_1
 10
0
 20
0
 30
0
 70
128
 71
97
 72
99
 73
25
 74
25
 0
VERTEX
 8
ZYLINDER_1
 10
0
 20
0
 30
0
 70
128
 71
26
 72
135
 73
133
 74
133
 0
VERTEX
 8
ZYLINDER_1
 10
0
 20
0
 30
0
 70
128
 71
105
 72
97
 73
25
 74
26
 0
VERTEX
 8
ZYLINDER_1
 10
0
 20
0
 30
0
 70
128
 71
118
 72
109
 73
26
 74
26
 0
VERTEX
 8
ZYLINDER_1
 10
0
 20
0
 30
0
 70
128
 71
112
 72
103
 73
26
 74
26
 0
VERTEX
 8
ZYLINDER_1
 10
0
 20
0
 30
0
 70
128
 71
26
 72
133
 73
134
 74
134
 0
VERTEX
 8
ZYLINDER_1
 10
0
 20
0
 30
0
 70
128
 71
103
 72
105
 73
26
 74
26
 0
VERTEX
 8
ZYLINDER_1
 10
0
 20
0
 30
0
 70
128
 71
127
 72
128
 73
26
 74
26
 0
VERTEX
 8
ZYLINDER_1
 10
0
 20
0
 30
0
 70
128
 71
26
 72
128
 73
115
 74
115
 0
VERTEX
 8
ZYLINDER_1
 10
0
 20
0
 30
0
 70
128
 71
109
 72
112
 73
26
 74
26
 0
VERTEX
 8
ZYLINDER_1
 10
0
 20
0
 30
0
 70
128
 71
115
 72
118
 73
26
 74
26
 0
VERTEX
 8
ZYLINDER_1
 10
0
 20
0
 30
0
 70
128
 71
26
 72
2
 73
4
 74
4
 0
SEQEND
 0
POLYLINE
 8
ZYLINDER_2
 66
1
 10
0.0
 20
0.0
 30
0.0
 70
64
 71
26
 72
36
 0
VERTEX
 8
ZYLINDER_2
 10
21.0853
 20
0
 30
9.6041
 70
192
 0
VERTEX
 8
ZYLINDER_2
 10
21.0853
 20
0
 30
22.6041
 70
192
 0
VERTEX
 8
ZYLINDER_2
 10
21.0853
 20
-1.15
 30
9.6041
 70
192
 0
VERTEX
 8
ZYLINDER_2
 10
21.0853
 20
-1.15
 30
22.6041
 70
192
 0
VERTEX
 8
ZYLINDER_2
 10
21.6603
 20
-0.9959
 30
9.6041
 70
192
 0
VERTEX
 8
ZYLINDER_2
 10
21.6603
 20
-0.9959
 30
22.6041
 70
192
 0
VERTEX
 8
ZYLINDER_2
 10
22.0813
 20
-0.575
 30
9.6041
 70
192
 0
VERTEX
 8
ZYLINDER_2
 10
22.0813
 20
-0.575
 30
22.6041
 70
192
 0
VERTEX
 8
ZYLINDER_2
 10
22.2353
 20
0
 30
9.6041
 70
192
 0
VERTEX
 8
ZYLINDER_2
 10
22.2353
 20
0
 30
22.6041
 70
192
 0
VERTEX
 8
ZYLINDER_2
 10
22.0813
 20
0.575
 30
9.6041
 70
192
 0
VERTEX
 8
ZYLINDER_2
 10
22.0813
 20
0.575
 30
22.6041
 70
192
 0
VERTEX
 8
ZYLINDER_2
 10
21.6603
 20
0.9959
 30
9.6041
 70
192
 0
VERTEX
 8
ZYLINDER_2
 10
21.6603
 20
0.9959
 30
22.6041
 70
192
 0
VERTEX
 8
ZYLINDER_2
 10
21.0853
 20
1.15
 30
9.6041
 70
192
 0
VERTEX
 8
ZYLINDER_2
 10
21.0853
 20
1.15
 30
22.6041
 70
192
 0
VERTEX
 8
ZYLINDER_2
 10
20.5103
 20
0.9959
 30
9.6041
 70
192
 0
VERTEX
 8
ZYLINDER_2
 10
20.5103
 20
0.9959
 30
22.6041
 70
192
 0
VERTEX
 8
ZYLINDER_2
 10
20.0894
 20
0.575
 30
9.6041
 70
192
 0
VERTEX
 8
ZYLINDER_2
 10
20.0894
 20
0.575
 30
22.6041
 70
192
 0
VERTEX
 8
ZYLINDER_2
 10
19.9353
 20
0
 30
9.6041
 70
192
 0
VERTEX
 8
ZYLINDER_2
 10
19.9353
 20
0
 30
22.6041
 70
192
 0
VERTEX
 8
ZYLINDER_2
 10
20.0894
 20
-0.575
 30
9.6041
 70
192
 0
VERTEX
 8
ZYLINDER_2
 10
20.0894
 20
-0.575
 30
22.6041
 70
192
 0
VERTEX
 8
ZYLINDER_2
 10
20.5103
 20
-0.9959
 30
9.6041
 70
192
 0
VERTEX
 8
ZYLINDER_2
 10
20.5103
 20
-0.9959
 30
22.6041
 70
192
 0
VERTEX
 8
ZYLINDER_2
 10
0
 20
0
 30
0
 70
128
 71
1
 72
3
 73
5
 74
5
 0
VERTEX
 8
ZYLINDER_2
 10
0
 20
0
 30
0
 70
128
 71
3
 72
4
 73
6
 74
5
 0
VERTEX
 8
ZYLINDER_2
 10
0
 20
0
 30
0
 70
128
 71
4
 72
2
 73
6
 74
6
 0
VERTEX
 8
ZYLINDER_2
 10
0
 20
0
 30
0
 70
128
 71
1
 72
5
 73
7
 74
7
 0
VERTEX
 8
ZYLINDER_2
 10
0
 20
0
 30
0
 70
128
 71
5
 72
6
 73
8
 74
7
 0
VERTEX
 8
ZYLINDER_2
 10
0
 20
0
 30
0
 70
128
 71
6
 72
2
 73
8
 74
8
 0
VERTEX
 8
ZYLINDER_2
 10
0
 20
0
 30
0
 70
128
 71
1
 72
7
 73
9
 74
9
 0
VERTEX
 8
ZYLINDER_2
 10
0
 20
0
 30
0
 70
128
 71
7
 72
8
 73
10
 74
9
 0
VERTEX
 8
ZYLINDER_2
 10
0
 20
0
 30
0
 70
128
 71
8
 72
2
 73
10
 74
10
 0
VERTEX
 8
ZYLINDER_2
 10
0
 20
0
 30
0
 70
128
 71
1
 72
9
 73
11
 74
11
 0
VERTEX
 8
ZYLINDER_2
 10
0
 20
0
 30
0
 70
128
 71
9
 72
10
 73
12
 74
11
 0
VERTEX
 8
ZYLINDER_2
 10
0
 20
0
 30
0
 70
128
 71
10
 72
2
 73
12
 74
12
 0
VERTEX
 8
ZYLINDER_2
 10
0
 20
0
 30
0
 70
128
 71
1
 72
11
 73
13
 74
13
 0
VERTEX
 8
ZYLINDER_2
 10
0
 20
0
 30
0
 70
128
 71
11
 72
12
 73
14
 74
13
 0
VERTEX
 8
ZYLINDER_2
 10
0
 20
0
 30
0
 70
128
 71
12
 72
2
 73
14
 74
14
 0
VERTEX
 8
ZYLINDER_2
 10
0
 20
0
 30
0
 70
128
 71
1
 72
13
 73
15
 74
15
 0
VERTEX
 8
ZYLINDER_2
 10
0
 20
0
 30
0
 70
128
 71
13
 72
14
 73
16
 74
15
 0
VERTEX
 8
ZYLINDER_2
 10
0
 20
0
 30
0
 70
128
 71
14
 72
2
 73
16
 74
16
 0
VERTEX
 8
ZYLINDER_2
 10
0
 20
0
 30
0
 70
128
 71
1
 72
15
 73
17
 74
17
 0
VERTEX
 8
ZYLINDER_2
 10
0
 20
0
 30
0
 70
128
 71
15
 72
16
 73
18
 74
17
 0
VERTEX
 8
ZYLINDER_2
 10
0
 20
0
 30
0
 70
128
 71
16
 72
2
 73
18
 74
18
 0
VERTEX
 8
ZYLINDER_2
 10
0
 20
0
 30
0
 70
128
 71
1
 72
17
 73
19
 74
19
 0
VERTEX
 8
ZYLINDER_2
 10
0
 20
0
 30
0
 70
128
 71
17
 72
18
 73
20
 74
19
 0
VERTEX
 8
ZYLINDER_2
 10
0
 20
0
 30
0
 70
128
 71
18
 72
2
 73
20
 74
20
 0
VERTEX
 8
ZYLINDER_2
 10
0
 20
0
 30
0
 70
128
 71
1
 72
19
 73
21
 74
21
 0
VERTEX
 8
ZYLINDER_2
 10
0
 20
0
 30
0
 70
128
 71
19
 72
20
 73
22
 74
21
 0
VERTEX
 8
ZYLINDER_2
 10
0
 20
0
 30
0
 70
128
 71
20
 72
2
 73
22
 74
22
 0
VERTEX
 8
ZYLINDER_2
 10
0
 20
0
 30
0
 70
128
 71
1
 72
21
 73
23
 74
23
 0
VERTEX
 8
ZYLINDER_2
 10
0
 20
0
 30
0
 70
128
 71
21
 72
22
 73
24
 74
23
 0
VERTEX
 8
ZYLINDER_2
 10
0
 20
0
 30
0
 70
128
 71
22
 72
2
 73
24
 74
24
 0
VERTEX
 8
ZYLINDER_2
 10
0
 20
0
 30
0
 70
128
 71
1
 72
23
 73
25
 74
25
 0
VERTEX
 8
ZYLINDER_2
 10
0
 20
0
 30
0
 70
128
 71
23
 72
24
 73
26
 74
25
 0
VERTEX
 8
ZYLINDER_2
 10
0
 20
0
 30
0
 70
128
 71
24
 72
2
 73
26
 74
26
 0
VERTEX
 8
ZYLINDER_2
 10
0
 20
0
 30
0
 70
128
 71
1
 72
25
 73
3
 74
3
 0
VERTEX
 8
ZYLINDER_2
 10
0
 20
0
 30
0
 70
128
 71
25
 72
26
 73
4
 74
3
 0
VERTEX
 8
ZYLINDER_2
 10
0
 20
0
 30
0
 70
128
 71
26
 72
2
 73
4
 74
4
 0
SEQEND
 0
POLYLINE
 8
ZYLIND2_1
 66
1
 10
0.0
 20
0.0
 30
0.0
 70
64
 71
32
 72
45
 0
VERTEX
 8
ZYLIND2_1
 10
21.0641
 20
-0.0143
 30
8.9744
 70
192
 0
VERTEX
 8
ZYLIND2_1
 10
21.0641
 20
-0.0143
 30
9.5744
 70
192
 0
VERTEX
 8
ZYLIND2_1
 10
21.0641
 20
-2.6143
 30
8.9744
 70
192
 0
VERTEX
 8
ZYLIND2_1
 10
21.0641
 20
-2.6143
 30
9.5744
 70
192
 0
VERTEX
 8
ZYLIND2_1
 10
22.1217
 20
-2.3896
 30
8.9744
 70
192
 0
VERTEX
 8
ZYLIND2_1
 10
22.1217
 20
-2.3896
 30
9.5744
 70
192
 0
VERTEX
 8
ZYLIND2_1
 10
22.9963
 20
-1.7541
 30
8.9744
 70
192
 0
VERTEX
 8
ZYLIND2_1
 10
22.9963
 20
-1.7541
 30
9.5744
 70
192
 0
VERTEX
 8
ZYLIND2_1
 10
23.5369
 20
-0.8178
 30
8.9744
 70
192
 0
VERTEX
 8
ZYLIND2_1
 10
23.5369
 20
-0.8178
 30
9.5744
 70
192
 0
VERTEX
 8
ZYLIND2_1
 10
23.6499
 20
0.2574
 30
8.9744
 70
192
 0
VERTEX
 8
ZYLIND2_1
 10
23.6499
 20
0.2574
 30
9.5744
 70
192
 0
VERTEX
 8
ZYLIND2_1
 10
23.3158
 20
1.2857
 30
8.9744
 70
192
 0
VERTEX
 8
ZYLIND2_1
 10
23.3158
 20
1.2857
 30
9.5744
 70
192
 0
VERTEX
 8
ZYLIND2_1
 10
22.5924
 20
2.0891
 30
8.9744
 70
192
 0
VERTEX
 8
ZYLIND2_1
 10
22.5924
 20
2.0891
 30
9.5744
 70
192
 0
VERTEX
 8
ZYLIND2_1
 10
21.6047
 20
2.5288
 30
8.9744
 70
192
 0
VERTEX
 8
ZYLIND2_1
 10
21.6047
 20
2.5288
 30
9.5744
 70
192
 0
VERTEX
 8
ZYLIND2_1
 10
20.5236
 20
2.5288
 30
8.9744
 70
192
 0
VERTEX
 8
ZYLIND2_1
 10
20.5236
 20
2.5288
 30
9.5744
 70
192
 0
VERTEX
 8
ZYLIND2_1
 10
19.5359
 20
2.0891
 30
8.9744
 70
192
 0
VERTEX
 8
ZYLIND2_1
 10
19.5359
 20
2.0891
 30
9.5744
 70
192
 0
VERTEX
 8
ZYLIND2_1
 10
18.8125
 20
1.2857
 30
8.9744
 70
192
 0
VERTEX
 8
ZYLIND2_1
 10
18.8125
 20
1.2857
 30
9.5744
 70
192
 0
VERTEX
 8
ZYLIND2_1
 10
18.4784
 20
0.2574
 30
8.9744
 70
192
 0
VERTEX
 8
ZYLIND2_1
 10
18.4784
 20
0.2574
 30
9.5744
 70
192
 0
VERTEX
 8
ZYLIND2_1
 10
18.5914
 20
-0.8178
 30
8.9744
 70
192
 0
VERTEX
 8
ZYLIND2_1
 10
18.5914
 20
-0.8178
 30
9.5744
 70
192
 0
VERTEX
 8
ZYLIND2_1
 10
19.132
 20
-1.7541
 30
8.9744
 70
192
 0
VERTEX
 8
ZYLIND2_1
 10
19.132
 20
-1.7541
 30
9.5744
 70
192
 0
VERTEX
 8
ZYLIND2_1
 10
20.0066
 20
-2.3896
 30
8.9744
 70
192
 0
VERTEX
 8
ZYLIND2_1
 10
20.0066
 20
-2.3896
 30
9.5744
 70
192
 0
VERTEX
 8
ZYLIND2_1
 10
0
 20
0
 30
0
 70
128
 71
1
 72
3
 73
5
 74
5
 0
VERTEX
 8
ZYLIND2_1
 10
0
 20
0
 30
0
 70
128
 71
3
 72
4
 73
6
 74
5
 0
VERTEX
 8
ZYLIND2_1
 10
0
 20
0
 30
0
 70
128
 71
4
 72
2
 73
6
 74
6
 0
VERTEX
 8
ZYLIND2_1
 10
0
 20
0
 30
0
 70
128
 71
1
 72
5
 73
7
 74
7
 0
VERTEX
 8
ZYLIND2_1
 10
0
 20
0
 30
0
 70
128
 71
5
 72
6
 73
8
 74
7
 0
VERTEX
 8
ZYLIND2_1
 10
0
 20
0
 30
0
 70
128
 71
6
 72
2
 73
8
 74
8
 0
VERTEX
 8
ZYLIND2_1
 10
0
 20
0
 30
0
 70
128
 71
1
 72
7
 73
9
 74
9
 0
VERTEX
 8
ZYLIND2_1
 10
0
 20
0
 30
0
 70
128
 71
7
 72
8
 73
10
 74
9
 0
VERTEX
 8
ZYLIND2_1
 10
0
 20
0
 30
0
 70
128
 71
8
 72
2
 73
10
 74
10
 0
VERTEX
 8
ZYLIND2_1
 10
0
 20
0
 30
0
 70
128
 71
1
 72
9
 73
11
 74
11
 0
VERTEX
 8
ZYLIND2_1
 10
0
 20
0
 30
0
 70
128
 71
9
 72
10
 73
12
 74
11
 0
VERTEX
 8
ZYLIND2_1
 10
0
 20
0
 30
0
 70
128
 71
10
 72
2
 73
12
 74
12
 0
VERTEX
 8
ZYLIND2_1
 10
0
 20
0
 30
0
 70
128
 71
1
 72
11
 73
13
 74
13
 0
VERTEX
 8
ZYLIND2_1
 10
0
 20
0
 30
0
 70
128
 71
11
 72
12
 73
14
 74
13
 0
VERTEX
 8
ZYLIND2_1
 10
0
 20
0
 30
0
 70
128
 71
12
 72
2
 73
14
 74
14
 0
VERTEX
 8
ZYLIND2_1
 10
0
 20
0
 30
0
 70
128
 71
1
 72
13
 73
15
 74
15
 0
VERTEX
 8
ZYLIND2_1
 10
0
 20
0
 30
0
 70
128
 71
13
 72
14
 73
16
 74
15
 0
VERTEX
 8
ZYLIND2_1
 10
0
 20
0
 30
0
 70
128
 71
14
 72
2
 73
16
 74
16
 0
VERTEX
 8
ZYLIND2_1
 10
0
 20
0
 30
0
 70
128
 71
1
 72
15
 73
17
 74
17
 0
VERTEX
 8
ZYLIND2_1
 10
0
 20
0
 30
0
 70
128
 71
15
 72
16
 73
18
 74
17
 0
VERTEX
 8
ZYLIND2_1
 10
0
 20
0
 30
0
 70
128
 71
16
 72
2
 73
18
 74
18
 0
VERTEX
 8
ZYLIND2_1
 10
0
 20
0
 30
0
 70
128
 71
1
 72
17
 73
19
 74
19
 0
VERTEX
 8
ZYLIND2_1
 10
0
 20
0
 30
0
 70
128
 71
17
 72
18
 73
20
 74
19
 0
VERTEX
 8
ZYLIND2_1
 10
0
 20
0
 30
0
 70
128
 71
18
 72
2
 73
20
 74
20
 0
VERTEX
 8
ZYLIND2_1
 10
0
 20
0
 30
0
 70
128
 71
1
 72
19
 73
21
 74
21
 0
VERTEX
 8
ZYLIND2_1
 10
0
 20
0
 30
0
 70
128
 71
19
 72
20
 73
22
 74
21
 0
VERTEX
 8
ZYLIND2_1
 10
0
 20
0
 30
0
 70
128
 71
20
 72
2
 73
22
 74
22
 0
VERTEX
 8
ZYLIND2_1
 10
0
 20
0
 30
0
 70
128
 71
1
 72
21
 73
23
 74
23
 0
VERTEX
 8
ZYLIND2_1
 10
0
 20
0
 30
0
 70
128
 71
21
 72
22
 73
24
 74
23
 0
VERTEX
 8
ZYLIND2_1
 10
0
 20
0
 30
0
 70
128
 71
22
 72
2
 73
24
 74
24
 0
VERTEX
 8
ZYLIND2_1
 10
0
 20
0
 30
0
 70
128
 71
1
 72
23
 73
25
 74
25
 0
VERTEX
 8
ZYLIND2_1
 10
0
 20
0
 30
0
 70
128
 71
23
 72
24
 73
26
 74
25
 0
VERTEX
 8
ZYLIND2_1
 10
0
 20
0
 30
0
 70
128
 71
24
 72
2
 73
26
 74
26
 0
VERTEX
 8
ZYLIND2_1
 10
0
 20
0
 30
0
 70
128
 71
1
 72
25
 73
27
 74
27
 0
VERTEX
 8
ZYLIND2_1
 10
0
 20
0
 30
0
 70
128
 71
25
 72
26
 73
28
 74
27
 0
VERTEX
 8
ZYLIND2_1
 10
0
 20
0
 30
0
 70
128
 71
26
 72
2
 73
28
 74
28
 0
VERTEX
 8
ZYLIND2_1
 10
0
 20
0
 30
0
 70
128
 71
1
 72
27
 73
29
 74
29
 0
VERTEX
 8
ZYLIND2_1
 10
0
 20
0
 30
0
 70
128
 71
27
 72
28
 73
30
 74
29
 0
VERTEX
 8
ZYLIND2_1
 10
0
 20
0
 30
0
 70
128
 71
28
 72
2
 73
30
 74
30
 0
VERTEX
 8
ZYLIND2_1
 10
0
 20
0
 30
0
 70
128
 71
1
 72
29
 73
31
 74
31
 0
VERTEX
 8
ZYLIND2_1
 10
0
 20
0
 30
0
 70
128
 71
29
 72
30
 73
32
 74
31
 0
VERTEX
 8
ZYLIND2_1
 10
0
 20
0
 30
0
 70
128
 71
30
 72
2
 73
32
 74
32
 0
VERTEX
 8
ZYLIND2_1
 10
0
 20
0
 30
0
 70
128
 71
1
 72
31
 73
3
 74
3
 0
VERTEX
 8
ZYLIND2_1
 10
0
 20
0
 30
0
 70
128
 71
31
 72
32
 73
4
 74
3
 0
VERTEX
 8
ZYLIND2_1
 10
0
 20
0
 30
0
 70
128
 71
32
 72
2
 73
4
 74
4
 0
SEQEND
 0
POLYLINE
 8
KARTUSCHE
 66
1
 10
0.0
 20
0.0
 30
0.0
 70
64
 71
24
 72
12
 0
VERTEX
 8
KARTUSCHE
 10
-19.9798
 20
1.5
 30
12.2365
 70
192
 0
VERTEX
 8
KARTUSCHE
 10
-21.8459
 20
-1.7321
 30
11.1758
 70
192
 0
VERTEX
 8
KARTUSCHE
 10
-22.5779
 20
1
 30
11.1758
 70
192
 0
VERTEX
 8
KARTUSCHE
 10
-20.8459
 20
-2
 30
11.1758
 70
192
 0
VERTEX
 8
KARTUSCHE
 10
-20.8459
 20
-1.7321
 30
12.2365
 70
192
 0
VERTEX
 8
KARTUSCHE
 10
-22.3459
 20
0.866
 30
12.2365
 70
192
 0
VERTEX
 8
KARTUSCHE
 10
-20.8459
 20
2
 30
11.1758
 70
192
 0
VERTEX
 8
KARTUSCHE
 10
-19.8459
 20
-1.7321
 30
11.1758
 70
192
 0
VERTEX
 8
KARTUSCHE
 10
-19.9798
 20
-1.5
 30
12.2365
 70
192
 0
VERTEX
 8
KARTUSCHE
 10
-22.8459
 20
0
 30
11.1758
 70
192
 0
VERTEX
 8
KARTUSCHE
 10
-19.1138
 20
-1
 30
11.1758
 70
192
 0
VERTEX
 8
KARTUSCHE
 10
-19.3459
 20
-0.866
 30
12.2365
 70
192
 0
VERTEX
 8
KARTUSCHE
 10
-20.8459
 20
1.7321
 30
12.2365
 70
192
 0
VERTEX
 8
KARTUSCHE
 10
-22.5779
 20
0
 30
12.2365
 70
192
 0
VERTEX
 8
KARTUSCHE
 10
-21.7119
 20
-1.5
 30
12.2365
 70
192
 0
VERTEX
 8
KARTUSCHE
 10
-18.8459
 20
0
 30
11.1758
 70
192
 0
VERTEX
 8
KARTUSCHE
 10
-19.1138
 20
0
 30
12.2365
 70
192
 0
VERTEX
 8
KARTUSCHE
 10
-22.5779
 20
-1
 30
11.1758
 70
192
 0
VERTEX
 8
KARTUSCHE
 10
-19.1138
 20
1
 30
11.1758
 70
192
 0
VERTEX
 8
KARTUSCHE
 10
-19.3459
 20
0.866
 30
12.2365
 70
192
 0
VERTEX
 8
KARTUSCHE
 10
-21.8459
 20
1.7321
 30
11.1758
 70
192
 0
VERTEX
 8
KARTUSCHE
 10
-22.3459
 20
-0.866
 30
12.2365
 70
192
 0
VERTEX
 8
KARTUSCHE
 10
-21.7119
 20
1.5
 30
12.2365
 70
192
 0
VERTEX
 8
KARTUSCHE
 10
-19.8459
 20
1.7321
 30
11.1758
 70
192
 0
VERTEX
 8
KARTUSCHE
 10
0
 20
0
 30
0
 70
128
 71
21
 72
23
 73
6
 74
3
 0
VERTEX
 8
KARTUSCHE
 10
0
 20
0
 30
0
 70
128
 71
4
 72
5
 73
9
 74
8
 0
VERTEX
 8
KARTUSCHE
 10
0
 20
0
 30
0
 70
128
 71
16
 72
17
 73
20
 74
19
 0
VERTEX
 8
KARTUSCHE
 10
0
 20
0
 30
0
 70
128
 71
18
 72
22
 73
15
 74
2
 0
VERTEX
 8
KARTUSCHE
 10
0
 20
0
 30
0
 70
128
 71
8
 72
9
 73
12
 74
11
 0
VERTEX
 8
KARTUSCHE
 10
0
 20
0
 30
0
 70
128
 71
19
 72
20
 73
1
 74
24
 0
VERTEX
 8
KARTUSCHE
 10
0
 20
0
 30
0
 70
128
 71
3
 72
6
 73
14
 74
10
 0
VERTEX
 8
KARTUSCHE
 10
0
 20
0
 30
0
 70
128
 71
24
 72
1
 73
13
 74
7
 0
VERTEX
 8
KARTUSCHE
 10
0
 20
0
 30
0
 70
128
 71
11
 72
12
 73
17
 74
16
 0
VERTEX
 8
KARTUSCHE
 10
0
 20
0
 30
0
 70
128
 71
2
 72
15
 73
5
 74
4
 0
VERTEX
 8
KARTUSCHE
 10
0
 20
0
 30
0
 70
128
 71
10
 72
14
 73
22
 74
18
 0
VERTEX
 8
KARTUSCHE
 10
0
 20
0
 30
0
 70
128
 71
7
 72
13
 73
23
 74
21
 0
SEQEND
 0
POLYLINE
 8
K_RPER
 66
1
 10
0.0
 20
0.0
 30
0.0
 70
64
 71
32
 72
45
 0
VERTEX
 8
K_RPER
 10
-20.8459
 20
0
 30
9.2322
 70
192
 0
VERTEX
 8
K_RPER
 10
-20.8459
 20
0
 30
11.2322
 70
192
 0
VERTEX
 8
K_RPER
 10
-20.8459
 20
-2.05
 30
9.2322
 70
192
 0
VERTEX
 8
K_RPER
 10
-20.8459
 20
-2.05
 30
11.2322
 70
192
 0
VERTEX
 8
K_RPER
 10
-20.0121
 20
-1.8728
 30
9.2322
 70
192
 0
VERTEX
 8
K_RPER
 10
-20.0121
 20
-1.8728
 30
11.2322
 70
192
 0
VERTEX
 8
K_RPER
 10
-19.3224
 20
-1.3717
 30
9.2322
 70
192
 0
VERTEX
 8
K_RPER
 10
-19.3224
 20
-1.3717
 30
11.2322
 70
192
 0
VERTEX
 8
K_RPER
 10
-18.8962
 20
-0.6335
 30
9.2322
 70
192
 0
VERTEX
 8
K_RPER
 10
-18.8962
 20
-0.6335
 30
11.2322
 70
192
 0
VERTEX
 8
K_RPER
 10
-18.8071
 20
0.2143
 30
9.2322
 70
192
 0
VERTEX
 8
K_RPER
 10
-18.8071
 20
0.2143
 30
11.2322
 70
192
 0
VERTEX
 8
K_RPER
 10
-19.0705
 20
1.025
 30
9.2322
 70
192
 0
VERTEX
 8
K_RPER
 10
-19.0705
 20
1.025
 30
11.2322
 70
192
 0
VERTEX
 8
K_RPER
 10
-19.6409
 20
1.6585
 30
9.2322
 70
192
 0
VERTEX
 8
K_RPER
 10
-19.6409
 20
1.6585
 30
11.2322
 70
192
 0
VERTEX
 8
K_RPER
 10
-20.4197
 20
2.0052
 30
9.2322
 70
192
 0
VERTEX
 8
K_RPER
 10
-20.4197
 20
2.0052
 30
11.2322
 70
192
 0
VERTEX
 8
K_RPER
 10
-21.2721
 20
2.0052
 30
9.2322
 70
192
 0
VERTEX
 8
K_RPER
 10
-21.2721
 20
2.0052
 30
11.2322
 70
192
 0
VERTEX
 8
K_RPER
 10
-22.0508
 20
1.6585
 30
9.2322
 70
192
 0
VERTEX
 8
K_RPER
 10
-22.0508
 20
1.6585
 30
11.2322
 70
192
 0
VERTEX
 8
K_RPER
 10
-22.6212
 20
1.025
 30
9.2322
 70
192
 0
VERTEX
 8
K_RPER
 10
-22.6212
 20
1.025
 30
11.2322
 70
192
 0
VERTEX
 8
K_RPER
 10
-22.8846
 20
0.2143
 30
9.2322
 70
192
 0
VERTEX
 8
K_RPER
 10
-22.8846
 20
0.2143
 30
11.2322
 70
192
 0
VERTEX
 8
K_RPER
 10
-22.7955
 20
-0.6335
 30
9.2322
 70
192
 0
VERTEX
 8
K_RPER
 10
-22.7955
 20
-0.6335
 30
11.2322
 70
192
 0
VERTEX
 8
K_RPER
 10
-22.3693
 20
-1.3717
 30
9.2322
 70
192
 0
VERTEX
 8
K_RPER
 10
-22.3693
 20
-1.3717
 30
11.2322
 70
192
 0
VERTEX
 8
K_RPER
 10
-21.6797
 20
-1.8728
 30
9.2322
 70
192
 0
VERTEX
 8
K_RPER
 10
-21.6797
 20
-1.8728
 30
11.2322
 70
192
 0
VERTEX
 8
K_RPER
 10
0
 20
0
 30
0
 70
128
 71
1
 72
3
 73
5
 74
5
 0
VERTEX
 8
K_RPER
 10
0
 20
0
 30
0
 70
128
 71
3
 72
4
 73
6
 74
5
 0
VERTEX
 8
K_RPER
 10
0
 20
0
 30
0
 70
128
 71
4
 72
2
 73
6
 74
6
 0
VERTEX
 8
K_RPER
 10
0
 20
0
 30
0
 70
128
 71
1
 72
5
 73
7
 74
7
 0
VERTEX
 8
K_RPER
 10
0
 20
0
 30
0
 70
128
 71
5
 72
6
 73
8
 74
7
 0
VERTEX
 8
K_RPER
 10
0
 20
0
 30
0
 70
128
 71
6
 72
2
 73
8
 74
8
 0
VERTEX
 8
K_RPER
 10
0
 20
0
 30
0
 70
128
 71
1
 72
7
 73
9
 74
9
 0
VERTEX
 8
K_RPER
 10
0
 20
0
 30
0
 70
128
 71
7
 72
8
 73
10
 74
9
 0
VERTEX
 8
K_RPER
 10
0
 20
0
 30
0
 70
128
 71
8
 72
2
 73
10
 74
10
 0
VERTEX
 8
K_RPER
 10
0
 20
0
 30
0
 70
128
 71
1
 72
9
 73
11
 74
11
 0
VERTEX
 8
K_RPER
 10
0
 20
0
 30
0
 70
128
 71
9
 72
10
 73
12
 74
11
 0
VERTEX
 8
K_RPER
 10
0
 20
0
 30
0
 70
128
 71
10
 72
2
 73
12
 74
12
 0
VERTEX
 8
K_RPER
 10
0
 20
0
 30
0
 70
128
 71
1
 72
11
 73
13
 74
13
 0
VERTEX
 8
K_RPER
 10
0
 20
0
 30
0
 70
128
 71
11
 72
12
 73
14
 74
13
 0
VERTEX
 8
K_RPER
 10
0
 20
0
 30
0
 70
128
 71
12
 72
2
 73
14
 74
14
 0
VERTEX
 8
K_RPER
 10
0
 20
0
 30
0
 70
128
 71
1
 72
13
 73
15
 74
15
 0
VERTEX
 8
K_RPER
 10
0
 20
0
 30
0
 70
128
 71
13
 72
14
 73
16
 74
15
 0
VERTEX
 8
K_RPER
 10
0
 20
0
 30
0
 70
128
 71
14
 72
2
 73
16
 74
16
 0
VERTEX
 8
K_RPER
 10
0
 20
0
 30
0
 70
128
 71
1
 72
15
 73
17
 74
17
 0
VERTEX
 8
K_RPER
 10
0
 20
0
 30
0
 70
128
 71
15
 72
16
 73
18
 74
17
 0
VERTEX
 8
K_RPER
 10
0
 20
0
 30
0
 70
128
 71
16
 72
2
 73
18
 74
18
 0
VERTEX
 8
K_RPER
 10
0
 20
0
 30
0
 70
128
 71
1
 72
17
 73
19
 74
19
 0
VERTEX
 8
K_RPER
 10
0
 20
0
 30
0
 70
128
 71
17
 72
18
 73
20
 74
19
 0
VERTEX
 8
K_RPER
 10
0
 20
0
 30
0
 70
128
 71
18
 72
2
 73
20
 74
20
 0
VERTEX
 8
K_RPER
 10
0
 20
0
 30
0
 70
128
 71
1
 72
19
 73
21
 74
21
 0
VERTEX
 8
K_RPER
 10
0
 20
0
 30
0
 70
128
 71
19
 72
20
 73
22
 74
21
 0
VERTEX
 8
K_RPER
 10
0
 20
0
 30
0
 70
128
 71
20
 72
2
 73
22
 74
22
 0
VERTEX
 8
K_RPER
 10
0
 20
0
 30
0
 70
128
 71
1
 72
21
 73
23
 74
23
 0
VERTEX
 8
K_RPER
 10
0
 20
0
 30
0
 70
128
 71
21
 72
22
 73
24
 74
23
 0
VERTEX
 8
K_RPER
 10
0
 20
0
 30
0
 70
128
 71
22
 72
2
 73
24
 74
24
 0
VERTEX
 8
K_RPER
 10
0
 20
0
 30
0
 70
128
 71
1
 72
23
 73
25
 74
25
 0
VERTEX
 8
K_RPER
 10
0
 20
0
 30
0
 70
128
 71
23
 72
24
 73
26
 74
25
 0
VERTEX
 8
K_RPER
 10
0
 20
0
 30
0
 70
128
 71
24
 72
2
 73
26
 74
26
 0
VERTEX
 8
K_RPER
 10
0
 20
0
 30
0
 70
128
 71
1
 72
25
 73
27
 74
27
 0
VERTEX
 8
K_RPER
 10
0
 20
0
 30
0
 70
128
 71
25
 72
26
 73
28
 74
27
 0
VERTEX
 8
K_RPER
 10
0
 20
0
 30
0
 70
128
 71
26
 72
2
 73
28
 74
28
 0
VERTEX
 8
K_RPER
 10
0
 20
0
 30
0
 70
128
 71
1
 72
27
 73
29
 74
29
 0
VERTEX
 8
K_RPER
 10
0
 20
0
 30
0
 70
128
 71
27
 72
28
 73
30
 74
29
 0
VERTEX
 8
K_RPER
 10
0
 20
0
 30
0
 70
128
 71
28
 72
2
 73
30
 74
30
 0
VERTEX
 8
K_RPER
 10
0
 20
0
 30
0
 70
128
 71
1
 72
29
 73
31
 74
31
 0
VERTEX
 8
K_RPER
 10
0
 20
0
 30
0
 70
128
 71
29
 72
30
 73
32
 74
31
 0
VERTEX
 8
K_RPER
 10
0
 20
0
 30
0
 70
128
 71
30
 72
2
 73
32
 74
32
 0
VERTEX
 8
K_RPER
 10
0
 20
0
 30
0
 70
128
 71
1
 72
31
 73
3
 74
3
 0
VERTEX
 8
K_RPER
 10
0
 20
0
 30
0
 70
128
 71
31
 72
32
 73
4
 74
3
 0
VERTEX
 8
K_RPER
 10
0
 20
0
 30
0
 70
128
 71
32
 72
2
 73
4
 74
4
 0
SEQEND
 0
POLYLINE
 8
ROSETTE
 66
1
 10
0.0
 20
0.0
 30
0.0
 70
64
 71
32
 72
45
 0
VERTEX
 8
ROSETTE
 10
-20.8519
 20
0
 30
9.0233
 70
192
 0
VERTEX
 8
ROSETTE
 10
-20.8519
 20
0
 30
9.6233
 70
192
 0
VERTEX
 8
ROSETTE
 10
-20.8519
 20
-2.6
 30
9.0233
 70
192
 0
VERTEX
 8
ROSETTE
 10
-20.8519
 20
-2.6
 30
9.6233
 70
192
 0
VERTEX
 8
ROSETTE
 10
-19.7944
 20
-2.3752
 30
9.0233
 70
192
 0
VERTEX
 8
ROSETTE
 10
-19.7944
 20
-2.3752
 30
9.6233
 70
192
 0
VERTEX
 8
ROSETTE
 10
-18.9197
 20
-1.7397
 30
9.0233
 70
192
 0
VERTEX
 8
ROSETTE
 10
-18.9197
 20
-1.7397
 30
9.6233
 70
192
 0
VERTEX
 8
ROSETTE
 10
-18.3791
 20
-0.8034
 30
9.0233
 70
192
 0
VERTEX
 8
ROSETTE
 10
-18.3791
 20
-0.8034
 30
9.6233
 70
192
 0
VERTEX
 8
ROSETTE
 10
-18.2661
 20
0.2718
 30
9.0233
 70
192
 0
VERTEX
 8
ROSETTE
 10
-18.2661
 20
0.2718
 30
9.6233
 70
192
 0
VERTEX
 8
ROSETTE
 10
-18.6002
 20
1.3
 30
9.0233
 70
192
 0
VERTEX
 8
ROSETTE
 10
-18.6002
 20
1.3
 30
9.6233
 70
192
 0
VERTEX
 8
ROSETTE
 10
-19.3237
 20
2.1034
 30
9.0233
 70
192
 0
VERTEX
 8
ROSETTE
 10
-19.3237
 20
2.1034
 30
9.6233
 70
192
 0
VERTEX
 8
ROSETTE
 10
-20.3113
 20
2.5432
 30
9.0233
 70
192
 0
VERTEX
 8
ROSETTE
 10
-20.3113
 20
2.5432
 30
9.6233
 70
192
 0
VERTEX
 8
ROSETTE
 10
-21.3925
 20
2.5432
 30
9.0233
 70
192
 0
VERTEX
 8
ROSETTE
 10
-21.3925
 20
2.5432
 30
9.6233
 70
192
 0
VERTEX
 8
ROSETTE
 10
-22.3801
 20
2.1034
 30
9.0233
 70
192
 0
VERTEX
 8
ROSETTE
 10
-22.3801
 20
2.1034
 30
9.6233
 70
192
 0
VERTEX
 8
ROSETTE
 10
-23.1036
 20
1.3
 30
9.0233
 70
192
 0
VERTEX
 8
ROSETTE
 10
-23.1036
 20
1.3
 30
9.6233
 70
192
 0
VERTEX
 8
ROSETTE
 10
-23.4377
 20
0.2718
 30
9.0233
 70
192
 0
VERTEX
 8
ROSETTE
 10
-23.4377
 20
0.2718
 30
9.6233
 70
192
 0
VERTEX
 8
ROSETTE
 10
-23.3246
 20
-0.8034
 30
9.0233
 70
192
 0
VERTEX
 8
ROSETTE
 10
-23.3246
 20
-0.8034
 30
9.6233
 70
192
 0
VERTEX
 8
ROSETTE
 10
-22.7841
 20
-1.7397
 30
9.0233
 70
192
 0
VERTEX
 8
ROSETTE
 10
-22.7841
 20
-1.7397
 30
9.6233
 70
192
 0
VERTEX
 8
ROSETTE
 10
-21.9094
 20
-2.3752
 30
9.0233
 70
192
 0
VERTEX
 8
ROSETTE
 10
-21.9094
 20
-2.3752
 30
9.6233
 70
192
 0
VERTEX
 8
ROSETTE
 10
0
 20
0
 30
0
 70
128
 71
1
 72
3
 73
5
 74
5
 0
VERTEX
 8
ROSETTE
 10
0
 20
0
 30
0
 70
128
 71
3
 72
4
 73
6
 74
5
 0
VERTEX
 8
ROSETTE
 10
0
 20
0
 30
0
 70
128
 71
4
 72
2
 73
6
 74
6
 0
VERTEX
 8
ROSETTE
 10
0
 20
0
 30
0
 70
128
 71
1
 72
5
 73
7
 74
7
 0
VERTEX
 8
ROSETTE
 10
0
 20
0
 30
0
 70
128
 71
5
 72
6
 73
8
 74
7
 0
VERTEX
 8
ROSETTE
 10
0
 20
0
 30
0
 70
128
 71
6
 72
2
 73
8
 74
8
 0
VERTEX
 8
ROSETTE
 10
0
 20
0
 30
0
 70
128
 71
1
 72
7
 73
9
 74
9
 0
VERTEX
 8
ROSETTE
 10
0
 20
0
 30
0
 70
128
 71
7
 72
8
 73
10
 74
9
 0
VERTEX
 8
ROSETTE
 10
0
 20
0
 30
0
 70
128
 71
8
 72
2
 73
10
 74
10
 0
VERTEX
 8
ROSETTE
 10
0
 20
0
 30
0
 70
128
 71
1
 72
9
 73
11
 74
11
 0
VERTEX
 8
ROSETTE
 10
0
 20
0
 30
0
 70
128
 71
9
 72
10
 73
12
 74
11
 0
VERTEX
 8
ROSETTE
 10
0
 20
0
 30
0
 70
128
 71
10
 72
2
 73
12
 74
12
 0
VERTEX
 8
ROSETTE
 10
0
 20
0
 30
0
 70
128
 71
1
 72
11
 73
13
 74
13
 0
VERTEX
 8
ROSETTE
 10
0
 20
0
 30
0
 70
128
 71
11
 72
12
 73
14
 74
13
 0
VERTEX
 8
ROSETTE
 10
0
 20
0
 30
0
 70
128
 71
12
 72
2
 73
14
 74
14
 0
VERTEX
 8
ROSETTE
 10
0
 20
0
 30
0
 70
128
 71
1
 72
13
 73
15
 74
15
 0
VERTEX
 8
ROSETTE
 10
0
 20
0
 30
0
 70
128
 71
13
 72
14
 73
16
 74
15
 0
VERTEX
 8
ROSETTE
 10
0
 20
0
 30
0
 70
128
 71
14
 72
2
 73
16
 74
16
 0
VERTEX
 8
ROSETTE
 10
0
 20
0
 30
0
 70
128
 71
1
 72
15
 73
17
 74
17
 0
VERTEX
 8
ROSETTE
 10
0
 20
0
 30
0
 70
128
 71
15
 72
16
 73
18
 74
17
 0
VERTEX
 8
ROSETTE
 10
0
 20
0
 30
0
 70
128
 71
16
 72
2
 73
18
 74
18
 0
VERTEX
 8
ROSETTE
 10
0
 20
0
 30
0
 70
128
 71
1
 72
17
 73
19
 74
19
 0
VERTEX
 8
ROSETTE
 10
0
 20
0
 30
0
 70
128
 71
17
 72
18
 73
20
 74
19
 0
VERTEX
 8
ROSETTE
 10
0
 20
0
 30
0
 70
128
 71
18
 72
2
 73
20
 74
20
 0
VERTEX
 8
ROSETTE
 10
0
 20
0
 30
0
 70
128
 71
1
 72
19
 73
21
 74
21
 0
VERTEX
 8
ROSETTE
 10
0
 20
0
 30
0
 70
128
 71
19
 72
20
 73
22
 74
21
 0
VERTEX
 8
ROSETTE
 10
0
 20
0
 30
0
 70
128
 71
20
 72
2
 73
22
 74
22
 0
VERTEX
 8
ROSETTE
 10
0
 20
0
 30
0
 70
128
 71
1
 72
21
 73
23
 74
23
 0
VERTEX
 8
ROSETTE
 10
0
 20
0
 30
0
 70
128
 71
21
 72
22
 73
24
 74
23
 0
VERTEX
 8
ROSETTE
 10
0
 20
0
 30
0
 70
128
 71
22
 72
2
 73
24
 74
24
 0
VERTEX
 8
ROSETTE
 10
0
 20
0
 30
0
 70
128
 71
1
 72
23
 73
25
 74
25
 0
VERTEX
 8
ROSETTE
 10
0
 20
0
 30
0
 70
128
 71
23
 72
24
 73
26
 74
25
 0
VERTEX
 8
ROSETTE
 10
0
 20
0
 30
0
 70
128
 71
24
 72
2
 73
26
 74
26
 0
VERTEX
 8
ROSETTE
 10
0
 20
0
 30
0
 70
128
 71
1
 72
25
 73
27
 74
27
 0
VERTEX
 8
ROSETTE
 10
0
 20
0
 30
0
 70
128
 71
25
 72
26
 73
28
 74
27
 0
VERTEX
 8
ROSETTE
 10
0
 20
0
 30
0
 70
128
 71
26
 72
2
 73
28
 74
28
 0
VERTEX
 8
ROSETTE
 10
0
 20
0
 30
0
 70
128
 71
1
 72
27
 73
29
 74
29
 0
VERTEX
 8
ROSETTE
 10
0
 20
0
 30
0
 70
128
 71
27
 72
28
 73
30
 74
29
 0
VERTEX
 8
ROSETTE
 10
0
 20
0
 30
0
 70
128
 71
28
 72
2
 73
30
 74
30
 0
VERTEX
 8
ROSETTE
 10
0
 20
0
 30
0
 70
128
 71
1
 72
29
 73
31
 74
31
 0
VERTEX
 8
ROSETTE
 10
0
 20
0
 30
0
 70
128
 71
29
 72
30
 73
32
 74
31
 0
VERTEX
 8
ROSETTE
 10
0
 20
0
 30
0
 70
128
 71
30
 72
2
 73
32
 74
32
 0
VERTEX
 8
ROSETTE
 10
0
 20
0
 30
0
 70
128
 71
1
 72
31
 73
3
 74
3
 0
VERTEX
 8
ROSETTE
 10
0
 20
0
 30
0
 70
128
 71
31
 72
32
 73
4
 74
3
 0
VERTEX
 8
ROSETTE
 10
0
 20
0
 30
0
 70
128
 71
32
 72
2
 73
4
 74
4
 0
SEQEND
 0
POLYLINE
 8
R_HRE
 66
1
 10
0.0
 20
0.0
 30
0.0
 70
64
 71
22
 72
30
 0
VERTEX
 8
R_HRE
 10
-6.9779
 20
-16.3791
 30
24.3039
 70
192
 0
VERTEX
 8
R_HRE
 10
-6.9779
 20
-16.4449
 30
23.836
 70
192
 0
VERTEX
 8
R_HRE
 10
-6.4502
 20
-16.5489
 30
24.3278
 70
192
 0
VERTEX
 8
R_HRE
 10
-6.4502
 20
-16.6147
 30
23.8599
 70
192
 0
VERTEX
 8
R_HRE
 10
-6.124
 20
-16.9934
 30
24.3902
 70
192
 0
VERTEX
 8
R_HRE
 10
-6.124
 20
-17.0592
 30
23.9223
 70
192
 0
VERTEX
 8
R_HRE
 10
-6.124
 20
-17.5429
 30
24.4675
 70
192
 0
VERTEX
 8
R_HRE
 10
-6.124
 20
-17.6086
 30
23.9996
 70
192
 0
VERTEX
 8
R_HRE
 10
-6.4502
 20
-17.9874
 30
24.5299
 70
192
 0
VERTEX
 8
R_HRE
 10
-6.4502
 20
-18.0531
 30
24.062
 70
192
 0
VERTEX
 8
R_HRE
 10
-6.9779
 20
-18.1572
 30
24.5538
 70
192
 0
VERTEX
 8
R_HRE
 10
-6.9779
 20
-18.2229
 30
24.0859
 70
192
 0
VERTEX
 8
R_HRE
 10
-7.5055
 20
-17.9874
 30
24.5299
 70
192
 0
VERTEX
 8
R_HRE
 10
-7.5055
 20
-18.0531
 30
24.062
 70
192
 0
VERTEX
 8
R_HRE
 10
-7.8317
 20
-17.5429
 30
24.4675
 70
192
 0
VERTEX
 8
R_HRE
 10
-7.8317
 20
-17.6086
 30
23.9996
 70
192
 0
VERTEX
 8
R_HRE
 10
-7.8317
 20
-16.9934
 30
24.3902
 70
192
 0
VERTEX
 8
R_HRE
 10
-7.8317
 20
-17.0592
 30
23.9223
 70
192
 0
VERTEX
 8
R_HRE
 10
-6.9779
 20
-17.3339
 30
23.9609
 70
192
 0
VERTEX
 8
R_HRE
 10
-7.5055
 20
-16.5489
 30
24.3278
 70
192
 0
VERTEX
 8
R_HRE
 10
-7.5055
 20
-16.6147
 30
23.8599
 70
192
 0
VERTEX
 8
R_HRE
 10
-6.9779
 20
-17.2682
 30
24.4288
 70
192
 0
VERTEX
 8
R_HRE
 10
0
 20
0
 30
0
 70
128
 71
22
 72
1
 73
3
 74
3
 0
VERTEX
 8
R_HRE
 10
0
 20
0
 30
0
 70
128
 71
1
 72
2
 73
4
 74
3
 0
VERTEX
 8
R_HRE
 10
0
 20
0
 30
0
 70
128
 71
2
 72
19
 73
4
 74
4
 0
VERTEX
 8
R_HRE
 10
0
 20
0
 30
0
 70
128
 71
22
 72
3
 73
5
 74
5
 0
VERTEX
 8
R_HRE
 10
0
 20
0
 30
0
 70
128
 71
3
 72
4
 73
6
 74
5
 0
VERTEX
 8
R_HRE
 10
0
 20
0
 30
0
 70
128
 71
4
 72
19
 73
6
 74
6
 0
VERTEX
 8
R_HRE
 10
0
 20
0
 30
0
 70
128
 71
22
 72
5
 73
7
 74
7
 0
VERTEX
 8
R_HRE
 10
0
 20
0
 30
0
 70
128
 71
5
 72
6
 73
8
 74
7
 0
VERTEX
 8
R_HRE
 10
0
 20
0
 30
0
 70
128
 71
6
 72
19
 73
8
 74
8
 0
VERTEX
 8
R_HRE
 10
0
 20
0
 30
0
 70
128
 71
22
 72
7
 73
9
 74
9
 0
VERTEX
 8
R_HRE
 10
0
 20
0
 30
0
 70
128
 71
7
 72
8
 73
10
 74
9
 0
VERTEX
 8
R_HRE
 10
0
 20
0
 30
0
 70
128
 71
8
 72
19
 73
10
 74
10
 0
VERTEX
 8
R_HRE
 10
0
 20
0
 30
0
 70
128
 71
22
 72
9
 73
11
 74
11
 0
VERTEX
 8
R_HRE
 10
0
 20
0
 30
0
 70
128
 71
9
 72
10
 73
12
 74
11
 0
VERTEX
 8
R_HRE
 10
0
 20
0
 30
0
 70
128
 71
10
 72
19
 73
12
 74
12
 0
VERTEX
 8
R_HRE
 10
0
 20
0
 30
0
 70
128
 71
22
 72
11
 73
13
 74
13
 0
VERTEX
 8
R_HRE
 10
0
 20
0
 30
0
 70
128
 71
11
 72
12
 73
14
 74
13
 0
VERTEX
 8
R_HRE
 10
0
 20
0
 30
0
 70
128
 71
12
 72
19
 73
14
 74
14
 0
VERTEX
 8
R_HRE
 10
0
 20
0
 30
0
 70
128
 71
22
 72
13
 73
15
 74
15
 0
VERTEX
 8
R_HRE
 10
0
 20
0
 30
0
 70
128
 71
13
 72
14
 73
16
 74
15
 0
VERTEX
 8
R_HRE
 10
0
 20
0
 30
0
 70
128
 71
14
 72
19
 73
16
 74
16
 0
VERTEX
 8
R_HRE
 10
0
 20
0
 30
0
 70
128
 71
22
 72
15
 73
17
 74
17
 0
VERTEX
 8
R_HRE
 10
0
 20
0
 30
0
 70
128
 71
15
 72
16
 73
18
 74
17
 0
VERTEX
 8
R_HRE
 10
0
 20
0
 30
0
 70
128
 71
16
 72
19
 73
18
 74
18
 0
VERTEX
 8
R_HRE
 10
0
 20
0
 30
0
 70
128
 71
22
 72
17
 73
20
 74
20
 0
VERTEX
 8
R_HRE
 10
0
 20
0
 30
0
 70
128
 71
17
 72
18
 73
21
 74
20
 0
VERTEX
 8
R_HRE
 10
0
 20
0
 30
0
 70
128
 71
18
 72
19
 73
21
 74
21
 0
VERTEX
 8
R_HRE
 10
0
 20
0
 30
0
 70
128
 71
22
 72
20
 73
1
 74
1
 0
VERTEX
 8
R_HRE
 10
0
 20
0
 30
0
 70
128
 71
20
 72
21
 73
2
 74
1
 0
VERTEX
 8
R_HRE
 10
0
 20
0
 30
0
 70
128
 71
21
 72
19
 73
2
 74
2
 0
SEQEND
 0
POLYLINE
 8
PELATOR
 66
1
 10
0.0
 20
0.0
 30
0.0
 70
64
 71
40
 72
40
 0
VERTEX
 8
PELATOR
 10
-5.853
 20
-17.3285
 30
23.9397
 70
192
 0
VERTEX
 8
PELATOR
 10
-5.853
 20
-17.1407
 30
25.2765
 70
192
 0
VERTEX
 8
PELATOR
 10
-6.078
 20
-17.1407
 30
25.2765
 70
192
 0
VERTEX
 8
PELATOR
 10
-6.078
 20
-17.3285
 30
23.9397
 70
192
 0
VERTEX
 8
PELATOR
 10
-6.0678
 20
-16.6737
 30
23.8476
 70
192
 0
VERTEX
 8
PELATOR
 10
-6.0678
 20
-16.4858
 30
25.1845
 70
192
 0
VERTEX
 8
PELATOR
 10
-6.2499
 20
-16.6168
 30
25.2029
 70
192
 0
VERTEX
 8
PELATOR
 10
-6.2499
 20
-16.8047
 30
23.8661
 70
192
 0
VERTEX
 8
PELATOR
 10
-6.6303
 20
-16.269
 30
23.7908
 70
192
 0
VERTEX
 8
PELATOR
 10
-6.6303
 20
-16.0811
 30
25.1276
 70
192
 0
VERTEX
 8
PELATOR
 10
-6.6999
 20
-16.293
 30
25.1574
 70
192
 0
VERTEX
 8
PELATOR
 10
-6.6999
 20
-16.4809
 30
23.8205
 70
192
 0
VERTEX
 8
PELATOR
 10
-7.2561
 20
-16.4809
 30
23.8205
 70
192
 0
VERTEX
 8
PELATOR
 10
-7.3256
 20
-16.269
 30
23.7908
 70
192
 0
VERTEX
 8
PELATOR
 10
-7.3256
 20
-16.0811
 30
25.1276
 70
192
 0
VERTEX
 8
PELATOR
 10
-7.2561
 20
-16.293
 30
25.1574
 70
192
 0
VERTEX
 8
PELATOR
 10
-7.8881
 20
-16.6737
 30
23.8476
 70
192
 0
VERTEX
 8
PELATOR
 10
-7.8881
 20
-16.4858
 30
25.1845
 70
192
 0
VERTEX
 8
PELATOR
 10
-7.7061
 20
-16.6168
 30
25.2029
 70
192
 0
VERTEX
 8
PELATOR
 10
-7.7061
 20
-16.8047
 30
23.8661
 70
192
 0
VERTEX
 8
PELATOR
 10
-8.103
 20
-17.3285
 30
23.9397
 70
192
 0
VERTEX
 8
PELATOR
 10
-8.103
 20
-17.1407
 30
25.2765
 70
192
 0
VERTEX
 8
PELATOR
 10
-7.878
 20
-17.1407
 30
25.2765
 70
192
 0
VERTEX
 8
PELATOR
 10
-7.878
 20
-17.3285
 30
23.9397
 70
192
 0
VERTEX
 8
PELATOR
 10
-7.7061
 20
-17.8524
 30
24.0133
 70
192
 0
VERTEX
 8
PELATOR
 10
-7.8881
 20
-17.9834
 30
24.0317
 70
192
 0
VERTEX
 8
PELATOR
 10
-7.8881
 20
-17.7955
 30
25.3686
 70
192
 0
VERTEX
 8
PELATOR
 10
-7.7061
 20
-17.6645
 30
25.3502
 70
192
 0
VERTEX
 8
PELATOR
 10
-7.3256
 20
-18.3881
 30
24.0886
 70
192
 0
VERTEX
 8
PELATOR
 10
-7.3256
 20
-18.2002
 30
25.4254
 70
192
 0
VERTEX
 8
PELATOR
 10
-7.2561
 20
-17.9883
 30
25.3957
 70
192
 0
VERTEX
 8
PELATOR
 10
-7.2561
 20
-18.1762
 30
24.0588
 70
192
 0
VERTEX
 8
PELATOR
 10
-6.6999
 20
-18.1762
 30
24.0588
 70
192
 0
VERTEX
 8
PELATOR
 10
-6.6303
 20
-18.3881
 30
24.0886
 70
192
 0
VERTEX
 8
PELATOR
 10
-6.6303
 20
-18.2002
 30
25.4254
 70
192
 0
VERTEX
 8
PELATOR
 10
-6.6999
 20
-17.9883
 30
25.3957
 70
192
 0
VERTEX
 8
PELATOR
 10
-6.2499
 20
-17.8524
 30
24.0133
 70
192
 0
VERTEX
 8
PELATOR
 10
-6.0678
 20
-17.9834
 30
24.0317
 70
192
 0
VERTEX
 8
PELATOR
 10
-6.0678
 20
-17.7955
 30
25.3686
 70
192
 0
VERTEX
 8
PELATOR
 10
-6.2499
 20
-17.6645
 30
25.3502
 70
192
 0
VERTEX
 8
PELATOR
 10
0
 20
0
 30
0
 70
128
 71
4
 72
1
 73
5
 74
8
 0
VERTEX
 8
PELATOR
 10
0
 20
0
 30
0
 70
128
 71
1
 72
2
 73
6
 74
5
 0
VERTEX
 8
PELATOR
 10
0
 20
0
 30
0
 70
128
 71
2
 72
3
 73
7
 74
6
 0
VERTEX
 8
PELATOR
 10
0
 20
0
 30
0
 70
128
 71
3
 72
4
 73
8
 74
7
 0
VERTEX
 8
PELATOR
 10
0
 20
0
 30
0
 70
128
 71
8
 72
5
 73
9
 74
12
 0
VERTEX
 8
PELATOR
 10
0
 20
0
 30
0
 70
128
 71
5
 72
6
 73
10
 74
9
 0
VERTEX
 8
PELATOR
 10
0
 20
0
 30
0
 70
128
 71
6
 72
7
 73
11
 74
10
 0
VERTEX
 8
PELATOR
 10
0
 20
0
 30
0
 70
128
 71
7
 72
8
 73
12
 74
11
 0
VERTEX
 8
PELATOR
 10
0
 20
0
 30
0
 70
128
 71
12
 72
9
 73
14
 74
13
 0
VERTEX
 8
PELATOR
 10
0
 20
0
 30
0
 70
128
 71
9
 72
10
 73
15
 74
14
 0
VERTEX
 8
PELATOR
 10
0
 20
0
 30
0
 70
128
 71
10
 72
11
 73
16
 74
15
 0
VERTEX
 8
PELATOR
 10
0
 20
0
 30
0
 70
128
 71
11
 72
12
 73
13
 74
16
 0
VERTEX
 8
PELATOR
 10
0
 20
0
 30
0
 70
128
 71
13
 72
14
 73
17
 74
20
 0
VERTEX
 8
PELATOR
 10
0
 20
0
 30
0
 70
128
 71
14
 72
15
 73
18
 74
17
 0
VERTEX
 8
PELATOR
 10
0
 20
0
 30
0
 70
128
 71
15
 72
16
 73
19
 74
18
 0
VERTEX
 8
PELATOR
 10
0
 20
0
 30
0
 70
128
 71
16
 72
13
 73
20
 74
19
 0
VERTEX
 8
PELATOR
 10
0
 20
0
 30
0
 70
128
 71
20
 72
17
 73
21
 74
24
 0
VERTEX
 8
PELATOR
 10
0
 20
0
 30
0
 70
128
 71
17
 72
18
 73
22
 74
21
 0
VERTEX
 8
PELATOR
 10
0
 20
0
 30
0
 70
128
 71
18
 72
19
 73
23
 74
22
 0
VERTEX
 8
PELATOR
 10
0
 20
0
 30
0
 70
128
 71
19
 72
20
 73
24
 74
23
 0
VERTEX
 8
PELATOR
 10
0
 20
0
 30
0
 70
128
 71
24
 72
21
 73
26
 74
25
 0
VERTEX
 8
PELATOR
 10
0
 20
0
 30
0
 70
128
 71
21
 72
22
 73
27
 74
26
 0
VERTEX
 8
PELATOR
 10
0
 20
0
 30
0
 70
128
 71
22
 72
23
 73
28
 74
27
 0
VERTEX
 8
PELATOR
 10
0
 20
0
 30
0
 70
128
 71
23
 72
24
 73
25
 74
28
 0
VERTEX
 8
PELATOR
 10
0
 20
0
 30
0
 70
128
 71
25
 72
26
 73
29
 74
32
 0
VERTEX
 8
PELATOR
 10
0
 20
0
 30
0
 70
128
 71
26
 72
27
 73
30
 74
29
 0
VERTEX
 8
PELATOR
 10
0
 20
0
 30
0
 70
128
 71
27
 72
28
 73
31
 74
30
 0
VERTEX
 8
PELATOR
 10
0
 20
0
 30
0
 70
128
 71
28
 72
25
 73
32
 74
31
 0
VERTEX
 8
PELATOR
 10
0
 20
0
 30
0
 70
128
 71
32
 72
29
 73
34
 74
33
 0
VERTEX
 8
PELATOR
 10
0
 20
0
 30
0
 70
128
 71
29
 72
30
 73
35
 74
34
 0
VERTEX
 8
PELATOR
 10
0
 20
0
 30
0
 70
128
 71
30
 72
31
 73
36
 74
35
 0
VERTEX
 8
PELATOR
 10
0
 20
0
 30
0
 70
128
 71
31
 72
32
 73
33
 74
36
 0
VERTEX
 8
PELATOR
 10
0
 20
0
 30
0
 70
128
 71
33
 72
34
 73
38
 74
37
 0
VERTEX
 8
PELATOR
 10
0
 20
0
 30
0
 70
128
 71
34
 72
35
 73
39
 74
38
 0
VERTEX
 8
PELATOR
 10
0
 20
0
 30
0
 70
128
 71
35
 72
36
 73
40
 74
39
 0
VERTEX
 8
PELATOR
 10
0
 20
0
 30
0
 70
128
 71
36
 72
33
 73
37
 74
40
 0
VERTEX
 8
PELATOR
 10
0
 20
0
 30
0
 70
128
 71
37
 72
38
 73
1
 74
4
 0
VERTEX
 8
PELATOR
 10
0
 20
0
 30
0
 70
128
 71
38
 72
39
 73
2
 74
1
 0
VERTEX
 8
PELATOR
 10
0
 20
0
 30
0
 70
128
 71
39
 72
40
 73
3
 74
2
 0
VERTEX
 8
PELATOR
 10
0
 20
0
 30
0
 70
128
 71
40
 72
37
 73
4
 74
3
 0
SEQEND
 0
POLYLINE
 8
ROSETTE_1
 66
1
 10
0.0
 20
0.0
 30
0.0
 70
64
 71
32
 72
45
 0
VERTEX
 8
ROSETTE_1
 10
-6.9805
 20
0
 30
9.0233
 70
192
 0
VERTEX
 8
ROSETTE_1
 10
-6.9805
 20
0
 30
9.6233
 70
192
 0
VERTEX
 8
ROSETTE_1
 10
-6.9805
 20
-2.6
 30
9.0233
 70
192
 0
VERTEX
 8
ROSETTE_1
 10
-6.9805
 20
-2.6
 30
9.6233
 70
192
 0
VERTEX
 8
ROSETTE_1
 10
-5.923
 20
-2.3752
 30
9.0233
 70
192
 0
VERTEX
 8
ROSETTE_1
 10
-5.923
 20
-2.3752
 30
9.6233
 70
192
 0
VERTEX
 8
ROSETTE_1
 10
-5.0483
 20
-1.7397
 30
9.0233
 70
192
 0
VERTEX
 8
ROSETTE_1
 10
-5.0483
 20
-1.7397
 30
9.6233
 70
192
 0
VERTEX
 8
ROSETTE_1
 10
-4.5078
 20
-0.8034
 30
9.0233
 70
192
 0
VERTEX
 8
ROSETTE_1
 10
-4.5078
 20
-0.8034
 30
9.6233
 70
192
 0
VERTEX
 8
ROSETTE_1
 10
-4.3947
 20
0.2718
 30
9.0233
 70
192
 0
VERTEX
 8
ROSETTE_1
 10
-4.3947
 20
0.2718
 30
9.6233
 70
192
 0
VERTEX
 8
ROSETTE_1
 10
-4.7288
 20
1.3
 30
9.0233
 70
192
 0
VERTEX
 8
ROSETTE_1
 10
-4.7288
 20
1.3
 30
9.6233
 70
192
 0
VERTEX
 8
ROSETTE_1
 10
-5.4523
 20
2.1034
 30
9.0233
 70
192
 0
VERTEX
 8
ROSETTE_1
 10
-5.4523
 20
2.1034
 30
9.6233
 70
192
 0
VERTEX
 8
ROSETTE_1
 10
-6.4399
 20
2.5432
 30
9.0233
 70
192
 0
VERTEX
 8
ROSETTE_1
 10
-6.4399
 20
2.5432
 30
9.6233
 70
192
 0
VERTEX
 8
ROSETTE_1
 10
-7.5211
 20
2.5432
 30
9.0233
 70
192
 0
VERTEX
 8
ROSETTE_1
 10
-7.5211
 20
2.5432
 30
9.6233
 70
192
 0
VERTEX
 8
ROSETTE_1
 10
-8.5087
 20
2.1034
 30
9.0233
 70
192
 0
VERTEX
 8
ROSETTE_1
 10
-8.5087
 20
2.1034
 30
9.6233
 70
192
 0
VERTEX
 8
ROSETTE_1
 10
-9.2322
 20
1.3
 30
9.0233
 70
192
 0
VERTEX
 8
ROSETTE_1
 10
-9.2322
 20
1.3
 30
9.6233
 70
192
 0
VERTEX
 8
ROSETTE_1
 10
-9.5663
 20
0.2718
 30
9.0233
 70
192
 0
VERTEX
 8
ROSETTE_1
 10
-9.5663
 20
0.2718
 30
9.6233
 70
192
 0
VERTEX
 8
ROSETTE_1
 10
-9.4532
 20
-0.8034
 30
9.0233
 70
192
 0
VERTEX
 8
ROSETTE_1
 10
-9.4532
 20
-0.8034
 30
9.6233
 70
192
 0
VERTEX
 8
ROSETTE_1
 10
-8.9127
 20
-1.7397
 30
9.0233
 70
192
 0
VERTEX
 8
ROSETTE_1
 10
-8.9127
 20
-1.7397
 30
9.6233
 70
192
 0
VERTEX
 8
ROSETTE_1
 10
-8.038
 20
-2.3752
 30
9.0233
 70
192
 0
VERTEX
 8
ROSETTE_1
 10
-8.038
 20
-2.3752
 30
9.6233
 70
192
 0
VERTEX
 8
ROSETTE_1
 10
0
 20
0
 30
0
 70
128
 71
1
 72
3
 73
5
 74
5
 0
VERTEX
 8
ROSETTE_1
 10
0
 20
0
 30
0
 70
128
 71
3
 72
4
 73
6
 74
5
 0
VERTEX
 8
ROSETTE_1
 10
0
 20
0
 30
0
 70
128
 71
4
 72
2
 73
6
 74
6
 0
VERTEX
 8
ROSETTE_1
 10
0
 20
0
 30
0
 70
128
 71
1
 72
5
 73
7
 74
7
 0
VERTEX
 8
ROSETTE_1
 10
0
 20
0
 30
0
 70
128
 71
5
 72
6
 73
8
 74
7
 0
VERTEX
 8
ROSETTE_1
 10
0
 20
0
 30
0
 70
128
 71
6
 72
2
 73
8
 74
8
 0
VERTEX
 8
ROSETTE_1
 10
0
 20
0
 30
0
 70
128
 71
1
 72
7
 73
9
 74
9
 0
VERTEX
 8
ROSETTE_1
 10
0
 20
0
 30
0
 70
128
 71
7
 72
8
 73
10
 74
9
 0
VERTEX
 8
ROSETTE_1
 10
0
 20
0
 30
0
 70
128
 71
8
 72
2
 73
10
 74
10
 0
VERTEX
 8
ROSETTE_1
 10
0
 20
0
 30
0
 70
128
 71
1
 72
9
 73
11
 74
11
 0
VERTEX
 8
ROSETTE_1
 10
0
 20
0
 30
0
 70
128
 71
9
 72
10
 73
12
 74
11
 0
VERTEX
 8
ROSETTE_1
 10
0
 20
0
 30
0
 70
128
 71
10
 72
2
 73
12
 74
12
 0
VERTEX
 8
ROSETTE_1
 10
0
 20
0
 30
0
 70
128
 71
1
 72
11
 73
13
 74
13
 0
VERTEX
 8
ROSETTE_1
 10
0
 20
0
 30
0
 70
128
 71
11
 72
12
 73
14
 74
13
 0
VERTEX
 8
ROSETTE_1
 10
0
 20
0
 30
0
 70
128
 71
12
 72
2
 73
14
 74
14
 0
VERTEX
 8
ROSETTE_1
 10
0
 20
0
 30
0
 70
128
 71
1
 72
13
 73
15
 74
15
 0
VERTEX
 8
ROSETTE_1
 10
0
 20
0
 30
0
 70
128
 71
13
 72
14
 73
16
 74
15
 0
VERTEX
 8
ROSETTE_1
 10
0
 20
0
 30
0
 70
128
 71
14
 72
2
 73
16
 74
16
 0
VERTEX
 8
ROSETTE_1
 10
0
 20
0
 30
0
 70
128
 71
1
 72
15
 73
17
 74
17
 0
VERTEX
 8
ROSETTE_1
 10
0
 20
0
 30
0
 70
128
 71
15
 72
16
 73
18
 74
17
 0
VERTEX
 8
ROSETTE_1
 10
0
 20
0
 30
0
 70
128
 71
16
 72
2
 73
18
 74
18
 0
VERTEX
 8
ROSETTE_1
 10
0
 20
0
 30
0
 70
128
 71
1
 72
17
 73
19
 74
19
 0
VERTEX
 8
ROSETTE_1
 10
0
 20
0
 30
0
 70
128
 71
17
 72
18
 73
20
 74
19
 0
VERTEX
 8
ROSETTE_1
 10
0
 20
0
 30
0
 70
128
 71
18
 72
2
 73
20
 74
20
 0
VERTEX
 8
ROSETTE_1
 10
0
 20
0
 30
0
 70
128
 71
1
 72
19
 73
21
 74
21
 0
VERTEX
 8
ROSETTE_1
 10
0
 20
0
 30
0
 70
128
 71
19
 72
20
 73
22
 74
21
 0
VERTEX
 8
ROSETTE_1
 10
0
 20
0
 30
0
 70
128
 71
20
 72
2
 73
22
 74
22
 0
VERTEX
 8
ROSETTE_1
 10
0
 20
0
 30
0
 70
128
 71
1
 72
21
 73
23
 74
23
 0
VERTEX
 8
ROSETTE_1
 10
0
 20
0
 30
0
 70
128
 71
21
 72
22
 73
24
 74
23
 0
VERTEX
 8
ROSETTE_1
 10
0
 20
0
 30
0
 70
128
 71
22
 72
2
 73
24
 74
24
 0
VERTEX
 8
ROSETTE_1
 10
0
 20
0
 30
0
 70
128
 71
1
 72
23
 73
25
 74
25
 0
VERTEX
 8
ROSETTE_1
 10
0
 20
0
 30
0
 70
128
 71
23
 72
24
 73
26
 74
25
 0
VERTEX
 8
ROSETTE_1
 10
0
 20
0
 30
0
 70
128
 71
24
 72
2
 73
26
 74
26
 0
VERTEX
 8
ROSETTE_1
 10
0
 20
0
 30
0
 70
128
 71
1
 72
25
 73
27
 74
27
 0
VERTEX
 8
ROSETTE_1
 10
0
 20
0
 30
0
 70
128
 71
25
 72
26
 73
28
 74
27
 0
VERTEX
 8
ROSETTE_1
 10
0
 20
0
 30
0
 70
128
 71
26
 72
2
 73
28
 74
28
 0
VERTEX
 8
ROSETTE_1
 10
0
 20
0
 30
0
 70
128
 71
1
 72
27
 73
29
 74
29
 0
VERTEX
 8
ROSETTE_1
 10
0
 20
0
 30
0
 70
128
 71
27
 72
28
 73
30
 74
29
 0
VERTEX
 8
ROSETTE_1
 10
0
 20
0
 30
0
 70
128
 71
28
 72
2
 73
30
 74
30
 0
VERTEX
 8
ROSETTE_1
 10
0
 20
0
 30
0
 70
128
 71
1
 72
29
 73
31
 74
31
 0
VERTEX
 8
ROSETTE_1
 10
0
 20
0
 30
0
 70
128
 71
29
 72
30
 73
32
 74
31
 0
VERTEX
 8
ROSETTE_1
 10
0
 20
0
 30
0
 70
128
 71
30
 72
2
 73
32
 74
32
 0
VERTEX
 8
ROSETTE_1
 10
0
 20
0
 30
0
 70
128
 71
1
 72
31
 73
3
 74
3
 0
VERTEX
 8
ROSETTE_1
 10
0
 20
0
 30
0
 70
128
 71
31
 72
32
 73
4
 74
3
 0
VERTEX
 8
ROSETTE_1
 10
0
 20
0
 30
0
 70
128
 71
32
 72
2
 73
4
 74
4
 0
SEQEND
 0
ENDSEC
 0
EOF
