 0
SECTION
 2
HEADER
 9
$ACADVER
 1
AC1009
 0
ENDSEC
 0
SECTION
 2
TABLES
 0
TABLE
 2
LTYPE
 70
1
 0
LTYPE
 2
CONTINUOUS
 70
64
 3
solid line
 72
65
 73
0
 40
0.0
 0
ENDTAB
 0
TABLE
 2
LAYER
 70
6
 0
LAYER
 2
0
 70
0
 62
7
 6
CONTINUOUS
 0
LAYER
 2
170_2480_M
 70
64
 62
7
 6
CONTINUOUS
 0
LAYER
 2
ZYLIND2_3
 70
64
 62
250
 6
CONTINUOUS
 0
LAYER
 2
ZYLINDER_4
 70
64
 62
250
 6
CONTINUOUS
 0
LAYER
 2
ZYLINDER_3
 70
64
 62
250
 6
CONTINUOUS
 0
LAYER
 2
ZYLIND2_2
 70
64
 62
250
 6
CONTINUOUS
 0
LAYER
 2
ZYLINDER_2
 70
64
 62
250
 6
CONTINUOUS
 0
LAYER
 2
W_RFEL_2
 70
64
 62
250
 6
CONTINUOUS
 0
LAYER
 2
ZYLIND2_1
 70
64
 62
250
 6
CONTINUOUS
 0
LAYER
 2
ZYLINDER_1
 70
64
 62
250
 6
CONTINUOUS
 0
LAYER
 2
W_RFEL_1
 70
64
 62
250
 6
CONTINUOUS
 0
LAYER
 2
ZYLIND2
 70
64
 62
250
 6
CONTINUOUS
 0
LAYER
 2
ZYLINDER
 70
64
 62
250
 6
CONTINUOUS
 0
LAYER
 2
W_RFEL
 70
64
 62
250
 6
CONTINUOUS
 0
ENDTAB
 0
ENDSEC
 0
SECTION
 2
BLOCKS
 0
ENDSEC
 0
SECTION
 2
ENTITIES
 0
POLYLINE
 8
ZYLIND2_3
 66
1
 10
0.0
 20
0.0
 30
0.0
 70
64
 71
62
 72
45
 0
VERTEX
 8
ZYLIND2_3
 10
21.0641
 20
-0.0143
 30
8.9744
 70
192
 0
VERTEX
 8
ZYLIND2_3
 10
21.0641
 20
-0.0143
 30
9.5744
 70
192
 0
VERTEX
 8
ZYLIND2_3
 10
21.0641
 20
-2.6143
 30
8.9744
 70
192
 0
VERTEX
 8
ZYLIND2_3
 10
21.0641
 20
-2.6143
 30
8.9744
 70
192
 0
VERTEX
 8
ZYLIND2_3
 10
21.0641
 20
-2.6143
 30
9.5744
 70
192
 0
VERTEX
 8
ZYLIND2_3
 10
21.0641
 20
-2.6143
 30
9.5744
 70
192
 0
VERTEX
 8
ZYLIND2_3
 10
22.1217
 20
-2.3896
 30
8.9744
 70
192
 0
VERTEX
 8
ZYLIND2_3
 10
22.1217
 20
-2.3896
 30
8.9744
 70
192
 0
VERTEX
 8
ZYLIND2_3
 10
22.1217
 20
-2.3896
 30
9.5744
 70
192
 0
VERTEX
 8
ZYLIND2_3
 10
22.1217
 20
-2.3896
 30
9.5744
 70
192
 0
VERTEX
 8
ZYLIND2_3
 10
22.9963
 20
-1.7541
 30
8.9744
 70
192
 0
VERTEX
 8
ZYLIND2_3
 10
22.9963
 20
-1.7541
 30
8.9744
 70
192
 0
VERTEX
 8
ZYLIND2_3
 10
22.9963
 20
-1.7541
 30
9.5744
 70
192
 0
VERTEX
 8
ZYLIND2_3
 10
22.9963
 20
-1.7541
 30
9.5744
 70
192
 0
VERTEX
 8
ZYLIND2_3
 10
23.5369
 20
-0.8178
 30
8.9744
 70
192
 0
VERTEX
 8
ZYLIND2_3
 10
23.5369
 20
-0.8178
 30
8.9744
 70
192
 0
VERTEX
 8
ZYLIND2_3
 10
23.5369
 20
-0.8178
 30
9.5744
 70
192
 0
VERTEX
 8
ZYLIND2_3
 10
23.5369
 20
-0.8178
 30
9.5744
 70
192
 0
VERTEX
 8
ZYLIND2_3
 10
23.6499
 20
0.2574
 30
8.9744
 70
192
 0
VERTEX
 8
ZYLIND2_3
 10
23.6499
 20
0.2574
 30
8.9744
 70
192
 0
VERTEX
 8
ZYLIND2_3
 10
23.6499
 20
0.2574
 30
9.5744
 70
192
 0
VERTEX
 8
ZYLIND2_3
 10
23.6499
 20
0.2574
 30
9.5744
 70
192
 0
VERTEX
 8
ZYLIND2_3
 10
23.3158
 20
1.2857
 30
8.9744
 70
192
 0
VERTEX
 8
ZYLIND2_3
 10
23.3158
 20
1.2857
 30
8.9744
 70
192
 0
VERTEX
 8
ZYLIND2_3
 10
23.3158
 20
1.2857
 30
9.5744
 70
192
 0
VERTEX
 8
ZYLIND2_3
 10
23.3158
 20
1.2857
 30
9.5744
 70
192
 0
VERTEX
 8
ZYLIND2_3
 10
22.5924
 20
2.0891
 30
8.9744
 70
192
 0
VERTEX
 8
ZYLIND2_3
 10
22.5924
 20
2.0891
 30
8.9744
 70
192
 0
VERTEX
 8
ZYLIND2_3
 10
22.5924
 20
2.0891
 30
9.5744
 70
192
 0
VERTEX
 8
ZYLIND2_3
 10
22.5924
 20
2.0891
 30
9.5744
 70
192
 0
VERTEX
 8
ZYLIND2_3
 10
21.6047
 20
2.5288
 30
8.9744
 70
192
 0
VERTEX
 8
ZYLIND2_3
 10
21.6047
 20
2.5288
 30
8.9744
 70
192
 0
VERTEX
 8
ZYLIND2_3
 10
21.6047
 20
2.5288
 30
9.5744
 70
192
 0
VERTEX
 8
ZYLIND2_3
 10
21.6047
 20
2.5288
 30
9.5744
 70
192
 0
VERTEX
 8
ZYLIND2_3
 10
20.5236
 20
2.5288
 30
8.9744
 70
192
 0
VERTEX
 8
ZYLIND2_3
 10
20.5236
 20
2.5288
 30
8.9744
 70
192
 0
VERTEX
 8
ZYLIND2_3
 10
20.5236
 20
2.5288
 30
9.5744
 70
192
 0
VERTEX
 8
ZYLIND2_3
 10
20.5236
 20
2.5288
 30
9.5744
 70
192
 0
VERTEX
 8
ZYLIND2_3
 10
19.5359
 20
2.0891
 30
8.9744
 70
192
 0
VERTEX
 8
ZYLIND2_3
 10
19.5359
 20
2.0891
 30
8.9744
 70
192
 0
VERTEX
 8
ZYLIND2_3
 10
19.5359
 20
2.0891
 30
9.5744
 70
192
 0
VERTEX
 8
ZYLIND2_3
 10
19.5359
 20
2.0891
 30
9.5744
 70
192
 0
VERTEX
 8
ZYLIND2_3
 10
18.8125
 20
1.2857
 30
8.9744
 70
192
 0
VERTEX
 8
ZYLIND2_3
 10
18.8125
 20
1.2857
 30
8.9744
 70
192
 0
VERTEX
 8
ZYLIND2_3
 10
18.8125
 20
1.2857
 30
9.5744
 70
192
 0
VERTEX
 8
ZYLIND2_3
 10
18.8125
 20
1.2857
 30
9.5744
 70
192
 0
VERTEX
 8
ZYLIND2_3
 10
18.4784
 20
0.2574
 30
8.9744
 70
192
 0
VERTEX
 8
ZYLIND2_3
 10
18.4784
 20
0.2574
 30
8.9744
 70
192
 0
VERTEX
 8
ZYLIND2_3
 10
18.4784
 20
0.2574
 30
9.5744
 70
192
 0
VERTEX
 8
ZYLIND2_3
 10
18.4784
 20
0.2574
 30
9.5744
 70
192
 0
VERTEX
 8
ZYLIND2_3
 10
18.5914
 20
-0.8178
 30
8.9744
 70
192
 0
VERTEX
 8
ZYLIND2_3
 10
18.5914
 20
-0.8178
 30
8.9744
 70
192
 0
VERTEX
 8
ZYLIND2_3
 10
18.5914
 20
-0.8178
 30
9.5744
 70
192
 0
VERTEX
 8
ZYLIND2_3
 10
18.5914
 20
-0.8178
 30
9.5744
 70
192
 0
VERTEX
 8
ZYLIND2_3
 10
19.132
 20
-1.7541
 30
8.9744
 70
192
 0
VERTEX
 8
ZYLIND2_3
 10
19.132
 20
-1.7541
 30
8.9744
 70
192
 0
VERTEX
 8
ZYLIND2_3
 10
19.132
 20
-1.7541
 30
9.5744
 70
192
 0
VERTEX
 8
ZYLIND2_3
 10
19.132
 20
-1.7541
 30
9.5744
 70
192
 0
VERTEX
 8
ZYLIND2_3
 10
20.0066
 20
-2.3896
 30
8.9744
 70
192
 0
VERTEX
 8
ZYLIND2_3
 10
20.0066
 20
-2.3896
 30
8.9744
 70
192
 0
VERTEX
 8
ZYLIND2_3
 10
20.0066
 20
-2.3896
 30
9.5744
 70
192
 0
VERTEX
 8
ZYLIND2_3
 10
20.0066
 20
-2.3896
 30
9.5744
 70
192
 0
VERTEX
 8
ZYLIND2_3
 10
0
 20
0
 30
0
 70
128
 71
1
 72
3
 73
7
 74
7
 0
VERTEX
 8
ZYLIND2_3
 10
0
 20
0
 30
0
 70
128
 71
4
 72
5
 73
9
 74
8
 0
VERTEX
 8
ZYLIND2_3
 10
0
 20
0
 30
0
 70
128
 71
6
 72
2
 73
10
 74
10
 0
VERTEX
 8
ZYLIND2_3
 10
0
 20
0
 30
0
 70
128
 71
1
 72
7
 73
11
 74
11
 0
VERTEX
 8
ZYLIND2_3
 10
0
 20
0
 30
0
 70
128
 71
8
 72
9
 73
13
 74
12
 0
VERTEX
 8
ZYLIND2_3
 10
0
 20
0
 30
0
 70
128
 71
10
 72
2
 73
14
 74
14
 0
VERTEX
 8
ZYLIND2_3
 10
0
 20
0
 30
0
 70
128
 71
1
 72
11
 73
15
 74
15
 0
VERTEX
 8
ZYLIND2_3
 10
0
 20
0
 30
0
 70
128
 71
12
 72
13
 73
17
 74
16
 0
VERTEX
 8
ZYLIND2_3
 10
0
 20
0
 30
0
 70
128
 71
14
 72
2
 73
18
 74
18
 0
VERTEX
 8
ZYLIND2_3
 10
0
 20
0
 30
0
 70
128
 71
1
 72
15
 73
19
 74
19
 0
VERTEX
 8
ZYLIND2_3
 10
0
 20
0
 30
0
 70
128
 71
16
 72
17
 73
21
 74
20
 0
VERTEX
 8
ZYLIND2_3
 10
0
 20
0
 30
0
 70
128
 71
18
 72
2
 73
22
 74
22
 0
VERTEX
 8
ZYLIND2_3
 10
0
 20
0
 30
0
 70
128
 71
1
 72
19
 73
23
 74
23
 0
VERTEX
 8
ZYLIND2_3
 10
0
 20
0
 30
0
 70
128
 71
20
 72
21
 73
25
 74
24
 0
VERTEX
 8
ZYLIND2_3
 10
0
 20
0
 30
0
 70
128
 71
22
 72
2
 73
26
 74
26
 0
VERTEX
 8
ZYLIND2_3
 10
0
 20
0
 30
0
 70
128
 71
1
 72
23
 73
27
 74
27
 0
VERTEX
 8
ZYLIND2_3
 10
0
 20
0
 30
0
 70
128
 71
24
 72
25
 73
29
 74
28
 0
VERTEX
 8
ZYLIND2_3
 10
0
 20
0
 30
0
 70
128
 71
26
 72
2
 73
30
 74
30
 0
VERTEX
 8
ZYLIND2_3
 10
0
 20
0
 30
0
 70
128
 71
1
 72
27
 73
31
 74
31
 0
VERTEX
 8
ZYLIND2_3
 10
0
 20
0
 30
0
 70
128
 71
28
 72
29
 73
33
 74
32
 0
VERTEX
 8
ZYLIND2_3
 10
0
 20
0
 30
0
 70
128
 71
30
 72
2
 73
34
 74
34
 0
VERTEX
 8
ZYLIND2_3
 10
0
 20
0
 30
0
 70
128
 71
1
 72
31
 73
35
 74
35
 0
VERTEX
 8
ZYLIND2_3
 10
0
 20
0
 30
0
 70
128
 71
32
 72
33
 73
37
 74
36
 0
VERTEX
 8
ZYLIND2_3
 10
0
 20
0
 30
0
 70
128
 71
34
 72
2
 73
38
 74
38
 0
VERTEX
 8
ZYLIND2_3
 10
0
 20
0
 30
0
 70
128
 71
1
 72
35
 73
39
 74
39
 0
VERTEX
 8
ZYLIND2_3
 10
0
 20
0
 30
0
 70
128
 71
36
 72
37
 73
41
 74
40
 0
VERTEX
 8
ZYLIND2_3
 10
0
 20
0
 30
0
 70
128
 71
38
 72
2
 73
42
 74
42
 0
VERTEX
 8
ZYLIND2_3
 10
0
 20
0
 30
0
 70
128
 71
1
 72
39
 73
43
 74
43
 0
VERTEX
 8
ZYLIND2_3
 10
0
 20
0
 30
0
 70
128
 71
40
 72
41
 73
45
 74
44
 0
VERTEX
 8
ZYLIND2_3
 10
0
 20
0
 30
0
 70
128
 71
42
 72
2
 73
46
 74
46
 0
VERTEX
 8
ZYLIND2_3
 10
0
 20
0
 30
0
 70
128
 71
1
 72
43
 73
47
 74
47
 0
VERTEX
 8
ZYLIND2_3
 10
0
 20
0
 30
0
 70
128
 71
44
 72
45
 73
49
 74
48
 0
VERTEX
 8
ZYLIND2_3
 10
0
 20
0
 30
0
 70
128
 71
46
 72
2
 73
50
 74
50
 0
VERTEX
 8
ZYLIND2_3
 10
0
 20
0
 30
0
 70
128
 71
1
 72
47
 73
51
 74
51
 0
VERTEX
 8
ZYLIND2_3
 10
0
 20
0
 30
0
 70
128
 71
48
 72
49
 73
53
 74
52
 0
VERTEX
 8
ZYLIND2_3
 10
0
 20
0
 30
0
 70
128
 71
50
 72
2
 73
54
 74
54
 0
VERTEX
 8
ZYLIND2_3
 10
0
 20
0
 30
0
 70
128
 71
1
 72
51
 73
55
 74
55
 0
VERTEX
 8
ZYLIND2_3
 10
0
 20
0
 30
0
 70
128
 71
52
 72
53
 73
57
 74
56
 0
VERTEX
 8
ZYLIND2_3
 10
0
 20
0
 30
0
 70
128
 71
54
 72
2
 73
58
 74
58
 0
VERTEX
 8
ZYLIND2_3
 10
0
 20
0
 30
0
 70
128
 71
1
 72
55
 73
59
 74
59
 0
VERTEX
 8
ZYLIND2_3
 10
0
 20
0
 30
0
 70
128
 71
56
 72
57
 73
61
 74
60
 0
VERTEX
 8
ZYLIND2_3
 10
0
 20
0
 30
0
 70
128
 71
58
 72
2
 73
62
 74
62
 0
VERTEX
 8
ZYLIND2_3
 10
0
 20
0
 30
0
 70
128
 71
1
 72
59
 73
3
 74
3
 0
VERTEX
 8
ZYLIND2_3
 10
0
 20
0
 30
0
 70
128
 71
60
 72
61
 73
5
 74
4
 0
VERTEX
 8
ZYLIND2_3
 10
0
 20
0
 30
0
 70
128
 71
62
 72
2
 73
6
 74
6
 0
SEQEND
 0
POLYLINE
 8
ZYLINDER_4
 66
1
 10
0.0
 20
0.0
 30
0.0
 70
64
 71
50
 72
36
 0
VERTEX
 8
ZYLINDER_4
 10
21.0853
 20
0
 30
9.6041
 70
192
 0
VERTEX
 8
ZYLINDER_4
 10
21.0853
 20
0
 30
22.6041
 70
192
 0
VERTEX
 8
ZYLINDER_4
 10
21.0853
 20
-1.15
 30
9.6041
 70
192
 0
VERTEX
 8
ZYLINDER_4
 10
21.0853
 20
-1.15
 30
9.6041
 70
192
 0
VERTEX
 8
ZYLINDER_4
 10
21.0853
 20
-1.15
 30
22.6041
 70
192
 0
VERTEX
 8
ZYLINDER_4
 10
21.0853
 20
-1.15
 30
22.6041
 70
192
 0
VERTEX
 8
ZYLINDER_4
 10
21.6603
 20
-0.9959
 30
9.6041
 70
192
 0
VERTEX
 8
ZYLINDER_4
 10
21.6603
 20
-0.9959
 30
9.6041
 70
192
 0
VERTEX
 8
ZYLINDER_4
 10
21.6603
 20
-0.9959
 30
22.6041
 70
192
 0
VERTEX
 8
ZYLINDER_4
 10
21.6603
 20
-0.9959
 30
22.6041
 70
192
 0
VERTEX
 8
ZYLINDER_4
 10
22.0813
 20
-0.575
 30
9.6041
 70
192
 0
VERTEX
 8
ZYLINDER_4
 10
22.0813
 20
-0.575
 30
9.6041
 70
192
 0
VERTEX
 8
ZYLINDER_4
 10
22.0813
 20
-0.575
 30
22.6041
 70
192
 0
VERTEX
 8
ZYLINDER_4
 10
22.0813
 20
-0.575
 30
22.6041
 70
192
 0
VERTEX
 8
ZYLINDER_4
 10
22.2353
 20
0
 30
9.6041
 70
192
 0
VERTEX
 8
ZYLINDER_4
 10
22.2353
 20
0
 30
9.6041
 70
192
 0
VERTEX
 8
ZYLINDER_4
 10
22.2353
 20
0
 30
22.6041
 70
192
 0
VERTEX
 8
ZYLINDER_4
 10
22.2353
 20
0
 30
22.6041
 70
192
 0
VERTEX
 8
ZYLINDER_4
 10
22.0813
 20
0.575
 30
9.6041
 70
192
 0
VERTEX
 8
ZYLINDER_4
 10
22.0813
 20
0.575
 30
9.6041
 70
192
 0
VERTEX
 8
ZYLINDER_4
 10
22.0813
 20
0.575
 30
22.6041
 70
192
 0
VERTEX
 8
ZYLINDER_4
 10
22.0813
 20
0.575
 30
22.6041
 70
192
 0
VERTEX
 8
ZYLINDER_4
 10
21.6603
 20
0.9959
 30
9.6041
 70
192
 0
VERTEX
 8
ZYLINDER_4
 10
21.6603
 20
0.9959
 30
9.6041
 70
192
 0
VERTEX
 8
ZYLINDER_4
 10
21.6603
 20
0.9959
 30
22.6041
 70
192
 0
VERTEX
 8
ZYLINDER_4
 10
21.6603
 20
0.9959
 30
22.6041
 70
192
 0
VERTEX
 8
ZYLINDER_4
 10
21.0853
 20
1.15
 30
9.6041
 70
192
 0
VERTEX
 8
ZYLINDER_4
 10
21.0853
 20
1.15
 30
9.6041
 70
192
 0
VERTEX
 8
ZYLINDER_4
 10
21.0853
 20
1.15
 30
22.6041
 70
192
 0
VERTEX
 8
ZYLINDER_4
 10
21.0853
 20
1.15
 30
22.6041
 70
192
 0
VERTEX
 8
ZYLINDER_4
 10
20.5103
 20
0.9959
 30
9.6041
 70
192
 0
VERTEX
 8
ZYLINDER_4
 10
20.5103
 20
0.9959
 30
9.6041
 70
192
 0
VERTEX
 8
ZYLINDER_4
 10
20.5103
 20
0.9959
 30
22.6041
 70
192
 0
VERTEX
 8
ZYLINDER_4
 10
20.5103
 20
0.9959
 30
22.6041
 70
192
 0
VERTEX
 8
ZYLINDER_4
 10
20.0894
 20
0.575
 30
9.6041
 70
192
 0
VERTEX
 8
ZYLINDER_4
 10
20.0894
 20
0.575
 30
9.6041
 70
192
 0
VERTEX
 8
ZYLINDER_4
 10
20.0894
 20
0.575
 30
22.6041
 70
192
 0
VERTEX
 8
ZYLINDER_4
 10
20.0894
 20
0.575
 30
22.6041
 70
192
 0
VERTEX
 8
ZYLINDER_4
 10
19.9353
 20
0
 30
9.6041
 70
192
 0
VERTEX
 8
ZYLINDER_4
 10
19.9353
 20
0
 30
9.6041
 70
192
 0
VERTEX
 8
ZYLINDER_4
 10
19.9353
 20
0
 30
22.6041
 70
192
 0
VERTEX
 8
ZYLINDER_4
 10
19.9353
 20
0
 30
22.6041
 70
192
 0
VERTEX
 8
ZYLINDER_4
 10
20.0894
 20
-0.575
 30
9.6041
 70
192
 0
VERTEX
 8
ZYLINDER_4
 10
20.0894
 20
-0.575
 30
9.6041
 70
192
 0
VERTEX
 8
ZYLINDER_4
 10
20.0894
 20
-0.575
 30
22.6041
 70
192
 0
VERTEX
 8
ZYLINDER_4
 10
20.0894
 20
-0.575
 30
22.6041
 70
192
 0
VERTEX
 8
ZYLINDER_4
 10
20.5103
 20
-0.9959
 30
9.6041
 70
192
 0
VERTEX
 8
ZYLINDER_4
 10
20.5103
 20
-0.9959
 30
9.6041
 70
192
 0
VERTEX
 8
ZYLINDER_4
 10
20.5103
 20
-0.9959
 30
22.6041
 70
192
 0
VERTEX
 8
ZYLINDER_4
 10
20.5103
 20
-0.9959
 30
22.6041
 70
192
 0
VERTEX
 8
ZYLINDER_4
 10
0
 20
0
 30
0
 70
128
 71
1
 72
3
 73
7
 74
7
 0
VERTEX
 8
ZYLINDER_4
 10
0
 20
0
 30
0
 70
128
 71
4
 72
5
 73
9
 74
8
 0
VERTEX
 8
ZYLINDER_4
 10
0
 20
0
 30
0
 70
128
 71
6
 72
2
 73
10
 74
10
 0
VERTEX
 8
ZYLINDER_4
 10
0
 20
0
 30
0
 70
128
 71
1
 72
7
 73
11
 74
11
 0
VERTEX
 8
ZYLINDER_4
 10
0
 20
0
 30
0
 70
128
 71
8
 72
9
 73
13
 74
12
 0
VERTEX
 8
ZYLINDER_4
 10
0
 20
0
 30
0
 70
128
 71
10
 72
2
 73
14
 74
14
 0
VERTEX
 8
ZYLINDER_4
 10
0
 20
0
 30
0
 70
128
 71
1
 72
11
 73
15
 74
15
 0
VERTEX
 8
ZYLINDER_4
 10
0
 20
0
 30
0
 70
128
 71
12
 72
13
 73
17
 74
16
 0
VERTEX
 8
ZYLINDER_4
 10
0
 20
0
 30
0
 70
128
 71
14
 72
2
 73
18
 74
18
 0
VERTEX
 8
ZYLINDER_4
 10
0
 20
0
 30
0
 70
128
 71
1
 72
15
 73
19
 74
19
 0
VERTEX
 8
ZYLINDER_4
 10
0
 20
0
 30
0
 70
128
 71
16
 72
17
 73
21
 74
20
 0
VERTEX
 8
ZYLINDER_4
 10
0
 20
0
 30
0
 70
128
 71
18
 72
2
 73
22
 74
22
 0
VERTEX
 8
ZYLINDER_4
 10
0
 20
0
 30
0
 70
128
 71
1
 72
19
 73
23
 74
23
 0
VERTEX
 8
ZYLINDER_4
 10
0
 20
0
 30
0
 70
128
 71
20
 72
21
 73
25
 74
24
 0
VERTEX
 8
ZYLINDER_4
 10
0
 20
0
 30
0
 70
128
 71
22
 72
2
 73
26
 74
26
 0
VERTEX
 8
ZYLINDER_4
 10
0
 20
0
 30
0
 70
128
 71
1
 72
23
 73
27
 74
27
 0
VERTEX
 8
ZYLINDER_4
 10
0
 20
0
 30
0
 70
128
 71
24
 72
25
 73
29
 74
28
 0
VERTEX
 8
ZYLINDER_4
 10
0
 20
0
 30
0
 70
128
 71
26
 72
2
 73
30
 74
30
 0
VERTEX
 8
ZYLINDER_4
 10
0
 20
0
 30
0
 70
128
 71
1
 72
27
 73
31
 74
31
 0
VERTEX
 8
ZYLINDER_4
 10
0
 20
0
 30
0
 70
128
 71
28
 72
29
 73
33
 74
32
 0
VERTEX
 8
ZYLINDER_4
 10
0
 20
0
 30
0
 70
128
 71
30
 72
2
 73
34
 74
34
 0
VERTEX
 8
ZYLINDER_4
 10
0
 20
0
 30
0
 70
128
 71
1
 72
31
 73
35
 74
35
 0
VERTEX
 8
ZYLINDER_4
 10
0
 20
0
 30
0
 70
128
 71
32
 72
33
 73
37
 74
36
 0
VERTEX
 8
ZYLINDER_4
 10
0
 20
0
 30
0
 70
128
 71
34
 72
2
 73
38
 74
38
 0
VERTEX
 8
ZYLINDER_4
 10
0
 20
0
 30
0
 70
128
 71
1
 72
35
 73
39
 74
39
 0
VERTEX
 8
ZYLINDER_4
 10
0
 20
0
 30
0
 70
128
 71
36
 72
37
 73
41
 74
40
 0
VERTEX
 8
ZYLINDER_4
 10
0
 20
0
 30
0
 70
128
 71
38
 72
2
 73
42
 74
42
 0
VERTEX
 8
ZYLINDER_4
 10
0
 20
0
 30
0
 70
128
 71
1
 72
39
 73
43
 74
43
 0
VERTEX
 8
ZYLINDER_4
 10
0
 20
0
 30
0
 70
128
 71
40
 72
41
 73
45
 74
44
 0
VERTEX
 8
ZYLINDER_4
 10
0
 20
0
 30
0
 70
128
 71
42
 72
2
 73
46
 74
46
 0
VERTEX
 8
ZYLINDER_4
 10
0
 20
0
 30
0
 70
128
 71
1
 72
43
 73
47
 74
47
 0
VERTEX
 8
ZYLINDER_4
 10
0
 20
0
 30
0
 70
128
 71
44
 72
45
 73
49
 74
48
 0
VERTEX
 8
ZYLINDER_4
 10
0
 20
0
 30
0
 70
128
 71
46
 72
2
 73
50
 74
50
 0
VERTEX
 8
ZYLINDER_4
 10
0
 20
0
 30
0
 70
128
 71
1
 72
47
 73
3
 74
3
 0
VERTEX
 8
ZYLINDER_4
 10
0
 20
0
 30
0
 70
128
 71
48
 72
49
 73
5
 74
4
 0
VERTEX
 8
ZYLINDER_4
 10
0
 20
0
 30
0
 70
128
 71
50
 72
2
 73
6
 74
6
 0
SEQEND
 0
POLYLINE
 8
ZYLINDER_3
 66
1
 10
0.0
 20
0.0
 30
0.0
 70
64
 71
138
 72
139
 0
VERTEX
 8
ZYLINDER_3
 10
21.0881
 20
0
 30
22.6746
 70
192
 0
VERTEX
 8
ZYLINDER_3
 10
21.0881
 20
0
 30
28.6746
 70
192
 0
VERTEX
 8
ZYLINDER_3
 10
21.0881
 20
-1.15
 30
22.6746
 70
192
 0
VERTEX
 8
ZYLINDER_3
 10
21.0881
 20
-1.15
 30
28.6746
 70
192
 0
VERTEX
 8
ZYLINDER_3
 10
21.6631
 20
-0.9959
 30
22.6746
 70
192
 0
VERTEX
 8
ZYLINDER_3
 10
21.6631
 20
-0.9959
 30
28.6746
 70
192
 0
VERTEX
 8
ZYLINDER_3
 10
22.0841
 20
-0.575
 30
22.6746
 70
192
 0
VERTEX
 8
ZYLINDER_3
 10
22.0841
 20
-0.575
 30
28.6746
 70
192
 0
VERTEX
 8
ZYLINDER_3
 10
22.2381
 20
0
 30
22.6746
 70
192
 0
VERTEX
 8
ZYLINDER_3
 10
22.2381
 20
0
 30
28.6746
 70
192
 0
VERTEX
 8
ZYLINDER_3
 10
22.0841
 20
0.575
 30
22.6746
 70
192
 0
VERTEX
 8
ZYLINDER_3
 10
22.0841
 20
0.575
 30
28.6746
 70
192
 0
VERTEX
 8
ZYLINDER_3
 10
21.6631
 20
0.9959
 30
22.6746
 70
192
 0
VERTEX
 8
ZYLINDER_3
 10
21.6631
 20
0.9959
 30
28.6746
 70
192
 0
VERTEX
 8
ZYLINDER_3
 10
21.0881
 20
1.15
 30
22.6746
 70
192
 0
VERTEX
 8
ZYLINDER_3
 10
21.0881
 20
1.15
 30
28.6746
 70
192
 0
VERTEX
 8
ZYLINDER_3
 10
20.5131
 20
0.9959
 30
22.6746
 70
192
 0
VERTEX
 8
ZYLINDER_3
 10
20.5131
 20
0.9959
 30
28.6746
 70
192
 0
VERTEX
 8
ZYLINDER_3
 10
20.0922
 20
0.575
 30
22.6746
 70
192
 0
VERTEX
 8
ZYLINDER_3
 10
20.0922
 20
0.575
 30
28.6746
 70
192
 0
VERTEX
 8
ZYLINDER_3
 10
19.9381
 20
0
 30
22.6746
 70
192
 0
VERTEX
 8
ZYLINDER_3
 10
19.9381
 20
0
 30
28.6746
 70
192
 0
VERTEX
 8
ZYLINDER_3
 10
20.0922
 20
-0.575
 30
22.6746
 70
192
 0
VERTEX
 8
ZYLINDER_3
 10
20.0922
 20
-0.575
 30
28.6746
 70
192
 0
VERTEX
 8
ZYLINDER_3
 10
20.5131
 20
-0.9959
 30
22.6746
 70
192
 0
VERTEX
 8
ZYLINDER_3
 10
20.5131
 20
-0.9959
 30
28.6746
 70
192
 0
VERTEX
 8
ZYLINDER_3
 10
21.0881
 20
-1.15
 30
25.0074
 70
192
 0
VERTEX
 8
ZYLINDER_3
 10
21.0881
 20
-1.15
 30
26.7032
 70
192
 0
VERTEX
 8
ZYLINDER_3
 10
21.0881
 20
-1.15
 30
26.5532
 70
192
 0
VERTEX
 8
ZYLINDER_3
 10
21.0881
 20
-1.15
 30
24.1901
 70
192
 0
VERTEX
 8
ZYLINDER_3
 10
21.0881
 20
-1.15
 30
24.6887
 70
192
 0
VERTEX
 8
ZYLINDER_3
 10
21.0881
 20
-1.15
 30
24.0401
 70
192
 0
VERTEX
 8
ZYLINDER_3
 10
21.0881
 20
-1.15
 30
24.5387
 70
192
 0
VERTEX
 8
ZYLINDER_3
 10
21.0881
 20
-1.15
 30
25.5061
 70
192
 0
VERTEX
 8
ZYLINDER_3
 10
21.0881
 20
-1.15
 30
26.0346
 70
192
 0
VERTEX
 8
ZYLINDER_3
 10
21.0881
 20
-1.15
 30
27.0818
 70
192
 0
VERTEX
 8
ZYLINDER_3
 10
21.0881
 20
-1.15
 30
27.5617
 70
192
 0
VERTEX
 8
ZYLINDER_3
 10
21.0881
 20
-1.15
 30
25.6561
 70
192
 0
VERTEX
 8
ZYLINDER_3
 10
21.0881
 20
-1.15
 30
27.2318
 70
192
 0
VERTEX
 8
ZYLINDER_3
 10
21.0881
 20
-1.15
 30
25.1574
 70
192
 0
VERTEX
 8
ZYLINDER_3
 10
21.0881
 20
-1.15
 30
26.1846
 70
192
 0
VERTEX
 8
ZYLINDER_3
 10
21.0881
 20
-1.15
 30
27.7117
 70
192
 0
VERTEX
 8
ZYLINDER_3
 10
21.1616
 20
-1.1303
 30
24.6887
 70
192
 0
VERTEX
 8
ZYLINDER_3
 10
21.4855
 20
-1.0435
 30
24.0401
 70
192
 0
VERTEX
 8
ZYLINDER_3
 10
21.6355
 20
-1.0033
 30
24.1901
 70
192
 0
VERTEX
 8
ZYLINDER_3
 10
21.1616
 20
-1.1303
 30
24.1901
 70
192
 0
VERTEX
 8
ZYLINDER_3
 10
21.1616
 20
-1.1303
 30
25.1574
 70
192
 0
VERTEX
 8
ZYLINDER_3
 10
21.1616
 20
-1.1303
 30
25.0074
 70
192
 0
VERTEX
 8
ZYLINDER_3
 10
21.6355
 20
-1.0033
 30
24.6887
 70
192
 0
VERTEX
 8
ZYLINDER_3
 10
21.4855
 20
-1.0435
 30
24.1901
 70
192
 0
VERTEX
 8
ZYLINDER_3
 10
21.6355
 20
-1.0033
 30
24.0401
 70
192
 0
VERTEX
 8
ZYLINDER_3
 10
21.6355
 20
-1.0033
 30
25.6561
 70
192
 0
VERTEX
 8
ZYLINDER_3
 10
21.6355
 20
-1.0033
 30
25.1574
 70
192
 0
VERTEX
 8
ZYLINDER_3
 10
21.4855
 20
-1.0435
 30
24.5387
 70
192
 0
VERTEX
 8
ZYLINDER_3
 10
21.1616
 20
-1.1303
 30
24.0401
 70
192
 0
VERTEX
 8
ZYLINDER_3
 10
21.1616
 20
-1.1303
 30
25.6561
 70
192
 0
VERTEX
 8
ZYLINDER_3
 10
21.1616
 20
-1.1303
 30
25.5061
 70
192
 0
VERTEX
 8
ZYLINDER_3
 10
21.4855
 20
-1.0435
 30
24.6887
 70
192
 0
VERTEX
 8
ZYLINDER_3
 10
21.6355
 20
-1.0033
 30
24.5387
 70
192
 0
VERTEX
 8
ZYLINDER_3
 10
21.6355
 20
-1.0033
 30
26.1846
 70
192
 0
VERTEX
 8
ZYLINDER_3
 10
21.4855
 20
-1.0435
 30
25.0074
 70
192
 0
VERTEX
 8
ZYLINDER_3
 10
21.4855
 20
-1.0435
 30
25.5061
 70
192
 0
VERTEX
 8
ZYLINDER_3
 10
21.4855
 20
-1.0435
 30
26.0346
 70
192
 0
VERTEX
 8
ZYLINDER_3
 10
21.1616
 20
-1.1303
 30
24.5387
 70
192
 0
VERTEX
 8
ZYLINDER_3
 10
21.1616
 20
-1.1303
 30
26.1846
 70
192
 0
VERTEX
 8
ZYLINDER_3
 10
21.1616
 20
-1.1303
 30
26.0346
 70
192
 0
VERTEX
 8
ZYLINDER_3
 10
21.4855
 20
-1.0435
 30
25.1574
 70
192
 0
VERTEX
 8
ZYLINDER_3
 10
21.6355
 20
-1.0033
 30
25.0074
 70
192
 0
VERTEX
 8
ZYLINDER_3
 10
21.6355
 20
-1.0033
 30
26.7032
 70
192
 0
VERTEX
 8
ZYLINDER_3
 10
21.4855
 20
-1.0435
 30
26.5532
 70
192
 0
VERTEX
 8
ZYLINDER_3
 10
21.6355
 20
-1.0033
 30
26.5532
 70
192
 0
VERTEX
 8
ZYLINDER_3
 10
21.1616
 20
-1.1303
 30
26.7032
 70
192
 0
VERTEX
 8
ZYLINDER_3
 10
21.1616
 20
-1.1303
 30
26.5532
 70
192
 0
VERTEX
 8
ZYLINDER_3
 10
21.4855
 20
-1.0435
 30
25.6561
 70
192
 0
VERTEX
 8
ZYLINDER_3
 10
21.4855
 20
-1.0435
 30
27.2318
 70
192
 0
VERTEX
 8
ZYLINDER_3
 10
21.6355
 20
-1.0033
 30
27.2318
 70
192
 0
VERTEX
 8
ZYLINDER_3
 10
21.6355
 20
-1.0033
 30
25.5061
 70
192
 0
VERTEX
 8
ZYLINDER_3
 10
21.4855
 20
-1.0435
 30
27.0818
 70
192
 0
VERTEX
 8
ZYLINDER_3
 10
21.6355
 20
-1.0033
 30
27.0818
 70
192
 0
VERTEX
 8
ZYLINDER_3
 10
21.1616
 20
-1.1303
 30
27.2318
 70
192
 0
VERTEX
 8
ZYLINDER_3
 10
21.1616
 20
-1.1303
 30
27.0818
 70
192
 0
VERTEX
 8
ZYLINDER_3
 10
21.4855
 20
-1.0435
 30
26.1846
 70
192
 0
VERTEX
 8
ZYLINDER_3
 10
21.4855
 20
-1.0435
 30
27.7117
 70
192
 0
VERTEX
 8
ZYLINDER_3
 10
21.6355
 20
-1.0033
 30
27.7117
 70
192
 0
VERTEX
 8
ZYLINDER_3
 10
21.6355
 20
-1.0033
 30
26.0346
 70
192
 0
VERTEX
 8
ZYLINDER_3
 10
21.4855
 20
-1.0435
 30
27.5617
 70
192
 0
VERTEX
 8
ZYLINDER_3
 10
21.6355
 20
-1.0033
 30
27.5617
 70
192
 0
VERTEX
 8
ZYLINDER_3
 10
21.1616
 20
-1.1303
 30
27.7117
 70
192
 0
VERTEX
 8
ZYLINDER_3
 10
21.1616
 20
-1.1303
 30
27.5617
 70
192
 0
VERTEX
 8
ZYLINDER_3
 10
21.4855
 20
-1.0435
 30
26.7032
 70
192
 0
VERTEX
 8
ZYLINDER_3
 10
20.5316
 20
-1.0009
 30
24.1901
 70
192
 0
VERTEX
 8
ZYLINDER_3
 10
20.6816
 20
-1.0411
 30
24.1901
 70
192
 0
VERTEX
 8
ZYLINDER_3
 10
20.5316
 20
-1.0009
 30
24.0401
 70
192
 0
VERTEX
 8
ZYLINDER_3
 10
20.6816
 20
-1.0411
 30
24.0401
 70
192
 0
VERTEX
 8
ZYLINDER_3
 10
21.0116
 20
-1.1295
 30
24.1901
 70
192
 0
VERTEX
 8
ZYLINDER_3
 10
21.0116
 20
-1.1295
 30
24.0401
 70
192
 0
VERTEX
 8
ZYLINDER_3
 10
20.5316
 20
-1.0009
 30
24.6887
 70
192
 0
VERTEX
 8
ZYLINDER_3
 10
20.6816
 20
-1.0411
 30
24.6887
 70
192
 0
VERTEX
 8
ZYLINDER_3
 10
20.5316
 20
-1.0009
 30
24.5387
 70
192
 0
VERTEX
 8
ZYLINDER_3
 10
20.6816
 20
-1.0411
 30
24.5387
 70
192
 0
VERTEX
 8
ZYLINDER_3
 10
21.0116
 20
-1.1295
 30
24.6887
 70
192
 0
VERTEX
 8
ZYLINDER_3
 10
21.0116
 20
-1.1295
 30
24.5387
 70
192
 0
VERTEX
 8
ZYLINDER_3
 10
20.5316
 20
-1.0009
 30
25.1574
 70
192
 0
VERTEX
 8
ZYLINDER_3
 10
20.6816
 20
-1.0411
 30
25.1574
 70
192
 0
VERTEX
 8
ZYLINDER_3
 10
20.5316
 20
-1.0009
 30
25.0074
 70
192
 0
VERTEX
 8
ZYLINDER_3
 10
20.6816
 20
-1.0411
 30
25.0074
 70
192
 0
VERTEX
 8
ZYLINDER_3
 10
21.0116
 20
-1.1295
 30
25.1574
 70
192
 0
VERTEX
 8
ZYLINDER_3
 10
21.0116
 20
-1.1295
 30
25.0074
 70
192
 0
VERTEX
 8
ZYLINDER_3
 10
20.5316
 20
-1.0009
 30
25.6561
 70
192
 0
VERTEX
 8
ZYLINDER_3
 10
20.6816
 20
-1.0411
 30
25.6561
 70
192
 0
VERTEX
 8
ZYLINDER_3
 10
20.6816
 20
-1.0411
 30
25.5061
 70
192
 0
VERTEX
 8
ZYLINDER_3
 10
20.5316
 20
-1.0009
 30
25.5061
 70
192
 0
VERTEX
 8
ZYLINDER_3
 10
21.0116
 20
-1.1295
 30
25.6561
 70
192
 0
VERTEX
 8
ZYLINDER_3
 10
21.0116
 20
-1.1295
 30
25.5061
 70
192
 0
VERTEX
 8
ZYLINDER_3
 10
20.5316
 20
-1.0009
 30
26.1846
 70
192
 0
VERTEX
 8
ZYLINDER_3
 10
20.6816
 20
-1.0411
 30
26.1846
 70
192
 0
VERTEX
 8
ZYLINDER_3
 10
20.6816
 20
-1.0411
 30
26.0346
 70
192
 0
VERTEX
 8
ZYLINDER_3
 10
20.5316
 20
-1.0009
 30
26.0346
 70
192
 0
VERTEX
 8
ZYLINDER_3
 10
21.0116
 20
-1.1295
 30
26.1846
 70
192
 0
VERTEX
 8
ZYLINDER_3
 10
21.0116
 20
-1.1295
 30
26.0346
 70
192
 0
VERTEX
 8
ZYLINDER_3
 10
20.5316
 20
-1.0009
 30
26.7032
 70
192
 0
VERTEX
 8
ZYLINDER_3
 10
20.6816
 20
-1.0411
 30
26.7032
 70
192
 0
VERTEX
 8
ZYLINDER_3
 10
20.6816
 20
-1.0411
 30
26.5532
 70
192
 0
VERTEX
 8
ZYLINDER_3
 10
20.5316
 20
-1.0009
 30
26.5532
 70
192
 0
VERTEX
 8
ZYLINDER_3
 10
21.0116
 20
-1.1295
 30
26.7032
 70
192
 0
VERTEX
 8
ZYLINDER_3
 10
21.0116
 20
-1.1295
 30
26.5532
 70
192
 0
VERTEX
 8
ZYLINDER_3
 10
20.5316
 20
-1.0009
 30
27.2318
 70
192
 0
VERTEX
 8
ZYLINDER_3
 10
20.5316
 20
-1.0009
 30
27.0818
 70
192
 0
VERTEX
 8
ZYLINDER_3
 10
20.6816
 20
-1.0411
 30
27.2318
 70
192
 0
VERTEX
 8
ZYLINDER_3
 10
20.6816
 20
-1.0411
 30
27.0818
 70
192
 0
VERTEX
 8
ZYLINDER_3
 10
21.0116
 20
-1.1295
 30
27.2318
 70
192
 0
VERTEX
 8
ZYLINDER_3
 10
21.0116
 20
-1.1295
 30
27.0818
 70
192
 0
VERTEX
 8
ZYLINDER_3
 10
20.5316
 20
-1.0009
 30
27.7117
 70
192
 0
VERTEX
 8
ZYLINDER_3
 10
20.5316
 20
-1.0009
 30
27.5617
 70
192
 0
VERTEX
 8
ZYLINDER_3
 10
20.6816
 20
-1.0411
 30
27.7117
 70
192
 0
VERTEX
 8
ZYLINDER_3
 10
20.6816
 20
-1.0411
 30
27.5617
 70
192
 0
VERTEX
 8
ZYLINDER_3
 10
21.0116
 20
-1.1295
 30
27.7117
 70
192
 0
VERTEX
 8
ZYLINDER_3
 10
21.0116
 20
-1.1295
 30
27.5617
 70
192
 0
VERTEX
 8
ZYLINDER_3
 10
0
 20
0
 30
0
 70
128
 71
1
 72
3
 73
5
 74
5
 0
VERTEX
 8
ZYLINDER_3
 10
0
 20
0
 30
0
 70
128
 71
54
 72
59
 73
45
 74
50
 0
VERTEX
 8
ZYLINDER_3
 10
0
 20
0
 30
0
 70
128
 71
41
 72
29
 73
73
 74
73
 0
VERTEX
 8
ZYLINDER_3
 10
0
 20
0
 30
0
 70
128
 71
5
 72
3
 73
32
 74
55
 0
VERTEX
 8
ZYLINDER_3
 10
0
 20
0
 30
0
 70
128
 71
46
 72
30
 73
33
 74
33
 0
VERTEX
 8
ZYLINDER_3
 10
0
 20
0
 30
0
 70
128
 71
43
 72
31
 73
27
 74
48
 0
VERTEX
 8
ZYLINDER_3
 10
0
 20
0
 30
0
 70
128
 71
39
 72
37
 73
89
 74
89
 0
VERTEX
 8
ZYLINDER_3
 10
0
 20
0
 30
0
 70
128
 71
44
 72
51
 73
5
 74
5
 0
VERTEX
 8
ZYLINDER_3
 10
0
 20
0
 30
0
 70
128
 71
5
 72
51
 73
45
 74
45
 0
VERTEX
 8
ZYLINDER_3
 10
0
 20
0
 30
0
 70
128
 71
45
 72
59
 73
5
 74
5
 0
VERTEX
 8
ZYLINDER_3
 10
0
 20
0
 30
0
 70
128
 71
60
 72
71
 73
5
 74
5
 0
VERTEX
 8
ZYLINDER_3
 10
0
 20
0
 30
0
 70
128
 71
79
 72
76
 73
6
 74
5
 0
VERTEX
 8
ZYLINDER_3
 10
0
 20
0
 30
0
 70
128
 71
88
 72
42
 73
4
 74
6
 0
VERTEX
 8
ZYLINDER_3
 10
0
 20
0
 30
0
 70
128
 71
38
 72
35
 73
66
 74
56
 0
VERTEX
 8
ZYLINDER_3
 10
0
 20
0
 30
0
 70
128
 71
72
 72
28
 73
36
 74
81
 0
VERTEX
 8
ZYLINDER_3
 10
0
 20
0
 30
0
 70
128
 71
46
 72
33
 73
64
 74
5
 0
VERTEX
 8
ZYLINDER_3
 10
0
 20
0
 30
0
 70
128
 71
47
 72
40
 73
34
 74
57
 0
VERTEX
 8
ZYLINDER_3
 10
0
 20
0
 30
0
 70
128
 71
80
 72
39
 73
89
 74
6
 0
VERTEX
 8
ZYLINDER_3
 10
0
 20
0
 30
0
 70
128
 71
85
 72
52
 73
74
 74
63
 0
VERTEX
 8
ZYLINDER_3
 10
0
 20
0
 30
0
 70
128
 71
79
 72
69
 73
90
 74
78
 0
VERTEX
 8
ZYLINDER_3
 10
0
 20
0
 30
0
 70
128
 71
70
 72
71
 73
60
 74
82
 0
VERTEX
 8
ZYLINDER_3
 10
0
 20
0
 30
0
 70
128
 71
62
 72
77
 73
53
 74
67
 0
VERTEX
 8
ZYLINDER_3
 10
0
 20
0
 30
0
 70
128
 71
86
 72
87
 73
76
 74
75
 0
VERTEX
 8
ZYLINDER_3
 10
0
 20
0
 30
0
 70
128
 71
61
 72
68
 73
49
 74
58
 0
VERTEX
 8
ZYLINDER_3
 10
0
 20
0
 30
0
 70
128
 71
52
 72
60
 73
5
 74
5
 0
VERTEX
 8
ZYLINDER_3
 10
0
 20
0
 30
0
 70
128
 71
76
 72
87
 73
6
 74
6
 0
VERTEX
 8
ZYLINDER_3
 10
0
 20
0
 30
0
 70
128
 71
89
 72
88
 73
6
 74
6
 0
VERTEX
 8
ZYLINDER_3
 10
0
 20
0
 30
0
 70
128
 71
5
 72
55
 73
46
 74
46
 0
VERTEX
 8
ZYLINDER_3
 10
0
 20
0
 30
0
 70
128
 71
5
 72
59
 73
49
 74
49
 0
VERTEX
 8
ZYLINDER_3
 10
0
 20
0
 30
0
 70
128
 71
54
 72
50
 73
66
 74
66
 0
VERTEX
 8
ZYLINDER_3
 10
0
 20
0
 30
0
 70
128
 71
64
 72
43
 73
5
 74
5
 0
VERTEX
 8
ZYLINDER_3
 10
0
 20
0
 30
0
 70
128
 71
72
 72
81
 73
6
 74
6
 0
VERTEX
 8
ZYLINDER_3
 10
0
 20
0
 30
0
 70
128
 71
66
 72
65
 73
83
 74
75
 0
VERTEX
 8
ZYLINDER_3
 10
0
 20
0
 30
0
 70
128
 71
49
 72
52
 73
5
 74
5
 0
VERTEX
 8
ZYLINDER_3
 10
0
 20
0
 30
0
 70
128
 71
5
 72
71
 73
69
 74
69
 0
VERTEX
 8
ZYLINDER_3
 10
0
 20
0
 30
0
 70
128
 71
48
 72
57
 73
44
 74
5
 0
VERTEX
 8
ZYLINDER_3
 10
0
 20
0
 30
0
 70
128
 71
41
 72
73
 73
83
 74
65
 0
VERTEX
 8
ZYLINDER_3
 10
0
 20
0
 30
0
 70
128
 71
81
 72
80
 73
6
 74
6
 0
VERTEX
 8
ZYLINDER_3
 10
0
 20
0
 30
0
 70
128
 71
5
 72
43
 73
48
 74
48
 0
VERTEX
 8
ZYLINDER_3
 10
0
 20
0
 30
0
 70
128
 71
5
 72
69
 73
79
 74
79
 0
VERTEX
 8
ZYLINDER_3
 10
0
 20
0
 30
0
 70
128
 71
57
 72
56
 73
44
 74
44
 0
VERTEX
 8
ZYLINDER_3
 10
0
 20
0
 30
0
 70
128
 71
73
 72
72
 73
6
 74
83
 0
VERTEX
 8
ZYLINDER_3
 10
0
 20
0
 30
0
 70
128
 71
6
 72
87
 73
84
 74
84
 0
VERTEX
 8
ZYLINDER_3
 10
0
 20
0
 30
0
 70
128
 71
6
 72
84
 73
83
 74
83
 0
VERTEX
 8
ZYLINDER_3
 10
0
 20
0
 30
0
 70
128
 71
44
 72
56
 73
66
 74
50
 0
VERTEX
 8
ZYLINDER_3
 10
0
 20
0
 30
0
 70
128
 71
75
 72
78
 73
66
 74
66
 0
VERTEX
 8
ZYLINDER_3
 10
0
 20
0
 30
0
 70
128
 71
54
 72
66
 73
78
 74
78
 0
VERTEX
 8
ZYLINDER_3
 10
0
 20
0
 30
0
 70
128
 71
4
 72
2
 73
6
 74
6
 0
VERTEX
 8
ZYLINDER_3
 10
0
 20
0
 30
0
 70
128
 71
1
 72
5
 73
7
 74
7
 0
VERTEX
 8
ZYLINDER_3
 10
0
 20
0
 30
0
 70
128
 71
5
 72
6
 73
8
 74
7
 0
VERTEX
 8
ZYLINDER_3
 10
0
 20
0
 30
0
 70
128
 71
6
 72
2
 73
8
 74
8
 0
VERTEX
 8
ZYLINDER_3
 10
0
 20
0
 30
0
 70
128
 71
1
 72
7
 73
9
 74
9
 0
VERTEX
 8
ZYLINDER_3
 10
0
 20
0
 30
0
 70
128
 71
7
 72
8
 73
10
 74
9
 0
VERTEX
 8
ZYLINDER_3
 10
0
 20
0
 30
0
 70
128
 71
8
 72
2
 73
10
 74
10
 0
VERTEX
 8
ZYLINDER_3
 10
0
 20
0
 30
0
 70
128
 71
1
 72
9
 73
11
 74
11
 0
VERTEX
 8
ZYLINDER_3
 10
0
 20
0
 30
0
 70
128
 71
9
 72
10
 73
12
 74
11
 0
VERTEX
 8
ZYLINDER_3
 10
0
 20
0
 30
0
 70
128
 71
10
 72
2
 73
12
 74
12
 0
VERTEX
 8
ZYLINDER_3
 10
0
 20
0
 30
0
 70
128
 71
1
 72
11
 73
13
 74
13
 0
VERTEX
 8
ZYLINDER_3
 10
0
 20
0
 30
0
 70
128
 71
11
 72
12
 73
14
 74
13
 0
VERTEX
 8
ZYLINDER_3
 10
0
 20
0
 30
0
 70
128
 71
12
 72
2
 73
14
 74
14
 0
VERTEX
 8
ZYLINDER_3
 10
0
 20
0
 30
0
 70
128
 71
1
 72
13
 73
15
 74
15
 0
VERTEX
 8
ZYLINDER_3
 10
0
 20
0
 30
0
 70
128
 71
13
 72
14
 73
16
 74
15
 0
VERTEX
 8
ZYLINDER_3
 10
0
 20
0
 30
0
 70
128
 71
14
 72
2
 73
16
 74
16
 0
VERTEX
 8
ZYLINDER_3
 10
0
 20
0
 30
0
 70
128
 71
1
 72
15
 73
17
 74
17
 0
VERTEX
 8
ZYLINDER_3
 10
0
 20
0
 30
0
 70
128
 71
15
 72
16
 73
18
 74
17
 0
VERTEX
 8
ZYLINDER_3
 10
0
 20
0
 30
0
 70
128
 71
16
 72
2
 73
18
 74
18
 0
VERTEX
 8
ZYLINDER_3
 10
0
 20
0
 30
0
 70
128
 71
1
 72
17
 73
19
 74
19
 0
VERTEX
 8
ZYLINDER_3
 10
0
 20
0
 30
0
 70
128
 71
17
 72
18
 73
20
 74
19
 0
VERTEX
 8
ZYLINDER_3
 10
0
 20
0
 30
0
 70
128
 71
18
 72
2
 73
20
 74
20
 0
VERTEX
 8
ZYLINDER_3
 10
0
 20
0
 30
0
 70
128
 71
1
 72
19
 73
21
 74
21
 0
VERTEX
 8
ZYLINDER_3
 10
0
 20
0
 30
0
 70
128
 71
19
 72
20
 73
22
 74
21
 0
VERTEX
 8
ZYLINDER_3
 10
0
 20
0
 30
0
 70
128
 71
20
 72
2
 73
22
 74
22
 0
VERTEX
 8
ZYLINDER_3
 10
0
 20
0
 30
0
 70
128
 71
1
 72
21
 73
23
 74
23
 0
VERTEX
 8
ZYLINDER_3
 10
0
 20
0
 30
0
 70
128
 71
21
 72
22
 73
24
 74
23
 0
VERTEX
 8
ZYLINDER_3
 10
0
 20
0
 30
0
 70
128
 71
22
 72
2
 73
24
 74
24
 0
VERTEX
 8
ZYLINDER_3
 10
0
 20
0
 30
0
 70
128
 71
1
 72
23
 73
25
 74
25
 0
VERTEX
 8
ZYLINDER_3
 10
0
 20
0
 30
0
 70
128
 71
23
 72
24
 73
26
 74
25
 0
VERTEX
 8
ZYLINDER_3
 10
0
 20
0
 30
0
 70
128
 71
24
 72
2
 73
26
 74
26
 0
VERTEX
 8
ZYLINDER_3
 10
0
 20
0
 30
0
 70
128
 71
1
 72
25
 73
3
 74
3
 0
VERTEX
 8
ZYLINDER_3
 10
0
 20
0
 30
0
 70
128
 71
134
 72
136
 73
129
 74
127
 0
VERTEX
 8
ZYLINDER_3
 10
0
 20
0
 30
0
 70
128
 71
114
 72
111
 73
110
 74
110
 0
VERTEX
 8
ZYLINDER_3
 10
0
 20
0
 30
0
 70
128
 71
132
 72
36
 73
28
 74
28
 0
VERTEX
 8
ZYLINDER_3
 10
0
 20
0
 30
0
 70
128
 71
125
 72
126
 73
122
 74
128
 0
VERTEX
 8
ZYLINDER_3
 10
0
 20
0
 30
0
 70
128
 71
126
 72
29
 73
41
 74
41
 0
VERTEX
 8
ZYLINDER_3
 10
0
 20
0
 30
0
 70
128
 71
120
 72
35
 73
38
 74
38
 0
VERTEX
 8
ZYLINDER_3
 10
0
 20
0
 30
0
 70
128
 71
132
 72
130
 73
129
 74
131
 0
VERTEX
 8
ZYLINDER_3
 10
0
 20
0
 30
0
 70
128
 71
102
 72
33
 73
30
 74
30
 0
VERTEX
 8
ZYLINDER_3
 10
0
 20
0
 30
0
 70
128
 71
114
 72
34
 73
40
 74
40
 0
VERTEX
 8
ZYLINDER_3
 10
0
 20
0
 30
0
 70
128
 71
108
 72
27
 73
31
 74
101
 0
VERTEX
 8
ZYLINDER_3
 10
0
 20
0
 30
0
 70
128
 71
101
 72
102
 73
100
 74
100
 0
VERTEX
 8
ZYLINDER_3
 10
0
 20
0
 30
0
 70
128
 71
96
 72
94
 73
92
 74
92
 0
VERTEX
 8
ZYLINDER_3
 10
0
 20
0
 30
0
 70
128
 71
105
 72
106
 73
98
 74
97
 0
VERTEX
 8
ZYLINDER_3
 10
0
 20
0
 30
0
 70
128
 71
138
 72
37
 73
39
 74
131
 0
VERTEX
 8
ZYLINDER_3
 10
0
 20
0
 30
0
 70
128
 71
128
 72
130
 73
125
 74
125
 0
VERTEX
 8
ZYLINDER_3
 10
0
 20
0
 30
0
 70
128
 71
96
 72
32
 73
3
 74
25
 0
VERTEX
 8
ZYLINDER_3
 10
0
 20
0
 30
0
 70
128
 71
26
 72
4
 73
42
 74
137
 0
VERTEX
 8
ZYLINDER_3
 10
0
 20
0
 30
0
 70
128
 71
120
 72
38
 73
113
 74
117
 0
VERTEX
 8
ZYLINDER_3
 10
0
 20
0
 30
0
 70
128
 71
123
 72
126
 73
41
 74
119
 0
VERTEX
 8
ZYLINDER_3
 10
0
 20
0
 30
0
 70
128
 71
100
 72
102
 73
30
 74
95
 0
VERTEX
 8
ZYLINDER_3
 10
0
 20
0
 30
0
 70
128
 71
111
 72
114
 73
40
 74
40
 0
VERTEX
 8
ZYLINDER_3
 10
0
 20
0
 30
0
 70
128
 71
126
 72
123
 73
122
 74
122
 0
VERTEX
 8
ZYLINDER_3
 10
0
 20
0
 30
0
 70
128
 71
95
 72
96
 73
99
 74
100
 0
VERTEX
 8
ZYLINDER_3
 10
0
 20
0
 30
0
 70
128
 71
113
 72
114
 73
118
 74
117
 0
VERTEX
 8
ZYLINDER_3
 10
0
 20
0
 30
0
 70
128
 71
120
 72
117
 73
116
 74
116
 0
VERTEX
 8
ZYLINDER_3
 10
0
 20
0
 30
0
 70
128
 71
101
 72
100
 73
98
 74
108
 0
VERTEX
 8
ZYLINDER_3
 10
0
 20
0
 30
0
 70
128
 71
94
 72
96
 73
25
 74
25
 0
VERTEX
 8
ZYLINDER_3
 10
0
 20
0
 30
0
 70
128
 71
98
 72
106
 73
108
 74
108
 0
VERTEX
 8
ZYLINDER_3
 10
0
 20
0
 30
0
 70
128
 71
132
 72
28
 73
125
 74
130
 0
VERTEX
 8
ZYLINDER_3
 10
0
 20
0
 30
0
 70
128
 71
26
 72
137
 73
138
 74
135
 0
VERTEX
 8
ZYLINDER_3
 10
0
 20
0
 30
0
 70
128
 71
134
 72
127
 73
26
 74
26
 0
VERTEX
 8
ZYLINDER_3
 10
0
 20
0
 30
0
 70
128
 71
107
 72
108
 73
104
 74
112
 0
VERTEX
 8
ZYLINDER_3
 10
0
 20
0
 30
0
 70
128
 71
93
 72
94
 73
25
 74
25
 0
VERTEX
 8
ZYLINDER_3
 10
0
 20
0
 30
0
 70
128
 71
124
 72
123
 73
119
 74
119
 0
VERTEX
 8
ZYLINDER_3
 10
0
 20
0
 30
0
 70
128
 71
138
 72
131
 73
129
 74
136
 0
VERTEX
 8
ZYLINDER_3
 10
0
 20
0
 30
0
 70
128
 71
108
 72
106
 73
104
 74
104
 0
VERTEX
 8
ZYLINDER_3
 10
0
 20
0
 30
0
 70
128
 71
99
 72
96
 73
92
 74
92
 0
VERTEX
 8
ZYLINDER_3
 10
0
 20
0
 30
0
 70
128
 71
111
 72
40
 73
107
 74
112
 0
VERTEX
 8
ZYLINDER_3
 10
0
 20
0
 30
0
 70
128
 71
138
 72
136
 73
135
 74
135
 0
VERTEX
 8
ZYLINDER_3
 10
0
 20
0
 30
0
 70
128
 71
118
 72
114
 73
110
 74
110
 0
VERTEX
 8
ZYLINDER_3
 10
0
 20
0
 30
0
 70
128
 71
128
 72
122
 73
121
 74
121
 0
VERTEX
 8
ZYLINDER_3
 10
0
 20
0
 30
0
 70
128
 71
99
 72
92
 73
91
 74
91
 0
VERTEX
 8
ZYLINDER_3
 10
0
 20
0
 30
0
 70
128
 71
124
 72
119
 73
120
 74
116
 0
VERTEX
 8
ZYLINDER_3
 10
0
 20
0
 30
0
 70
128
 71
91
 72
93
 73
25
 74
25
 0
VERTEX
 8
ZYLINDER_3
 10
0
 20
0
 30
0
 70
128
 71
118
 72
110
 73
109
 74
109
 0
VERTEX
 8
ZYLINDER_3
 10
0
 20
0
 30
0
 70
128
 71
124
 72
116
 73
115
 74
115
 0
VERTEX
 8
ZYLINDER_3
 10
0
 20
0
 30
0
 70
128
 71
112
 72
104
 73
103
 74
103
 0
VERTEX
 8
ZYLINDER_3
 10
0
 20
0
 30
0
 70
128
 71
91
 72
25
 73
99
 74
99
 0
VERTEX
 8
ZYLINDER_3
 10
0
 20
0
 30
0
 70
128
 71
97
 72
99
 73
25
 74
25
 0
VERTEX
 8
ZYLINDER_3
 10
0
 20
0
 30
0
 70
128
 71
26
 72
135
 73
133
 74
133
 0
VERTEX
 8
ZYLINDER_3
 10
0
 20
0
 30
0
 70
128
 71
105
 72
97
 73
25
 74
26
 0
VERTEX
 8
ZYLINDER_3
 10
0
 20
0
 30
0
 70
128
 71
118
 72
109
 73
26
 74
26
 0
VERTEX
 8
ZYLINDER_3
 10
0
 20
0
 30
0
 70
128
 71
112
 72
103
 73
26
 74
26
 0
VERTEX
 8
ZYLINDER_3
 10
0
 20
0
 30
0
 70
128
 71
26
 72
133
 73
134
 74
134
 0
VERTEX
 8
ZYLINDER_3
 10
0
 20
0
 30
0
 70
128
 71
103
 72
105
 73
26
 74
26
 0
VERTEX
 8
ZYLINDER_3
 10
0
 20
0
 30
0
 70
128
 71
127
 72
128
 73
26
 74
26
 0
VERTEX
 8
ZYLINDER_3
 10
0
 20
0
 30
0
 70
128
 71
26
 72
128
 73
115
 74
115
 0
VERTEX
 8
ZYLINDER_3
 10
0
 20
0
 30
0
 70
128
 71
109
 72
112
 73
26
 74
26
 0
VERTEX
 8
ZYLINDER_3
 10
0
 20
0
 30
0
 70
128
 71
115
 72
118
 73
26
 74
26
 0
VERTEX
 8
ZYLINDER_3
 10
0
 20
0
 30
0
 70
128
 71
26
 72
2
 73
4
 74
4
 0
SEQEND
 0
POLYLINE
 8
ZYLIND2_2
 66
1
 10
0.0
 20
0.0
 30
0.0
 70
64
 71
62
 72
45
 0
VERTEX
 8
ZYLIND2_2
 10
6.6926
 20
-0.0143
 30
8.9744
 70
192
 0
VERTEX
 8
ZYLIND2_2
 10
6.6926
 20
-0.0143
 30
9.5744
 70
192
 0
VERTEX
 8
ZYLIND2_2
 10
6.6926
 20
-2.6143
 30
8.9744
 70
192
 0
VERTEX
 8
ZYLIND2_2
 10
6.6926
 20
-2.6143
 30
8.9744
 70
192
 0
VERTEX
 8
ZYLIND2_2
 10
6.6926
 20
-2.6143
 30
9.5744
 70
192
 0
VERTEX
 8
ZYLIND2_2
 10
6.6926
 20
-2.6143
 30
9.5744
 70
192
 0
VERTEX
 8
ZYLIND2_2
 10
7.7501
 20
-2.3896
 30
8.9744
 70
192
 0
VERTEX
 8
ZYLIND2_2
 10
7.7501
 20
-2.3896
 30
8.9744
 70
192
 0
VERTEX
 8
ZYLIND2_2
 10
7.7501
 20
-2.3896
 30
9.5744
 70
192
 0
VERTEX
 8
ZYLIND2_2
 10
7.7501
 20
-2.3896
 30
9.5744
 70
192
 0
VERTEX
 8
ZYLIND2_2
 10
8.6247
 20
-1.7541
 30
8.9744
 70
192
 0
VERTEX
 8
ZYLIND2_2
 10
8.6247
 20
-1.7541
 30
8.9744
 70
192
 0
VERTEX
 8
ZYLIND2_2
 10
8.6247
 20
-1.7541
 30
9.5744
 70
192
 0
VERTEX
 8
ZYLIND2_2
 10
8.6247
 20
-1.7541
 30
9.5744
 70
192
 0
VERTEX
 8
ZYLIND2_2
 10
9.1653
 20
-0.8178
 30
8.9744
 70
192
 0
VERTEX
 8
ZYLIND2_2
 10
9.1653
 20
-0.8178
 30
8.9744
 70
192
 0
VERTEX
 8
ZYLIND2_2
 10
9.1653
 20
-0.8178
 30
9.5744
 70
192
 0
VERTEX
 8
ZYLIND2_2
 10
9.1653
 20
-0.8178
 30
9.5744
 70
192
 0
VERTEX
 8
ZYLIND2_2
 10
9.2783
 20
0.2574
 30
8.9744
 70
192
 0
VERTEX
 8
ZYLIND2_2
 10
9.2783
 20
0.2574
 30
8.9744
 70
192
 0
VERTEX
 8
ZYLIND2_2
 10
9.2783
 20
0.2574
 30
9.5744
 70
192
 0
VERTEX
 8
ZYLIND2_2
 10
9.2783
 20
0.2574
 30
9.5744
 70
192
 0
VERTEX
 8
ZYLIND2_2
 10
8.9442
 20
1.2857
 30
8.9744
 70
192
 0
VERTEX
 8
ZYLIND2_2
 10
8.9442
 20
1.2857
 30
8.9744
 70
192
 0
VERTEX
 8
ZYLIND2_2
 10
8.9442
 20
1.2857
 30
9.5744
 70
192
 0
VERTEX
 8
ZYLIND2_2
 10
8.9442
 20
1.2857
 30
9.5744
 70
192
 0
VERTEX
 8
ZYLIND2_2
 10
8.2208
 20
2.0891
 30
8.9744
 70
192
 0
VERTEX
 8
ZYLIND2_2
 10
8.2208
 20
2.0891
 30
8.9744
 70
192
 0
VERTEX
 8
ZYLIND2_2
 10
8.2208
 20
2.0891
 30
9.5744
 70
192
 0
VERTEX
 8
ZYLIND2_2
 10
8.2208
 20
2.0891
 30
9.5744
 70
192
 0
VERTEX
 8
ZYLIND2_2
 10
7.2331
 20
2.5288
 30
8.9744
 70
192
 0
VERTEX
 8
ZYLIND2_2
 10
7.2331
 20
2.5288
 30
8.9744
 70
192
 0
VERTEX
 8
ZYLIND2_2
 10
7.2331
 20
2.5288
 30
9.5744
 70
192
 0
VERTEX
 8
ZYLIND2_2
 10
7.2331
 20
2.5288
 30
9.5744
 70
192
 0
VERTEX
 8
ZYLIND2_2
 10
6.152
 20
2.5288
 30
8.9744
 70
192
 0
VERTEX
 8
ZYLIND2_2
 10
6.152
 20
2.5288
 30
8.9744
 70
192
 0
VERTEX
 8
ZYLIND2_2
 10
6.152
 20
2.5288
 30
9.5744
 70
192
 0
VERTEX
 8
ZYLIND2_2
 10
6.152
 20
2.5288
 30
9.5744
 70
192
 0
VERTEX
 8
ZYLIND2_2
 10
5.1643
 20
2.0891
 30
8.9744
 70
192
 0
VERTEX
 8
ZYLIND2_2
 10
5.1643
 20
2.0891
 30
8.9744
 70
192
 0
VERTEX
 8
ZYLIND2_2
 10
5.1643
 20
2.0891
 30
9.5744
 70
192
 0
VERTEX
 8
ZYLIND2_2
 10
5.1643
 20
2.0891
 30
9.5744
 70
192
 0
VERTEX
 8
ZYLIND2_2
 10
4.4409
 20
1.2857
 30
8.9744
 70
192
 0
VERTEX
 8
ZYLIND2_2
 10
4.4409
 20
1.2857
 30
8.9744
 70
192
 0
VERTEX
 8
ZYLIND2_2
 10
4.4409
 20
1.2857
 30
9.5744
 70
192
 0
VERTEX
 8
ZYLIND2_2
 10
4.4409
 20
1.2857
 30
9.5744
 70
192
 0
VERTEX
 8
ZYLIND2_2
 10
4.1068
 20
0.2574
 30
8.9744
 70
192
 0
VERTEX
 8
ZYLIND2_2
 10
4.1068
 20
0.2574
 30
8.9744
 70
192
 0
VERTEX
 8
ZYLIND2_2
 10
4.1068
 20
0.2574
 30
9.5744
 70
192
 0
VERTEX
 8
ZYLIND2_2
 10
4.1068
 20
0.2574
 30
9.5744
 70
192
 0
VERTEX
 8
ZYLIND2_2
 10
4.2198
 20
-0.8178
 30
8.9744
 70
192
 0
VERTEX
 8
ZYLIND2_2
 10
4.2198
 20
-0.8178
 30
8.9744
 70
192
 0
VERTEX
 8
ZYLIND2_2
 10
4.2198
 20
-0.8178
 30
9.5744
 70
192
 0
VERTEX
 8
ZYLIND2_2
 10
4.2198
 20
-0.8178
 30
9.5744
 70
192
 0
VERTEX
 8
ZYLIND2_2
 10
4.7604
 20
-1.7541
 30
8.9744
 70
192
 0
VERTEX
 8
ZYLIND2_2
 10
4.7604
 20
-1.7541
 30
8.9744
 70
192
 0
VERTEX
 8
ZYLIND2_2
 10
4.7604
 20
-1.7541
 30
9.5744
 70
192
 0
VERTEX
 8
ZYLIND2_2
 10
4.7604
 20
-1.7541
 30
9.5744
 70
192
 0
VERTEX
 8
ZYLIND2_2
 10
5.635
 20
-2.3896
 30
8.9744
 70
192
 0
VERTEX
 8
ZYLIND2_2
 10
5.635
 20
-2.3896
 30
8.9744
 70
192
 0
VERTEX
 8
ZYLIND2_2
 10
5.635
 20
-2.3896
 30
9.5744
 70
192
 0
VERTEX
 8
ZYLIND2_2
 10
5.635
 20
-2.3896
 30
9.5744
 70
192
 0
VERTEX
 8
ZYLIND2_2
 10
0
 20
0
 30
0
 70
128
 71
1
 72
3
 73
7
 74
7
 0
VERTEX
 8
ZYLIND2_2
 10
0
 20
0
 30
0
 70
128
 71
4
 72
5
 73
9
 74
8
 0
VERTEX
 8
ZYLIND2_2
 10
0
 20
0
 30
0
 70
128
 71
6
 72
2
 73
10
 74
10
 0
VERTEX
 8
ZYLIND2_2
 10
0
 20
0
 30
0
 70
128
 71
1
 72
7
 73
11
 74
11
 0
VERTEX
 8
ZYLIND2_2
 10
0
 20
0
 30
0
 70
128
 71
8
 72
9
 73
13
 74
12
 0
VERTEX
 8
ZYLIND2_2
 10
0
 20
0
 30
0
 70
128
 71
10
 72
2
 73
14
 74
14
 0
VERTEX
 8
ZYLIND2_2
 10
0
 20
0
 30
0
 70
128
 71
1
 72
11
 73
15
 74
15
 0
VERTEX
 8
ZYLIND2_2
 10
0
 20
0
 30
0
 70
128
 71
12
 72
13
 73
17
 74
16
 0
VERTEX
 8
ZYLIND2_2
 10
0
 20
0
 30
0
 70
128
 71
14
 72
2
 73
18
 74
18
 0
VERTEX
 8
ZYLIND2_2
 10
0
 20
0
 30
0
 70
128
 71
1
 72
15
 73
19
 74
19
 0
VERTEX
 8
ZYLIND2_2
 10
0
 20
0
 30
0
 70
128
 71
16
 72
17
 73
21
 74
20
 0
VERTEX
 8
ZYLIND2_2
 10
0
 20
0
 30
0
 70
128
 71
18
 72
2
 73
22
 74
22
 0
VERTEX
 8
ZYLIND2_2
 10
0
 20
0
 30
0
 70
128
 71
1
 72
19
 73
23
 74
23
 0
VERTEX
 8
ZYLIND2_2
 10
0
 20
0
 30
0
 70
128
 71
20
 72
21
 73
25
 74
24
 0
VERTEX
 8
ZYLIND2_2
 10
0
 20
0
 30
0
 70
128
 71
22
 72
2
 73
26
 74
26
 0
VERTEX
 8
ZYLIND2_2
 10
0
 20
0
 30
0
 70
128
 71
1
 72
23
 73
27
 74
27
 0
VERTEX
 8
ZYLIND2_2
 10
0
 20
0
 30
0
 70
128
 71
24
 72
25
 73
29
 74
28
 0
VERTEX
 8
ZYLIND2_2
 10
0
 20
0
 30
0
 70
128
 71
26
 72
2
 73
30
 74
30
 0
VERTEX
 8
ZYLIND2_2
 10
0
 20
0
 30
0
 70
128
 71
1
 72
27
 73
31
 74
31
 0
VERTEX
 8
ZYLIND2_2
 10
0
 20
0
 30
0
 70
128
 71
28
 72
29
 73
33
 74
32
 0
VERTEX
 8
ZYLIND2_2
 10
0
 20
0
 30
0
 70
128
 71
30
 72
2
 73
34
 74
34
 0
VERTEX
 8
ZYLIND2_2
 10
0
 20
0
 30
0
 70
128
 71
1
 72
31
 73
35
 74
35
 0
VERTEX
 8
ZYLIND2_2
 10
0
 20
0
 30
0
 70
128
 71
32
 72
33
 73
37
 74
36
 0
VERTEX
 8
ZYLIND2_2
 10
0
 20
0
 30
0
 70
128
 71
34
 72
2
 73
38
 74
38
 0
VERTEX
 8
ZYLIND2_2
 10
0
 20
0
 30
0
 70
128
 71
1
 72
35
 73
39
 74
39
 0
VERTEX
 8
ZYLIND2_2
 10
0
 20
0
 30
0
 70
128
 71
36
 72
37
 73
41
 74
40
 0
VERTEX
 8
ZYLIND2_2
 10
0
 20
0
 30
0
 70
128
 71
38
 72
2
 73
42
 74
42
 0
VERTEX
 8
ZYLIND2_2
 10
0
 20
0
 30
0
 70
128
 71
1
 72
39
 73
43
 74
43
 0
VERTEX
 8
ZYLIND2_2
 10
0
 20
0
 30
0
 70
128
 71
40
 72
41
 73
45
 74
44
 0
VERTEX
 8
ZYLIND2_2
 10
0
 20
0
 30
0
 70
128
 71
42
 72
2
 73
46
 74
46
 0
VERTEX
 8
ZYLIND2_2
 10
0
 20
0
 30
0
 70
128
 71
1
 72
43
 73
47
 74
47
 0
VERTEX
 8
ZYLIND2_2
 10
0
 20
0
 30
0
 70
128
 71
44
 72
45
 73
49
 74
48
 0
VERTEX
 8
ZYLIND2_2
 10
0
 20
0
 30
0
 70
128
 71
46
 72
2
 73
50
 74
50
 0
VERTEX
 8
ZYLIND2_2
 10
0
 20
0
 30
0
 70
128
 71
1
 72
47
 73
51
 74
51
 0
VERTEX
 8
ZYLIND2_2
 10
0
 20
0
 30
0
 70
128
 71
48
 72
49
 73
53
 74
52
 0
VERTEX
 8
ZYLIND2_2
 10
0
 20
0
 30
0
 70
128
 71
50
 72
2
 73
54
 74
54
 0
VERTEX
 8
ZYLIND2_2
 10
0
 20
0
 30
0
 70
128
 71
1
 72
51
 73
55
 74
55
 0
VERTEX
 8
ZYLIND2_2
 10
0
 20
0
 30
0
 70
128
 71
52
 72
53
 73
57
 74
56
 0
VERTEX
 8
ZYLIND2_2
 10
0
 20
0
 30
0
 70
128
 71
54
 72
2
 73
58
 74
58
 0
VERTEX
 8
ZYLIND2_2
 10
0
 20
0
 30
0
 70
128
 71
1
 72
55
 73
59
 74
59
 0
VERTEX
 8
ZYLIND2_2
 10
0
 20
0
 30
0
 70
128
 71
56
 72
57
 73
61
 74
60
 0
VERTEX
 8
ZYLIND2_2
 10
0
 20
0
 30
0
 70
128
 71
58
 72
2
 73
62
 74
62
 0
VERTEX
 8
ZYLIND2_2
 10
0
 20
0
 30
0
 70
128
 71
1
 72
59
 73
3
 74
3
 0
VERTEX
 8
ZYLIND2_2
 10
0
 20
0
 30
0
 70
128
 71
60
 72
61
 73
5
 74
4
 0
VERTEX
 8
ZYLIND2_2
 10
0
 20
0
 30
0
 70
128
 71
62
 72
2
 73
6
 74
6
 0
SEQEND
 0
POLYLINE
 8
ZYLINDER_2
 66
1
 10
0.0
 20
0.0
 30
0.0
 70
64
 71
12
 72
6
 0
VERTEX
 8
ZYLINDER_2
 10
6.6926
 20
-0.4643
 30
9.2392
 70
192
 0
VERTEX
 8
ZYLINDER_2
 10
6.6926
 20
-0.4643
 30
11.0254
 70
192
 0
VERTEX
 8
ZYLINDER_2
 10
7.0823
 20
-0.2393
 30
9.2392
 70
192
 0
VERTEX
 8
ZYLINDER_2
 10
7.0823
 20
-0.2393
 30
11.0254
 70
192
 0
VERTEX
 8
ZYLINDER_2
 10
7.0823
 20
0.2107
 30
9.2392
 70
192
 0
VERTEX
 8
ZYLINDER_2
 10
7.0823
 20
0.2107
 30
11.0254
 70
192
 0
VERTEX
 8
ZYLINDER_2
 10
6.6926
 20
0.4357
 30
9.2392
 70
192
 0
VERTEX
 8
ZYLINDER_2
 10
6.6926
 20
0.4357
 30
11.0254
 70
192
 0
VERTEX
 8
ZYLINDER_2
 10
6.3029
 20
0.2107
 30
9.2392
 70
192
 0
VERTEX
 8
ZYLINDER_2
 10
6.3029
 20
0.2107
 30
11.0254
 70
192
 0
VERTEX
 8
ZYLINDER_2
 10
6.3029
 20
-0.2393
 30
9.2392
 70
192
 0
VERTEX
 8
ZYLINDER_2
 10
6.3029
 20
-0.2393
 30
11.0254
 70
192
 0
VERTEX
 8
ZYLINDER_2
 10
0
 20
0
 30
0
 70
128
 71
1
 72
2
 73
4
 74
3
 0
VERTEX
 8
ZYLINDER_2
 10
0
 20
0
 30
0
 70
128
 71
3
 72
4
 73
6
 74
5
 0
VERTEX
 8
ZYLINDER_2
 10
0
 20
0
 30
0
 70
128
 71
5
 72
6
 73
8
 74
7
 0
VERTEX
 8
ZYLINDER_2
 10
0
 20
0
 30
0
 70
128
 71
7
 72
8
 73
10
 74
9
 0
VERTEX
 8
ZYLINDER_2
 10
0
 20
0
 30
0
 70
128
 71
9
 72
10
 73
12
 74
11
 0
VERTEX
 8
ZYLINDER_2
 10
0
 20
0
 30
0
 70
128
 71
11
 72
12
 73
2
 74
1
 0
SEQEND
 0
POLYLINE
 8
W_RFEL_2
 66
1
 10
0.0
 20
0.0
 30
0.0
 70
64
 71
25
 72
46
 0
VERTEX
 8
W_RFEL_2
 10
4.6769
 20
-0.5246
 30
9.7329
 70
192
 0
VERTEX
 8
W_RFEL_2
 10
4.4403
 20
0.0946
 30
9.7842
 70
192
 0
VERTEX
 8
W_RFEL_2
 10
8.8651
 20
0.3128
 30
12.8842
 70
192
 0
VERTEX
 8
W_RFEL_2
 10
8.4517
 20
0.5896
 30
9.7696
 70
192
 0
VERTEX
 8
W_RFEL_2
 10
8.9349
 20
-0.1148
 30
9.7842
 70
192
 0
VERTEX
 8
W_RFEL_2
 10
8.9243
 20
-0.2221
 30
12.9339
 70
192
 0
VERTEX
 8
W_RFEL_2
 10
4.5101
 20
-0.333
 30
12.8842
 70
192
 0
VERTEX
 8
W_RFEL_2
 10
4.4403
 20
-0.1148
 30
12.8842
 70
192
 0
VERTEX
 8
W_RFEL_2
 10
4.8814
 20
-0.6092
 30
12.9336
 70
192
 0
VERTEX
 8
W_RFEL_2
 10
4.6769
 20
0.5044
 30
12.9354
 70
192
 0
VERTEX
 8
W_RFEL_2
 10
8.8651
 20
-0.333
 30
9.7842
 70
192
 0
VERTEX
 8
W_RFEL_2
 10
4.4509
 20
-0.2221
 30
9.7344
 70
192
 0
VERTEX
 8
W_RFEL_2
 10
4.6355
 20
-0.4826
 30
12.8842
 70
192
 0
VERTEX
 8
W_RFEL_2
 10
4.4509
 20
0.2019
 30
12.9339
 70
192
 0
VERTEX
 8
W_RFEL_2
 10
8.5625
 20
-0.608
 30
9.735
 70
192
 0
VERTEX
 8
W_RFEL_2
 10
4.5101
 20
0.3128
 30
9.7842
 70
192
 0
VERTEX
 8
W_RFEL_2
 10
8.9243
 20
0.2019
 30
9.7344
 70
192
 0
VERTEX
 8
W_RFEL_2
 10
8.5625
 20
0.5878
 30
12.9333
 70
192
 0
VERTEX
 8
W_RFEL_2
 10
4.9235
 20
0.5896
 30
12.8988
 70
192
 0
VERTEX
 8
W_RFEL_2
 10
8.9349
 20
0.0946
 30
12.8842
 70
192
 0
VERTEX
 8
W_RFEL_2
 10
4.8127
 20
0.5878
 30
9.735
 70
192
 0
VERTEX
 8
W_RFEL_2
 10
8.6983
 20
-0.5246
 30
12.9354
 70
192
 0
VERTEX
 8
W_RFEL_2
 10
8.4517
 20
-0.6099
 30
12.8988
 70
192
 0
VERTEX
 8
W_RFEL_2
 10
8.6983
 20
0.5044
 30
9.7329
 70
192
 0
VERTEX
 8
W_RFEL_2
 10
4.9235
 20
-0.6099
 30
9.7696
 70
192
 0
VERTEX
 8
W_RFEL_2
 10
0
 20
0
 30
0
 70
128
 71
12
 72
2
 73
14
 74
14
 0
VERTEX
 8
W_RFEL_2
 10
0
 20
0
 30
0
 70
128
 71
22
 72
18
 73
6
 74
6
 0
VERTEX
 8
W_RFEL_2
 10
0
 20
0
 30
0
 70
128
 71
6
 72
20
 73
17
 74
17
 0
VERTEX
 8
W_RFEL_2
 10
0
 20
0
 30
0
 70
128
 71
22
 72
11
 73
15
 74
15
 0
VERTEX
 8
W_RFEL_2
 10
0
 20
0
 30
0
 70
128
 71
21
 72
4
 73
18
 74
18
 0
VERTEX
 8
W_RFEL_2
 10
0
 20
0
 30
0
 70
128
 71
15
 72
25
 73
9
 74
9
 0
VERTEX
 8
W_RFEL_2
 10
0
 20
0
 30
0
 70
128
 71
15
 72
21
 73
1
 74
1
 0
VERTEX
 8
W_RFEL_2
 10
0
 20
0
 30
0
 70
128
 71
1
 72
7
 73
13
 74
13
 0
VERTEX
 8
W_RFEL_2
 10
0
 20
0
 30
0
 70
128
 71
8
 72
7
 73
12
 74
12
 0
VERTEX
 8
W_RFEL_2
 10
0
 20
0
 30
0
 70
128
 71
2
 72
16
 73
14
 74
14
 0
VERTEX
 8
W_RFEL_2
 10
0
 20
0
 30
0
 70
128
 71
17
 72
3
 73
24
 74
24
 0
VERTEX
 8
W_RFEL_2
 10
0
 20
0
 30
0
 70
128
 71
9
 72
10
 73
18
 74
18
 0
VERTEX
 8
W_RFEL_2
 10
0
 20
0
 30
0
 70
128
 71
6
 72
11
 73
22
 74
22
 0
VERTEX
 8
W_RFEL_2
 10
0
 20
0
 30
0
 70
128
 71
18
 72
4
 73
24
 74
24
 0
VERTEX
 8
W_RFEL_2
 10
0
 20
0
 30
0
 70
128
 71
10
 72
16
 73
21
 74
21
 0
VERTEX
 8
W_RFEL_2
 10
0
 20
0
 30
0
 70
128
 71
9
 72
25
 73
1
 74
1
 0
VERTEX
 8
W_RFEL_2
 10
0
 20
0
 30
0
 70
128
 71
5
 72
11
 73
6
 74
6
 0
VERTEX
 8
W_RFEL_2
 10
0
 20
0
 30
0
 70
128
 71
1
 72
21
 73
12
 74
12
 0
VERTEX
 8
W_RFEL_2
 10
0
 20
0
 30
0
 70
128
 71
15
 72
9
 73
23
 74
23
 0
VERTEX
 8
W_RFEL_2
 10
0
 20
0
 30
0
 70
128
 71
24
 72
4
 73
21
 74
21
 0
VERTEX
 8
W_RFEL_2
 10
0
 20
0
 30
0
 70
128
 71
11
 72
5
 73
15
 74
15
 0
VERTEX
 8
W_RFEL_2
 10
0
 20
0
 30
0
 70
128
 71
9
 72
14
 73
10
 74
10
 0
VERTEX
 8
W_RFEL_2
 10
0
 20
0
 30
0
 70
128
 71
9
 72
18
 73
22
 74
22
 0
VERTEX
 8
W_RFEL_2
 10
0
 20
0
 30
0
 70
128
 71
14
 72
16
 73
10
 74
10
 0
VERTEX
 8
W_RFEL_2
 10
0
 20
0
 30
0
 70
128
 71
9
 72
8
 73
14
 74
14
 0
VERTEX
 8
W_RFEL_2
 10
0
 20
0
 30
0
 70
128
 71
12
 72
7
 73
1
 74
1
 0
VERTEX
 8
W_RFEL_2
 10
0
 20
0
 30
0
 70
128
 71
15
 72
17
 73
24
 74
24
 0
VERTEX
 8
W_RFEL_2
 10
0
 20
0
 30
0
 70
128
 71
18
 72
20
 73
6
 74
6
 0
VERTEX
 8
W_RFEL_2
 10
0
 20
0
 30
0
 70
128
 71
18
 72
10
 73
19
 74
19
 0
VERTEX
 8
W_RFEL_2
 10
0
 20
0
 30
0
 70
128
 71
20
 72
3
 73
17
 74
17
 0
VERTEX
 8
W_RFEL_2
 10
0
 20
0
 30
0
 70
128
 71
22
 72
23
 73
9
 74
9
 0
VERTEX
 8
W_RFEL_2
 10
0
 20
0
 30
0
 70
128
 71
7
 72
9
 73
13
 74
13
 0
VERTEX
 8
W_RFEL_2
 10
0
 20
0
 30
0
 70
128
 71
1
 72
13
 73
9
 74
9
 0
VERTEX
 8
W_RFEL_2
 10
0
 20
0
 30
0
 70
128
 71
21
 72
2
 73
12
 74
12
 0
VERTEX
 8
W_RFEL_2
 10
0
 20
0
 30
0
 70
128
 71
21
 72
19
 73
10
 74
10
 0
VERTEX
 8
W_RFEL_2
 10
0
 20
0
 30
0
 70
128
 71
9
 72
7
 73
8
 74
8
 0
VERTEX
 8
W_RFEL_2
 10
0
 20
0
 30
0
 70
128
 71
12
 72
14
 73
8
 74
8
 0
VERTEX
 8
W_RFEL_2
 10
0
 20
0
 30
0
 70
128
 71
21
 72
18
 73
19
 74
19
 0
VERTEX
 8
W_RFEL_2
 10
0
 20
0
 30
0
 70
128
 71
24
 72
3
 73
18
 74
18
 0
VERTEX
 8
W_RFEL_2
 10
0
 20
0
 30
0
 70
128
 71
15
 72
5
 73
17
 74
17
 0
VERTEX
 8
W_RFEL_2
 10
0
 20
0
 30
0
 70
128
 71
18
 72
3
 73
20
 74
20
 0
VERTEX
 8
W_RFEL_2
 10
0
 20
0
 30
0
 70
128
 71
1
 72
25
 73
15
 74
15
 0
VERTEX
 8
W_RFEL_2
 10
0
 20
0
 30
0
 70
128
 71
16
 72
2
 73
21
 74
21
 0
VERTEX
 8
W_RFEL_2
 10
0
 20
0
 30
0
 70
128
 71
15
 72
24
 73
21
 74
21
 0
VERTEX
 8
W_RFEL_2
 10
0
 20
0
 30
0
 70
128
 71
15
 72
23
 73
22
 74
22
 0
VERTEX
 8
W_RFEL_2
 10
0
 20
0
 30
0
 70
128
 71
6
 72
17
 73
5
 74
5
 0
SEQEND
 0
POLYLINE
 8
ZYLIND2_1
 66
1
 10
0.0
 20
0.0
 30
0.0
 70
64
 71
62
 72
45
 0
VERTEX
 8
ZYLIND2_1
 10
-6.9467
 20
-0.0143
 30
8.9744
 70
192
 0
VERTEX
 8
ZYLIND2_1
 10
-6.9467
 20
-0.0143
 30
9.5744
 70
192
 0
VERTEX
 8
ZYLIND2_1
 10
-6.9467
 20
-2.6143
 30
8.9744
 70
192
 0
VERTEX
 8
ZYLIND2_1
 10
-6.9467
 20
-2.6143
 30
8.9744
 70
192
 0
VERTEX
 8
ZYLIND2_1
 10
-6.9467
 20
-2.6143
 30
9.5744
 70
192
 0
VERTEX
 8
ZYLIND2_1
 10
-6.9467
 20
-2.6143
 30
9.5744
 70
192
 0
VERTEX
 8
ZYLIND2_1
 10
-5.8892
 20
-2.3896
 30
8.9744
 70
192
 0
VERTEX
 8
ZYLIND2_1
 10
-5.8892
 20
-2.3896
 30
8.9744
 70
192
 0
VERTEX
 8
ZYLIND2_1
 10
-5.8892
 20
-2.3896
 30
9.5744
 70
192
 0
VERTEX
 8
ZYLIND2_1
 10
-5.8892
 20
-2.3896
 30
9.5744
 70
192
 0
VERTEX
 8
ZYLIND2_1
 10
-5.0146
 20
-1.7541
 30
8.9744
 70
192
 0
VERTEX
 8
ZYLIND2_1
 10
-5.0146
 20
-1.7541
 30
8.9744
 70
192
 0
VERTEX
 8
ZYLIND2_1
 10
-5.0146
 20
-1.7541
 30
9.5744
 70
192
 0
VERTEX
 8
ZYLIND2_1
 10
-5.0146
 20
-1.7541
 30
9.5744
 70
192
 0
VERTEX
 8
ZYLIND2_1
 10
-4.474
 20
-0.8178
 30
8.9744
 70
192
 0
VERTEX
 8
ZYLIND2_1
 10
-4.474
 20
-0.8178
 30
8.9744
 70
192
 0
VERTEX
 8
ZYLIND2_1
 10
-4.474
 20
-0.8178
 30
9.5744
 70
192
 0
VERTEX
 8
ZYLIND2_1
 10
-4.474
 20
-0.8178
 30
9.5744
 70
192
 0
VERTEX
 8
ZYLIND2_1
 10
-4.361
 20
0.2574
 30
8.9744
 70
192
 0
VERTEX
 8
ZYLIND2_1
 10
-4.361
 20
0.2574
 30
8.9744
 70
192
 0
VERTEX
 8
ZYLIND2_1
 10
-4.361
 20
0.2574
 30
9.5744
 70
192
 0
VERTEX
 8
ZYLIND2_1
 10
-4.361
 20
0.2574
 30
9.5744
 70
192
 0
VERTEX
 8
ZYLIND2_1
 10
-4.6951
 20
1.2857
 30
8.9744
 70
192
 0
VERTEX
 8
ZYLIND2_1
 10
-4.6951
 20
1.2857
 30
8.9744
 70
192
 0
VERTEX
 8
ZYLIND2_1
 10
-4.6951
 20
1.2857
 30
9.5744
 70
192
 0
VERTEX
 8
ZYLIND2_1
 10
-4.6951
 20
1.2857
 30
9.5744
 70
192
 0
VERTEX
 8
ZYLIND2_1
 10
-5.4185
 20
2.0891
 30
8.9744
 70
192
 0
VERTEX
 8
ZYLIND2_1
 10
-5.4185
 20
2.0891
 30
8.9744
 70
192
 0
VERTEX
 8
ZYLIND2_1
 10
-5.4185
 20
2.0891
 30
9.5744
 70
192
 0
VERTEX
 8
ZYLIND2_1
 10
-5.4185
 20
2.0891
 30
9.5744
 70
192
 0
VERTEX
 8
ZYLIND2_1
 10
-6.4062
 20
2.5288
 30
8.9744
 70
192
 0
VERTEX
 8
ZYLIND2_1
 10
-6.4062
 20
2.5288
 30
8.9744
 70
192
 0
VERTEX
 8
ZYLIND2_1
 10
-6.4062
 20
2.5288
 30
9.5744
 70
192
 0
VERTEX
 8
ZYLIND2_1
 10
-6.4062
 20
2.5288
 30
9.5744
 70
192
 0
VERTEX
 8
ZYLIND2_1
 10
-7.4873
 20
2.5288
 30
8.9744
 70
192
 0
VERTEX
 8
ZYLIND2_1
 10
-7.4873
 20
2.5288
 30
8.9744
 70
192
 0
VERTEX
 8
ZYLIND2_1
 10
-7.4873
 20
2.5288
 30
9.5744
 70
192
 0
VERTEX
 8
ZYLIND2_1
 10
-7.4873
 20
2.5288
 30
9.5744
 70
192
 0
VERTEX
 8
ZYLIND2_1
 10
-8.475
 20
2.0891
 30
8.9744
 70
192
 0
VERTEX
 8
ZYLIND2_1
 10
-8.475
 20
2.0891
 30
8.9744
 70
192
 0
VERTEX
 8
ZYLIND2_1
 10
-8.475
 20
2.0891
 30
9.5744
 70
192
 0
VERTEX
 8
ZYLIND2_1
 10
-8.475
 20
2.0891
 30
9.5744
 70
192
 0
VERTEX
 8
ZYLIND2_1
 10
-9.1984
 20
1.2857
 30
8.9744
 70
192
 0
VERTEX
 8
ZYLIND2_1
 10
-9.1984
 20
1.2857
 30
8.9744
 70
192
 0
VERTEX
 8
ZYLIND2_1
 10
-9.1984
 20
1.2857
 30
9.5744
 70
192
 0
VERTEX
 8
ZYLIND2_1
 10
-9.1984
 20
1.2857
 30
9.5744
 70
192
 0
VERTEX
 8
ZYLIND2_1
 10
-9.5325
 20
0.2574
 30
8.9744
 70
192
 0
VERTEX
 8
ZYLIND2_1
 10
-9.5325
 20
0.2574
 30
8.9744
 70
192
 0
VERTEX
 8
ZYLIND2_1
 10
-9.5325
 20
0.2574
 30
9.5744
 70
192
 0
VERTEX
 8
ZYLIND2_1
 10
-9.5325
 20
0.2574
 30
9.5744
 70
192
 0
VERTEX
 8
ZYLIND2_1
 10
-9.4195
 20
-0.8178
 30
8.9744
 70
192
 0
VERTEX
 8
ZYLIND2_1
 10
-9.4195
 20
-0.8178
 30
8.9744
 70
192
 0
VERTEX
 8
ZYLIND2_1
 10
-9.4195
 20
-0.8178
 30
9.5744
 70
192
 0
VERTEX
 8
ZYLIND2_1
 10
-9.4195
 20
-0.8178
 30
9.5744
 70
192
 0
VERTEX
 8
ZYLIND2_1
 10
-8.8789
 20
-1.7541
 30
8.9744
 70
192
 0
VERTEX
 8
ZYLIND2_1
 10
-8.8789
 20
-1.7541
 30
8.9744
 70
192
 0
VERTEX
 8
ZYLIND2_1
 10
-8.8789
 20
-1.7541
 30
9.5744
 70
192
 0
VERTEX
 8
ZYLIND2_1
 10
-8.8789
 20
-1.7541
 30
9.5744
 70
192
 0
VERTEX
 8
ZYLIND2_1
 10
-8.0042
 20
-2.3896
 30
8.9744
 70
192
 0
VERTEX
 8
ZYLIND2_1
 10
-8.0042
 20
-2.3896
 30
8.9744
 70
192
 0
VERTEX
 8
ZYLIND2_1
 10
-8.0042
 20
-2.3896
 30
9.5744
 70
192
 0
VERTEX
 8
ZYLIND2_1
 10
-8.0042
 20
-2.3896
 30
9.5744
 70
192
 0
VERTEX
 8
ZYLIND2_1
 10
0
 20
0
 30
0
 70
128
 71
1
 72
3
 73
7
 74
7
 0
VERTEX
 8
ZYLIND2_1
 10
0
 20
0
 30
0
 70
128
 71
4
 72
5
 73
9
 74
8
 0
VERTEX
 8
ZYLIND2_1
 10
0
 20
0
 30
0
 70
128
 71
6
 72
2
 73
10
 74
10
 0
VERTEX
 8
ZYLIND2_1
 10
0
 20
0
 30
0
 70
128
 71
1
 72
7
 73
11
 74
11
 0
VERTEX
 8
ZYLIND2_1
 10
0
 20
0
 30
0
 70
128
 71
8
 72
9
 73
13
 74
12
 0
VERTEX
 8
ZYLIND2_1
 10
0
 20
0
 30
0
 70
128
 71
10
 72
2
 73
14
 74
14
 0
VERTEX
 8
ZYLIND2_1
 10
0
 20
0
 30
0
 70
128
 71
1
 72
11
 73
15
 74
15
 0
VERTEX
 8
ZYLIND2_1
 10
0
 20
0
 30
0
 70
128
 71
12
 72
13
 73
17
 74
16
 0
VERTEX
 8
ZYLIND2_1
 10
0
 20
0
 30
0
 70
128
 71
14
 72
2
 73
18
 74
18
 0
VERTEX
 8
ZYLIND2_1
 10
0
 20
0
 30
0
 70
128
 71
1
 72
15
 73
19
 74
19
 0
VERTEX
 8
ZYLIND2_1
 10
0
 20
0
 30
0
 70
128
 71
16
 72
17
 73
21
 74
20
 0
VERTEX
 8
ZYLIND2_1
 10
0
 20
0
 30
0
 70
128
 71
18
 72
2
 73
22
 74
22
 0
VERTEX
 8
ZYLIND2_1
 10
0
 20
0
 30
0
 70
128
 71
1
 72
19
 73
23
 74
23
 0
VERTEX
 8
ZYLIND2_1
 10
0
 20
0
 30
0
 70
128
 71
20
 72
21
 73
25
 74
24
 0
VERTEX
 8
ZYLIND2_1
 10
0
 20
0
 30
0
 70
128
 71
22
 72
2
 73
26
 74
26
 0
VERTEX
 8
ZYLIND2_1
 10
0
 20
0
 30
0
 70
128
 71
1
 72
23
 73
27
 74
27
 0
VERTEX
 8
ZYLIND2_1
 10
0
 20
0
 30
0
 70
128
 71
24
 72
25
 73
29
 74
28
 0
VERTEX
 8
ZYLIND2_1
 10
0
 20
0
 30
0
 70
128
 71
26
 72
2
 73
30
 74
30
 0
VERTEX
 8
ZYLIND2_1
 10
0
 20
0
 30
0
 70
128
 71
1
 72
27
 73
31
 74
31
 0
VERTEX
 8
ZYLIND2_1
 10
0
 20
0
 30
0
 70
128
 71
28
 72
29
 73
33
 74
32
 0
VERTEX
 8
ZYLIND2_1
 10
0
 20
0
 30
0
 70
128
 71
30
 72
2
 73
34
 74
34
 0
VERTEX
 8
ZYLIND2_1
 10
0
 20
0
 30
0
 70
128
 71
1
 72
31
 73
35
 74
35
 0
VERTEX
 8
ZYLIND2_1
 10
0
 20
0
 30
0
 70
128
 71
32
 72
33
 73
37
 74
36
 0
VERTEX
 8
ZYLIND2_1
 10
0
 20
0
 30
0
 70
128
 71
34
 72
2
 73
38
 74
38
 0
VERTEX
 8
ZYLIND2_1
 10
0
 20
0
 30
0
 70
128
 71
1
 72
35
 73
39
 74
39
 0
VERTEX
 8
ZYLIND2_1
 10
0
 20
0
 30
0
 70
128
 71
36
 72
37
 73
41
 74
40
 0
VERTEX
 8
ZYLIND2_1
 10
0
 20
0
 30
0
 70
128
 71
38
 72
2
 73
42
 74
42
 0
VERTEX
 8
ZYLIND2_1
 10
0
 20
0
 30
0
 70
128
 71
1
 72
39
 73
43
 74
43
 0
VERTEX
 8
ZYLIND2_1
 10
0
 20
0
 30
0
 70
128
 71
40
 72
41
 73
45
 74
44
 0
VERTEX
 8
ZYLIND2_1
 10
0
 20
0
 30
0
 70
128
 71
42
 72
2
 73
46
 74
46
 0
VERTEX
 8
ZYLIND2_1
 10
0
 20
0
 30
0
 70
128
 71
1
 72
43
 73
47
 74
47
 0
VERTEX
 8
ZYLIND2_1
 10
0
 20
0
 30
0
 70
128
 71
44
 72
45
 73
49
 74
48
 0
VERTEX
 8
ZYLIND2_1
 10
0
 20
0
 30
0
 70
128
 71
46
 72
2
 73
50
 74
50
 0
VERTEX
 8
ZYLIND2_1
 10
0
 20
0
 30
0
 70
128
 71
1
 72
47
 73
51
 74
51
 0
VERTEX
 8
ZYLIND2_1
 10
0
 20
0
 30
0
 70
128
 71
48
 72
49
 73
53
 74
52
 0
VERTEX
 8
ZYLIND2_1
 10
0
 20
0
 30
0
 70
128
 71
50
 72
2
 73
54
 74
54
 0
VERTEX
 8
ZYLIND2_1
 10
0
 20
0
 30
0
 70
128
 71
1
 72
51
 73
55
 74
55
 0
VERTEX
 8
ZYLIND2_1
 10
0
 20
0
 30
0
 70
128
 71
52
 72
53
 73
57
 74
56
 0
VERTEX
 8
ZYLIND2_1
 10
0
 20
0
 30
0
 70
128
 71
54
 72
2
 73
58
 74
58
 0
VERTEX
 8
ZYLIND2_1
 10
0
 20
0
 30
0
 70
128
 71
1
 72
55
 73
59
 74
59
 0
VERTEX
 8
ZYLIND2_1
 10
0
 20
0
 30
0
 70
128
 71
56
 72
57
 73
61
 74
60
 0
VERTEX
 8
ZYLIND2_1
 10
0
 20
0
 30
0
 70
128
 71
58
 72
2
 73
62
 74
62
 0
VERTEX
 8
ZYLIND2_1
 10
0
 20
0
 30
0
 70
128
 71
1
 72
59
 73
3
 74
3
 0
VERTEX
 8
ZYLIND2_1
 10
0
 20
0
 30
0
 70
128
 71
60
 72
61
 73
5
 74
4
 0
VERTEX
 8
ZYLIND2_1
 10
0
 20
0
 30
0
 70
128
 71
62
 72
2
 73
6
 74
6
 0
SEQEND
 0
POLYLINE
 8
ZYLINDER_1
 66
1
 10
0.0
 20
0.0
 30
0.0
 70
64
 71
12
 72
6
 0
VERTEX
 8
ZYLINDER_1
 10
-6.9467
 20
-0.4643
 30
9.2392
 70
192
 0
VERTEX
 8
ZYLINDER_1
 10
-6.9467
 20
-0.4643
 30
11.0254
 70
192
 0
VERTEX
 8
ZYLINDER_1
 10
-6.557
 20
-0.2393
 30
9.2392
 70
192
 0
VERTEX
 8
ZYLINDER_1
 10
-6.557
 20
-0.2393
 30
11.0254
 70
192
 0
VERTEX
 8
ZYLINDER_1
 10
-6.557
 20
0.2107
 30
9.2392
 70
192
 0
VERTEX
 8
ZYLINDER_1
 10
-6.557
 20
0.2107
 30
11.0254
 70
192
 0
VERTEX
 8
ZYLINDER_1
 10
-6.9467
 20
0.4357
 30
9.2392
 70
192
 0
VERTEX
 8
ZYLINDER_1
 10
-6.9467
 20
0.4357
 30
11.0254
 70
192
 0
VERTEX
 8
ZYLINDER_1
 10
-7.3364
 20
0.2107
 30
9.2392
 70
192
 0
VERTEX
 8
ZYLINDER_1
 10
-7.3364
 20
0.2107
 30
11.0254
 70
192
 0
VERTEX
 8
ZYLINDER_1
 10
-7.3364
 20
-0.2393
 30
9.2392
 70
192
 0
VERTEX
 8
ZYLINDER_1
 10
-7.3364
 20
-0.2393
 30
11.0254
 70
192
 0
VERTEX
 8
ZYLINDER_1
 10
0
 20
0
 30
0
 70
128
 71
1
 72
2
 73
4
 74
3
 0
VERTEX
 8
ZYLINDER_1
 10
0
 20
0
 30
0
 70
128
 71
3
 72
4
 73
6
 74
5
 0
VERTEX
 8
ZYLINDER_1
 10
0
 20
0
 30
0
 70
128
 71
5
 72
6
 73
8
 74
7
 0
VERTEX
 8
ZYLINDER_1
 10
0
 20
0
 30
0
 70
128
 71
7
 72
8
 73
10
 74
9
 0
VERTEX
 8
ZYLINDER_1
 10
0
 20
0
 30
0
 70
128
 71
9
 72
10
 73
12
 74
11
 0
VERTEX
 8
ZYLINDER_1
 10
0
 20
0
 30
0
 70
128
 71
11
 72
12
 73
2
 74
1
 0
SEQEND
 0
POLYLINE
 8
W_RFEL_1
 66
1
 10
0.0
 20
0.0
 30
0.0
 70
64
 71
25
 72
46
 0
VERTEX
 8
W_RFEL_1
 10
-8.9624
 20
-0.5246
 30
9.7329
 70
192
 0
VERTEX
 8
W_RFEL_1
 10
-9.199
 20
0.0946
 30
9.7842
 70
192
 0
VERTEX
 8
W_RFEL_1
 10
-4.7742
 20
0.3128
 30
12.8842
 70
192
 0
VERTEX
 8
W_RFEL_1
 10
-5.1876
 20
0.5896
 30
9.7696
 70
192
 0
VERTEX
 8
W_RFEL_1
 10
-4.7044
 20
-0.1148
 30
9.7842
 70
192
 0
VERTEX
 8
W_RFEL_1
 10
-4.715
 20
-0.2221
 30
12.9339
 70
192
 0
VERTEX
 8
W_RFEL_1
 10
-9.1292
 20
-0.333
 30
12.8842
 70
192
 0
VERTEX
 8
W_RFEL_1
 10
-9.199
 20
-0.1148
 30
12.8842
 70
192
 0
VERTEX
 8
W_RFEL_1
 10
-8.7579
 20
-0.6092
 30
12.9336
 70
192
 0
VERTEX
 8
W_RFEL_1
 10
-8.9624
 20
0.5044
 30
12.9354
 70
192
 0
VERTEX
 8
W_RFEL_1
 10
-4.7742
 20
-0.333
 30
9.7842
 70
192
 0
VERTEX
 8
W_RFEL_1
 10
-9.1884
 20
-0.2221
 30
9.7344
 70
192
 0
VERTEX
 8
W_RFEL_1
 10
-9.0038
 20
-0.4826
 30
12.8842
 70
192
 0
VERTEX
 8
W_RFEL_1
 10
-9.1884
 20
0.2019
 30
12.9339
 70
192
 0
VERTEX
 8
W_RFEL_1
 10
-5.0768
 20
-0.608
 30
9.735
 70
192
 0
VERTEX
 8
W_RFEL_1
 10
-9.1292
 20
0.3128
 30
9.7842
 70
192
 0
VERTEX
 8
W_RFEL_1
 10
-4.715
 20
0.2019
 30
9.7344
 70
192
 0
VERTEX
 8
W_RFEL_1
 10
-5.0768
 20
0.5878
 30
12.9333
 70
192
 0
VERTEX
 8
W_RFEL_1
 10
-8.7158
 20
0.5896
 30
12.8988
 70
192
 0
VERTEX
 8
W_RFEL_1
 10
-4.7044
 20
0.0946
 30
12.8842
 70
192
 0
VERTEX
 8
W_RFEL_1
 10
-8.8266
 20
0.5878
 30
9.735
 70
192
 0
VERTEX
 8
W_RFEL_1
 10
-4.941
 20
-0.5246
 30
12.9354
 70
192
 0
VERTEX
 8
W_RFEL_1
 10
-5.1876
 20
-0.6099
 30
12.8988
 70
192
 0
VERTEX
 8
W_RFEL_1
 10
-4.941
 20
0.5044
 30
9.7329
 70
192
 0
VERTEX
 8
W_RFEL_1
 10
-8.7158
 20
-0.6099
 30
9.7696
 70
192
 0
VERTEX
 8
W_RFEL_1
 10
0
 20
0
 30
0
 70
128
 71
12
 72
2
 73
14
 74
14
 0
VERTEX
 8
W_RFEL_1
 10
0
 20
0
 30
0
 70
128
 71
22
 72
18
 73
6
 74
6
 0
VERTEX
 8
W_RFEL_1
 10
0
 20
0
 30
0
 70
128
 71
6
 72
20
 73
17
 74
17
 0
VERTEX
 8
W_RFEL_1
 10
0
 20
0
 30
0
 70
128
 71
22
 72
11
 73
15
 74
15
 0
VERTEX
 8
W_RFEL_1
 10
0
 20
0
 30
0
 70
128
 71
21
 72
4
 73
18
 74
18
 0
VERTEX
 8
W_RFEL_1
 10
0
 20
0
 30
0
 70
128
 71
15
 72
25
 73
9
 74
9
 0
VERTEX
 8
W_RFEL_1
 10
0
 20
0
 30
0
 70
128
 71
15
 72
21
 73
1
 74
1
 0
VERTEX
 8
W_RFEL_1
 10
0
 20
0
 30
0
 70
128
 71
1
 72
7
 73
13
 74
13
 0
VERTEX
 8
W_RFEL_1
 10
0
 20
0
 30
0
 70
128
 71
8
 72
7
 73
12
 74
12
 0
VERTEX
 8
W_RFEL_1
 10
0
 20
0
 30
0
 70
128
 71
2
 72
16
 73
14
 74
14
 0
VERTEX
 8
W_RFEL_1
 10
0
 20
0
 30
0
 70
128
 71
17
 72
3
 73
24
 74
24
 0
VERTEX
 8
W_RFEL_1
 10
0
 20
0
 30
0
 70
128
 71
9
 72
10
 73
18
 74
18
 0
VERTEX
 8
W_RFEL_1
 10
0
 20
0
 30
0
 70
128
 71
6
 72
11
 73
22
 74
22
 0
VERTEX
 8
W_RFEL_1
 10
0
 20
0
 30
0
 70
128
 71
18
 72
4
 73
24
 74
24
 0
VERTEX
 8
W_RFEL_1
 10
0
 20
0
 30
0
 70
128
 71
10
 72
16
 73
21
 74
21
 0
VERTEX
 8
W_RFEL_1
 10
0
 20
0
 30
0
 70
128
 71
9
 72
25
 73
1
 74
1
 0
VERTEX
 8
W_RFEL_1
 10
0
 20
0
 30
0
 70
128
 71
5
 72
11
 73
6
 74
6
 0
VERTEX
 8
W_RFEL_1
 10
0
 20
0
 30
0
 70
128
 71
1
 72
21
 73
12
 74
12
 0
VERTEX
 8
W_RFEL_1
 10
0
 20
0
 30
0
 70
128
 71
15
 72
9
 73
23
 74
23
 0
VERTEX
 8
W_RFEL_1
 10
0
 20
0
 30
0
 70
128
 71
24
 72
4
 73
21
 74
21
 0
VERTEX
 8
W_RFEL_1
 10
0
 20
0
 30
0
 70
128
 71
11
 72
5
 73
15
 74
15
 0
VERTEX
 8
W_RFEL_1
 10
0
 20
0
 30
0
 70
128
 71
9
 72
14
 73
10
 74
10
 0
VERTEX
 8
W_RFEL_1
 10
0
 20
0
 30
0
 70
128
 71
9
 72
18
 73
22
 74
22
 0
VERTEX
 8
W_RFEL_1
 10
0
 20
0
 30
0
 70
128
 71
14
 72
16
 73
10
 74
10
 0
VERTEX
 8
W_RFEL_1
 10
0
 20
0
 30
0
 70
128
 71
9
 72
8
 73
14
 74
14
 0
VERTEX
 8
W_RFEL_1
 10
0
 20
0
 30
0
 70
128
 71
12
 72
7
 73
1
 74
1
 0
VERTEX
 8
W_RFEL_1
 10
0
 20
0
 30
0
 70
128
 71
15
 72
17
 73
24
 74
24
 0
VERTEX
 8
W_RFEL_1
 10
0
 20
0
 30
0
 70
128
 71
18
 72
20
 73
6
 74
6
 0
VERTEX
 8
W_RFEL_1
 10
0
 20
0
 30
0
 70
128
 71
18
 72
10
 73
19
 74
19
 0
VERTEX
 8
W_RFEL_1
 10
0
 20
0
 30
0
 70
128
 71
20
 72
3
 73
17
 74
17
 0
VERTEX
 8
W_RFEL_1
 10
0
 20
0
 30
0
 70
128
 71
22
 72
23
 73
9
 74
9
 0
VERTEX
 8
W_RFEL_1
 10
0
 20
0
 30
0
 70
128
 71
7
 72
9
 73
13
 74
13
 0
VERTEX
 8
W_RFEL_1
 10
0
 20
0
 30
0
 70
128
 71
1
 72
13
 73
9
 74
9
 0
VERTEX
 8
W_RFEL_1
 10
0
 20
0
 30
0
 70
128
 71
21
 72
2
 73
12
 74
12
 0
VERTEX
 8
W_RFEL_1
 10
0
 20
0
 30
0
 70
128
 71
21
 72
19
 73
10
 74
10
 0
VERTEX
 8
W_RFEL_1
 10
0
 20
0
 30
0
 70
128
 71
9
 72
7
 73
8
 74
8
 0
VERTEX
 8
W_RFEL_1
 10
0
 20
0
 30
0
 70
128
 71
12
 72
14
 73
8
 74
8
 0
VERTEX
 8
W_RFEL_1
 10
0
 20
0
 30
0
 70
128
 71
21
 72
18
 73
19
 74
19
 0
VERTEX
 8
W_RFEL_1
 10
0
 20
0
 30
0
 70
128
 71
24
 72
3
 73
18
 74
18
 0
VERTEX
 8
W_RFEL_1
 10
0
 20
0
 30
0
 70
128
 71
15
 72
5
 73
17
 74
17
 0
VERTEX
 8
W_RFEL_1
 10
0
 20
0
 30
0
 70
128
 71
18
 72
3
 73
20
 74
20
 0
VERTEX
 8
W_RFEL_1
 10
0
 20
0
 30
0
 70
128
 71
1
 72
25
 73
15
 74
15
 0
VERTEX
 8
W_RFEL_1
 10
0
 20
0
 30
0
 70
128
 71
16
 72
2
 73
21
 74
21
 0
VERTEX
 8
W_RFEL_1
 10
0
 20
0
 30
0
 70
128
 71
15
 72
24
 73
21
 74
21
 0
VERTEX
 8
W_RFEL_1
 10
0
 20
0
 30
0
 70
128
 71
15
 72
23
 73
22
 74
22
 0
VERTEX
 8
W_RFEL_1
 10
0
 20
0
 30
0
 70
128
 71
6
 72
17
 73
5
 74
5
 0
SEQEND
 0
POLYLINE
 8
ZYLIND2
 66
1
 10
0.0
 20
0.0
 30
0.0
 70
64
 71
62
 72
45
 0
VERTEX
 8
ZYLIND2
 10
-20.8122
 20
-0.0143
 30
8.9744
 70
192
 0
VERTEX
 8
ZYLIND2
 10
-20.8122
 20
-0.0143
 30
9.5744
 70
192
 0
VERTEX
 8
ZYLIND2
 10
-20.8122
 20
-2.6143
 30
8.9744
 70
192
 0
VERTEX
 8
ZYLIND2
 10
-20.8122
 20
-2.6143
 30
8.9744
 70
192
 0
VERTEX
 8
ZYLIND2
 10
-20.8122
 20
-2.6143
 30
9.5744
 70
192
 0
VERTEX
 8
ZYLIND2
 10
-20.8122
 20
-2.6143
 30
9.5744
 70
192
 0
VERTEX
 8
ZYLIND2
 10
-19.7547
 20
-2.3896
 30
8.9744
 70
192
 0
VERTEX
 8
ZYLIND2
 10
-19.7547
 20
-2.3896
 30
8.9744
 70
192
 0
VERTEX
 8
ZYLIND2
 10
-19.7547
 20
-2.3896
 30
9.5744
 70
192
 0
VERTEX
 8
ZYLIND2
 10
-19.7547
 20
-2.3896
 30
9.5744
 70
192
 0
VERTEX
 8
ZYLIND2
 10
-18.88
 20
-1.7541
 30
8.9744
 70
192
 0
VERTEX
 8
ZYLIND2
 10
-18.88
 20
-1.7541
 30
8.9744
 70
192
 0
VERTEX
 8
ZYLIND2
 10
-18.88
 20
-1.7541
 30
9.5744
 70
192
 0
VERTEX
 8
ZYLIND2
 10
-18.88
 20
-1.7541
 30
9.5744
 70
192
 0
VERTEX
 8
ZYLIND2
 10
-18.3395
 20
-0.8178
 30
8.9744
 70
192
 0
VERTEX
 8
ZYLIND2
 10
-18.3395
 20
-0.8178
 30
8.9744
 70
192
 0
VERTEX
 8
ZYLIND2
 10
-18.3395
 20
-0.8178
 30
9.5744
 70
192
 0
VERTEX
 8
ZYLIND2
 10
-18.3395
 20
-0.8178
 30
9.5744
 70
192
 0
VERTEX
 8
ZYLIND2
 10
-18.2264
 20
0.2574
 30
8.9744
 70
192
 0
VERTEX
 8
ZYLIND2
 10
-18.2264
 20
0.2574
 30
8.9744
 70
192
 0
VERTEX
 8
ZYLIND2
 10
-18.2264
 20
0.2574
 30
9.5744
 70
192
 0
VERTEX
 8
ZYLIND2
 10
-18.2264
 20
0.2574
 30
9.5744
 70
192
 0
VERTEX
 8
ZYLIND2
 10
-18.5605
 20
1.2857
 30
8.9744
 70
192
 0
VERTEX
 8
ZYLIND2
 10
-18.5605
 20
1.2857
 30
8.9744
 70
192
 0
VERTEX
 8
ZYLIND2
 10
-18.5605
 20
1.2857
 30
9.5744
 70
192
 0
VERTEX
 8
ZYLIND2
 10
-18.5605
 20
1.2857
 30
9.5744
 70
192
 0
VERTEX
 8
ZYLIND2
 10
-19.284
 20
2.0891
 30
8.9744
 70
192
 0
VERTEX
 8
ZYLIND2
 10
-19.284
 20
2.0891
 30
8.9744
 70
192
 0
VERTEX
 8
ZYLIND2
 10
-19.284
 20
2.0891
 30
9.5744
 70
192
 0
VERTEX
 8
ZYLIND2
 10
-19.284
 20
2.0891
 30
9.5744
 70
192
 0
VERTEX
 8
ZYLIND2
 10
-20.2716
 20
2.5288
 30
8.9744
 70
192
 0
VERTEX
 8
ZYLIND2
 10
-20.2716
 20
2.5288
 30
8.9744
 70
192
 0
VERTEX
 8
ZYLIND2
 10
-20.2716
 20
2.5288
 30
9.5744
 70
192
 0
VERTEX
 8
ZYLIND2
 10
-20.2716
 20
2.5288
 30
9.5744
 70
192
 0
VERTEX
 8
ZYLIND2
 10
-21.3528
 20
2.5288
 30
8.9744
 70
192
 0
VERTEX
 8
ZYLIND2
 10
-21.3528
 20
2.5288
 30
8.9744
 70
192
 0
VERTEX
 8
ZYLIND2
 10
-21.3528
 20
2.5288
 30
9.5744
 70
192
 0
VERTEX
 8
ZYLIND2
 10
-21.3528
 20
2.5288
 30
9.5744
 70
192
 0
VERTEX
 8
ZYLIND2
 10
-22.3404
 20
2.0891
 30
8.9744
 70
192
 0
VERTEX
 8
ZYLIND2
 10
-22.3404
 20
2.0891
 30
8.9744
 70
192
 0
VERTEX
 8
ZYLIND2
 10
-22.3404
 20
2.0891
 30
9.5744
 70
192
 0
VERTEX
 8
ZYLIND2
 10
-22.3404
 20
2.0891
 30
9.5744
 70
192
 0
VERTEX
 8
ZYLIND2
 10
-23.0639
 20
1.2857
 30
8.9744
 70
192
 0
VERTEX
 8
ZYLIND2
 10
-23.0639
 20
1.2857
 30
8.9744
 70
192
 0
VERTEX
 8
ZYLIND2
 10
-23.0639
 20
1.2857
 30
9.5744
 70
192
 0
VERTEX
 8
ZYLIND2
 10
-23.0639
 20
1.2857
 30
9.5744
 70
192
 0
VERTEX
 8
ZYLIND2
 10
-23.398
 20
0.2574
 30
8.9744
 70
192
 0
VERTEX
 8
ZYLIND2
 10
-23.398
 20
0.2574
 30
8.9744
 70
192
 0
VERTEX
 8
ZYLIND2
 10
-23.398
 20
0.2574
 30
9.5744
 70
192
 0
VERTEX
 8
ZYLIND2
 10
-23.398
 20
0.2574
 30
9.5744
 70
192
 0
VERTEX
 8
ZYLIND2
 10
-23.2849
 20
-0.8178
 30
8.9744
 70
192
 0
VERTEX
 8
ZYLIND2
 10
-23.2849
 20
-0.8178
 30
8.9744
 70
192
 0
VERTEX
 8
ZYLIND2
 10
-23.2849
 20
-0.8178
 30
9.5744
 70
192
 0
VERTEX
 8
ZYLIND2
 10
-23.2849
 20
-0.8178
 30
9.5744
 70
192
 0
VERTEX
 8
ZYLIND2
 10
-22.7444
 20
-1.7541
 30
8.9744
 70
192
 0
VERTEX
 8
ZYLIND2
 10
-22.7444
 20
-1.7541
 30
8.9744
 70
192
 0
VERTEX
 8
ZYLIND2
 10
-22.7444
 20
-1.7541
 30
9.5744
 70
192
 0
VERTEX
 8
ZYLIND2
 10
-22.7444
 20
-1.7541
 30
9.5744
 70
192
 0
VERTEX
 8
ZYLIND2
 10
-21.8697
 20
-2.3896
 30
8.9744
 70
192
 0
VERTEX
 8
ZYLIND2
 10
-21.8697
 20
-2.3896
 30
8.9744
 70
192
 0
VERTEX
 8
ZYLIND2
 10
-21.8697
 20
-2.3896
 30
9.5744
 70
192
 0
VERTEX
 8
ZYLIND2
 10
-21.8697
 20
-2.3896
 30
9.5744
 70
192
 0
VERTEX
 8
ZYLIND2
 10
0
 20
0
 30
0
 70
128
 71
1
 72
3
 73
7
 74
7
 0
VERTEX
 8
ZYLIND2
 10
0
 20
0
 30
0
 70
128
 71
4
 72
5
 73
9
 74
8
 0
VERTEX
 8
ZYLIND2
 10
0
 20
0
 30
0
 70
128
 71
6
 72
2
 73
10
 74
10
 0
VERTEX
 8
ZYLIND2
 10
0
 20
0
 30
0
 70
128
 71
1
 72
7
 73
11
 74
11
 0
VERTEX
 8
ZYLIND2
 10
0
 20
0
 30
0
 70
128
 71
8
 72
9
 73
13
 74
12
 0
VERTEX
 8
ZYLIND2
 10
0
 20
0
 30
0
 70
128
 71
10
 72
2
 73
14
 74
14
 0
VERTEX
 8
ZYLIND2
 10
0
 20
0
 30
0
 70
128
 71
1
 72
11
 73
15
 74
15
 0
VERTEX
 8
ZYLIND2
 10
0
 20
0
 30
0
 70
128
 71
12
 72
13
 73
17
 74
16
 0
VERTEX
 8
ZYLIND2
 10
0
 20
0
 30
0
 70
128
 71
14
 72
2
 73
18
 74
18
 0
VERTEX
 8
ZYLIND2
 10
0
 20
0
 30
0
 70
128
 71
1
 72
15
 73
19
 74
19
 0
VERTEX
 8
ZYLIND2
 10
0
 20
0
 30
0
 70
128
 71
16
 72
17
 73
21
 74
20
 0
VERTEX
 8
ZYLIND2
 10
0
 20
0
 30
0
 70
128
 71
18
 72
2
 73
22
 74
22
 0
VERTEX
 8
ZYLIND2
 10
0
 20
0
 30
0
 70
128
 71
1
 72
19
 73
23
 74
23
 0
VERTEX
 8
ZYLIND2
 10
0
 20
0
 30
0
 70
128
 71
20
 72
21
 73
25
 74
24
 0
VERTEX
 8
ZYLIND2
 10
0
 20
0
 30
0
 70
128
 71
22
 72
2
 73
26
 74
26
 0
VERTEX
 8
ZYLIND2
 10
0
 20
0
 30
0
 70
128
 71
1
 72
23
 73
27
 74
27
 0
VERTEX
 8
ZYLIND2
 10
0
 20
0
 30
0
 70
128
 71
24
 72
25
 73
29
 74
28
 0
VERTEX
 8
ZYLIND2
 10
0
 20
0
 30
0
 70
128
 71
26
 72
2
 73
30
 74
30
 0
VERTEX
 8
ZYLIND2
 10
0
 20
0
 30
0
 70
128
 71
1
 72
27
 73
31
 74
31
 0
VERTEX
 8
ZYLIND2
 10
0
 20
0
 30
0
 70
128
 71
28
 72
29
 73
33
 74
32
 0
VERTEX
 8
ZYLIND2
 10
0
 20
0
 30
0
 70
128
 71
30
 72
2
 73
34
 74
34
 0
VERTEX
 8
ZYLIND2
 10
0
 20
0
 30
0
 70
128
 71
1
 72
31
 73
35
 74
35
 0
VERTEX
 8
ZYLIND2
 10
0
 20
0
 30
0
 70
128
 71
32
 72
33
 73
37
 74
36
 0
VERTEX
 8
ZYLIND2
 10
0
 20
0
 30
0
 70
128
 71
34
 72
2
 73
38
 74
38
 0
VERTEX
 8
ZYLIND2
 10
0
 20
0
 30
0
 70
128
 71
1
 72
35
 73
39
 74
39
 0
VERTEX
 8
ZYLIND2
 10
0
 20
0
 30
0
 70
128
 71
36
 72
37
 73
41
 74
40
 0
VERTEX
 8
ZYLIND2
 10
0
 20
0
 30
0
 70
128
 71
38
 72
2
 73
42
 74
42
 0
VERTEX
 8
ZYLIND2
 10
0
 20
0
 30
0
 70
128
 71
1
 72
39
 73
43
 74
43
 0
VERTEX
 8
ZYLIND2
 10
0
 20
0
 30
0
 70
128
 71
40
 72
41
 73
45
 74
44
 0
VERTEX
 8
ZYLIND2
 10
0
 20
0
 30
0
 70
128
 71
42
 72
2
 73
46
 74
46
 0
VERTEX
 8
ZYLIND2
 10
0
 20
0
 30
0
 70
128
 71
1
 72
43
 73
47
 74
47
 0
VERTEX
 8
ZYLIND2
 10
0
 20
0
 30
0
 70
128
 71
44
 72
45
 73
49
 74
48
 0
VERTEX
 8
ZYLIND2
 10
0
 20
0
 30
0
 70
128
 71
46
 72
2
 73
50
 74
50
 0
VERTEX
 8
ZYLIND2
 10
0
 20
0
 30
0
 70
128
 71
1
 72
47
 73
51
 74
51
 0
VERTEX
 8
ZYLIND2
 10
0
 20
0
 30
0
 70
128
 71
48
 72
49
 73
53
 74
52
 0
VERTEX
 8
ZYLIND2
 10
0
 20
0
 30
0
 70
128
 71
50
 72
2
 73
54
 74
54
 0
VERTEX
 8
ZYLIND2
 10
0
 20
0
 30
0
 70
128
 71
1
 72
51
 73
55
 74
55
 0
VERTEX
 8
ZYLIND2
 10
0
 20
0
 30
0
 70
128
 71
52
 72
53
 73
57
 74
56
 0
VERTEX
 8
ZYLIND2
 10
0
 20
0
 30
0
 70
128
 71
54
 72
2
 73
58
 74
58
 0
VERTEX
 8
ZYLIND2
 10
0
 20
0
 30
0
 70
128
 71
1
 72
55
 73
59
 74
59
 0
VERTEX
 8
ZYLIND2
 10
0
 20
0
 30
0
 70
128
 71
56
 72
57
 73
61
 74
60
 0
VERTEX
 8
ZYLIND2
 10
0
 20
0
 30
0
 70
128
 71
58
 72
2
 73
62
 74
62
 0
VERTEX
 8
ZYLIND2
 10
0
 20
0
 30
0
 70
128
 71
1
 72
59
 73
3
 74
3
 0
VERTEX
 8
ZYLIND2
 10
0
 20
0
 30
0
 70
128
 71
60
 72
61
 73
5
 74
4
 0
VERTEX
 8
ZYLIND2
 10
0
 20
0
 30
0
 70
128
 71
62
 72
2
 73
6
 74
6
 0
SEQEND
 0
POLYLINE
 8
ZYLINDER
 66
1
 10
0.0
 20
0.0
 30
0.0
 70
64
 71
12
 72
6
 0
VERTEX
 8
ZYLINDER
 10
-20.8122
 20
-0.4643
 30
9.2392
 70
192
 0
VERTEX
 8
ZYLINDER
 10
-20.8122
 20
-0.4643
 30
11.0254
 70
192
 0
VERTEX
 8
ZYLINDER
 10
-20.4225
 20
-0.2393
 30
9.2392
 70
192
 0
VERTEX
 8
ZYLINDER
 10
-20.4225
 20
-0.2393
 30
11.0254
 70
192
 0
VERTEX
 8
ZYLINDER
 10
-20.4225
 20
0.2107
 30
9.2392
 70
192
 0
VERTEX
 8
ZYLINDER
 10
-20.4225
 20
0.2107
 30
11.0254
 70
192
 0
VERTEX
 8
ZYLINDER
 10
-20.8122
 20
0.4357
 30
9.2392
 70
192
 0
VERTEX
 8
ZYLINDER
 10
-20.8122
 20
0.4357
 30
11.0254
 70
192
 0
VERTEX
 8
ZYLINDER
 10
-21.2019
 20
0.2107
 30
9.2392
 70
192
 0
VERTEX
 8
ZYLINDER
 10
-21.2019
 20
0.2107
 30
11.0254
 70
192
 0
VERTEX
 8
ZYLINDER
 10
-21.2019
 20
-0.2393
 30
9.2392
 70
192
 0
VERTEX
 8
ZYLINDER
 10
-21.2019
 20
-0.2393
 30
11.0254
 70
192
 0
VERTEX
 8
ZYLINDER
 10
0
 20
0
 30
0
 70
128
 71
1
 72
2
 73
4
 74
3
 0
VERTEX
 8
ZYLINDER
 10
0
 20
0
 30
0
 70
128
 71
3
 72
4
 73
6
 74
5
 0
VERTEX
 8
ZYLINDER
 10
0
 20
0
 30
0
 70
128
 71
5
 72
6
 73
8
 74
7
 0
VERTEX
 8
ZYLINDER
 10
0
 20
0
 30
0
 70
128
 71
7
 72
8
 73
10
 74
9
 0
VERTEX
 8
ZYLINDER
 10
0
 20
0
 30
0
 70
128
 71
9
 72
10
 73
12
 74
11
 0
VERTEX
 8
ZYLINDER
 10
0
 20
0
 30
0
 70
128
 71
11
 72
12
 73
2
 74
1
 0
SEQEND
 0
POLYLINE
 8
W_RFEL
 66
1
 10
0.0
 20
0.0
 30
0.0
 70
64
 71
25
 72
46
 0
VERTEX
 8
W_RFEL
 10
-22.8278
 20
-0.5246
 30
9.7329
 70
192
 0
VERTEX
 8
W_RFEL
 10
-23.0644
 20
0.0946
 30
9.7842
 70
192
 0
VERTEX
 8
W_RFEL
 10
-18.6396
 20
0.3128
 30
12.8842
 70
192
 0
VERTEX
 8
W_RFEL
 10
-19.053
 20
0.5896
 30
9.7696
 70
192
 0
VERTEX
 8
W_RFEL
 10
-18.5699
 20
-0.1148
 30
9.7842
 70
192
 0
VERTEX
 8
W_RFEL
 10
-18.5805
 20
-0.2221
 30
12.9339
 70
192
 0
VERTEX
 8
W_RFEL
 10
-22.9947
 20
-0.333
 30
12.8842
 70
192
 0
VERTEX
 8
W_RFEL
 10
-23.0644
 20
-0.1148
 30
12.8842
 70
192
 0
VERTEX
 8
W_RFEL
 10
-22.6234
 20
-0.6092
 30
12.9336
 70
192
 0
VERTEX
 8
W_RFEL
 10
-22.8279
 20
0.5044
 30
12.9354
 70
192
 0
VERTEX
 8
W_RFEL
 10
-18.6396
 20
-0.333
 30
9.7842
 70
192
 0
VERTEX
 8
W_RFEL
 10
-23.0539
 20
-0.2221
 30
9.7344
 70
192
 0
VERTEX
 8
W_RFEL
 10
-22.8693
 20
-0.4826
 30
12.8842
 70
192
 0
VERTEX
 8
W_RFEL
 10
-23.0539
 20
0.2019
 30
12.9339
 70
192
 0
VERTEX
 8
W_RFEL
 10
-18.9422
 20
-0.608
 30
9.735
 70
192
 0
VERTEX
 8
W_RFEL
 10
-22.9947
 20
0.3128
 30
9.7842
 70
192
 0
VERTEX
 8
W_RFEL
 10
-18.5805
 20
0.2019
 30
9.7344
 70
192
 0
VERTEX
 8
W_RFEL
 10
-18.9422
 20
0.5878
 30
12.9333
 70
192
 0
VERTEX
 8
W_RFEL
 10
-22.5813
 20
0.5896
 30
12.8988
 70
192
 0
VERTEX
 8
W_RFEL
 10
-18.5699
 20
0.0946
 30
12.8842
 70
192
 0
VERTEX
 8
W_RFEL
 10
-22.6921
 20
0.5878
 30
9.735
 70
192
 0
VERTEX
 8
W_RFEL
 10
-18.8065
 20
-0.5246
 30
12.9354
 70
192
 0
VERTEX
 8
W_RFEL
 10
-19.053
 20
-0.6099
 30
12.8988
 70
192
 0
VERTEX
 8
W_RFEL
 10
-18.8065
 20
0.5044
 30
9.7329
 70
192
 0
VERTEX
 8
W_RFEL
 10
-22.5813
 20
-0.6099
 30
9.7696
 70
192
 0
VERTEX
 8
W_RFEL
 10
0
 20
0
 30
0
 70
128
 71
12
 72
2
 73
14
 74
14
 0
VERTEX
 8
W_RFEL
 10
0
 20
0
 30
0
 70
128
 71
22
 72
18
 73
6
 74
6
 0
VERTEX
 8
W_RFEL
 10
0
 20
0
 30
0
 70
128
 71
6
 72
20
 73
17
 74
17
 0
VERTEX
 8
W_RFEL
 10
0
 20
0
 30
0
 70
128
 71
22
 72
11
 73
15
 74
15
 0
VERTEX
 8
W_RFEL
 10
0
 20
0
 30
0
 70
128
 71
21
 72
4
 73
18
 74
18
 0
VERTEX
 8
W_RFEL
 10
0
 20
0
 30
0
 70
128
 71
15
 72
25
 73
9
 74
9
 0
VERTEX
 8
W_RFEL
 10
0
 20
0
 30
0
 70
128
 71
15
 72
21
 73
1
 74
1
 0
VERTEX
 8
W_RFEL
 10
0
 20
0
 30
0
 70
128
 71
1
 72
7
 73
13
 74
13
 0
VERTEX
 8
W_RFEL
 10
0
 20
0
 30
0
 70
128
 71
8
 72
7
 73
12
 74
12
 0
VERTEX
 8
W_RFEL
 10
0
 20
0
 30
0
 70
128
 71
2
 72
16
 73
14
 74
14
 0
VERTEX
 8
W_RFEL
 10
0
 20
0
 30
0
 70
128
 71
17
 72
3
 73
24
 74
24
 0
VERTEX
 8
W_RFEL
 10
0
 20
0
 30
0
 70
128
 71
9
 72
10
 73
18
 74
18
 0
VERTEX
 8
W_RFEL
 10
0
 20
0
 30
0
 70
128
 71
6
 72
11
 73
22
 74
22
 0
VERTEX
 8
W_RFEL
 10
0
 20
0
 30
0
 70
128
 71
18
 72
4
 73
24
 74
24
 0
VERTEX
 8
W_RFEL
 10
0
 20
0
 30
0
 70
128
 71
10
 72
16
 73
21
 74
21
 0
VERTEX
 8
W_RFEL
 10
0
 20
0
 30
0
 70
128
 71
9
 72
25
 73
1
 74
1
 0
VERTEX
 8
W_RFEL
 10
0
 20
0
 30
0
 70
128
 71
5
 72
11
 73
6
 74
6
 0
VERTEX
 8
W_RFEL
 10
0
 20
0
 30
0
 70
128
 71
1
 72
21
 73
12
 74
12
 0
VERTEX
 8
W_RFEL
 10
0
 20
0
 30
0
 70
128
 71
15
 72
9
 73
23
 74
23
 0
VERTEX
 8
W_RFEL
 10
0
 20
0
 30
0
 70
128
 71
24
 72
4
 73
21
 74
21
 0
VERTEX
 8
W_RFEL
 10
0
 20
0
 30
0
 70
128
 71
11
 72
5
 73
15
 74
15
 0
VERTEX
 8
W_RFEL
 10
0
 20
0
 30
0
 70
128
 71
9
 72
14
 73
10
 74
10
 0
VERTEX
 8
W_RFEL
 10
0
 20
0
 30
0
 70
128
 71
9
 72
18
 73
22
 74
22
 0
VERTEX
 8
W_RFEL
 10
0
 20
0
 30
0
 70
128
 71
14
 72
16
 73
10
 74
10
 0
VERTEX
 8
W_RFEL
 10
0
 20
0
 30
0
 70
128
 71
9
 72
8
 73
14
 74
14
 0
VERTEX
 8
W_RFEL
 10
0
 20
0
 30
0
 70
128
 71
12
 72
7
 73
1
 74
1
 0
VERTEX
 8
W_RFEL
 10
0
 20
0
 30
0
 70
128
 71
15
 72
17
 73
24
 74
24
 0
VERTEX
 8
W_RFEL
 10
0
 20
0
 30
0
 70
128
 71
18
 72
20
 73
6
 74
6
 0
VERTEX
 8
W_RFEL
 10
0
 20
0
 30
0
 70
128
 71
18
 72
10
 73
19
 74
19
 0
VERTEX
 8
W_RFEL
 10
0
 20
0
 30
0
 70
128
 71
20
 72
3
 73
17
 74
17
 0
VERTEX
 8
W_RFEL
 10
0
 20
0
 30
0
 70
128
 71
22
 72
23
 73
9
 74
9
 0
VERTEX
 8
W_RFEL
 10
0
 20
0
 30
0
 70
128
 71
7
 72
9
 73
13
 74
13
 0
VERTEX
 8
W_RFEL
 10
0
 20
0
 30
0
 70
128
 71
1
 72
13
 73
9
 74
9
 0
VERTEX
 8
W_RFEL
 10
0
 20
0
 30
0
 70
128
 71
21
 72
2
 73
12
 74
12
 0
VERTEX
 8
W_RFEL
 10
0
 20
0
 30
0
 70
128
 71
21
 72
19
 73
10
 74
10
 0
VERTEX
 8
W_RFEL
 10
0
 20
0
 30
0
 70
128
 71
9
 72
7
 73
8
 74
8
 0
VERTEX
 8
W_RFEL
 10
0
 20
0
 30
0
 70
128
 71
12
 72
14
 73
8
 74
8
 0
VERTEX
 8
W_RFEL
 10
0
 20
0
 30
0
 70
128
 71
21
 72
18
 73
19
 74
19
 0
VERTEX
 8
W_RFEL
 10
0
 20
0
 30
0
 70
128
 71
24
 72
3
 73
18
 74
18
 0
VERTEX
 8
W_RFEL
 10
0
 20
0
 30
0
 70
128
 71
15
 72
5
 73
17
 74
17
 0
VERTEX
 8
W_RFEL
 10
0
 20
0
 30
0
 70
128
 71
18
 72
3
 73
20
 74
20
 0
VERTEX
 8
W_RFEL
 10
0
 20
0
 30
0
 70
128
 71
1
 72
25
 73
15
 74
15
 0
VERTEX
 8
W_RFEL
 10
0
 20
0
 30
0
 70
128
 71
16
 72
2
 73
21
 74
21
 0
VERTEX
 8
W_RFEL
 10
0
 20
0
 30
0
 70
128
 71
15
 72
24
 73
21
 74
21
 0
VERTEX
 8
W_RFEL
 10
0
 20
0
 30
0
 70
128
 71
15
 72
23
 73
22
 74
22
 0
VERTEX
 8
W_RFEL
 10
0
 20
0
 30
0
 70
128
 71
6
 72
17
 73
5
 74
5
 0
SEQEND
 0
ENDSEC
 0
EOF
