 0
SECTION
 2
HEADER
 9
$ACADVER
 1
AC1009
 0
ENDSEC
 0
SECTION
 2
TABLES
 0
TABLE
 2
LTYPE
 70
1
 0
LTYPE
 2
CONTINUOUS
 70
64
 3
solid line
 72
65
 73
0
 40
0.0
 0
ENDTAB
 0
TABLE
 2
LAYER
 70
6
 0
LAYER
 2
0
 70
0
 62
7
 6
CONTINUOUS
 0
LAYER
 2
230_2480_M
 70
64
 62
7
 6
CONTINUOUS
 0
LAYER
 2
ROSETTE
 70
64
 62
250
 6
CONTINUOUS
 0
LAYER
 2
KEGEL
 70
64
 62
250
 6
CONTINUOUS
 0
LAYER
 2
W_RFEL
 70
64
 62
250
 6
CONTINUOUS
 0
LAYER
 2
ZYLINDER
 70
64
 62
250
 6
CONTINUOUS
 0
LAYER
 2
ZYLINDE1
 70
64
 62
250
 6
CONTINUOUS
 0
LAYER
 2
W_RFE1
 70
64
 62
250
 6
CONTINUOUS
 0
LAYER
 2
ROSETT2
 70
64
 62
250
 6
CONTINUOUS
 0
LAYER
 2
W_RFE2
 70
64
 62
250
 6
CONTINUOUS
 0
LAYER
 2
ROSETT4
 70
64
 62
250
 6
CONTINUOUS
 0
LAYER
 2
W_RF3
 70
64
 62
250
 6
CONTINUOUS
 0
LAYER
 2
ROSETT5
 70
64
 62
250
 6
CONTINUOUS
 0
ENDTAB
 0
ENDSEC
 0
SECTION
 2
BLOCKS
 0
ENDSEC
 0
SECTION
 2
ENTITIES
 0
POLYLINE
 8
ROSETTE
 66
1
 10
0.0
 20
0.0
 30
0.0
 70
64
 71
38
 72
72
 0
VERTEX
 8
ROSETTE
 10
22.0034
 20
-2.6282
 30
8.8236
 70
192
 0
VERTEX
 8
ROSETTE
 10
22.4009
 20
-2.5142
 30
9.3236
 70
192
 0
VERTEX
 8
ROSETTE
 10
22.7534
 20
-1.8782
 30
9.3236
 70
192
 0
VERTEX
 8
ROSETTE
 10
17.2709
 20
2.1214
 30
8.7856
 70
192
 0
VERTEX
 8
ROSETTE
 10
22.4009
 20
2.7578
 30
9.3236
 70
192
 0
VERTEX
 8
ROSETTE
 10
22.4009
 20
2.7578
 30
8.8236
 70
192
 0
VERTEX
 8
ROSETTE
 10
22.7275
 20
2.3486
 30
8.7736
 70
192
 0
VERTEX
 8
ROSETTE
 10
22.0031
 20
2.8543
 30
8.7856
 70
192
 0
VERTEX
 8
ROSETTE
 10
22.7275
 20
-2.105
 30
9.3735
 70
192
 0
VERTEX
 8
ROSETTE
 10
22.736
 20
-1.8779
 30
8.7856
 70
192
 0
VERTEX
 8
ROSETTE
 10
17.2793
 20
2.3486
 30
9.3735
 70
192
 0
VERTEX
 8
ROSETTE
 10
17.2793
 20
-2.105
 30
8.7736
 70
192
 0
VERTEX
 8
ROSETTE
 10
22.6394
 20
-2.2757
 30
9.3236
 70
192
 0
VERTEX
 8
ROSETTE
 10
17.3674
 20
2.5193
 30
8.8236
 70
192
 0
VERTEX
 8
ROSETTE
 10
22.736
 20
2.1214
 30
9.3615
 70
192
 0
VERTEX
 8
ROSETTE
 10
22.0031
 20
-2.6108
 30
9.3615
 70
192
 0
VERTEX
 8
ROSETTE
 10
17.3674
 20
2.5193
 30
9.3236
 70
192
 0
VERTEX
 8
ROSETTE
 10
18.0038
 20
2.8543
 30
9.3615
 70
192
 0
VERTEX
 8
ROSETTE
 10
22.0034
 20
2.8718
 30
9.3236
 70
192
 0
VERTEX
 8
ROSETTE
 10
22.6888
 20
2.4264
 30
9.3236
 70
192
 0
VERTEX
 8
ROSETTE
 10
17.7544
 20
-2.5979
 30
9.3735
 70
192
 0
VERTEX
 8
ROSETTE
 10
22.2302
 20
-2.6023
 30
8.7737
 70
192
 0
VERTEX
 8
ROSETTE
 10
22.6888
 20
-2.1828
 30
8.8236
 70
192
 0
VERTEX
 8
ROSETTE
 10
17.2534
 20
2.1218
 30
9.3236
 70
192
 0
VERTEX
 8
ROSETTE
 10
17.6059
 20
-2.5142
 30
8.8236
 70
192
 0
VERTEX
 8
ROSETTE
 10
22.4009
 20
-2.5142
 30
8.8236
 70
192
 0
VERTEX
 8
ROSETTE
 10
17.6059
 20
2.7578
 30
9.3236
 70
192
 0
VERTEX
 8
ROSETTE
 10
17.2709
 20
-1.8779
 30
9.3615
 70
192
 0
VERTEX
 8
ROSETTE
 10
22.7534
 20
2.1218
 30
8.8236
 70
192
 0
VERTEX
 8
ROSETTE
 10
17.2534
 20
-1.8782
 30
8.8236
 70
192
 0
VERTEX
 8
ROSETTE
 10
17.3674
 20
-2.2757
 30
9.3236
 70
192
 0
VERTEX
 8
ROSETTE
 10
17.3674
 20
-2.2757
 30
8.8236
 70
192
 0
VERTEX
 8
ROSETTE
 10
22.6394
 20
2.5193
 30
8.8236
 70
192
 0
VERTEX
 8
ROSETTE
 10
18.0034
 20
-2.6282
 30
9.3236
 70
192
 0
VERTEX
 8
ROSETTE
 10
18.0034
 20
2.8718
 30
8.8236
 70
192
 0
VERTEX
 8
ROSETTE
 10
22.2302
 20
2.8459
 30
9.3735
 70
192
 0
VERTEX
 8
ROSETTE
 10
17.7544
 20
2.8415
 30
8.7736
 70
192
 0
VERTEX
 8
ROSETTE
 10
18.0038
 20
-2.6108
 30
8.7856
 70
192
 0
VERTEX
 8
ROSETTE
 10
0
 20
0
 30
0
 70
128
 71
30
 72
4
 73
24
 74
24
 0
VERTEX
 8
ROSETTE
 10
0
 20
0
 30
0
 70
128
 71
11
 72
27
 73
18
 74
18
 0
VERTEX
 8
ROSETTE
 10
0
 20
0
 30
0
 70
128
 71
3
 72
15
 73
29
 74
29
 0
VERTEX
 8
ROSETTE
 10
0
 20
0
 30
0
 70
128
 71
24
 72
17
 73
11
 74
11
 0
VERTEX
 8
ROSETTE
 10
0
 20
0
 30
0
 70
128
 71
35
 72
8
 73
19
 74
19
 0
VERTEX
 8
ROSETTE
 10
0
 20
0
 30
0
 70
128
 71
1
 72
38
 73
34
 74
34
 0
VERTEX
 8
ROSETTE
 10
0
 20
0
 30
0
 70
128
 71
15
 72
20
 73
29
 74
29
 0
VERTEX
 8
ROSETTE
 10
0
 20
0
 30
0
 70
128
 71
23
 72
22
 73
26
 74
26
 0
VERTEX
 8
ROSETTE
 10
0
 20
0
 30
0
 70
128
 71
26
 72
22
 73
1
 74
1
 0
VERTEX
 8
ROSETTE
 10
0
 20
0
 30
0
 70
128
 71
28
 72
32
 73
30
 74
30
 0
VERTEX
 8
ROSETTE
 10
0
 20
0
 30
0
 70
128
 71
13
 72
23
 73
26
 74
26
 0
VERTEX
 8
ROSETTE
 10
0
 20
0
 30
0
 70
128
 71
23
 72
10
 73
22
 74
22
 0
VERTEX
 8
ROSETTE
 10
0
 20
0
 30
0
 70
128
 71
7
 72
33
 73
6
 74
6
 0
VERTEX
 8
ROSETTE
 10
0
 20
0
 30
0
 70
128
 71
11
 72
21
 73
28
 74
28
 0
VERTEX
 8
ROSETTE
 10
0
 20
0
 30
0
 70
128
 71
13
 72
9
 73
3
 74
3
 0
VERTEX
 8
ROSETTE
 10
0
 20
0
 30
0
 70
128
 71
28
 72
31
 73
32
 74
32
 0
VERTEX
 8
ROSETTE
 10
0
 20
0
 30
0
 70
128
 71
36
 72
11
 73
18
 74
18
 0
VERTEX
 8
ROSETTE
 10
0
 20
0
 30
0
 70
128
 71
11
 72
36
 73
9
 74
9
 0
VERTEX
 8
ROSETTE
 10
0
 20
0
 30
0
 70
128
 71
1
 72
34
 73
16
 74
16
 0
VERTEX
 8
ROSETTE
 10
0
 20
0
 30
0
 70
128
 71
18
 72
37
 73
35
 74
35
 0
VERTEX
 8
ROSETTE
 10
0
 20
0
 30
0
 70
128
 71
5
 72
8
 73
6
 74
6
 0
VERTEX
 8
ROSETTE
 10
0
 20
0
 30
0
 70
128
 71
37
 72
18
 73
27
 74
27
 0
VERTEX
 8
ROSETTE
 10
0
 20
0
 30
0
 70
128
 71
14
 72
37
 73
27
 74
27
 0
VERTEX
 8
ROSETTE
 10
0
 20
0
 30
0
 70
128
 71
29
 72
7
 73
10
 74
10
 0
VERTEX
 8
ROSETTE
 10
0
 20
0
 30
0
 70
128
 71
33
 72
5
 73
6
 74
6
 0
VERTEX
 8
ROSETTE
 10
0
 20
0
 30
0
 70
128
 71
14
 72
4
 73
37
 74
37
 0
VERTEX
 8
ROSETTE
 10
0
 20
0
 30
0
 70
128
 71
35
 72
19
 73
18
 74
18
 0
VERTEX
 8
ROSETTE
 10
0
 20
0
 30
0
 70
128
 71
7
 72
6
 73
8
 74
8
 0
VERTEX
 8
ROSETTE
 10
0
 20
0
 30
0
 70
128
 71
4
 72
14
 73
17
 74
17
 0
VERTEX
 8
ROSETTE
 10
0
 20
0
 30
0
 70
128
 71
9
 72
36
 73
15
 74
15
 0
VERTEX
 8
ROSETTE
 10
0
 20
0
 30
0
 70
128
 71
30
 72
24
 73
28
 74
28
 0
VERTEX
 8
ROSETTE
 10
0
 20
0
 30
0
 70
128
 71
4
 72
30
 73
12
 74
12
 0
VERTEX
 8
ROSETTE
 10
0
 20
0
 30
0
 70
128
 71
20
 72
15
 73
36
 74
36
 0
VERTEX
 8
ROSETTE
 10
0
 20
0
 30
0
 70
128
 71
10
 72
23
 73
3
 74
3
 0
VERTEX
 8
ROSETTE
 10
0
 20
0
 30
0
 70
128
 71
21
 72
9
 73
16
 74
16
 0
VERTEX
 8
ROSETTE
 10
0
 20
0
 30
0
 70
128
 71
25
 72
12
 73
32
 74
32
 0
VERTEX
 8
ROSETTE
 10
0
 20
0
 30
0
 70
128
 71
4
 72
17
 73
24
 74
24
 0
VERTEX
 8
ROSETTE
 10
0
 20
0
 30
0
 70
128
 71
3
 72
29
 73
10
 74
10
 0
VERTEX
 8
ROSETTE
 10
0
 20
0
 30
0
 70
128
 71
11
 72
9
 73
21
 74
21
 0
VERTEX
 8
ROSETTE
 10
0
 20
0
 30
0
 70
128
 71
33
 72
7
 73
29
 74
29
 0
VERTEX
 8
ROSETTE
 10
0
 20
0
 30
0
 70
128
 71
5
 72
19
 73
8
 74
8
 0
VERTEX
 8
ROSETTE
 10
0
 20
0
 30
0
 70
128
 71
22
 72
12
 73
38
 74
38
 0
VERTEX
 8
ROSETTE
 10
0
 20
0
 30
0
 70
128
 71
31
 72
21
 73
25
 74
25
 0
VERTEX
 8
ROSETTE
 10
0
 20
0
 30
0
 70
128
 71
19
 72
36
 73
18
 74
18
 0
VERTEX
 8
ROSETTE
 10
0
 20
0
 30
0
 70
128
 71
16
 72
34
 73
21
 74
21
 0
VERTEX
 8
ROSETTE
 10
0
 20
0
 30
0
 70
128
 71
1
 72
22
 73
38
 74
38
 0
VERTEX
 8
ROSETTE
 10
0
 20
0
 30
0
 70
128
 71
13
 72
26
 73
2
 74
2
 0
VERTEX
 8
ROSETTE
 10
0
 20
0
 30
0
 70
128
 71
20
 72
33
 73
29
 74
29
 0
VERTEX
 8
ROSETTE
 10
0
 20
0
 30
0
 70
128
 71
37
 72
7
 73
8
 74
8
 0
VERTEX
 8
ROSETTE
 10
0
 20
0
 30
0
 70
128
 71
7
 72
37
 73
12
 74
12
 0
VERTEX
 8
ROSETTE
 10
0
 20
0
 30
0
 70
128
 71
21
 72
38
 73
25
 74
25
 0
VERTEX
 8
ROSETTE
 10
0
 20
0
 30
0
 70
128
 71
25
 72
38
 73
12
 74
12
 0
VERTEX
 8
ROSETTE
 10
0
 20
0
 30
0
 70
128
 71
20
 72
36
 73
5
 74
5
 0
VERTEX
 8
ROSETTE
 10
0
 20
0
 30
0
 70
128
 71
5
 72
36
 73
19
 74
19
 0
VERTEX
 8
ROSETTE
 10
0
 20
0
 30
0
 70
128
 71
17
 72
14
 73
27
 74
27
 0
VERTEX
 8
ROSETTE
 10
0
 20
0
 30
0
 70
128
 71
28
 72
24
 73
11
 74
11
 0
VERTEX
 8
ROSETTE
 10
0
 20
0
 30
0
 70
128
 71
9
 72
2
 73
16
 74
16
 0
VERTEX
 8
ROSETTE
 10
0
 20
0
 30
0
 70
128
 71
32
 72
31
 73
25
 74
25
 0
VERTEX
 8
ROSETTE
 10
0
 20
0
 30
0
 70
128
 71
7
 72
22
 73
10
 74
10
 0
VERTEX
 8
ROSETTE
 10
0
 20
0
 30
0
 70
128
 71
35
 72
37
 73
8
 74
8
 0
VERTEX
 8
ROSETTE
 10
0
 20
0
 30
0
 70
128
 71
26
 72
1
 73
16
 74
16
 0
VERTEX
 8
ROSETTE
 10
0
 20
0
 30
0
 70
128
 71
12
 72
37
 73
4
 74
4
 0
VERTEX
 8
ROSETTE
 10
0
 20
0
 30
0
 70
128
 71
9
 72
13
 73
2
 74
2
 0
VERTEX
 8
ROSETTE
 10
0
 20
0
 30
0
 70
128
 71
33
 72
20
 73
5
 74
5
 0
VERTEX
 8
ROSETTE
 10
0
 20
0
 30
0
 70
128
 71
26
 72
16
 73
2
 74
2
 0
VERTEX
 8
ROSETTE
 10
0
 20
0
 30
0
 70
128
 71
15
 72
3
 73
9
 74
9
 0
VERTEX
 8
ROSETTE
 10
0
 20
0
 30
0
 70
128
 71
38
 72
21
 73
34
 74
34
 0
VERTEX
 8
ROSETTE
 10
0
 20
0
 30
0
 70
128
 71
23
 72
13
 73
3
 74
3
 0
VERTEX
 8
ROSETTE
 10
0
 20
0
 30
0
 70
128
 71
32
 72
12
 73
30
 74
30
 0
VERTEX
 8
ROSETTE
 10
0
 20
0
 30
0
 70
128
 71
7
 72
12
 73
22
 74
22
 0
VERTEX
 8
ROSETTE
 10
0
 20
0
 30
0
 70
128
 71
31
 72
28
 73
21
 74
21
 0
VERTEX
 8
ROSETTE
 10
0
 20
0
 30
0
 70
128
 71
11
 72
17
 73
27
 74
27
 0
SEQEND
 0
POLYLINE
 8
KEGEL
 66
1
 10
0.0
 20
0.0
 30
0.0
 70
64
 71
31
 72
30
 0
VERTEX
 8
KEGEL
 10
19.9987
 20
-0.7831
 30
13.1745
 70
192
 0
VERTEX
 8
KEGEL
 10
19.9987
 20
-2.2385
 30
12.8116
 70
192
 0
VERTEX
 8
KEGEL
 10
20.6088
 20
-2.1127
 30
12.843
 70
192
 0
VERTEX
 8
KEGEL
 10
21.1134
 20
-1.757
 30
12.9317
 70
192
 0
VERTEX
 8
KEGEL
 10
21.4253
 20
-1.2328
 30
13.0623
 70
192
 0
VERTEX
 8
KEGEL
 10
21.4905
 20
-0.631
 30
13.2124
 70
192
 0
VERTEX
 8
KEGEL
 10
21.2977
 20
-0.0554
 30
13.3559
 70
192
 0
VERTEX
 8
KEGEL
 10
20.8804
 20
0.3944
 30
13.468
 70
192
 0
VERTEX
 8
KEGEL
 10
20.3105
 20
0.6406
 30
13.5294
 70
192
 0
VERTEX
 8
KEGEL
 10
19.6868
 20
0.6406
 30
13.5294
 70
192
 0
VERTEX
 8
KEGEL
 10
19.117
 20
0.3944
 30
13.468
 70
192
 0
VERTEX
 8
KEGEL
 10
18.6996
 20
-0.0554
 30
13.3559
 70
192
 0
VERTEX
 8
KEGEL
 10
18.5069
 20
-0.631
 30
13.2124
 70
192
 0
VERTEX
 8
KEGEL
 10
18.5721
 20
-1.2328
 30
13.0623
 70
192
 0
VERTEX
 8
KEGEL
 10
18.884
 20
-1.757
 30
12.9317
 70
192
 0
VERTEX
 8
KEGEL
 10
19.3886
 20
-2.1127
 30
12.843
 70
192
 0
VERTEX
 8
KEGEL
 10
19.9987
 20
-1.7572
 30
8.9782
 70
192
 0
VERTEX
 8
KEGEL
 10
20.798
 20
-1.5871
 30
8.9782
 70
192
 0
VERTEX
 8
KEGEL
 10
21.4696
 20
-1.1018
 30
8.9782
 70
192
 0
VERTEX
 8
KEGEL
 10
21.9012
 20
-0.3739
 30
8.9782
 70
192
 0
VERTEX
 8
KEGEL
 10
22.0129
 20
0.4813
 30
8.9782
 70
192
 0
VERTEX
 8
KEGEL
 10
21.7737
 20
1.3194
 30
8.9782
 70
192
 0
VERTEX
 8
KEGEL
 10
21.2148
 20
1.9883
 30
8.9782
 70
192
 0
VERTEX
 8
KEGEL
 10
20.4311
 20
2.3598
 30
8.9782
 70
192
 0
VERTEX
 8
KEGEL
 10
19.5663
 20
2.3598
 30
8.9782
 70
192
 0
VERTEX
 8
KEGEL
 10
18.7825
 20
1.9883
 30
8.9782
 70
192
 0
VERTEX
 8
KEGEL
 10
18.2236
 20
1.3194
 30
8.9782
 70
192
 0
VERTEX
 8
KEGEL
 10
17.9845
 20
0.4813
 30
8.9782
 70
192
 0
VERTEX
 8
KEGEL
 10
18.0961
 20
-0.3739
 30
8.9782
 70
192
 0
VERTEX
 8
KEGEL
 10
18.5277
 20
-1.1018
 30
8.9782
 70
192
 0
VERTEX
 8
KEGEL
 10
19.1993
 20
-1.5871
 30
8.9782
 70
192
 0
VERTEX
 8
KEGEL
 10
0
 20
0
 30
0
 70
128
 71
17
 72
2
 73
3
 74
18
 0
VERTEX
 8
KEGEL
 10
0
 20
0
 30
0
 70
128
 71
2
 72
1
 73
3
 74
3
 0
VERTEX
 8
KEGEL
 10
0
 20
0
 30
0
 70
128
 71
18
 72
3
 73
4
 74
19
 0
VERTEX
 8
KEGEL
 10
0
 20
0
 30
0
 70
128
 71
3
 72
1
 73
4
 74
4
 0
VERTEX
 8
KEGEL
 10
0
 20
0
 30
0
 70
128
 71
19
 72
4
 73
5
 74
20
 0
VERTEX
 8
KEGEL
 10
0
 20
0
 30
0
 70
128
 71
4
 72
1
 73
5
 74
5
 0
VERTEX
 8
KEGEL
 10
0
 20
0
 30
0
 70
128
 71
20
 72
5
 73
6
 74
21
 0
VERTEX
 8
KEGEL
 10
0
 20
0
 30
0
 70
128
 71
5
 72
1
 73
6
 74
6
 0
VERTEX
 8
KEGEL
 10
0
 20
0
 30
0
 70
128
 71
21
 72
6
 73
7
 74
22
 0
VERTEX
 8
KEGEL
 10
0
 20
0
 30
0
 70
128
 71
6
 72
1
 73
7
 74
7
 0
VERTEX
 8
KEGEL
 10
0
 20
0
 30
0
 70
128
 71
7
 72
8
 73
23
 74
22
 0
VERTEX
 8
KEGEL
 10
0
 20
0
 30
0
 70
128
 71
7
 72
1
 73
8
 74
8
 0
VERTEX
 8
KEGEL
 10
0
 20
0
 30
0
 70
128
 71
23
 72
8
 73
9
 74
24
 0
VERTEX
 8
KEGEL
 10
0
 20
0
 30
0
 70
128
 71
8
 72
1
 73
9
 74
9
 0
VERTEX
 8
KEGEL
 10
0
 20
0
 30
0
 70
128
 71
24
 72
9
 73
10
 74
25
 0
VERTEX
 8
KEGEL
 10
0
 20
0
 30
0
 70
128
 71
9
 72
1
 73
10
 74
10
 0
VERTEX
 8
KEGEL
 10
0
 20
0
 30
0
 70
128
 71
25
 72
10
 73
11
 74
26
 0
VERTEX
 8
KEGEL
 10
0
 20
0
 30
0
 70
128
 71
10
 72
1
 73
11
 74
11
 0
VERTEX
 8
KEGEL
 10
0
 20
0
 30
0
 70
128
 71
26
 72
11
 73
12
 74
27
 0
VERTEX
 8
KEGEL
 10
0
 20
0
 30
0
 70
128
 71
11
 72
1
 73
12
 74
12
 0
VERTEX
 8
KEGEL
 10
0
 20
0
 30
0
 70
128
 71
27
 72
12
 73
13
 74
28
 0
VERTEX
 8
KEGEL
 10
0
 20
0
 30
0
 70
128
 71
12
 72
1
 73
13
 74
13
 0
VERTEX
 8
KEGEL
 10
0
 20
0
 30
0
 70
128
 71
13
 72
14
 73
29
 74
28
 0
VERTEX
 8
KEGEL
 10
0
 20
0
 30
0
 70
128
 71
13
 72
1
 73
14
 74
14
 0
VERTEX
 8
KEGEL
 10
0
 20
0
 30
0
 70
128
 71
29
 72
14
 73
15
 74
30
 0
VERTEX
 8
KEGEL
 10
0
 20
0
 30
0
 70
128
 71
14
 72
1
 73
15
 74
15
 0
VERTEX
 8
KEGEL
 10
0
 20
0
 30
0
 70
128
 71
30
 72
15
 73
16
 74
31
 0
VERTEX
 8
KEGEL
 10
0
 20
0
 30
0
 70
128
 71
15
 72
1
 73
16
 74
16
 0
VERTEX
 8
KEGEL
 10
0
 20
0
 30
0
 70
128
 71
31
 72
16
 73
2
 74
17
 0
VERTEX
 8
KEGEL
 10
0
 20
0
 30
0
 70
128
 71
16
 72
1
 73
2
 74
2
 0
SEQEND
 0
POLYLINE
 8
W_RFEL
 66
1
 10
0.0
 20
0.0
 30
0.0
 70
64
 71
15
 72
7
 0
VERTEX
 8
W_RFEL
 10
19.9987
 20
-1.7572
 30
8.9782
 70
192
 0
VERTEX
 8
W_RFEL
 10
20.798
 20
-1.5871
 30
8.9782
 70
192
 0
VERTEX
 8
W_RFEL
 10
21.4696
 20
-1.1018
 30
8.9782
 70
192
 0
VERTEX
 8
W_RFEL
 10
21.9012
 20
-0.3739
 30
8.9782
 70
192
 0
VERTEX
 8
W_RFEL
 10
22.0129
 20
0.4813
 30
8.9782
 70
192
 0
VERTEX
 8
W_RFEL
 10
21.7737
 20
1.3194
 30
8.9782
 70
192
 0
VERTEX
 8
W_RFEL
 10
21.2148
 20
1.9883
 30
8.9782
 70
192
 0
VERTEX
 8
W_RFEL
 10
20.4311
 20
2.3598
 30
8.9782
 70
192
 0
VERTEX
 8
W_RFEL
 10
19.5663
 20
2.3598
 30
8.9782
 70
192
 0
VERTEX
 8
W_RFEL
 10
18.7825
 20
1.9883
 30
8.9782
 70
192
 0
VERTEX
 8
W_RFEL
 10
18.2236
 20
1.3194
 30
8.9782
 70
192
 0
VERTEX
 8
W_RFEL
 10
17.9845
 20
0.4813
 30
8.9782
 70
192
 0
VERTEX
 8
W_RFEL
 10
18.0961
 20
-0.3739
 30
8.9782
 70
192
 0
VERTEX
 8
W_RFEL
 10
18.5277
 20
-1.1018
 30
8.9782
 70
192
 0
VERTEX
 8
W_RFEL
 10
19.1993
 20
-1.5871
 30
8.9782
 70
192
 0
VERTEX
 8
W_RFEL
 10
0
 20
0
 30
0
 70
128
 71
9
 72
10
 73
7
 74
8
 0
VERTEX
 8
W_RFEL
 10
0
 20
0
 30
0
 70
128
 71
11
 72
12
 73
7
 74
10
 0
VERTEX
 8
W_RFEL
 10
0
 20
0
 30
0
 70
128
 71
14
 72
15
 73
1
 74
13
 0
VERTEX
 8
W_RFEL
 10
0
 20
0
 30
0
 70
128
 71
5
 72
6
 73
3
 74
4
 0
VERTEX
 8
W_RFEL
 10
0
 20
0
 30
0
 70
128
 71
3
 72
6
 73
13
 74
13
 0
VERTEX
 8
W_RFEL
 10
0
 20
0
 30
0
 70
128
 71
12
 72
13
 73
6
 74
7
 0
VERTEX
 8
W_RFEL
 10
0
 20
0
 30
0
 70
128
 71
2
 72
3
 73
13
 74
1
 0
SEQEND
 0
POLYLINE
 8
ZYLINDER
 66
1
 10
0.0
 20
0.0
 30
0.0
 70
64
 71
205
 72
196
 0
VERTEX
 8
ZYLINDER
 10
19.9443
 20
-6.5476
 30
30.1391
 70
192
 0
VERTEX
 8
ZYLINDER
 10
20.0208
 20
-5.7406
 30
31.5075
 70
192
 0
VERTEX
 8
ZYLINDER
 10
20.0207
 20
-5.2309
 30
25.4324
 70
192
 0
VERTEX
 8
ZYLINDER
 10
20.0207
 20
-5.3166
 30
25.4819
 70
192
 0
VERTEX
 8
ZYLINDER
 10
20.0208
 20
-6.8333
 30
31.1423
 70
192
 0
VERTEX
 8
ZYLINDER
 10
20.0208
 20
-6.7838
 30
31.228
 70
192
 0
VERTEX
 8
ZYLINDER
 10
20.46
 20
-5.1407
 30
25.4566
 70
192
 0
VERTEX
 8
ZYLINDER
 10
20.4885
 20
-5.2206
 30
25.5077
 70
192
 0
VERTEX
 8
ZYLINDER
 10
20.4886
 20
-6.7372
 30
31.168
 70
192
 0
VERTEX
 8
ZYLINDER
 10
20.4601
 20
-6.6936
 30
31.2522
 70
192
 0
VERTEX
 8
ZYLINDER
 10
20.8233
 20
-4.8857
 30
25.5249
 70
192
 0
VERTEX
 8
ZYLINDER
 10
20.8753
 20
-4.9491
 30
25.5804
 70
192
 0
VERTEX
 8
ZYLINDER
 10
20.8754
 20
-6.4657
 30
31.2407
 70
192
 0
VERTEX
 8
ZYLINDER
 10
20.8234
 20
-6.4386
 30
31.3205
 70
192
 0
VERTEX
 8
ZYLINDER
 10
21.0479
 20
-4.51
 30
25.6256
 70
192
 0
VERTEX
 8
ZYLINDER
 10
21.1144
 20
-4.549
 30
25.6876
 70
192
 0
VERTEX
 8
ZYLINDER
 10
21.1145
 20
-6.0657
 30
31.3479
 70
192
 0
VERTEX
 8
ZYLINDER
 10
21.0479
 20
-6.0629
 30
31.4211
 70
192
 0
VERTEX
 8
ZYLINDER
 10
21.0948
 20
-4.0786
 30
25.7412
 70
192
 0
VERTEX
 8
ZYLINDER
 10
21.1644
 20
-4.0897
 30
25.8107
 70
192
 0
VERTEX
 8
ZYLINDER
 10
21.1645
 20
-5.6064
 30
31.471
 70
192
 0
VERTEX
 8
ZYLINDER
 10
21.0949
 20
-5.6315
 30
31.5367
 70
192
 0
VERTEX
 8
ZYLINDER
 10
20.956
 20
-3.6661
 30
25.8517
 70
192
 0
VERTEX
 8
ZYLINDER
 10
21.0166
 20
-3.6504
 30
25.9284
 70
192
 0
VERTEX
 8
ZYLINDER
 10
21.0167
 20
-5.1671
 30
31.5887
 70
192
 0
VERTEX
 8
ZYLINDER
 10
20.9561
 20
-5.219
 30
31.6473
 70
192
 0
VERTEX
 8
ZYLINDER
 10
20.6555
 20
-3.3437
 30
25.9381
 70
192
 0
VERTEX
 8
ZYLINDER
 10
20.6967
 20
-3.3071
 30
26.0204
 70
192
 0
VERTEX
 8
ZYLINDER
 10
20.6967
 20
-4.8238
 30
31.6807
 70
192
 0
VERTEX
 8
ZYLINDER
 10
20.6556
 20
-4.8966
 30
31.7337
 70
192
 0
VERTEX
 8
ZYLINDER
 10
20.2452
 20
-3.1673
 30
25.9854
 70
192
 0
VERTEX
 8
ZYLINDER
 10
20.2598
 20
-3.1192
 30
26.0707
 70
192
 0
VERTEX
 8
ZYLINDER
 10
20.2599
 20
-4.6359
 30
31.731
 70
192
 0
VERTEX
 8
ZYLINDER
 10
20.2453
 20
-4.7202
 30
31.7809
 70
192
 0
VERTEX
 8
ZYLINDER
 10
19.7962
 20
-3.1673
 30
25.9854
 70
192
 0
VERTEX
 8
ZYLINDER
 10
19.7816
 20
-3.1192
 30
26.0707
 70
192
 0
VERTEX
 8
ZYLINDER
 10
19.7817
 20
-4.6359
 30
31.731
 70
192
 0
VERTEX
 8
ZYLINDER
 10
19.7962
 20
-4.7202
 30
31.7809
 70
192
 0
VERTEX
 8
ZYLINDER
 10
19.3859
 20
-3.3437
 30
25.9381
 70
192
 0
VERTEX
 8
ZYLINDER
 10
19.3447
 20
-3.3071
 30
26.0204
 70
192
 0
VERTEX
 8
ZYLINDER
 10
19.3448
 20
-4.8238
 30
31.6807
 70
192
 0
VERTEX
 8
ZYLINDER
 10
19.386
 20
-4.8966
 30
31.7337
 70
192
 0
VERTEX
 8
ZYLINDER
 10
19.0854
 20
-3.6661
 30
25.8517
 70
192
 0
VERTEX
 8
ZYLINDER
 10
19.0248
 20
-3.6504
 30
25.9284
 70
192
 0
VERTEX
 8
ZYLINDER
 10
19.0249
 20
-5.1671
 30
31.5887
 70
192
 0
VERTEX
 8
ZYLINDER
 10
19.0855
 20
-5.219
 30
31.6473
 70
192
 0
VERTEX
 8
ZYLINDER
 10
18.9466
 20
-4.0786
 30
25.7412
 70
192
 0
VERTEX
 8
ZYLINDER
 10
18.877
 20
-4.0897
 30
25.8107
 70
192
 0
VERTEX
 8
ZYLINDER
 10
18.8771
 20
-5.6064
 30
31.471
 70
192
 0
VERTEX
 8
ZYLINDER
 10
18.9467
 20
-5.6315
 30
31.5367
 70
192
 0
VERTEX
 8
ZYLINDER
 10
18.9936
 20
-4.51
 30
25.6256
 70
192
 0
VERTEX
 8
ZYLINDER
 10
18.927
 20
-4.549
 30
25.6876
 70
192
 0
VERTEX
 8
ZYLINDER
 10
18.9271
 20
-6.0657
 30
31.3479
 70
192
 0
VERTEX
 8
ZYLINDER
 10
18.9937
 20
-6.0629
 30
31.4211
 70
192
 0
VERTEX
 8
ZYLINDER
 10
19.2181
 20
-4.8857
 30
25.5249
 70
192
 0
VERTEX
 8
ZYLINDER
 10
19.1661
 20
-4.9491
 30
25.5804
 70
192
 0
VERTEX
 8
ZYLINDER
 10
19.1662
 20
-6.4657
 30
31.2407
 70
192
 0
VERTEX
 8
ZYLINDER
 10
19.2182
 20
-6.4386
 30
31.3205
 70
192
 0
VERTEX
 8
ZYLINDER
 10
19.5815
 20
-5.1407
 30
25.4566
 70
192
 0
VERTEX
 8
ZYLINDER
 10
19.553
 20
-5.2206
 30
25.5077
 70
192
 0
VERTEX
 8
ZYLINDER
 10
19.5531
 20
-6.7372
 30
31.168
 70
192
 0
VERTEX
 8
ZYLINDER
 10
19.5815
 20
-6.6936
 30
31.2522
 70
192
 0
VERTEX
 8
ZYLINDER
 10
19.5531
 20
-6.4673
 30
30.1606
 70
192
 0
VERTEX
 8
ZYLINDER
 10
20.4885
 20
-5.9353
 30
28.175
 70
192
 0
VERTEX
 8
ZYLINDER
 10
20.0208
 20
-6.4391
 30
29.6713
 70
192
 0
VERTEX
 8
ZYLINDER
 10
20.4885
 20
-5.5947
 30
26.9038
 70
192
 0
VERTEX
 8
ZYLINDER
 10
20.4885
 20
-6.0721
 30
28.6856
 70
192
 0
VERTEX
 8
ZYLINDER
 10
20.4885
 20
-5.5558
 30
26.759
 70
192
 0
VERTEX
 8
ZYLINDER
 10
20.0208
 20
-6.0313
 30
28.1493
 70
192
 0
VERTEX
 8
ZYLINDER
 10
20.4885
 20
-6.5061
 30
30.3055
 70
192
 0
VERTEX
 8
ZYLINDER
 10
19.553
 20
-5.6849
 30
27.2406
 70
192
 0
VERTEX
 8
ZYLINDER
 10
20.0208
 20
-5.6907
 30
26.8781
 70
192
 0
VERTEX
 8
ZYLINDER
 10
20.0208
 20
-5.6519
 30
26.7332
 70
192
 0
VERTEX
 8
ZYLINDER
 10
20.4885
 20
-6.1109
 30
28.8304
 70
192
 0
VERTEX
 8
ZYLINDER
 10
20.4885
 20
-6.2063
 30
29.1865
 70
192
 0
VERTEX
 8
ZYLINDER
 10
20.0208
 20
-6.5633
 30
30.1349
 70
192
 0
VERTEX
 8
ZYLINDER
 10
20.4885
 20
-5.7237
 30
27.3855
 70
192
 0
VERTEX
 8
ZYLINDER
 10
20.4885
 20
-6.3431
 30
29.697
 70
192
 0
VERTEX
 8
ZYLINDER
 10
20.4885
 20
-5.6849
 30
27.2406
 70
192
 0
VERTEX
 8
ZYLINDER
 10
20.0208
 20
-6.1681
 30
28.6598
 70
192
 0
VERTEX
 8
ZYLINDER
 10
20.0208
 20
-5.8198
 30
27.3598
 70
192
 0
VERTEX
 8
ZYLINDER
 10
20.0208
 20
-5.7809
 30
27.2149
 70
192
 0
VERTEX
 8
ZYLINDER
 10
20.4885
 20
-6.2451
 30
29.3314
 70
192
 0
VERTEX
 8
ZYLINDER
 10
20.4885
 20
-5.845
 30
27.8383
 70
192
 0
VERTEX
 8
ZYLINDER
 10
19.553
 20
-6.3431
 30
29.697
 70
192
 0
VERTEX
 8
ZYLINDER
 10
20.4885
 20
-5.8062
 30
27.6934
 70
192
 0
VERTEX
 8
ZYLINDER
 10
20.0208
 20
-6.3023
 30
29.1607
 70
192
 0
VERTEX
 8
ZYLINDER
 10
20.0208
 20
-5.9411
 30
27.8125
 70
192
 0
VERTEX
 8
ZYLINDER
 10
20.0208
 20
-5.9023
 30
27.6676
 70
192
 0
VERTEX
 8
ZYLINDER
 10
20.4885
 20
-6.3819
 30
29.8419
 70
192
 0
VERTEX
 8
ZYLINDER
 10
19.553
 20
-5.5558
 30
26.759
 70
192
 0
VERTEX
 8
ZYLINDER
 10
20.4885
 20
-5.9741
 30
28.3199
 70
192
 0
VERTEX
 8
ZYLINDER
 10
20.0208
 20
-6.6022
 30
30.2798
 70
192
 0
VERTEX
 8
ZYLINDER
 10
20.0208
 20
-6.478
 30
29.8162
 70
192
 0
VERTEX
 8
ZYLINDER
 10
19.553
 20
-6.1109
 30
28.8304
 70
192
 0
VERTEX
 8
ZYLINDER
 10
19.553
 20
-5.9741
 30
28.3199
 70
192
 0
VERTEX
 8
ZYLINDER
 10
20.0208
 20
-6.0701
 30
28.2942
 70
192
 0
VERTEX
 8
ZYLINDER
 10
19.553
 20
-5.7237
 30
27.3855
 70
192
 0
VERTEX
 8
ZYLINDER
 10
19.553
 20
-5.9353
 30
28.175
 70
192
 0
VERTEX
 8
ZYLINDER
 10
20.4885
 20
-6.4673
 30
30.1606
 70
192
 0
VERTEX
 8
ZYLINDER
 10
19.553
 20
-5.5947
 30
26.9038
 70
192
 0
VERTEX
 8
ZYLINDER
 10
19.553
 20
-6.2451
 30
29.3314
 70
192
 0
VERTEX
 8
ZYLINDER
 10
20.0208
 20
-6.2069
 30
28.8047
 70
192
 0
VERTEX
 8
ZYLINDER
 10
19.553
 20
-5.845
 30
27.8383
 70
192
 0
VERTEX
 8
ZYLINDER
 10
19.553
 20
-6.2063
 30
29.1865
 70
192
 0
VERTEX
 8
ZYLINDER
 10
19.553
 20
-5.8062
 30
27.6934
 70
192
 0
VERTEX
 8
ZYLINDER
 10
20.0208
 20
-6.3412
 30
29.3056
 70
192
 0
VERTEX
 8
ZYLINDER
 10
19.553
 20
-6.3819
 30
29.8419
 70
192
 0
VERTEX
 8
ZYLINDER
 10
19.553
 20
-6.0721
 30
28.6856
 70
192
 0
VERTEX
 8
ZYLINDER
 10
19.5531
 20
-6.5061
 30
30.3055
 70
192
 0
VERTEX
 8
ZYLINDER
 10
20.0942
 20
-5.6756
 30
26.8822
 70
192
 0
VERTEX
 8
ZYLINDER
 10
20.4181
 20
-5.7382
 30
27.3816
 70
192
 0
VERTEX
 8
ZYLINDER
 10
20.4182
 20
-6.0865
 30
28.6817
 70
192
 0
VERTEX
 8
ZYLINDER
 10
20.4182
 20
-5.8207
 30
27.6895
 70
192
 0
VERTEX
 8
ZYLINDER
 10
20.0942
 20
-5.8047
 30
27.3638
 70
192
 0
VERTEX
 8
ZYLINDER
 10
20.4182
 20
-6.2207
 30
29.1826
 70
192
 0
VERTEX
 8
ZYLINDER
 10
20.0942
 20
-5.6368
 30
26.7373
 70
192
 0
VERTEX
 8
ZYLINDER
 10
20.4182
 20
-6.1253
 30
28.8266
 70
192
 0
VERTEX
 8
ZYLINDER
 10
20.4182
 20
-5.8595
 30
27.8344
 70
192
 0
VERTEX
 8
ZYLINDER
 10
20.4181
 20
-5.6091
 30
26.9
 70
192
 0
VERTEX
 8
ZYLINDER
 10
20.5681
 20
-5.5
 30
26.7739
 70
192
 0
VERTEX
 8
ZYLINDER
 10
20.0942
 20
-5.8872
 30
27.6717
 70
192
 0
VERTEX
 8
ZYLINDER
 10
20.0942
 20
-5.7659
 30
27.2189
 70
192
 0
VERTEX
 8
ZYLINDER
 10
20.4182
 20
-6.3575
 30
29.6932
 70
192
 0
VERTEX
 8
ZYLINDER
 10
20.4182
 20
-6.3964
 30
29.838
 70
192
 0
VERTEX
 8
ZYLINDER
 10
20.4182
 20
-5.9885
 30
28.316
 70
192
 0
VERTEX
 8
ZYLINDER
 10
20.5681
 20
-5.6678
 30
27.4005
 70
192
 0
VERTEX
 8
ZYLINDER
 10
20.0943
 20
-6.5871
 30
30.2838
 70
192
 0
VERTEX
 8
ZYLINDER
 10
20.4182
 20
-5.9497
 30
28.1711
 70
192
 0
VERTEX
 8
ZYLINDER
 10
20.0942
 20
-6.2872
 30
29.1648
 70
192
 0
VERTEX
 8
ZYLINDER
 10
20.0943
 20
-6.3261
 30
29.3097
 70
192
 0
VERTEX
 8
ZYLINDER
 10
20.0942
 20
-6.055
 30
28.2982
 70
192
 0
VERTEX
 8
ZYLINDER
 10
20.0942
 20
-5.926
 30
27.8166
 70
192
 0
VERTEX
 8
ZYLINDER
 10
20.4181
 20
-5.5703
 30
26.7551
 70
192
 0
VERTEX
 8
ZYLINDER
 10
20.4182
 20
-6.4818
 30
30.1567
 70
192
 0
VERTEX
 8
ZYLINDER
 10
20.4182
 20
-6.5206
 30
30.3016
 70
192
 0
VERTEX
 8
ZYLINDER
 10
20.0943
 20
-6.5483
 30
30.1389
 70
192
 0
VERTEX
 8
ZYLINDER
 10
20.0943
 20
-6.424
 30
29.6753
 70
192
 0
VERTEX
 8
ZYLINDER
 10
20.0943
 20
-6.4629
 30
29.8202
 70
192
 0
VERTEX
 8
ZYLINDER
 10
20.0942
 20
-6.1919
 30
28.8088
 70
192
 0
VERTEX
 8
ZYLINDER
 10
20.0942
 20
-6.153
 30
28.6639
 70
192
 0
VERTEX
 8
ZYLINDER
 10
20.0942
 20
-6.0162
 30
28.1533
 70
192
 0
VERTEX
 8
ZYLINDER
 10
20.5682
 20
-6.2872
 30
29.712
 70
192
 0
VERTEX
 8
ZYLINDER
 10
20.5681
 20
-5.5388
 30
26.9188
 70
192
 0
VERTEX
 8
ZYLINDER
 10
20.4182
 20
-6.2596
 30
29.3275
 70
192
 0
VERTEX
 8
ZYLINDER
 10
20.5681
 20
-5.629
 30
27.2556
 70
192
 0
VERTEX
 8
ZYLINDER
 10
19.4642
 20
-5.5324
 30
26.9205
 70
192
 0
VERTEX
 8
ZYLINDER
 10
20.5682
 20
-6.326
 30
29.8569
 70
192
 0
VERTEX
 8
ZYLINDER
 10
20.5682
 20
-5.7891
 30
27.8532
 70
192
 0
VERTEX
 8
ZYLINDER
 10
20.4181
 20
-5.6993
 30
27.2367
 70
192
 0
VERTEX
 8
ZYLINDER
 10
20.5682
 20
-5.7503
 30
27.7083
 70
192
 0
VERTEX
 8
ZYLINDER
 10
20.5682
 20
-5.9182
 30
28.3349
 70
192
 0
VERTEX
 8
ZYLINDER
 10
20.5682
 20
-5.8794
 30
28.19
 70
192
 0
VERTEX
 8
ZYLINDER
 10
20.5682
 20
-6.055
 30
28.8454
 70
192
 0
VERTEX
 8
ZYLINDER
 10
20.5682
 20
-6.0162
 30
28.7005
 70
192
 0
VERTEX
 8
ZYLINDER
 10
20.5682
 20
-6.1892
 30
29.3463
 70
192
 0
VERTEX
 8
ZYLINDER
 10
20.5682
 20
-6.1504
 30
29.2015
 70
192
 0
VERTEX
 8
ZYLINDER
 10
19.4643
 20
-6.0098
 30
28.7023
 70
192
 0
VERTEX
 8
ZYLINDER
 10
19.4643
 20
-6.1828
 30
29.3481
 70
192
 0
VERTEX
 8
ZYLINDER
 10
20.5682
 20
-6.4502
 30
30.3205
 70
192
 0
VERTEX
 8
ZYLINDER
 10
20.5682
 20
-6.4114
 30
30.1756
 70
192
 0
VERTEX
 8
ZYLINDER
 10
19.4643
 20
-6.2808
 30
29.7137
 70
192
 0
VERTEX
 8
ZYLINDER
 10
19.4642
 20
-5.4935
 30
26.7757
 70
192
 0
VERTEX
 8
ZYLINDER
 10
19.4642
 20
-5.6614
 30
27.4022
 70
192
 0
VERTEX
 8
ZYLINDER
 10
19.4642
 20
-5.6226
 30
27.2573
 70
192
 0
VERTEX
 8
ZYLINDER
 10
19.4642
 20
-5.7827
 30
27.8549
 70
192
 0
VERTEX
 8
ZYLINDER
 10
19.4642
 20
-5.7439
 30
27.7101
 70
192
 0
VERTEX
 8
ZYLINDER
 10
19.4642
 20
-5.9118
 30
28.3366
 70
192
 0
VERTEX
 8
ZYLINDER
 10
19.4642
 20
-5.873
 30
28.1917
 70
192
 0
VERTEX
 8
ZYLINDER
 10
19.4643
 20
-6.0486
 30
28.8471
 70
192
 0
VERTEX
 8
ZYLINDER
 10
19.9442
 20
-5.804
 30
27.364
 70
192
 0
VERTEX
 8
ZYLINDER
 10
19.4643
 20
-6.144
 30
29.2032
 70
192
 0
VERTEX
 8
ZYLINDER
 10
19.6142
 20
-5.8188
 30
27.69
 70
192
 0
VERTEX
 8
ZYLINDER
 10
19.6142
 20
-5.8576
 30
27.8349
 70
192
 0
VERTEX
 8
ZYLINDER
 10
19.4643
 20
-6.3196
 30
29.8586
 70
192
 0
VERTEX
 8
ZYLINDER
 10
19.9442
 20
-5.9254
 30
27.8167
 70
192
 0
VERTEX
 8
ZYLINDER
 10
19.4643
 20
-6.4438
 30
30.3222
 70
192
 0
VERTEX
 8
ZYLINDER
 10
19.4643
 20
-6.405
 30
30.1773
 70
192
 0
VERTEX
 8
ZYLINDER
 10
19.6142
 20
-5.9478
 30
28.1716
 70
192
 0
VERTEX
 8
ZYLINDER
 10
19.6142
 20
-5.9867
 30
28.3165
 70
192
 0
VERTEX
 8
ZYLINDER
 10
19.6142
 20
-5.6072
 30
26.9005
 70
192
 0
VERTEX
 8
ZYLINDER
 10
19.6142
 20
-5.5684
 30
26.7556
 70
192
 0
VERTEX
 8
ZYLINDER
 10
19.9442
 20
-6.0544
 30
28.2984
 70
192
 0
VERTEX
 8
ZYLINDER
 10
19.9442
 20
-5.675
 30
26.8823
 70
192
 0
VERTEX
 8
ZYLINDER
 10
19.9442
 20
-5.6362
 30
26.7374
 70
192
 0
VERTEX
 8
ZYLINDER
 10
19.6143
 20
-6.0846
 30
28.6822
 70
192
 0
VERTEX
 8
ZYLINDER
 10
19.6143
 20
-6.1235
 30
28.8271
 70
192
 0
VERTEX
 8
ZYLINDER
 10
19.6142
 20
-5.7363
 30
27.3821
 70
192
 0
VERTEX
 8
ZYLINDER
 10
19.6142
 20
-5.6975
 30
27.2372
 70
192
 0
VERTEX
 8
ZYLINDER
 10
19.9442
 20
-6.1912
 30
28.8089
 70
192
 0
VERTEX
 8
ZYLINDER
 10
19.9442
 20
-6.1524
 30
28.664
 70
192
 0
VERTEX
 8
ZYLINDER
 10
19.9442
 20
-5.7652
 30
27.2191
 70
192
 0
VERTEX
 8
ZYLINDER
 10
19.6143
 20
-6.2577
 30
29.328
 70
192
 0
VERTEX
 8
ZYLINDER
 10
19.6143
 20
-6.2189
 30
29.1831
 70
192
 0
VERTEX
 8
ZYLINDER
 10
19.9443
 20
-6.3254
 30
29.3098
 70
192
 0
VERTEX
 8
ZYLINDER
 10
19.9442
 20
-6.2866
 30
29.165
 70
192
 0
VERTEX
 8
ZYLINDER
 10
19.9442
 20
-5.8865
 30
27.6718
 70
192
 0
VERTEX
 8
ZYLINDER
 10
19.6143
 20
-6.3945
 30
29.8385
 70
192
 0
VERTEX
 8
ZYLINDER
 10
19.6143
 20
-6.3557
 30
29.6937
 70
192
 0
VERTEX
 8
ZYLINDER
 10
19.9443
 20
-6.4622
 30
29.8204
 70
192
 0
VERTEX
 8
ZYLINDER
 10
19.9443
 20
-6.4234
 30
29.6755
 70
192
 0
VERTEX
 8
ZYLINDER
 10
19.9442
 20
-6.0156
 30
28.1535
 70
192
 0
VERTEX
 8
ZYLINDER
 10
19.6143
 20
-6.5187
 30
30.3021
 70
192
 0
VERTEX
 8
ZYLINDER
 10
19.6143
 20
-6.4799
 30
30.1572
 70
192
 0
VERTEX
 8
ZYLINDER
 10
19.9443
 20
-6.5865
 30
30.284
 70
192
 0
VERTEX
 8
ZYLINDER
 10
0
 20
0
 30
0
 70
128
 71
61
 72
200
 73
201
 74
201
 0
VERTEX
 8
ZYLINDER
 10
0
 20
0
 30
0
 70
128
 71
3
 72
4
 73
8
 74
7
 0
VERTEX
 8
ZYLINDER
 10
0
 20
0
 30
0
 70
128
 71
4
 72
73
 73
117
 74
117
 0
VERTEX
 8
ZYLINDER
 10
0
 20
0
 30
0
 70
128
 71
140
 72
103
 73
87
 74
130
 0
VERTEX
 8
ZYLINDER
 10
0
 20
0
 30
0
 70
128
 71
131
 72
107
 73
65
 74
138
 0
VERTEX
 8
ZYLINDER
 10
0
 20
0
 30
0
 70
128
 71
139
 72
94
 73
76
 74
137
 0
VERTEX
 8
ZYLINDER
 10
0
 20
0
 30
0
 70
128
 71
128
 72
93
 73
5
 74
5
 0
VERTEX
 8
ZYLINDER
 10
0
 20
0
 30
0
 70
128
 71
5
 72
9
 73
70
 74
136
 0
VERTEX
 8
ZYLINDER
 10
0
 20
0
 30
0
 70
128
 71
135
 72
100
 73
90
 74
90
 0
VERTEX
 8
ZYLINDER
 10
0
 20
0
 30
0
 70
128
 71
124
 72
78
 73
83
 74
145
 0
VERTEX
 8
ZYLINDER
 10
0
 20
0
 30
0
 70
128
 71
116
 72
75
 73
74
 74
118
 0
VERTEX
 8
ZYLINDER
 10
0
 20
0
 30
0
 70
128
 71
113
 72
67
 73
92
 74
126
 0
VERTEX
 8
ZYLINDER
 10
0
 20
0
 30
0
 70
128
 71
129
 72
64
 73
84
 74
119
 0
VERTEX
 8
ZYLINDER
 10
0
 20
0
 30
0
 70
128
 71
114
 72
86
 73
77
 74
112
 0
VERTEX
 8
ZYLINDER
 10
0
 20
0
 30
0
 70
128
 71
150
 72
79
 73
66
 74
120
 0
VERTEX
 8
ZYLINDER
 10
0
 20
0
 30
0
 70
128
 71
132
 72
97
 73
80
 74
141
 0
VERTEX
 8
ZYLINDER
 10
0
 20
0
 30
0
 70
128
 71
72
 72
82
 73
123
 74
123
 0
VERTEX
 8
ZYLINDER
 10
0
 20
0
 30
0
 70
128
 71
133
 72
88
 73
69
 74
142
 0
VERTEX
 8
ZYLINDER
 10
0
 20
0
 30
0
 70
128
 71
115
 72
81
 73
89
 74
122
 0
VERTEX
 8
ZYLINDER
 10
0
 20
0
 30
0
 70
128
 71
134
 72
68
 73
8
 74
4
 0
VERTEX
 8
ZYLINDER
 10
0
 20
0
 30
0
 70
128
 71
5
 72
136
 73
135
 74
135
 0
VERTEX
 8
ZYLINDER
 10
0
 20
0
 30
0
 70
128
 71
120
 72
134
 73
4
 74
4
 0
VERTEX
 8
ZYLINDER
 10
0
 20
0
 30
0
 70
128
 71
115
 72
122
 73
133
 74
133
 0
VERTEX
 8
ZYLINDER
 10
0
 20
0
 30
0
 70
128
 71
117
 72
111
 73
126
 74
126
 0
VERTEX
 8
ZYLINDER
 10
0
 20
0
 30
0
 70
128
 71
116
 72
118
 73
113
 74
113
 0
VERTEX
 8
ZYLINDER
 10
0
 20
0
 30
0
 70
128
 71
112
 72
150
 73
4
 74
4
 0
VERTEX
 8
ZYLINDER
 10
0
 20
0
 30
0
 70
128
 71
138
 72
139
 73
137
 74
137
 0
VERTEX
 8
ZYLINDER
 10
0
 20
0
 30
0
 70
128
 71
124
 72
145
 73
116
 74
116
 0
VERTEX
 8
ZYLINDER
 10
0
 20
0
 30
0
 70
128
 71
140
 72
130
 73
131
 74
131
 0
VERTEX
 8
ZYLINDER
 10
0
 20
0
 30
0
 70
128
 71
129
 72
119
 73
4
 74
4
 0
VERTEX
 8
ZYLINDER
 10
0
 20
0
 30
0
 70
128
 71
5
 72
135
 73
90
 74
125
 0
VERTEX
 8
ZYLINDER
 10
0
 20
0
 30
0
 70
128
 71
150
 72
120
 73
4
 74
4
 0
VERTEX
 8
ZYLINDER
 10
0
 20
0
 30
0
 70
128
 71
115
 72
133
 73
142
 74
142
 0
VERTEX
 8
ZYLINDER
 10
0
 20
0
 30
0
 70
128
 71
131
 72
138
 73
137
 74
137
 0
VERTEX
 8
ZYLINDER
 10
0
 20
0
 30
0
 70
128
 71
116
 72
113
 73
126
 74
126
 0
VERTEX
 8
ZYLINDER
 10
0
 20
0
 30
0
 70
128
 71
5
 72
125
 73
124
 74
124
 0
VERTEX
 8
ZYLINDER
 10
0
 20
0
 30
0
 70
128
 71
114
 72
112
 73
4
 74
4
 0
VERTEX
 8
ZYLINDER
 10
0
 20
0
 30
0
 70
128
 71
115
 72
142
 73
132
 74
141
 0
VERTEX
 8
ZYLINDER
 10
0
 20
0
 30
0
 70
128
 71
140
 72
131
 73
137
 74
137
 0
VERTEX
 8
ZYLINDER
 10
0
 20
0
 30
0
 70
128
 71
124
 72
116
 73
128
 74
5
 0
VERTEX
 8
ZYLINDER
 10
0
 20
0
 30
0
 70
128
 71
119
 72
114
 73
4
 74
4
 0
VERTEX
 8
ZYLINDER
 10
0
 20
0
 30
0
 70
128
 71
123
 72
115
 73
126
 74
126
 0
VERTEX
 8
ZYLINDER
 10
0
 20
0
 30
0
 70
128
 71
140
 72
137
 73
116
 74
116
 0
VERTEX
 8
ZYLINDER
 10
0
 20
0
 30
0
 70
128
 71
128
 72
116
 73
137
 74
137
 0
VERTEX
 8
ZYLINDER
 10
0
 20
0
 30
0
 70
128
 71
140
 72
116
 73
141
 74
141
 0
VERTEX
 8
ZYLINDER
 10
0
 20
0
 30
0
 70
128
 71
126
 72
129
 73
4
 74
117
 0
VERTEX
 8
ZYLINDER
 10
0
 20
0
 30
0
 70
128
 71
126
 72
111
 73
72
 74
123
 0
VERTEX
 8
ZYLINDER
 10
0
 20
0
 30
0
 70
128
 71
115
 72
141
 73
116
 74
126
 0
VERTEX
 8
ZYLINDER
 10
0
 20
0
 30
0
 70
128
 71
5
 72
6
 73
10
 74
9
 0
VERTEX
 8
ZYLINDER
 10
0
 20
0
 30
0
 70
128
 71
6
 72
2
 73
10
 74
10
 0
VERTEX
 8
ZYLINDER
 10
0
 20
0
 30
0
 70
128
 71
4
 72
188
 73
106
 74
173
 0
VERTEX
 8
ZYLINDER
 10
0
 20
0
 30
0
 70
128
 71
7
 72
8
 73
12
 74
11
 0
VERTEX
 8
ZYLINDER
 10
0
 20
0
 30
0
 70
128
 71
149
 72
84
 73
64
 74
153
 0
VERTEX
 8
ZYLINDER
 10
0
 20
0
 30
0
 70
128
 71
154
 72
74
 73
75
 74
157
 0
VERTEX
 8
ZYLINDER
 10
0
 20
0
 30
0
 70
128
 71
13
 72
12
 73
121
 74
144
 0
VERTEX
 8
ZYLINDER
 10
0
 20
0
 30
0
 70
128
 71
70
 72
9
 73
13
 74
160
 0
VERTEX
 8
ZYLINDER
 10
0
 20
0
 30
0
 70
128
 71
92
 72
67
 73
155
 74
152
 0
VERTEX
 8
ZYLINDER
 10
0
 20
0
 30
0
 70
128
 71
156
 72
83
 73
78
 74
143
 0
VERTEX
 8
ZYLINDER
 10
0
 20
0
 30
0
 70
128
 71
66
 72
79
 73
146
 74
144
 0
VERTEX
 8
ZYLINDER
 10
0
 20
0
 30
0
 70
128
 71
148
 72
90
 73
100
 74
161
 0
VERTEX
 8
ZYLINDER
 10
0
 20
0
 30
0
 70
128
 71
77
 72
86
 73
151
 74
127
 0
VERTEX
 8
ZYLINDER
 10
0
 20
0
 30
0
 70
128
 71
12
 72
8
 73
68
 74
121
 0
VERTEX
 8
ZYLINDER
 10
0
 20
0
 30
0
 70
128
 71
161
 72
160
 73
13
 74
13
 0
VERTEX
 8
ZYLINDER
 10
0
 20
0
 30
0
 70
128
 71
154
 72
157
 73
13
 74
13
 0
VERTEX
 8
ZYLINDER
 10
0
 20
0
 30
0
 70
128
 71
149
 72
153
 73
13
 74
13
 0
VERTEX
 8
ZYLINDER
 10
0
 20
0
 30
0
 70
128
 71
127
 72
151
 73
149
 74
149
 0
VERTEX
 8
ZYLINDER
 10
0
 20
0
 30
0
 70
128
 71
143
 72
148
 73
13
 74
13
 0
VERTEX
 8
ZYLINDER
 10
0
 20
0
 30
0
 70
128
 71
148
 72
161
 73
13
 74
13
 0
VERTEX
 8
ZYLINDER
 10
0
 20
0
 30
0
 70
128
 71
13
 72
144
 73
146
 74
146
 0
VERTEX
 8
ZYLINDER
 10
0
 20
0
 30
0
 70
128
 71
127
 72
149
 73
13
 74
13
 0
VERTEX
 8
ZYLINDER
 10
0
 20
0
 30
0
 70
128
 71
156
 72
143
 73
13
 74
13
 0
VERTEX
 8
ZYLINDER
 10
0
 20
0
 30
0
 70
128
 71
13
 72
146
 73
127
 74
127
 0
VERTEX
 8
ZYLINDER
 10
0
 20
0
 30
0
 70
128
 71
153
 72
152
 73
13
 74
13
 0
VERTEX
 8
ZYLINDER
 10
0
 20
0
 30
0
 70
128
 71
157
 72
156
 73
13
 74
13
 0
VERTEX
 8
ZYLINDER
 10
0
 20
0
 30
0
 70
128
 71
13
 72
152
 73
155
 74
155
 0
VERTEX
 8
ZYLINDER
 10
0
 20
0
 30
0
 70
128
 71
155
 72
154
 73
13
 74
13
 0
VERTEX
 8
ZYLINDER
 10
0
 20
0
 30
0
 70
128
 71
9
 72
10
 73
14
 74
13
 0
VERTEX
 8
ZYLINDER
 10
0
 20
0
 30
0
 70
128
 71
10
 72
2
 73
14
 74
14
 0
VERTEX
 8
ZYLINDER
 10
0
 20
0
 30
0
 70
128
 71
180
 72
186
 73
4
 74
4
 0
VERTEX
 8
ZYLINDER
 10
0
 20
0
 30
0
 70
128
 71
11
 72
12
 73
16
 74
15
 0
VERTEX
 8
ZYLINDER
 10
0
 20
0
 30
0
 70
128
 71
12
 72
13
 73
17
 74
16
 0
VERTEX
 8
ZYLINDER
 10
0
 20
0
 30
0
 70
128
 71
13
 72
14
 73
18
 74
17
 0
VERTEX
 8
ZYLINDER
 10
0
 20
0
 30
0
 70
128
 71
14
 72
2
 73
18
 74
18
 0
VERTEX
 8
ZYLINDER
 10
0
 20
0
 30
0
 70
128
 71
195
 72
196
 73
183
 74
183
 0
VERTEX
 8
ZYLINDER
 10
0
 20
0
 30
0
 70
128
 71
15
 72
16
 73
20
 74
19
 0
VERTEX
 8
ZYLINDER
 10
0
 20
0
 30
0
 70
128
 71
16
 72
17
 73
21
 74
20
 0
VERTEX
 8
ZYLINDER
 10
0
 20
0
 30
0
 70
128
 71
17
 72
18
 73
22
 74
21
 0
VERTEX
 8
ZYLINDER
 10
0
 20
0
 30
0
 70
128
 71
18
 72
2
 73
22
 74
22
 0
VERTEX
 8
ZYLINDER
 10
0
 20
0
 30
0
 70
128
 71
61
 72
195
 73
183
 74
183
 0
VERTEX
 8
ZYLINDER
 10
0
 20
0
 30
0
 70
128
 71
19
 72
20
 73
24
 74
23
 0
VERTEX
 8
ZYLINDER
 10
0
 20
0
 30
0
 70
128
 71
20
 72
21
 73
25
 74
24
 0
VERTEX
 8
ZYLINDER
 10
0
 20
0
 30
0
 70
128
 71
21
 72
22
 73
26
 74
25
 0
VERTEX
 8
ZYLINDER
 10
0
 20
0
 30
0
 70
128
 71
22
 72
2
 73
26
 74
26
 0
VERTEX
 8
ZYLINDER
 10
0
 20
0
 30
0
 70
128
 71
4
 72
173
 73
174
 74
174
 0
VERTEX
 8
ZYLINDER
 10
0
 20
0
 30
0
 70
128
 71
23
 72
24
 73
28
 74
27
 0
VERTEX
 8
ZYLINDER
 10
0
 20
0
 30
0
 70
128
 71
24
 72
25
 73
29
 74
28
 0
VERTEX
 8
ZYLINDER
 10
0
 20
0
 30
0
 70
128
 71
25
 72
26
 73
30
 74
29
 0
VERTEX
 8
ZYLINDER
 10
0
 20
0
 30
0
 70
128
 71
26
 72
2
 73
30
 74
30
 0
VERTEX
 8
ZYLINDER
 10
0
 20
0
 30
0
 70
128
 71
186
 72
187
 73
4
 74
4
 0
VERTEX
 8
ZYLINDER
 10
0
 20
0
 30
0
 70
128
 71
27
 72
28
 73
32
 74
31
 0
VERTEX
 8
ZYLINDER
 10
0
 20
0
 30
0
 70
128
 71
28
 72
29
 73
33
 74
32
 0
VERTEX
 8
ZYLINDER
 10
0
 20
0
 30
0
 70
128
 71
29
 72
30
 73
34
 74
33
 0
VERTEX
 8
ZYLINDER
 10
0
 20
0
 30
0
 70
128
 71
30
 72
2
 73
34
 74
34
 0
VERTEX
 8
ZYLINDER
 10
0
 20
0
 30
0
 70
128
 71
4
 72
187
 73
199
 74
199
 0
VERTEX
 8
ZYLINDER
 10
0
 20
0
 30
0
 70
128
 71
31
 72
32
 73
36
 74
35
 0
VERTEX
 8
ZYLINDER
 10
0
 20
0
 30
0
 70
128
 71
32
 72
33
 73
37
 74
36
 0
VERTEX
 8
ZYLINDER
 10
0
 20
0
 30
0
 70
128
 71
33
 72
34
 73
38
 74
37
 0
VERTEX
 8
ZYLINDER
 10
0
 20
0
 30
0
 70
128
 71
34
 72
2
 73
38
 74
38
 0
VERTEX
 8
ZYLINDER
 10
0
 20
0
 30
0
 70
128
 71
61
 72
202
 73
176
 74
176
 0
VERTEX
 8
ZYLINDER
 10
0
 20
0
 30
0
 70
128
 71
35
 72
36
 73
40
 74
39
 0
VERTEX
 8
ZYLINDER
 10
0
 20
0
 30
0
 70
128
 71
36
 72
37
 73
41
 74
40
 0
VERTEX
 8
ZYLINDER
 10
0
 20
0
 30
0
 70
128
 71
37
 72
38
 73
42
 74
41
 0
VERTEX
 8
ZYLINDER
 10
0
 20
0
 30
0
 70
128
 71
38
 72
2
 73
42
 74
42
 0
VERTEX
 8
ZYLINDER
 10
0
 20
0
 30
0
 70
128
 71
61
 72
176
 73
197
 74
197
 0
VERTEX
 8
ZYLINDER
 10
0
 20
0
 30
0
 70
128
 71
39
 72
40
 73
44
 74
43
 0
VERTEX
 8
ZYLINDER
 10
0
 20
0
 30
0
 70
128
 71
40
 72
41
 73
45
 74
44
 0
VERTEX
 8
ZYLINDER
 10
0
 20
0
 30
0
 70
128
 71
41
 72
42
 73
46
 74
45
 0
VERTEX
 8
ZYLINDER
 10
0
 20
0
 30
0
 70
128
 71
42
 72
2
 73
46
 74
46
 0
VERTEX
 8
ZYLINDER
 10
0
 20
0
 30
0
 70
128
 71
4
 72
199
 73
198
 74
198
 0
VERTEX
 8
ZYLINDER
 10
0
 20
0
 30
0
 70
128
 71
43
 72
44
 73
48
 74
47
 0
VERTEX
 8
ZYLINDER
 10
0
 20
0
 30
0
 70
128
 71
44
 72
45
 73
49
 74
48
 0
VERTEX
 8
ZYLINDER
 10
0
 20
0
 30
0
 70
128
 71
45
 72
46
 73
50
 74
49
 0
VERTEX
 8
ZYLINDER
 10
0
 20
0
 30
0
 70
128
 71
46
 72
2
 73
50
 74
50
 0
VERTEX
 8
ZYLINDER
 10
0
 20
0
 30
0
 70
128
 71
61
 72
197
 73
184
 74
203
 0
VERTEX
 8
ZYLINDER
 10
0
 20
0
 30
0
 70
128
 71
47
 72
48
 73
52
 74
51
 0
VERTEX
 8
ZYLINDER
 10
0
 20
0
 30
0
 70
128
 71
48
 72
49
 73
53
 74
52
 0
VERTEX
 8
ZYLINDER
 10
0
 20
0
 30
0
 70
128
 71
49
 72
50
 73
54
 74
53
 0
VERTEX
 8
ZYLINDER
 10
0
 20
0
 30
0
 70
128
 71
50
 72
2
 73
54
 74
54
 0
VERTEX
 8
ZYLINDER
 10
0
 20
0
 30
0
 70
128
 71
204
 72
203
 73
184
 74
185
 0
VERTEX
 8
ZYLINDER
 10
0
 20
0
 30
0
 70
128
 71
51
 72
52
 73
56
 74
55
 0
VERTEX
 8
ZYLINDER
 10
0
 20
0
 30
0
 70
128
 71
52
 72
53
 73
57
 74
56
 0
VERTEX
 8
ZYLINDER
 10
0
 20
0
 30
0
 70
128
 71
53
 72
54
 73
58
 74
57
 0
VERTEX
 8
ZYLINDER
 10
0
 20
0
 30
0
 70
128
 71
54
 72
2
 73
58
 74
58
 0
VERTEX
 8
ZYLINDER
 10
0
 20
0
 30
0
 70
128
 71
61
 72
62
 73
6
 74
5
 0
VERTEX
 8
ZYLINDER
 10
0
 20
0
 30
0
 70
128
 71
55
 72
56
 73
60
 74
59
 0
VERTEX
 8
ZYLINDER
 10
0
 20
0
 30
0
 70
128
 71
178
 72
63
 73
108
 74
108
 0
VERTEX
 8
ZYLINDER
 10
0
 20
0
 30
0
 70
128
 71
158
 72
109
 73
96
 74
168
 0
VERTEX
 8
ZYLINDER
 10
0
 20
0
 30
0
 70
128
 71
169
 72
99
 73
104
 74
166
 0
VERTEX
 8
ZYLINDER
 10
0
 20
0
 30
0
 70
128
 71
163
 72
91
 73
60
 74
56
 0
VERTEX
 8
ZYLINDER
 10
0
 20
0
 30
0
 70
128
 71
85
 72
102
 73
159
 74
162
 0
VERTEX
 8
ZYLINDER
 10
0
 20
0
 30
0
 70
128
 71
172
 72
105
 73
95
 74
170
 0
VERTEX
 8
ZYLINDER
 10
0
 20
0
 30
0
 70
128
 71
165
 72
71
 73
101
 74
147
 0
VERTEX
 8
ZYLINDER
 10
0
 20
0
 30
0
 70
128
 71
178
 72
108
 73
175
 74
57
 0
VERTEX
 8
ZYLINDER
 10
0
 20
0
 30
0
 70
128
 71
167
 72
106
 73
98
 74
164
 0
VERTEX
 8
ZYLINDER
 10
0
 20
0
 30
0
 70
128
 71
61
 72
110
 73
177
 74
57
 0
VERTEX
 8
ZYLINDER
 10
0
 20
0
 30
0
 70
128
 71
57
 72
177
 73
178
 74
178
 0
VERTEX
 8
ZYLINDER
 10
0
 20
0
 30
0
 70
128
 71
147
 72
163
 73
56
 74
56
 0
VERTEX
 8
ZYLINDER
 10
0
 20
0
 30
0
 70
128
 71
166
 72
167
 73
56
 74
56
 0
VERTEX
 8
ZYLINDER
 10
0
 20
0
 30
0
 70
128
 71
170
 72
158
 73
168
 74
168
 0
VERTEX
 8
ZYLINDER
 10
0
 20
0
 30
0
 70
128
 71
164
 72
165
 73
56
 74
56
 0
VERTEX
 8
ZYLINDER
 10
0
 20
0
 30
0
 70
128
 71
165
 72
147
 73
56
 74
56
 0
VERTEX
 8
ZYLINDER
 10
0
 20
0
 30
0
 70
128
 71
169
 72
166
 73
56
 74
56
 0
VERTEX
 8
ZYLINDER
 10
0
 20
0
 30
0
 70
128
 71
175
 72
162
 73
159
 74
159
 0
VERTEX
 8
ZYLINDER
 10
0
 20
0
 30
0
 70
128
 71
172
 72
170
 73
168
 74
168
 0
VERTEX
 8
ZYLINDER
 10
0
 20
0
 30
0
 70
128
 71
167
 72
164
 73
56
 74
56
 0
VERTEX
 8
ZYLINDER
 10
0
 20
0
 30
0
 70
128
 71
57
 72
175
 73
159
 74
56
 0
VERTEX
 8
ZYLINDER
 10
0
 20
0
 30
0
 70
128
 71
172
 72
168
 73
56
 74
56
 0
VERTEX
 8
ZYLINDER
 10
0
 20
0
 30
0
 70
128
 71
168
 72
169
 73
56
 74
56
 0
VERTEX
 8
ZYLINDER
 10
0
 20
0
 30
0
 70
128
 71
56
 72
159
 73
172
 74
172
 0
VERTEX
 8
ZYLINDER
 10
0
 20
0
 30
0
 70
128
 71
57
 72
58
 73
62
 74
61
 0
VERTEX
 8
ZYLINDER
 10
0
 20
0
 30
0
 70
128
 71
58
 72
2
 73
62
 74
62
 0
VERTEX
 8
ZYLINDER
 10
0
 20
0
 30
0
 70
128
 71
62
 72
2
 73
6
 74
6
 0
VERTEX
 8
ZYLINDER
 10
0
 20
0
 30
0
 70
128
 71
59
 72
60
 73
4
 74
3
 0
VERTEX
 8
ZYLINDER
 10
0
 20
0
 30
0
 70
128
 71
185
 72
73
 73
4
 74
4
 0
VERTEX
 8
ZYLINDER
 10
0
 20
0
 30
0
 70
128
 71
181
 72
101
 73
71
 74
71
 0
VERTEX
 8
ZYLINDER
 10
0
 20
0
 30
0
 70
128
 71
188
 72
98
 73
106
 74
106
 0
VERTEX
 8
ZYLINDER
 10
0
 20
0
 30
0
 70
128
 71
174
 72
104
 73
99
 74
179
 0
VERTEX
 8
ZYLINDER
 10
0
 20
0
 30
0
 70
128
 71
193
 72
102
 73
85
 74
199
 0
VERTEX
 8
ZYLINDER
 10
0
 20
0
 30
0
 70
128
 71
198
 72
108
 73
63
 74
204
 0
VERTEX
 8
ZYLINDER
 10
0
 20
0
 30
0
 70
128
 71
203
 72
110
 73
61
 74
61
 0
VERTEX
 8
ZYLINDER
 10
0
 20
0
 30
0
 70
128
 71
61
 72
5
 73
93
 74
205
 0
VERTEX
 8
ZYLINDER
 10
0
 20
0
 30
0
 70
128
 71
201
 72
65
 73
107
 74
195
 0
VERTEX
 8
ZYLINDER
 10
0
 20
0
 30
0
 70
128
 71
196
 72
87
 73
103
 74
190
 0
VERTEX
 8
ZYLINDER
 10
0
 20
0
 30
0
 70
128
 71
191
 72
80
 73
97
 74
183
 0
VERTEX
 8
ZYLINDER
 10
0
 20
0
 30
0
 70
128
 71
202
 72
69
 73
88
 74
176
 0
VERTEX
 8
ZYLINDER
 10
0
 20
0
 30
0
 70
128
 71
197
 72
89
 73
81
 74
171
 0
VERTEX
 8
ZYLINDER
 10
0
 20
0
 30
0
 70
128
 71
96
 72
109
 73
186
 74
180
 0
VERTEX
 8
ZYLINDER
 10
0
 20
0
 30
0
 70
128
 71
187
 72
95
 73
105
 74
194
 0
VERTEX
 8
ZYLINDER
 10
0
 20
0
 30
0
 70
128
 71
192
 72
82
 73
72
 74
184
 0
VERTEX
 8
ZYLINDER
 10
0
 20
0
 30
0
 70
128
 71
76
 72
94
 73
200
 74
1
 0
VERTEX
 8
ZYLINDER
 10
0
 20
0
 30
0
 70
128
 71
4
 72
60
 73
91
 74
182
 0
VERTEX
 8
ZYLINDER
 10
0
 20
0
 30
0
 70
128
 71
61
 72
205
 73
1
 74
1
 0
VERTEX
 8
ZYLINDER
 10
0
 20
0
 30
0
 70
128
 71
4
 72
182
 73
181
 74
181
 0
VERTEX
 8
ZYLINDER
 10
0
 20
0
 30
0
 70
128
 71
189
 72
188
 73
4
 74
4
 0
VERTEX
 8
ZYLINDER
 10
0
 20
0
 30
0
 70
128
 71
198
 72
204
 73
185
 74
4
 0
VERTEX
 8
ZYLINDER
 10
0
 20
0
 30
0
 70
128
 71
174
 72
179
 73
180
 74
180
 0
VERTEX
 8
ZYLINDER
 10
0
 20
0
 30
0
 70
128
 71
194
 72
193
 73
199
 74
199
 0
VERTEX
 8
ZYLINDER
 10
0
 20
0
 30
0
 70
128
 71
190
 72
191
 73
183
 74
183
 0
VERTEX
 8
ZYLINDER
 10
0
 20
0
 30
0
 70
128
 71
183
 72
202
 73
61
 74
61
 0
VERTEX
 8
ZYLINDER
 10
0
 20
0
 30
0
 70
128
 71
201
 72
195
 73
61
 74
61
 0
VERTEX
 8
ZYLINDER
 10
0
 20
0
 30
0
 70
128
 71
61
 72
1
 73
200
 74
200
 0
VERTEX
 8
ZYLINDER
 10
0
 20
0
 30
0
 70
128
 71
4
 72
181
 73
71
 74
189
 0
VERTEX
 8
ZYLINDER
 10
0
 20
0
 30
0
 70
128
 71
197
 72
171
 73
192
 74
184
 0
VERTEX
 8
ZYLINDER
 10
0
 20
0
 30
0
 70
128
 71
174
 72
180
 73
4
 74
4
 0
VERTEX
 8
ZYLINDER
 10
0
 20
0
 30
0
 70
128
 71
196
 72
190
 73
183
 74
183
 0
VERTEX
 8
ZYLINDER
 10
0
 20
0
 30
0
 70
128
 71
187
 72
194
 73
199
 74
199
 0
SEQEND
 0
POLYLINE
 8
ZYLINDE1
 66
1
 10
0.0
 20
0.0
 30
0.0
 70
64
 71
60
 72
45
 0
VERTEX
 8
ZYLINDE1
 10
19.5502
 20
-5.1959
 30
25.4157
 70
192
 0
VERTEX
 8
ZYLINDE1
 10
19.5787
 20
-5.1523
 30
25.4999
 70
192
 0
VERTEX
 8
ZYLINDE1
 10
20.0178
 20
-1.8778
 30
12.9187
 70
192
 0
VERTEX
 8
ZYLINDE1
 10
20.0178
 20
-1.9636
 30
12.9682
 70
192
 0
VERTEX
 8
ZYLINDE1
 10
20.018
 20
-5.292
 30
25.39
 70
192
 0
VERTEX
 8
ZYLINDE1
 10
20.018
 20
-5.2425
 30
25.4757
 70
192
 0
VERTEX
 8
ZYLINDE1
 10
20.4571
 20
-1.7876
 30
12.9428
 70
192
 0
VERTEX
 8
ZYLINDE1
 10
20.4855
 20
-1.8675
 30
12.9939
 70
192
 0
VERTEX
 8
ZYLINDE1
 10
20.4857
 20
-5.1959
 30
25.4157
 70
192
 0
VERTEX
 8
ZYLINDE1
 10
20.4572
 20
-5.1523
 30
25.4999
 70
192
 0
VERTEX
 8
ZYLINDE1
 10
20.8204
 20
-1.5327
 30
13.0112
 70
192
 0
VERTEX
 8
ZYLINDE1
 10
20.8724
 20
-1.596
 30
13.0667
 70
192
 0
VERTEX
 8
ZYLINDE1
 10
20.8726
 20
-4.9244
 30
25.4885
 70
192
 0
VERTEX
 8
ZYLINDE1
 10
20.8206
 20
-4.8973
 30
25.5682
 70
192
 0
VERTEX
 8
ZYLINDE1
 10
21.0449
 20
-1.157
 30
13.1118
 70
192
 0
VERTEX
 8
ZYLINDE1
 10
21.1115
 20
-1.196
 30
13.1738
 70
192
 0
VERTEX
 8
ZYLINDE1
 10
21.1117
 20
-4.5244
 30
25.5957
 70
192
 0
VERTEX
 8
ZYLINDE1
 10
21.0451
 20
-4.5216
 30
25.6689
 70
192
 0
VERTEX
 8
ZYLINDE1
 10
21.0919
 20
-0.7256
 30
13.2274
 70
192
 0
VERTEX
 8
ZYLINDE1
 10
21.1615
 20
-0.7366
 30
13.2969
 70
192
 0
VERTEX
 8
ZYLINDE1
 10
21.1616
 20
-4.065
 30
25.7187
 70
192
 0
VERTEX
 8
ZYLINDE1
 10
21.092
 20
-4.0902
 30
25.7845
 70
192
 0
VERTEX
 8
ZYLINDE1
 10
20.9531
 20
-0.313
 30
13.338
 70
192
 0
VERTEX
 8
ZYLINDE1
 10
21.0137
 20
-0.2973
 30
13.4146
 70
192
 0
VERTEX
 8
ZYLINDE1
 10
21.0139
 20
-3.6257
 30
25.8364
 70
192
 0
VERTEX
 8
ZYLINDE1
 10
20.9532
 20
-3.6777
 30
25.895
 70
192
 0
VERTEX
 8
ZYLINDE1
 10
20.6526
 20
0.0093
 30
13.4243
 70
192
 0
VERTEX
 8
ZYLINDE1
 10
20.6937
 20
0.0459
 30
13.5066
 70
192
 0
VERTEX
 8
ZYLINDE1
 10
20.6939
 20
-3.2825
 30
25.9284
 70
192
 0
VERTEX
 8
ZYLINDE1
 10
20.6527
 20
-3.3553
 30
25.9814
 70
192
 0
VERTEX
 8
ZYLINDE1
 10
20.2423
 20
0.1858
 30
13.4716
 70
192
 0
VERTEX
 8
ZYLINDE1
 10
20.2569
 20
0.2338
 30
13.557
 70
192
 0
VERTEX
 8
ZYLINDE1
 10
20.257
 20
-3.0946
 30
25.9788
 70
192
 0
VERTEX
 8
ZYLINDE1
 10
20.2425
 20
-3.1789
 30
26.0287
 70
192
 0
VERTEX
 8
ZYLINDE1
 10
19.7932
 20
0.1858
 30
13.4716
 70
192
 0
VERTEX
 8
ZYLINDE1
 10
19.7787
 20
0.2338
 30
13.557
 70
192
 0
VERTEX
 8
ZYLINDE1
 10
19.7788
 20
-3.0946
 30
25.9788
 70
192
 0
VERTEX
 8
ZYLINDE1
 10
19.7934
 20
-3.1789
 30
26.0287
 70
192
 0
VERTEX
 8
ZYLINDE1
 10
19.383
 20
0.0093
 30
13.4243
 70
192
 0
VERTEX
 8
ZYLINDE1
 10
19.3418
 20
0.0459
 30
13.5066
 70
192
 0
VERTEX
 8
ZYLINDE1
 10
19.342
 20
-3.2825
 30
25.9284
 70
192
 0
VERTEX
 8
ZYLINDE1
 10
19.3831
 20
-3.3553
 30
25.9814
 70
192
 0
VERTEX
 8
ZYLINDE1
 10
19.0825
 20
-0.313
 30
13.338
 70
192
 0
VERTEX
 8
ZYLINDE1
 10
19.0218
 20
-0.2973
 30
13.4146
 70
192
 0
VERTEX
 8
ZYLINDE1
 10
19.022
 20
-3.6257
 30
25.8364
 70
192
 0
VERTEX
 8
ZYLINDE1
 10
19.0826
 20
-3.6777
 30
25.895
 70
192
 0
VERTEX
 8
ZYLINDE1
 10
18.9437
 20
-0.7256
 30
13.2274
 70
192
 0
VERTEX
 8
ZYLINDE1
 10
18.8741
 20
-0.7366
 30
13.2969
 70
192
 0
VERTEX
 8
ZYLINDE1
 10
18.8742
 20
-4.065
 30
25.7187
 70
192
 0
VERTEX
 8
ZYLINDE1
 10
18.9439
 20
-4.0902
 30
25.7845
 70
192
 0
VERTEX
 8
ZYLINDE1
 10
18.9906
 20
-1.157
 30
13.1118
 70
192
 0
VERTEX
 8
ZYLINDE1
 10
18.9241
 20
-1.196
 30
13.1738
 70
192
 0
VERTEX
 8
ZYLINDE1
 10
18.9242
 20
-4.5244
 30
25.5957
 70
192
 0
VERTEX
 8
ZYLINDE1
 10
18.9908
 20
-4.5216
 30
25.6689
 70
192
 0
VERTEX
 8
ZYLINDE1
 10
19.2152
 20
-1.5327
 30
13.0112
 70
192
 0
VERTEX
 8
ZYLINDE1
 10
19.1632
 20
-1.596
 30
13.0667
 70
192
 0
VERTEX
 8
ZYLINDE1
 10
19.1633
 20
-4.9244
 30
25.4885
 70
192
 0
VERTEX
 8
ZYLINDE1
 10
19.2154
 20
-4.8973
 30
25.5682
 70
192
 0
VERTEX
 8
ZYLINDE1
 10
19.5785
 20
-1.7876
 30
12.9428
 70
192
 0
VERTEX
 8
ZYLINDE1
 10
19.55
 20
-1.8675
 30
12.9939
 70
192
 0
VERTEX
 8
ZYLINDE1
 10
0
 20
0
 30
0
 70
128
 71
39
 72
40
 73
44
 74
43
 0
VERTEX
 8
ZYLINDE1
 10
0
 20
0
 30
0
 70
128
 71
3
 72
4
 73
8
 74
7
 0
VERTEX
 8
ZYLINDE1
 10
0
 20
0
 30
0
 70
128
 71
4
 72
5
 73
9
 74
8
 0
VERTEX
 8
ZYLINDE1
 10
0
 20
0
 30
0
 70
128
 71
5
 72
6
 73
10
 74
9
 0
VERTEX
 8
ZYLINDE1
 10
0
 20
0
 30
0
 70
128
 71
40
 72
41
 73
45
 74
44
 0
VERTEX
 8
ZYLINDE1
 10
0
 20
0
 30
0
 70
128
 71
41
 72
42
 73
46
 74
45
 0
VERTEX
 8
ZYLINDE1
 10
0
 20
0
 30
0
 70
128
 71
7
 72
8
 73
12
 74
11
 0
VERTEX
 8
ZYLINDE1
 10
0
 20
0
 30
0
 70
128
 71
8
 72
9
 73
13
 74
12
 0
VERTEX
 8
ZYLINDE1
 10
0
 20
0
 30
0
 70
128
 71
9
 72
10
 73
14
 74
13
 0
VERTEX
 8
ZYLINDE1
 10
0
 20
0
 30
0
 70
128
 71
51
 72
52
 73
56
 74
55
 0
VERTEX
 8
ZYLINDE1
 10
0
 20
0
 30
0
 70
128
 71
59
 72
60
 73
4
 74
3
 0
VERTEX
 8
ZYLINDE1
 10
0
 20
0
 30
0
 70
128
 71
11
 72
12
 73
16
 74
15
 0
VERTEX
 8
ZYLINDE1
 10
0
 20
0
 30
0
 70
128
 71
12
 72
13
 73
17
 74
16
 0
VERTEX
 8
ZYLINDE1
 10
0
 20
0
 30
0
 70
128
 71
13
 72
14
 73
18
 74
17
 0
VERTEX
 8
ZYLINDE1
 10
0
 20
0
 30
0
 70
128
 71
52
 72
53
 73
57
 74
56
 0
VERTEX
 8
ZYLINDE1
 10
0
 20
0
 30
0
 70
128
 71
43
 72
44
 73
48
 74
47
 0
VERTEX
 8
ZYLINDE1
 10
0
 20
0
 30
0
 70
128
 71
15
 72
16
 73
20
 74
19
 0
VERTEX
 8
ZYLINDE1
 10
0
 20
0
 30
0
 70
128
 71
16
 72
17
 73
21
 74
20
 0
VERTEX
 8
ZYLINDE1
 10
0
 20
0
 30
0
 70
128
 71
17
 72
18
 73
22
 74
21
 0
VERTEX
 8
ZYLINDE1
 10
0
 20
0
 30
0
 70
128
 71
53
 72
54
 73
58
 74
57
 0
VERTEX
 8
ZYLINDE1
 10
0
 20
0
 30
0
 70
128
 71
44
 72
45
 73
49
 74
48
 0
VERTEX
 8
ZYLINDE1
 10
0
 20
0
 30
0
 70
128
 71
19
 72
20
 73
24
 74
23
 0
VERTEX
 8
ZYLINDE1
 10
0
 20
0
 30
0
 70
128
 71
20
 72
21
 73
25
 74
24
 0
VERTEX
 8
ZYLINDE1
 10
0
 20
0
 30
0
 70
128
 71
21
 72
22
 73
26
 74
25
 0
VERTEX
 8
ZYLINDE1
 10
0
 20
0
 30
0
 70
128
 71
45
 72
46
 73
50
 74
49
 0
VERTEX
 8
ZYLINDE1
 10
0
 20
0
 30
0
 70
128
 71
60
 72
1
 73
5
 74
4
 0
VERTEX
 8
ZYLINDE1
 10
0
 20
0
 30
0
 70
128
 71
23
 72
24
 73
28
 74
27
 0
VERTEX
 8
ZYLINDE1
 10
0
 20
0
 30
0
 70
128
 71
24
 72
25
 73
29
 74
28
 0
VERTEX
 8
ZYLINDE1
 10
0
 20
0
 30
0
 70
128
 71
25
 72
26
 73
30
 74
29
 0
VERTEX
 8
ZYLINDE1
 10
0
 20
0
 30
0
 70
128
 71
55
 72
56
 73
60
 74
59
 0
VERTEX
 8
ZYLINDE1
 10
0
 20
0
 30
0
 70
128
 71
47
 72
48
 73
52
 74
51
 0
VERTEX
 8
ZYLINDE1
 10
0
 20
0
 30
0
 70
128
 71
27
 72
28
 73
32
 74
31
 0
VERTEX
 8
ZYLINDE1
 10
0
 20
0
 30
0
 70
128
 71
28
 72
29
 73
33
 74
32
 0
VERTEX
 8
ZYLINDE1
 10
0
 20
0
 30
0
 70
128
 71
29
 72
30
 73
34
 74
33
 0
VERTEX
 8
ZYLINDE1
 10
0
 20
0
 30
0
 70
128
 71
56
 72
57
 73
1
 74
60
 0
VERTEX
 8
ZYLINDE1
 10
0
 20
0
 30
0
 70
128
 71
48
 72
49
 73
53
 74
52
 0
VERTEX
 8
ZYLINDE1
 10
0
 20
0
 30
0
 70
128
 71
31
 72
32
 73
36
 74
35
 0
VERTEX
 8
ZYLINDE1
 10
0
 20
0
 30
0
 70
128
 71
32
 72
33
 73
37
 74
36
 0
VERTEX
 8
ZYLINDE1
 10
0
 20
0
 30
0
 70
128
 71
33
 72
34
 73
38
 74
37
 0
VERTEX
 8
ZYLINDE1
 10
0
 20
0
 30
0
 70
128
 71
57
 72
58
 73
2
 74
1
 0
VERTEX
 8
ZYLINDE1
 10
0
 20
0
 30
0
 70
128
 71
49
 72
50
 73
54
 74
53
 0
VERTEX
 8
ZYLINDE1
 10
0
 20
0
 30
0
 70
128
 71
35
 72
36
 73
40
 74
39
 0
VERTEX
 8
ZYLINDE1
 10
0
 20
0
 30
0
 70
128
 71
36
 72
37
 73
41
 74
40
 0
VERTEX
 8
ZYLINDE1
 10
0
 20
0
 30
0
 70
128
 71
37
 72
38
 73
42
 74
41
 0
VERTEX
 8
ZYLINDE1
 10
0
 20
0
 30
0
 70
128
 71
1
 72
2
 73
6
 74
5
 0
SEQEND
 0
POLYLINE
 8
W_RFE1
 66
1
 10
0.0
 20
0.0
 30
0.0
 70
64
 71
25
 72
46
 0
VERTEX
 8
W_RFE1
 10
-9.1706
 20
0.2482
 30
9.464
 70
192
 0
VERTEX
 8
W_RFE1
 10
-8.934
 20
0.6578
 30
12.6153
 70
192
 0
VERTEX
 8
W_RFE1
 10
-4.6866
 20
0.3554
 30
9.4143
 70
192
 0
VERTEX
 8
W_RFE1
 10
-8.7983
 20
0.7414
 30
9.4149
 70
192
 0
VERTEX
 8
W_RFE1
 10
-5.1592
 20
-0.4564
 30
12.5786
 70
192
 0
VERTEX
 8
W_RFE1
 10
-8.7982
 20
-0.4546
 30
12.6131
 70
192
 0
VERTEX
 8
W_RFE1
 10
-4.7458
 20
-0.1794
 30
9.464
 70
192
 0
VERTEX
 8
W_RFE1
 10
-4.8712
 20
-0.3291
 30
9.464
 70
192
 0
VERTEX
 8
W_RFE1
 10
-8.934
 20
-0.3711
 30
9.4128
 70
192
 0
VERTEX
 8
W_RFE1
 10
-9.1009
 20
-0.1795
 30
12.564
 70
192
 0
VERTEX
 8
W_RFE1
 10
-4.6761
 20
0.2481
 30
12.564
 70
192
 0
VERTEX
 8
W_RFE1
 10
-4.9127
 20
0.6579
 30
9.4128
 70
192
 0
VERTEX
 8
W_RFE1
 10
-9.1706
 20
0.0386
 30
12.564
 70
192
 0
VERTEX
 8
W_RFE1
 10
-4.7458
 20
0.4662
 30
12.564
 70
192
 0
VERTEX
 8
W_RFE1
 10
-4.6761
 20
0.0387
 30
9.464
 70
192
 0
VERTEX
 8
W_RFE1
 10
-5.0484
 20
0.7413
 30
12.6132
 70
192
 0
VERTEX
 8
W_RFE1
 10
-4.9126
 20
-0.3711
 30
12.6152
 70
192
 0
VERTEX
 8
W_RFE1
 10
-9.1009
 20
0.4663
 30
9.464
 70
192
 0
VERTEX
 8
W_RFE1
 10
-9.16
 20
-0.0685
 30
9.4143
 70
192
 0
VERTEX
 8
W_RFE1
 10
-8.6874
 20
-0.4563
 30
9.4494
 70
192
 0
VERTEX
 8
W_RFE1
 10
-8.6875
 20
0.7431
 30
12.5786
 70
192
 0
VERTEX
 8
W_RFE1
 10
-5.1171
 20
-0.4557
 30
9.4146
 70
192
 0
VERTEX
 8
W_RFE1
 10
-9.16
 20
0.3553
 30
12.6138
 70
192
 0
VERTEX
 8
W_RFE1
 10
-5.1592
 20
0.7432
 30
9.4494
 70
192
 0
VERTEX
 8
W_RFE1
 10
-4.6866
 20
-0.0686
 30
12.6138
 70
192
 0
VERTEX
 8
W_RFE1
 10
0
 20
0
 30
0
 70
128
 71
19
 72
1
 73
23
 74
23
 0
VERTEX
 8
W_RFE1
 10
0
 20
0
 30
0
 70
128
 71
17
 72
16
 73
25
 74
25
 0
VERTEX
 8
W_RFE1
 10
0
 20
0
 30
0
 70
128
 71
25
 72
11
 73
3
 74
3
 0
VERTEX
 8
W_RFE1
 10
0
 20
0
 30
0
 70
128
 71
17
 72
8
 73
22
 74
22
 0
VERTEX
 8
W_RFE1
 10
0
 20
0
 30
0
 70
128
 71
4
 72
24
 73
16
 74
16
 0
VERTEX
 8
W_RFE1
 10
0
 20
0
 30
0
 70
128
 71
22
 72
20
 73
6
 74
6
 0
VERTEX
 8
W_RFE1
 10
0
 20
0
 30
0
 70
128
 71
12
 72
24
 73
4
 74
4
 0
VERTEX
 8
W_RFE1
 10
0
 20
0
 30
0
 70
128
 71
4
 72
16
 73
21
 74
21
 0
VERTEX
 8
W_RFE1
 10
0
 20
0
 30
0
 70
128
 71
9
 72
4
 73
19
 74
19
 0
VERTEX
 8
W_RFE1
 10
0
 20
0
 30
0
 70
128
 71
11
 72
14
 73
3
 74
3
 0
VERTEX
 8
W_RFE1
 10
0
 20
0
 30
0
 70
128
 71
7
 72
22
 73
8
 74
8
 0
VERTEX
 8
W_RFE1
 10
0
 20
0
 30
0
 70
128
 71
6
 72
2
 73
16
 74
16
 0
VERTEX
 8
W_RFE1
 10
0
 20
0
 30
0
 70
128
 71
17
 72
5
 73
6
 74
6
 0
VERTEX
 8
W_RFE1
 10
0
 20
0
 30
0
 70
128
 71
25
 72
7
 73
17
 74
17
 0
VERTEX
 8
W_RFE1
 10
0
 20
0
 30
0
 70
128
 71
1
 72
18
 73
23
 74
23
 0
VERTEX
 8
W_RFE1
 10
0
 20
0
 30
0
 70
128
 71
6
 72
20
 73
9
 74
9
 0
VERTEX
 8
W_RFE1
 10
0
 20
0
 30
0
 70
128
 71
7
 72
15
 73
22
 74
22
 0
VERTEX
 8
W_RFE1
 10
0
 20
0
 30
0
 70
128
 71
15
 72
7
 73
25
 74
25
 0
VERTEX
 8
W_RFE1
 10
0
 20
0
 30
0
 70
128
 71
23
 72
18
 73
2
 74
2
 0
VERTEX
 8
W_RFE1
 10
0
 20
0
 30
0
 70
128
 71
9
 72
10
 73
6
 74
6
 0
VERTEX
 8
W_RFE1
 10
0
 20
0
 30
0
 70
128
 71
9
 72
20
 73
22
 74
22
 0
VERTEX
 8
W_RFE1
 10
0
 20
0
 30
0
 70
128
 71
6
 72
10
 73
13
 74
13
 0
VERTEX
 8
W_RFE1
 10
0
 20
0
 30
0
 70
128
 71
6
 72
16
 73
17
 74
17
 0
VERTEX
 8
W_RFE1
 10
0
 20
0
 30
0
 70
128
 71
12
 72
14
 73
16
 74
16
 0
VERTEX
 8
W_RFE1
 10
0
 20
0
 30
0
 70
128
 71
6
 72
13
 73
23
 74
23
 0
VERTEX
 8
W_RFE1
 10
0
 20
0
 30
0
 70
128
 71
16
 72
14
 73
11
 74
11
 0
VERTEX
 8
W_RFE1
 10
0
 20
0
 30
0
 70
128
 71
22
 72
5
 73
17
 74
17
 0
VERTEX
 8
W_RFE1
 10
0
 20
0
 30
0
 70
128
 71
16
 72
11
 73
25
 74
25
 0
VERTEX
 8
W_RFE1
 10
0
 20
0
 30
0
 70
128
 71
4
 72
21
 73
2
 74
2
 0
VERTEX
 8
W_RFE1
 10
0
 20
0
 30
0
 70
128
 71
18
 72
1
 73
4
 74
4
 0
VERTEX
 8
W_RFE1
 10
0
 20
0
 30
0
 70
128
 71
19
 72
23
 73
13
 74
13
 0
VERTEX
 8
W_RFE1
 10
0
 20
0
 30
0
 70
128
 71
4
 72
1
 73
19
 74
19
 0
VERTEX
 8
W_RFE1
 10
0
 20
0
 30
0
 70
128
 71
17
 72
7
 73
8
 74
8
 0
VERTEX
 8
W_RFE1
 10
0
 20
0
 30
0
 70
128
 71
2
 72
18
 73
4
 74
4
 0
VERTEX
 8
W_RFE1
 10
0
 20
0
 30
0
 70
128
 71
6
 72
23
 73
2
 74
2
 0
VERTEX
 8
W_RFE1
 10
0
 20
0
 30
0
 70
128
 71
16
 72
24
 73
12
 74
12
 0
VERTEX
 8
W_RFE1
 10
0
 20
0
 30
0
 70
128
 71
22
 72
4
 73
9
 74
9
 0
VERTEX
 8
W_RFE1
 10
0
 20
0
 30
0
 70
128
 71
22
 72
6
 73
5
 74
5
 0
VERTEX
 8
W_RFE1
 10
0
 20
0
 30
0
 70
128
 71
19
 72
10
 73
9
 74
9
 0
VERTEX
 8
W_RFE1
 10
0
 20
0
 30
0
 70
128
 71
22
 72
15
 73
3
 74
3
 0
VERTEX
 8
W_RFE1
 10
0
 20
0
 30
0
 70
128
 71
16
 72
2
 73
21
 74
21
 0
VERTEX
 8
W_RFE1
 10
0
 20
0
 30
0
 70
128
 71
3
 72
14
 73
12
 74
12
 0
VERTEX
 8
W_RFE1
 10
0
 20
0
 30
0
 70
128
 71
13
 72
10
 73
19
 74
19
 0
VERTEX
 8
W_RFE1
 10
0
 20
0
 30
0
 70
128
 71
22
 72
12
 73
4
 74
4
 0
VERTEX
 8
W_RFE1
 10
0
 20
0
 30
0
 70
128
 71
22
 72
3
 73
12
 74
12
 0
VERTEX
 8
W_RFE1
 10
0
 20
0
 30
0
 70
128
 71
25
 72
3
 73
15
 74
15
 0
SEQEND
 0
POLYLINE
 8
ROSETT2
 66
1
 10
0.0
 20
0.0
 30
0.0
 70
64
 71
38
 72
72
 0
VERTEX
 8
ROSETT2
 10
-4.9167
 20
-2.6282
 30
8.8236
 70
192
 0
VERTEX
 8
ROSETT2
 10
-4.5192
 20
-2.5142
 30
9.3236
 70
192
 0
VERTEX
 8
ROSETT2
 10
-4.1668
 20
-1.8782
 30
9.3236
 70
192
 0
VERTEX
 8
ROSETT2
 10
-9.6494
 20
2.1215
 30
8.7858
 70
192
 0
VERTEX
 8
ROSETT2
 10
-4.5194
 20
2.7578
 30
9.3237
 70
192
 0
VERTEX
 8
ROSETT2
 10
-4.5194
 20
2.7578
 30
8.8237
 70
192
 0
VERTEX
 8
ROSETT2
 10
-4.1928
 20
2.3486
 30
8.7738
 70
192
 0
VERTEX
 8
ROSETT2
 10
-4.9172
 20
2.8544
 30
8.7858
 70
192
 0
VERTEX
 8
ROSETT2
 10
-4.1927
 20
-2.105
 30
9.3736
 70
192
 0
VERTEX
 8
ROSETT2
 10
-4.1842
 20
-1.8778
 30
8.7857
 70
192
 0
VERTEX
 8
ROSETT2
 10
-9.6409
 20
2.3486
 30
9.3737
 70
192
 0
VERTEX
 8
ROSETT2
 10
-9.6408
 20
-2.105
 30
8.7737
 70
192
 0
VERTEX
 8
ROSETT2
 10
-4.2807
 20
-2.2757
 30
9.3236
 70
192
 0
VERTEX
 8
ROSETT2
 10
-9.5529
 20
2.5193
 30
8.8237
 70
192
 0
VERTEX
 8
ROSETT2
 10
-4.1843
 20
2.1215
 30
9.3617
 70
192
 0
VERTEX
 8
ROSETT2
 10
-4.9171
 20
-2.6107
 30
9.3616
 70
192
 0
VERTEX
 8
ROSETT2
 10
-9.5529
 20
2.5193
 30
9.3237
 70
192
 0
VERTEX
 8
ROSETT2
 10
-8.9165
 20
2.8544
 30
9.3617
 70
192
 0
VERTEX
 8
ROSETT2
 10
-4.9169
 20
2.8718
 30
9.3237
 70
192
 0
VERTEX
 8
ROSETT2
 10
-4.2315
 20
2.4264
 30
9.3237
 70
192
 0
VERTEX
 8
ROSETT2
 10
-9.1658
 20
-2.5979
 30
9.3736
 70
192
 0
VERTEX
 8
ROSETT2
 10
-4.6899
 20
-2.6023
 30
8.7737
 70
192
 0
VERTEX
 8
ROSETT2
 10
-4.2314
 20
-2.1828
 30
8.8236
 70
192
 0
VERTEX
 8
ROSETT2
 10
-9.6668
 20
2.1218
 30
9.3237
 70
192
 0
VERTEX
 8
ROSETT2
 10
-9.3142
 20
-2.5142
 30
8.8236
 70
192
 0
VERTEX
 8
ROSETT2
 10
-4.5192
 20
-2.5142
 30
8.8236
 70
192
 0
VERTEX
 8
ROSETT2
 10
-9.3144
 20
2.7578
 30
9.3237
 70
192
 0
VERTEX
 8
ROSETT2
 10
-9.6493
 20
-1.8778
 30
9.3616
 70
192
 0
VERTEX
 8
ROSETT2
 10
-4.1668
 20
2.1218
 30
8.8237
 70
192
 0
VERTEX
 8
ROSETT2
 10
-9.6668
 20
-1.8782
 30
8.8236
 70
192
 0
VERTEX
 8
ROSETT2
 10
-9.5527
 20
-2.2757
 30
9.3236
 70
192
 0
VERTEX
 8
ROSETT2
 10
-9.5527
 20
-2.2757
 30
8.8236
 70
192
 0
VERTEX
 8
ROSETT2
 10
-4.2809
 20
2.5193
 30
8.8237
 70
192
 0
VERTEX
 8
ROSETT2
 10
-8.9167
 20
-2.6282
 30
9.3236
 70
192
 0
VERTEX
 8
ROSETT2
 10
-8.9169
 20
2.8718
 30
8.8237
 70
192
 0
VERTEX
 8
ROSETT2
 10
-4.6901
 20
2.8459
 30
9.3737
 70
192
 0
VERTEX
 8
ROSETT2
 10
-9.1659
 20
2.8415
 30
8.7738
 70
192
 0
VERTEX
 8
ROSETT2
 10
-8.9164
 20
-2.6107
 30
8.7857
 70
192
 0
VERTEX
 8
ROSETT2
 10
0
 20
0
 30
0
 70
128
 71
30
 72
4
 73
24
 74
24
 0
VERTEX
 8
ROSETT2
 10
0
 20
0
 30
0
 70
128
 71
11
 72
27
 73
18
 74
18
 0
VERTEX
 8
ROSETT2
 10
0
 20
0
 30
0
 70
128
 71
3
 72
15
 73
29
 74
29
 0
VERTEX
 8
ROSETT2
 10
0
 20
0
 30
0
 70
128
 71
24
 72
17
 73
11
 74
11
 0
VERTEX
 8
ROSETT2
 10
0
 20
0
 30
0
 70
128
 71
35
 72
8
 73
19
 74
19
 0
VERTEX
 8
ROSETT2
 10
0
 20
0
 30
0
 70
128
 71
1
 72
38
 73
34
 74
34
 0
VERTEX
 8
ROSETT2
 10
0
 20
0
 30
0
 70
128
 71
15
 72
20
 73
29
 74
29
 0
VERTEX
 8
ROSETT2
 10
0
 20
0
 30
0
 70
128
 71
23
 72
22
 73
26
 74
26
 0
VERTEX
 8
ROSETT2
 10
0
 20
0
 30
0
 70
128
 71
26
 72
22
 73
1
 74
1
 0
VERTEX
 8
ROSETT2
 10
0
 20
0
 30
0
 70
128
 71
28
 72
32
 73
30
 74
30
 0
VERTEX
 8
ROSETT2
 10
0
 20
0
 30
0
 70
128
 71
13
 72
23
 73
26
 74
26
 0
VERTEX
 8
ROSETT2
 10
0
 20
0
 30
0
 70
128
 71
23
 72
10
 73
22
 74
22
 0
VERTEX
 8
ROSETT2
 10
0
 20
0
 30
0
 70
128
 71
7
 72
33
 73
6
 74
6
 0
VERTEX
 8
ROSETT2
 10
0
 20
0
 30
0
 70
128
 71
11
 72
21
 73
28
 74
28
 0
VERTEX
 8
ROSETT2
 10
0
 20
0
 30
0
 70
128
 71
13
 72
9
 73
3
 74
3
 0
VERTEX
 8
ROSETT2
 10
0
 20
0
 30
0
 70
128
 71
28
 72
31
 73
32
 74
32
 0
VERTEX
 8
ROSETT2
 10
0
 20
0
 30
0
 70
128
 71
36
 72
11
 73
18
 74
18
 0
VERTEX
 8
ROSETT2
 10
0
 20
0
 30
0
 70
128
 71
11
 72
36
 73
9
 74
9
 0
VERTEX
 8
ROSETT2
 10
0
 20
0
 30
0
 70
128
 71
1
 72
34
 73
16
 74
16
 0
VERTEX
 8
ROSETT2
 10
0
 20
0
 30
0
 70
128
 71
18
 72
37
 73
35
 74
35
 0
VERTEX
 8
ROSETT2
 10
0
 20
0
 30
0
 70
128
 71
5
 72
8
 73
6
 74
6
 0
VERTEX
 8
ROSETT2
 10
0
 20
0
 30
0
 70
128
 71
37
 72
18
 73
27
 74
27
 0
VERTEX
 8
ROSETT2
 10
0
 20
0
 30
0
 70
128
 71
14
 72
37
 73
27
 74
27
 0
VERTEX
 8
ROSETT2
 10
0
 20
0
 30
0
 70
128
 71
29
 72
7
 73
10
 74
10
 0
VERTEX
 8
ROSETT2
 10
0
 20
0
 30
0
 70
128
 71
33
 72
5
 73
6
 74
6
 0
VERTEX
 8
ROSETT2
 10
0
 20
0
 30
0
 70
128
 71
14
 72
4
 73
37
 74
37
 0
VERTEX
 8
ROSETT2
 10
0
 20
0
 30
0
 70
128
 71
35
 72
19
 73
18
 74
18
 0
VERTEX
 8
ROSETT2
 10
0
 20
0
 30
0
 70
128
 71
7
 72
6
 73
8
 74
8
 0
VERTEX
 8
ROSETT2
 10
0
 20
0
 30
0
 70
128
 71
4
 72
14
 73
17
 74
17
 0
VERTEX
 8
ROSETT2
 10
0
 20
0
 30
0
 70
128
 71
9
 72
36
 73
15
 74
15
 0
VERTEX
 8
ROSETT2
 10
0
 20
0
 30
0
 70
128
 71
30
 72
24
 73
28
 74
28
 0
VERTEX
 8
ROSETT2
 10
0
 20
0
 30
0
 70
128
 71
4
 72
30
 73
12
 74
12
 0
VERTEX
 8
ROSETT2
 10
0
 20
0
 30
0
 70
128
 71
20
 72
15
 73
36
 74
36
 0
VERTEX
 8
ROSETT2
 10
0
 20
0
 30
0
 70
128
 71
10
 72
23
 73
3
 74
3
 0
VERTEX
 8
ROSETT2
 10
0
 20
0
 30
0
 70
128
 71
21
 72
9
 73
16
 74
16
 0
VERTEX
 8
ROSETT2
 10
0
 20
0
 30
0
 70
128
 71
25
 72
12
 73
32
 74
32
 0
VERTEX
 8
ROSETT2
 10
0
 20
0
 30
0
 70
128
 71
4
 72
17
 73
24
 74
24
 0
VERTEX
 8
ROSETT2
 10
0
 20
0
 30
0
 70
128
 71
3
 72
29
 73
10
 74
10
 0
VERTEX
 8
ROSETT2
 10
0
 20
0
 30
0
 70
128
 71
11
 72
9
 73
21
 74
21
 0
VERTEX
 8
ROSETT2
 10
0
 20
0
 30
0
 70
128
 71
33
 72
7
 73
29
 74
29
 0
VERTEX
 8
ROSETT2
 10
0
 20
0
 30
0
 70
128
 71
5
 72
19
 73
8
 74
8
 0
VERTEX
 8
ROSETT2
 10
0
 20
0
 30
0
 70
128
 71
22
 72
12
 73
38
 74
38
 0
VERTEX
 8
ROSETT2
 10
0
 20
0
 30
0
 70
128
 71
31
 72
21
 73
25
 74
25
 0
VERTEX
 8
ROSETT2
 10
0
 20
0
 30
0
 70
128
 71
19
 72
36
 73
18
 74
18
 0
VERTEX
 8
ROSETT2
 10
0
 20
0
 30
0
 70
128
 71
16
 72
34
 73
21
 74
21
 0
VERTEX
 8
ROSETT2
 10
0
 20
0
 30
0
 70
128
 71
1
 72
22
 73
38
 74
38
 0
VERTEX
 8
ROSETT2
 10
0
 20
0
 30
0
 70
128
 71
13
 72
26
 73
2
 74
2
 0
VERTEX
 8
ROSETT2
 10
0
 20
0
 30
0
 70
128
 71
20
 72
33
 73
29
 74
29
 0
VERTEX
 8
ROSETT2
 10
0
 20
0
 30
0
 70
128
 71
37
 72
7
 73
8
 74
8
 0
VERTEX
 8
ROSETT2
 10
0
 20
0
 30
0
 70
128
 71
7
 72
37
 73
12
 74
12
 0
VERTEX
 8
ROSETT2
 10
0
 20
0
 30
0
 70
128
 71
21
 72
38
 73
25
 74
25
 0
VERTEX
 8
ROSETT2
 10
0
 20
0
 30
0
 70
128
 71
25
 72
38
 73
12
 74
12
 0
VERTEX
 8
ROSETT2
 10
0
 20
0
 30
0
 70
128
 71
20
 72
36
 73
5
 74
5
 0
VERTEX
 8
ROSETT2
 10
0
 20
0
 30
0
 70
128
 71
5
 72
36
 73
19
 74
19
 0
VERTEX
 8
ROSETT2
 10
0
 20
0
 30
0
 70
128
 71
17
 72
14
 73
27
 74
27
 0
VERTEX
 8
ROSETT2
 10
0
 20
0
 30
0
 70
128
 71
28
 72
24
 73
11
 74
11
 0
VERTEX
 8
ROSETT2
 10
0
 20
0
 30
0
 70
128
 71
9
 72
2
 73
16
 74
16
 0
VERTEX
 8
ROSETT2
 10
0
 20
0
 30
0
 70
128
 71
32
 72
31
 73
25
 74
25
 0
VERTEX
 8
ROSETT2
 10
0
 20
0
 30
0
 70
128
 71
7
 72
22
 73
10
 74
10
 0
VERTEX
 8
ROSETT2
 10
0
 20
0
 30
0
 70
128
 71
35
 72
37
 73
8
 74
8
 0
VERTEX
 8
ROSETT2
 10
0
 20
0
 30
0
 70
128
 71
26
 72
1
 73
16
 74
16
 0
VERTEX
 8
ROSETT2
 10
0
 20
0
 30
0
 70
128
 71
12
 72
37
 73
4
 74
4
 0
VERTEX
 8
ROSETT2
 10
0
 20
0
 30
0
 70
128
 71
9
 72
13
 73
2
 74
2
 0
VERTEX
 8
ROSETT2
 10
0
 20
0
 30
0
 70
128
 71
33
 72
20
 73
5
 74
5
 0
VERTEX
 8
ROSETT2
 10
0
 20
0
 30
0
 70
128
 71
26
 72
16
 73
2
 74
2
 0
VERTEX
 8
ROSETT2
 10
0
 20
0
 30
0
 70
128
 71
15
 72
3
 73
9
 74
9
 0
VERTEX
 8
ROSETT2
 10
0
 20
0
 30
0
 70
128
 71
38
 72
21
 73
34
 74
34
 0
VERTEX
 8
ROSETT2
 10
0
 20
0
 30
0
 70
128
 71
23
 72
13
 73
3
 74
3
 0
VERTEX
 8
ROSETT2
 10
0
 20
0
 30
0
 70
128
 71
32
 72
12
 73
30
 74
30
 0
VERTEX
 8
ROSETT2
 10
0
 20
0
 30
0
 70
128
 71
7
 72
12
 73
22
 74
22
 0
VERTEX
 8
ROSETT2
 10
0
 20
0
 30
0
 70
128
 71
31
 72
28
 73
21
 74
21
 0
VERTEX
 8
ROSETT2
 10
0
 20
0
 30
0
 70
128
 71
11
 72
17
 73
27
 74
27
 0
SEQEND
 0
POLYLINE
 8
W_RFE2
 66
1
 10
0.0
 20
0.0
 30
0.0
 70
64
 71
25
 72
46
 0
VERTEX
 8
W_RFE2
 10
3.5442
 20
0.2481
 30
9.4639
 70
192
 0
VERTEX
 8
W_RFE2
 10
3.7808
 20
0.6579
 30
12.6152
 70
192
 0
VERTEX
 8
W_RFE2
 10
8.0281
 20
0.3553
 30
9.4142
 70
192
 0
VERTEX
 8
W_RFE2
 10
3.9165
 20
0.7413
 30
9.4148
 70
192
 0
VERTEX
 8
W_RFE2
 10
7.5556
 20
-0.4564
 30
12.5785
 70
192
 0
VERTEX
 8
W_RFE2
 10
3.9165
 20
-0.4546
 30
12.6131
 70
192
 0
VERTEX
 8
W_RFE2
 10
7.969
 20
-0.1795
 30
9.4639
 70
192
 0
VERTEX
 8
W_RFE2
 10
7.8436
 20
-0.3291
 30
9.4639
 70
192
 0
VERTEX
 8
W_RFE2
 10
3.7808
 20
-0.3711
 30
9.4127
 70
192
 0
VERTEX
 8
W_RFE2
 10
3.6139
 20
-0.1795
 30
12.5639
 70
192
 0
VERTEX
 8
W_RFE2
 10
8.0387
 20
0.2481
 30
12.5639
 70
192
 0
VERTEX
 8
W_RFE2
 10
7.8021
 20
0.6579
 30
9.4127
 70
192
 0
VERTEX
 8
W_RFE2
 10
3.5442
 20
0.0386
 30
12.5639
 70
192
 0
VERTEX
 8
W_RFE2
 10
7.969
 20
0.4662
 30
12.5639
 70
192
 0
VERTEX
 8
W_RFE2
 10
8.0387
 20
0.0386
 30
9.4639
 70
192
 0
VERTEX
 8
W_RFE2
 10
7.6664
 20
0.7413
 30
12.6131
 70
192
 0
VERTEX
 8
W_RFE2
 10
7.8021
 20
-0.3711
 30
12.6152
 70
192
 0
VERTEX
 8
W_RFE2
 10
3.6139
 20
0.4663
 30
9.4639
 70
192
 0
VERTEX
 8
W_RFE2
 10
3.5548
 20
-0.0686
 30
9.4142
 70
192
 0
VERTEX
 8
W_RFE2
 10
4.0273
 20
-0.4564
 30
9.4493
 70
192
 0
VERTEX
 8
W_RFE2
 10
4.0273
 20
0.7431
 30
12.5785
 70
192
 0
VERTEX
 8
W_RFE2
 10
7.5977
 20
-0.4558
 30
9.4145
 70
192
 0
VERTEX
 8
W_RFE2
 10
3.5548
 20
0.3553
 30
12.6137
 70
192
 0
VERTEX
 8
W_RFE2
 10
7.5556
 20
0.7431
 30
9.4493
 70
192
 0
VERTEX
 8
W_RFE2
 10
8.0282
 20
-0.0686
 30
12.6137
 70
192
 0
VERTEX
 8
W_RFE2
 10
0
 20
0
 30
0
 70
128
 71
19
 72
1
 73
23
 74
23
 0
VERTEX
 8
W_RFE2
 10
0
 20
0
 30
0
 70
128
 71
17
 72
16
 73
25
 74
25
 0
VERTEX
 8
W_RFE2
 10
0
 20
0
 30
0
 70
128
 71
25
 72
11
 73
3
 74
3
 0
VERTEX
 8
W_RFE2
 10
0
 20
0
 30
0
 70
128
 71
17
 72
8
 73
22
 74
22
 0
VERTEX
 8
W_RFE2
 10
0
 20
0
 30
0
 70
128
 71
4
 72
24
 73
16
 74
16
 0
VERTEX
 8
W_RFE2
 10
0
 20
0
 30
0
 70
128
 71
22
 72
20
 73
6
 74
6
 0
VERTEX
 8
W_RFE2
 10
0
 20
0
 30
0
 70
128
 71
12
 72
24
 73
4
 74
4
 0
VERTEX
 8
W_RFE2
 10
0
 20
0
 30
0
 70
128
 71
4
 72
16
 73
21
 74
21
 0
VERTEX
 8
W_RFE2
 10
0
 20
0
 30
0
 70
128
 71
9
 72
4
 73
19
 74
19
 0
VERTEX
 8
W_RFE2
 10
0
 20
0
 30
0
 70
128
 71
11
 72
14
 73
3
 74
3
 0
VERTEX
 8
W_RFE2
 10
0
 20
0
 30
0
 70
128
 71
7
 72
22
 73
8
 74
8
 0
VERTEX
 8
W_RFE2
 10
0
 20
0
 30
0
 70
128
 71
6
 72
2
 73
16
 74
16
 0
VERTEX
 8
W_RFE2
 10
0
 20
0
 30
0
 70
128
 71
17
 72
5
 73
6
 74
6
 0
VERTEX
 8
W_RFE2
 10
0
 20
0
 30
0
 70
128
 71
25
 72
7
 73
17
 74
17
 0
VERTEX
 8
W_RFE2
 10
0
 20
0
 30
0
 70
128
 71
1
 72
18
 73
23
 74
23
 0
VERTEX
 8
W_RFE2
 10
0
 20
0
 30
0
 70
128
 71
6
 72
20
 73
9
 74
9
 0
VERTEX
 8
W_RFE2
 10
0
 20
0
 30
0
 70
128
 71
7
 72
15
 73
22
 74
22
 0
VERTEX
 8
W_RFE2
 10
0
 20
0
 30
0
 70
128
 71
15
 72
7
 73
25
 74
25
 0
VERTEX
 8
W_RFE2
 10
0
 20
0
 30
0
 70
128
 71
23
 72
18
 73
2
 74
2
 0
VERTEX
 8
W_RFE2
 10
0
 20
0
 30
0
 70
128
 71
9
 72
10
 73
6
 74
6
 0
VERTEX
 8
W_RFE2
 10
0
 20
0
 30
0
 70
128
 71
9
 72
20
 73
22
 74
22
 0
VERTEX
 8
W_RFE2
 10
0
 20
0
 30
0
 70
128
 71
6
 72
10
 73
13
 74
13
 0
VERTEX
 8
W_RFE2
 10
0
 20
0
 30
0
 70
128
 71
6
 72
16
 73
17
 74
17
 0
VERTEX
 8
W_RFE2
 10
0
 20
0
 30
0
 70
128
 71
12
 72
14
 73
16
 74
16
 0
VERTEX
 8
W_RFE2
 10
0
 20
0
 30
0
 70
128
 71
6
 72
13
 73
23
 74
23
 0
VERTEX
 8
W_RFE2
 10
0
 20
0
 30
0
 70
128
 71
16
 72
14
 73
11
 74
11
 0
VERTEX
 8
W_RFE2
 10
0
 20
0
 30
0
 70
128
 71
22
 72
5
 73
17
 74
17
 0
VERTEX
 8
W_RFE2
 10
0
 20
0
 30
0
 70
128
 71
16
 72
11
 73
25
 74
25
 0
VERTEX
 8
W_RFE2
 10
0
 20
0
 30
0
 70
128
 71
4
 72
21
 73
2
 74
2
 0
VERTEX
 8
W_RFE2
 10
0
 20
0
 30
0
 70
128
 71
18
 72
1
 73
4
 74
4
 0
VERTEX
 8
W_RFE2
 10
0
 20
0
 30
0
 70
128
 71
19
 72
23
 73
13
 74
13
 0
VERTEX
 8
W_RFE2
 10
0
 20
0
 30
0
 70
128
 71
4
 72
1
 73
19
 74
19
 0
VERTEX
 8
W_RFE2
 10
0
 20
0
 30
0
 70
128
 71
17
 72
7
 73
8
 74
8
 0
VERTEX
 8
W_RFE2
 10
0
 20
0
 30
0
 70
128
 71
2
 72
18
 73
4
 74
4
 0
VERTEX
 8
W_RFE2
 10
0
 20
0
 30
0
 70
128
 71
6
 72
23
 73
2
 74
2
 0
VERTEX
 8
W_RFE2
 10
0
 20
0
 30
0
 70
128
 71
16
 72
24
 73
12
 74
12
 0
VERTEX
 8
W_RFE2
 10
0
 20
0
 30
0
 70
128
 71
22
 72
4
 73
9
 74
9
 0
VERTEX
 8
W_RFE2
 10
0
 20
0
 30
0
 70
128
 71
22
 72
6
 73
5
 74
5
 0
VERTEX
 8
W_RFE2
 10
0
 20
0
 30
0
 70
128
 71
19
 72
10
 73
9
 74
9
 0
VERTEX
 8
W_RFE2
 10
0
 20
0
 30
0
 70
128
 71
22
 72
15
 73
3
 74
3
 0
VERTEX
 8
W_RFE2
 10
0
 20
0
 30
0
 70
128
 71
16
 72
2
 73
21
 74
21
 0
VERTEX
 8
W_RFE2
 10
0
 20
0
 30
0
 70
128
 71
3
 72
14
 73
12
 74
12
 0
VERTEX
 8
W_RFE2
 10
0
 20
0
 30
0
 70
128
 71
13
 72
10
 73
19
 74
19
 0
VERTEX
 8
W_RFE2
 10
0
 20
0
 30
0
 70
128
 71
22
 72
12
 73
4
 74
4
 0
VERTEX
 8
W_RFE2
 10
0
 20
0
 30
0
 70
128
 71
22
 72
3
 73
12
 74
12
 0
VERTEX
 8
W_RFE2
 10
0
 20
0
 30
0
 70
128
 71
25
 72
3
 73
15
 74
15
 0
SEQEND
 0
POLYLINE
 8
ROSETT4
 66
1
 10
0.0
 20
0.0
 30
0.0
 70
64
 71
38
 72
72
 0
VERTEX
 8
ROSETT4
 10
7.7981
 20
-2.6282
 30
8.8236
 70
192
 0
VERTEX
 8
ROSETT4
 10
8.1956
 20
-2.5142
 30
9.3236
 70
192
 0
VERTEX
 8
ROSETT4
 10
8.548
 20
-1.8782
 30
9.3236
 70
192
 0
VERTEX
 8
ROSETT4
 10
3.0654
 20
2.1214
 30
8.7856
 70
192
 0
VERTEX
 8
ROSETT4
 10
8.1954
 20
2.7578
 30
9.3236
 70
192
 0
VERTEX
 8
ROSETT4
 10
8.1954
 20
2.7578
 30
8.8236
 70
192
 0
VERTEX
 8
ROSETT4
 10
8.522
 20
2.3486
 30
8.7736
 70
192
 0
VERTEX
 8
ROSETT4
 10
7.7976
 20
2.8543
 30
8.7856
 70
192
 0
VERTEX
 8
ROSETT4
 10
8.5221
 20
-2.105
 30
9.3735
 70
192
 0
VERTEX
 8
ROSETT4
 10
8.5306
 20
-1.8779
 30
8.7856
 70
192
 0
VERTEX
 8
ROSETT4
 10
3.0739
 20
2.3486
 30
9.3735
 70
192
 0
VERTEX
 8
ROSETT4
 10
3.074
 20
-2.105
 30
8.7736
 70
192
 0
VERTEX
 8
ROSETT4
 10
8.434
 20
-2.2757
 30
9.3236
 70
192
 0
VERTEX
 8
ROSETT4
 10
3.1619
 20
2.5193
 30
8.8236
 70
192
 0
VERTEX
 8
ROSETT4
 10
8.5305
 20
2.1214
 30
9.3615
 70
192
 0
VERTEX
 8
ROSETT4
 10
7.7977
 20
-2.6108
 30
9.3615
 70
192
 0
VERTEX
 8
ROSETT4
 10
3.1619
 20
2.5193
 30
9.3236
 70
192
 0
VERTEX
 8
ROSETT4
 10
3.7983
 20
2.8543
 30
9.3615
 70
192
 0
VERTEX
 8
ROSETT4
 10
7.7979
 20
2.8718
 30
9.3236
 70
192
 0
VERTEX
 8
ROSETT4
 10
8.4833
 20
2.4264
 30
9.3236
 70
192
 0
VERTEX
 8
ROSETT4
 10
3.549
 20
-2.5979
 30
9.3735
 70
192
 0
VERTEX
 8
ROSETT4
 10
8.0249
 20
-2.6023
 30
8.7737
 70
192
 0
VERTEX
 8
ROSETT4
 10
8.4834
 20
-2.1828
 30
8.8236
 70
192
 0
VERTEX
 8
ROSETT4
 10
3.0479
 20
2.1218
 30
9.3236
 70
192
 0
VERTEX
 8
ROSETT4
 10
3.4006
 20
-2.5142
 30
8.8236
 70
192
 0
VERTEX
 8
ROSETT4
 10
8.1956
 20
-2.5142
 30
8.8236
 70
192
 0
VERTEX
 8
ROSETT4
 10
3.4004
 20
2.7578
 30
9.3236
 70
192
 0
VERTEX
 8
ROSETT4
 10
3.0655
 20
-1.8779
 30
9.3615
 70
192
 0
VERTEX
 8
ROSETT4
 10
8.5479
 20
2.1218
 30
8.8236
 70
192
 0
VERTEX
 8
ROSETT4
 10
3.048
 20
-1.8782
 30
8.8236
 70
192
 0
VERTEX
 8
ROSETT4
 10
3.162
 20
-2.2757
 30
9.3236
 70
192
 0
VERTEX
 8
ROSETT4
 10
3.162
 20
-2.2757
 30
8.8236
 70
192
 0
VERTEX
 8
ROSETT4
 10
8.4339
 20
2.5193
 30
8.8236
 70
192
 0
VERTEX
 8
ROSETT4
 10
3.7981
 20
-2.6282
 30
9.3236
 70
192
 0
VERTEX
 8
ROSETT4
 10
3.7979
 20
2.8718
 30
8.8236
 70
192
 0
VERTEX
 8
ROSETT4
 10
8.0247
 20
2.8459
 30
9.3735
 70
192
 0
VERTEX
 8
ROSETT4
 10
3.5489
 20
2.8415
 30
8.7736
 70
192
 0
VERTEX
 8
ROSETT4
 10
3.7984
 20
-2.6108
 30
8.7856
 70
192
 0
VERTEX
 8
ROSETT4
 10
0
 20
0
 30
0
 70
128
 71
30
 72
4
 73
24
 74
24
 0
VERTEX
 8
ROSETT4
 10
0
 20
0
 30
0
 70
128
 71
11
 72
27
 73
18
 74
18
 0
VERTEX
 8
ROSETT4
 10
0
 20
0
 30
0
 70
128
 71
3
 72
15
 73
29
 74
29
 0
VERTEX
 8
ROSETT4
 10
0
 20
0
 30
0
 70
128
 71
24
 72
17
 73
11
 74
11
 0
VERTEX
 8
ROSETT4
 10
0
 20
0
 30
0
 70
128
 71
35
 72
8
 73
19
 74
19
 0
VERTEX
 8
ROSETT4
 10
0
 20
0
 30
0
 70
128
 71
1
 72
38
 73
34
 74
34
 0
VERTEX
 8
ROSETT4
 10
0
 20
0
 30
0
 70
128
 71
15
 72
20
 73
29
 74
29
 0
VERTEX
 8
ROSETT4
 10
0
 20
0
 30
0
 70
128
 71
23
 72
22
 73
26
 74
26
 0
VERTEX
 8
ROSETT4
 10
0
 20
0
 30
0
 70
128
 71
26
 72
22
 73
1
 74
1
 0
VERTEX
 8
ROSETT4
 10
0
 20
0
 30
0
 70
128
 71
28
 72
32
 73
30
 74
30
 0
VERTEX
 8
ROSETT4
 10
0
 20
0
 30
0
 70
128
 71
13
 72
23
 73
26
 74
26
 0
VERTEX
 8
ROSETT4
 10
0
 20
0
 30
0
 70
128
 71
23
 72
10
 73
22
 74
22
 0
VERTEX
 8
ROSETT4
 10
0
 20
0
 30
0
 70
128
 71
7
 72
33
 73
6
 74
6
 0
VERTEX
 8
ROSETT4
 10
0
 20
0
 30
0
 70
128
 71
11
 72
21
 73
28
 74
28
 0
VERTEX
 8
ROSETT4
 10
0
 20
0
 30
0
 70
128
 71
13
 72
9
 73
3
 74
3
 0
VERTEX
 8
ROSETT4
 10
0
 20
0
 30
0
 70
128
 71
28
 72
31
 73
32
 74
32
 0
VERTEX
 8
ROSETT4
 10
0
 20
0
 30
0
 70
128
 71
36
 72
11
 73
18
 74
18
 0
VERTEX
 8
ROSETT4
 10
0
 20
0
 30
0
 70
128
 71
11
 72
36
 73
9
 74
9
 0
VERTEX
 8
ROSETT4
 10
0
 20
0
 30
0
 70
128
 71
1
 72
34
 73
16
 74
16
 0
VERTEX
 8
ROSETT4
 10
0
 20
0
 30
0
 70
128
 71
18
 72
37
 73
35
 74
35
 0
VERTEX
 8
ROSETT4
 10
0
 20
0
 30
0
 70
128
 71
5
 72
8
 73
6
 74
6
 0
VERTEX
 8
ROSETT4
 10
0
 20
0
 30
0
 70
128
 71
37
 72
18
 73
27
 74
27
 0
VERTEX
 8
ROSETT4
 10
0
 20
0
 30
0
 70
128
 71
14
 72
37
 73
27
 74
27
 0
VERTEX
 8
ROSETT4
 10
0
 20
0
 30
0
 70
128
 71
29
 72
7
 73
10
 74
10
 0
VERTEX
 8
ROSETT4
 10
0
 20
0
 30
0
 70
128
 71
33
 72
5
 73
6
 74
6
 0
VERTEX
 8
ROSETT4
 10
0
 20
0
 30
0
 70
128
 71
14
 72
4
 73
37
 74
37
 0
VERTEX
 8
ROSETT4
 10
0
 20
0
 30
0
 70
128
 71
35
 72
19
 73
18
 74
18
 0
VERTEX
 8
ROSETT4
 10
0
 20
0
 30
0
 70
128
 71
7
 72
6
 73
8
 74
8
 0
VERTEX
 8
ROSETT4
 10
0
 20
0
 30
0
 70
128
 71
4
 72
14
 73
17
 74
17
 0
VERTEX
 8
ROSETT4
 10
0
 20
0
 30
0
 70
128
 71
9
 72
36
 73
15
 74
15
 0
VERTEX
 8
ROSETT4
 10
0
 20
0
 30
0
 70
128
 71
30
 72
24
 73
28
 74
28
 0
VERTEX
 8
ROSETT4
 10
0
 20
0
 30
0
 70
128
 71
4
 72
30
 73
12
 74
12
 0
VERTEX
 8
ROSETT4
 10
0
 20
0
 30
0
 70
128
 71
20
 72
15
 73
36
 74
36
 0
VERTEX
 8
ROSETT4
 10
0
 20
0
 30
0
 70
128
 71
10
 72
23
 73
3
 74
3
 0
VERTEX
 8
ROSETT4
 10
0
 20
0
 30
0
 70
128
 71
21
 72
9
 73
16
 74
16
 0
VERTEX
 8
ROSETT4
 10
0
 20
0
 30
0
 70
128
 71
25
 72
12
 73
32
 74
32
 0
VERTEX
 8
ROSETT4
 10
0
 20
0
 30
0
 70
128
 71
4
 72
17
 73
24
 74
24
 0
VERTEX
 8
ROSETT4
 10
0
 20
0
 30
0
 70
128
 71
3
 72
29
 73
10
 74
10
 0
VERTEX
 8
ROSETT4
 10
0
 20
0
 30
0
 70
128
 71
11
 72
9
 73
21
 74
21
 0
VERTEX
 8
ROSETT4
 10
0
 20
0
 30
0
 70
128
 71
33
 72
7
 73
29
 74
29
 0
VERTEX
 8
ROSETT4
 10
0
 20
0
 30
0
 70
128
 71
5
 72
19
 73
8
 74
8
 0
VERTEX
 8
ROSETT4
 10
0
 20
0
 30
0
 70
128
 71
22
 72
12
 73
38
 74
38
 0
VERTEX
 8
ROSETT4
 10
0
 20
0
 30
0
 70
128
 71
31
 72
21
 73
25
 74
25
 0
VERTEX
 8
ROSETT4
 10
0
 20
0
 30
0
 70
128
 71
19
 72
36
 73
18
 74
18
 0
VERTEX
 8
ROSETT4
 10
0
 20
0
 30
0
 70
128
 71
16
 72
34
 73
21
 74
21
 0
VERTEX
 8
ROSETT4
 10
0
 20
0
 30
0
 70
128
 71
1
 72
22
 73
38
 74
38
 0
VERTEX
 8
ROSETT4
 10
0
 20
0
 30
0
 70
128
 71
13
 72
26
 73
2
 74
2
 0
VERTEX
 8
ROSETT4
 10
0
 20
0
 30
0
 70
128
 71
20
 72
33
 73
29
 74
29
 0
VERTEX
 8
ROSETT4
 10
0
 20
0
 30
0
 70
128
 71
37
 72
7
 73
8
 74
8
 0
VERTEX
 8
ROSETT4
 10
0
 20
0
 30
0
 70
128
 71
7
 72
37
 73
12
 74
12
 0
VERTEX
 8
ROSETT4
 10
0
 20
0
 30
0
 70
128
 71
21
 72
38
 73
25
 74
25
 0
VERTEX
 8
ROSETT4
 10
0
 20
0
 30
0
 70
128
 71
25
 72
38
 73
12
 74
12
 0
VERTEX
 8
ROSETT4
 10
0
 20
0
 30
0
 70
128
 71
20
 72
36
 73
5
 74
5
 0
VERTEX
 8
ROSETT4
 10
0
 20
0
 30
0
 70
128
 71
5
 72
36
 73
19
 74
19
 0
VERTEX
 8
ROSETT4
 10
0
 20
0
 30
0
 70
128
 71
17
 72
14
 73
27
 74
27
 0
VERTEX
 8
ROSETT4
 10
0
 20
0
 30
0
 70
128
 71
28
 72
24
 73
11
 74
11
 0
VERTEX
 8
ROSETT4
 10
0
 20
0
 30
0
 70
128
 71
9
 72
2
 73
16
 74
16
 0
VERTEX
 8
ROSETT4
 10
0
 20
0
 30
0
 70
128
 71
32
 72
31
 73
25
 74
25
 0
VERTEX
 8
ROSETT4
 10
0
 20
0
 30
0
 70
128
 71
7
 72
22
 73
10
 74
10
 0
VERTEX
 8
ROSETT4
 10
0
 20
0
 30
0
 70
128
 71
35
 72
37
 73
8
 74
8
 0
VERTEX
 8
ROSETT4
 10
0
 20
0
 30
0
 70
128
 71
26
 72
1
 73
16
 74
16
 0
VERTEX
 8
ROSETT4
 10
0
 20
0
 30
0
 70
128
 71
12
 72
37
 73
4
 74
4
 0
VERTEX
 8
ROSETT4
 10
0
 20
0
 30
0
 70
128
 71
9
 72
13
 73
2
 74
2
 0
VERTEX
 8
ROSETT4
 10
0
 20
0
 30
0
 70
128
 71
33
 72
20
 73
5
 74
5
 0
VERTEX
 8
ROSETT4
 10
0
 20
0
 30
0
 70
128
 71
26
 72
16
 73
2
 74
2
 0
VERTEX
 8
ROSETT4
 10
0
 20
0
 30
0
 70
128
 71
15
 72
3
 73
9
 74
9
 0
VERTEX
 8
ROSETT4
 10
0
 20
0
 30
0
 70
128
 71
38
 72
21
 73
34
 74
34
 0
VERTEX
 8
ROSETT4
 10
0
 20
0
 30
0
 70
128
 71
23
 72
13
 73
3
 74
3
 0
VERTEX
 8
ROSETT4
 10
0
 20
0
 30
0
 70
128
 71
32
 72
12
 73
30
 74
30
 0
VERTEX
 8
ROSETT4
 10
0
 20
0
 30
0
 70
128
 71
7
 72
12
 73
22
 74
22
 0
VERTEX
 8
ROSETT4
 10
0
 20
0
 30
0
 70
128
 71
31
 72
28
 73
21
 74
21
 0
VERTEX
 8
ROSETT4
 10
0
 20
0
 30
0
 70
128
 71
11
 72
17
 73
27
 74
27
 0
SEQEND
 0
POLYLINE
 8
W_RF3
 66
1
 10
0.0
 20
0.0
 30
0.0
 70
64
 71
25
 72
46
 0
VERTEX
 8
W_RF3
 10
-23.9202
 20
0.2482
 30
9.464
 70
192
 0
VERTEX
 8
W_RF3
 10
-23.6836
 20
0.6578
 30
12.6153
 70
192
 0
VERTEX
 8
W_RF3
 10
-19.4362
 20
0.3554
 30
9.4143
 70
192
 0
VERTEX
 8
W_RF3
 10
-23.5478
 20
0.7414
 30
9.4149
 70
192
 0
VERTEX
 8
W_RF3
 10
-19.9087
 20
-0.4564
 30
12.5786
 70
192
 0
VERTEX
 8
W_RF3
 10
-23.5478
 20
-0.4546
 30
12.6131
 70
192
 0
VERTEX
 8
W_RF3
 10
-19.4953
 20
-0.1794
 30
9.464
 70
192
 0
VERTEX
 8
W_RF3
 10
-19.6208
 20
-0.3291
 30
9.464
 70
192
 0
VERTEX
 8
W_RF3
 10
-23.6835
 20
-0.3711
 30
9.4128
 70
192
 0
VERTEX
 8
W_RF3
 10
-23.8504
 20
-0.1795
 30
12.564
 70
192
 0
VERTEX
 8
W_RF3
 10
-19.4256
 20
0.2481
 30
12.564
 70
192
 0
VERTEX
 8
W_RF3
 10
-19.6622
 20
0.6579
 30
9.4128
 70
192
 0
VERTEX
 8
W_RF3
 10
-23.9202
 20
0.0386
 30
12.564
 70
192
 0
VERTEX
 8
W_RF3
 10
-19.4954
 20
0.4662
 30
12.564
 70
192
 0
VERTEX
 8
W_RF3
 10
-19.4256
 20
0.0387
 30
9.464
 70
192
 0
VERTEX
 8
W_RF3
 10
-19.798
 20
0.7413
 30
12.6132
 70
192
 0
VERTEX
 8
W_RF3
 10
-19.6622
 20
-0.3711
 30
12.6152
 70
192
 0
VERTEX
 8
W_RF3
 10
-23.8504
 20
0.4663
 30
9.464
 70
192
 0
VERTEX
 8
W_RF3
 10
-23.9096
 20
-0.0685
 30
9.4143
 70
192
 0
VERTEX
 8
W_RF3
 10
-23.437
 20
-0.4563
 30
9.4494
 70
192
 0
VERTEX
 8
W_RF3
 10
-23.437
 20
0.7431
 30
12.5786
 70
192
 0
VERTEX
 8
W_RF3
 10
-19.8667
 20
-0.4557
 30
9.4146
 70
192
 0
VERTEX
 8
W_RF3
 10
-23.9096
 20
0.3553
 30
12.6138
 70
192
 0
VERTEX
 8
W_RF3
 10
-19.9088
 20
0.7432
 30
9.4494
 70
192
 0
VERTEX
 8
W_RF3
 10
-19.4362
 20
-0.0686
 30
12.6138
 70
192
 0
VERTEX
 8
W_RF3
 10
0
 20
0
 30
0
 70
128
 71
19
 72
1
 73
23
 74
23
 0
VERTEX
 8
W_RF3
 10
0
 20
0
 30
0
 70
128
 71
17
 72
16
 73
25
 74
25
 0
VERTEX
 8
W_RF3
 10
0
 20
0
 30
0
 70
128
 71
25
 72
11
 73
3
 74
3
 0
VERTEX
 8
W_RF3
 10
0
 20
0
 30
0
 70
128
 71
17
 72
8
 73
22
 74
22
 0
VERTEX
 8
W_RF3
 10
0
 20
0
 30
0
 70
128
 71
4
 72
24
 73
16
 74
16
 0
VERTEX
 8
W_RF3
 10
0
 20
0
 30
0
 70
128
 71
22
 72
20
 73
6
 74
6
 0
VERTEX
 8
W_RF3
 10
0
 20
0
 30
0
 70
128
 71
12
 72
24
 73
4
 74
4
 0
VERTEX
 8
W_RF3
 10
0
 20
0
 30
0
 70
128
 71
4
 72
16
 73
21
 74
21
 0
VERTEX
 8
W_RF3
 10
0
 20
0
 30
0
 70
128
 71
9
 72
4
 73
19
 74
19
 0
VERTEX
 8
W_RF3
 10
0
 20
0
 30
0
 70
128
 71
11
 72
14
 73
3
 74
3
 0
VERTEX
 8
W_RF3
 10
0
 20
0
 30
0
 70
128
 71
7
 72
22
 73
8
 74
8
 0
VERTEX
 8
W_RF3
 10
0
 20
0
 30
0
 70
128
 71
6
 72
2
 73
16
 74
16
 0
VERTEX
 8
W_RF3
 10
0
 20
0
 30
0
 70
128
 71
17
 72
5
 73
6
 74
6
 0
VERTEX
 8
W_RF3
 10
0
 20
0
 30
0
 70
128
 71
25
 72
7
 73
17
 74
17
 0
VERTEX
 8
W_RF3
 10
0
 20
0
 30
0
 70
128
 71
1
 72
18
 73
23
 74
23
 0
VERTEX
 8
W_RF3
 10
0
 20
0
 30
0
 70
128
 71
6
 72
20
 73
9
 74
9
 0
VERTEX
 8
W_RF3
 10
0
 20
0
 30
0
 70
128
 71
7
 72
15
 73
22
 74
22
 0
VERTEX
 8
W_RF3
 10
0
 20
0
 30
0
 70
128
 71
15
 72
7
 73
25
 74
25
 0
VERTEX
 8
W_RF3
 10
0
 20
0
 30
0
 70
128
 71
23
 72
18
 73
2
 74
2
 0
VERTEX
 8
W_RF3
 10
0
 20
0
 30
0
 70
128
 71
9
 72
10
 73
6
 74
6
 0
VERTEX
 8
W_RF3
 10
0
 20
0
 30
0
 70
128
 71
9
 72
20
 73
22
 74
22
 0
VERTEX
 8
W_RF3
 10
0
 20
0
 30
0
 70
128
 71
6
 72
10
 73
13
 74
13
 0
VERTEX
 8
W_RF3
 10
0
 20
0
 30
0
 70
128
 71
6
 72
16
 73
17
 74
17
 0
VERTEX
 8
W_RF3
 10
0
 20
0
 30
0
 70
128
 71
12
 72
14
 73
16
 74
16
 0
VERTEX
 8
W_RF3
 10
0
 20
0
 30
0
 70
128
 71
6
 72
13
 73
23
 74
23
 0
VERTEX
 8
W_RF3
 10
0
 20
0
 30
0
 70
128
 71
16
 72
14
 73
11
 74
11
 0
VERTEX
 8
W_RF3
 10
0
 20
0
 30
0
 70
128
 71
22
 72
5
 73
17
 74
17
 0
VERTEX
 8
W_RF3
 10
0
 20
0
 30
0
 70
128
 71
16
 72
11
 73
25
 74
25
 0
VERTEX
 8
W_RF3
 10
0
 20
0
 30
0
 70
128
 71
4
 72
21
 73
2
 74
2
 0
VERTEX
 8
W_RF3
 10
0
 20
0
 30
0
 70
128
 71
18
 72
1
 73
4
 74
4
 0
VERTEX
 8
W_RF3
 10
0
 20
0
 30
0
 70
128
 71
19
 72
23
 73
13
 74
13
 0
VERTEX
 8
W_RF3
 10
0
 20
0
 30
0
 70
128
 71
4
 72
1
 73
19
 74
19
 0
VERTEX
 8
W_RF3
 10
0
 20
0
 30
0
 70
128
 71
17
 72
7
 73
8
 74
8
 0
VERTEX
 8
W_RF3
 10
0
 20
0
 30
0
 70
128
 71
2
 72
18
 73
4
 74
4
 0
VERTEX
 8
W_RF3
 10
0
 20
0
 30
0
 70
128
 71
6
 72
23
 73
2
 74
2
 0
VERTEX
 8
W_RF3
 10
0
 20
0
 30
0
 70
128
 71
16
 72
24
 73
12
 74
12
 0
VERTEX
 8
W_RF3
 10
0
 20
0
 30
0
 70
128
 71
22
 72
4
 73
9
 74
9
 0
VERTEX
 8
W_RF3
 10
0
 20
0
 30
0
 70
128
 71
22
 72
6
 73
5
 74
5
 0
VERTEX
 8
W_RF3
 10
0
 20
0
 30
0
 70
128
 71
19
 72
10
 73
9
 74
9
 0
VERTEX
 8
W_RF3
 10
0
 20
0
 30
0
 70
128
 71
22
 72
15
 73
3
 74
3
 0
VERTEX
 8
W_RF3
 10
0
 20
0
 30
0
 70
128
 71
16
 72
2
 73
21
 74
21
 0
VERTEX
 8
W_RF3
 10
0
 20
0
 30
0
 70
128
 71
3
 72
14
 73
12
 74
12
 0
VERTEX
 8
W_RF3
 10
0
 20
0
 30
0
 70
128
 71
13
 72
10
 73
19
 74
19
 0
VERTEX
 8
W_RF3
 10
0
 20
0
 30
0
 70
128
 71
22
 72
12
 73
4
 74
4
 0
VERTEX
 8
W_RF3
 10
0
 20
0
 30
0
 70
128
 71
22
 72
3
 73
12
 74
12
 0
VERTEX
 8
W_RF3
 10
0
 20
0
 30
0
 70
128
 71
25
 72
3
 73
15
 74
15
 0
SEQEND
 0
POLYLINE
 8
ROSETT5
 66
1
 10
0.0
 20
0.0
 30
0.0
 70
64
 71
26
 72
48
 0
VERTEX
 8
ROSETT5
 10
-19.5256
 20
-2.6254
 30
8.7739
 70
192
 0
VERTEX
 8
ROSETT5
 10
-19.2688
 20
-2.5142
 30
9.3236
 70
192
 0
VERTEX
 8
ROSETT5
 10
-18.9164
 20
2.1218
 30
9.3237
 70
192
 0
VERTEX
 8
ROSETT5
 10
-24.399
 20
2.1215
 30
8.7858
 70
192
 0
VERTEX
 8
ROSETT5
 10
-19.0304
 20
2.5193
 30
8.8237
 70
192
 0
VERTEX
 8
ROSETT5
 10
-19.2689
 20
2.7578
 30
8.8237
 70
192
 0
VERTEX
 8
ROSETT5
 10
-18.9811
 20
2.4264
 30
9.3237
 70
192
 0
VERTEX
 8
ROSETT5
 10
-19.6668
 20
2.8544
 30
8.7858
 70
192
 0
VERTEX
 8
ROSETT5
 10
-18.919
 20
-2.0188
 30
9.3735
 70
192
 0
VERTEX
 8
ROSETT5
 10
-18.9191
 20
2.2624
 30
8.7739
 70
192
 0
VERTEX
 8
ROSETT5
 10
-24.0638
 20
-2.5142
 30
8.8236
 70
192
 0
VERTEX
 8
ROSETT5
 10
-24.3989
 20
-1.8778
 30
9.3616
 70
192
 0
VERTEX
 8
ROSETT5
 10
-19.0303
 20
-2.2757
 30
9.3236
 70
192
 0
VERTEX
 8
ROSETT5
 10
-24.3024
 20
2.5193
 30
8.8237
 70
192
 0
VERTEX
 8
ROSETT5
 10
-23.6659
 20
-2.6107
 30
8.7857
 70
192
 0
VERTEX
 8
ROSETT5
 10
-19.6667
 20
-2.6107
 30
9.3616
 70
192
 0
VERTEX
 8
ROSETT5
 10
-23.8583
 20
2.8684
 30
8.7741
 70
192
 0
VERTEX
 8
ROSETT5
 10
-18.9338
 20
-1.8778
 30
8.7857
 70
192
 0
VERTEX
 8
ROSETT5
 10
-19.5257
 20
2.8691
 30
9.3735
 70
192
 0
VERTEX
 8
ROSETT5
 10
-24.3023
 20
-2.2757
 30
9.3236
 70
192
 0
VERTEX
 8
ROSETT5
 10
-23.8581
 20
-2.6247
 30
9.3733
 70
192
 0
VERTEX
 8
ROSETT5
 10
-24.4136
 20
-2.0188
 30
8.7738
 70
192
 0
VERTEX
 8
ROSETT5
 10
-18.981
 20
-2.1828
 30
8.8236
 70
192
 0
VERTEX
 8
ROSETT5
 10
-24.4137
 20
2.2624
 30
9.3736
 70
192
 0
VERTEX
 8
ROSETT5
 10
-24.0639
 20
2.7578
 30
9.3237
 70
192
 0
VERTEX
 8
ROSETT5
 10
-23.6661
 20
2.8544
 30
9.3617
 70
192
 0
VERTEX
 8
ROSETT5
 10
0
 20
0
 30
0
 70
128
 71
22
 72
4
 73
24
 74
24
 0
VERTEX
 8
ROSETT5
 10
0
 20
0
 30
0
 70
128
 71
24
 72
25
 73
26
 74
26
 0
VERTEX
 8
ROSETT5
 10
0
 20
0
 30
0
 70
128
 71
9
 72
3
 73
10
 74
10
 0
VERTEX
 8
ROSETT5
 10
0
 20
0
 30
0
 70
128
 71
10
 72
1
 73
18
 74
18
 0
VERTEX
 8
ROSETT5
 10
0
 20
0
 30
0
 70
128
 71
17
 72
8
 73
19
 74
19
 0
VERTEX
 8
ROSETT5
 10
0
 20
0
 30
0
 70
128
 71
1
 72
15
 73
21
 74
21
 0
VERTEX
 8
ROSETT5
 10
0
 20
0
 30
0
 70
128
 71
3
 72
7
 73
10
 74
10
 0
VERTEX
 8
ROSETT5
 10
0
 20
0
 30
0
 70
128
 71
23
 72
1
 73
2
 74
2
 0
VERTEX
 8
ROSETT5
 10
0
 20
0
 30
0
 70
128
 71
20
 72
12
 73
21
 74
21
 0
VERTEX
 8
ROSETT5
 10
0
 20
0
 30
0
 70
128
 71
12
 72
20
 73
22
 74
22
 0
VERTEX
 8
ROSETT5
 10
0
 20
0
 30
0
 70
128
 71
13
 72
23
 73
2
 74
2
 0
VERTEX
 8
ROSETT5
 10
0
 20
0
 30
0
 70
128
 71
23
 72
18
 73
1
 74
1
 0
VERTEX
 8
ROSETT5
 10
0
 20
0
 30
0
 70
128
 71
10
 72
5
 73
6
 74
6
 0
VERTEX
 8
ROSETT5
 10
0
 20
0
 30
0
 70
128
 71
24
 72
21
 73
12
 74
12
 0
VERTEX
 8
ROSETT5
 10
0
 20
0
 30
0
 70
128
 71
21
 72
15
 73
11
 74
11
 0
VERTEX
 8
ROSETT5
 10
0
 20
0
 30
0
 70
128
 71
17
 72
10
 73
8
 74
8
 0
VERTEX
 8
ROSETT5
 10
0
 20
0
 30
0
 70
128
 71
19
 72
24
 73
26
 74
26
 0
VERTEX
 8
ROSETT5
 10
0
 20
0
 30
0
 70
128
 71
24
 72
19
 73
9
 74
9
 0
VERTEX
 8
ROSETT5
 10
0
 20
0
 30
0
 70
128
 71
1
 72
21
 73
16
 74
16
 0
VERTEX
 8
ROSETT5
 10
0
 20
0
 30
0
 70
128
 71
10
 72
22
 73
1
 74
1
 0
VERTEX
 8
ROSETT5
 10
0
 20
0
 30
0
 70
128
 71
9
 72
13
 73
2
 74
2
 0
VERTEX
 8
ROSETT5
 10
0
 20
0
 30
0
 70
128
 71
17
 72
26
 73
25
 74
25
 0
VERTEX
 8
ROSETT5
 10
0
 20
0
 30
0
 70
128
 71
14
 72
17
 73
25
 74
25
 0
VERTEX
 8
ROSETT5
 10
0
 20
0
 30
0
 70
128
 71
7
 72
19
 73
6
 74
6
 0
VERTEX
 8
ROSETT5
 10
0
 20
0
 30
0
 70
128
 71
7
 72
3
 73
19
 74
19
 0
VERTEX
 8
ROSETT5
 10
0
 20
0
 30
0
 70
128
 71
14
 72
4
 73
17
 74
17
 0
VERTEX
 8
ROSETT5
 10
0
 20
0
 30
0
 70
128
 71
17
 72
19
 73
26
 74
26
 0
VERTEX
 8
ROSETT5
 10
0
 20
0
 30
0
 70
128
 71
6
 72
19
 73
8
 74
8
 0
VERTEX
 8
ROSETT5
 10
0
 20
0
 30
0
 70
128
 71
24
 72
14
 73
25
 74
25
 0
VERTEX
 8
ROSETT5
 10
0
 20
0
 30
0
 70
128
 71
9
 72
19
 73
3
 74
3
 0
VERTEX
 8
ROSETT5
 10
0
 20
0
 30
0
 70
128
 71
22
 72
24
 73
12
 74
12
 0
VERTEX
 8
ROSETT5
 10
0
 20
0
 30
0
 70
128
 71
9
 72
2
 73
16
 74
16
 0
VERTEX
 8
ROSETT5
 10
0
 20
0
 30
0
 70
128
 71
10
 72
17
 73
22
 74
22
 0
VERTEX
 8
ROSETT5
 10
0
 20
0
 30
0
 70
128
 71
18
 72
23
 73
9
 74
9
 0
VERTEX
 8
ROSETT5
 10
0
 20
0
 30
0
 70
128
 71
21
 72
9
 73
16
 74
16
 0
VERTEX
 8
ROSETT5
 10
0
 20
0
 30
0
 70
128
 71
11
 72
22
 73
20
 74
20
 0
VERTEX
 8
ROSETT5
 10
0
 20
0
 30
0
 70
128
 71
4
 72
14
 73
24
 74
24
 0
VERTEX
 8
ROSETT5
 10
0
 20
0
 30
0
 70
128
 71
9
 72
10
 73
18
 74
18
 0
VERTEX
 8
ROSETT5
 10
0
 20
0
 30
0
 70
128
 71
24
 72
9
 73
21
 74
21
 0
VERTEX
 8
ROSETT5
 10
0
 20
0
 30
0
 70
128
 71
11
 72
15
 73
22
 74
22
 0
VERTEX
 8
ROSETT5
 10
0
 20
0
 30
0
 70
128
 71
10
 72
6
 73
8
 74
8
 0
VERTEX
 8
ROSETT5
 10
0
 20
0
 30
0
 70
128
 71
1
 72
22
 73
15
 74
15
 0
VERTEX
 8
ROSETT5
 10
0
 20
0
 30
0
 70
128
 71
20
 72
21
 73
11
 74
11
 0
VERTEX
 8
ROSETT5
 10
0
 20
0
 30
0
 70
128
 71
2
 72
1
 73
16
 74
16
 0
VERTEX
 8
ROSETT5
 10
0
 20
0
 30
0
 70
128
 71
22
 72
17
 73
4
 74
4
 0
VERTEX
 8
ROSETT5
 10
0
 20
0
 30
0
 70
128
 71
5
 72
7
 73
6
 74
6
 0
VERTEX
 8
ROSETT5
 10
0
 20
0
 30
0
 70
128
 71
23
 72
13
 73
9
 74
9
 0
VERTEX
 8
ROSETT5
 10
0
 20
0
 30
0
 70
128
 71
7
 72
5
 73
10
 74
10
 0
SEQEND
 0
ENDSEC
 0
EOF
