 0
SECTION
 2
HEADER
 9
$ACADVER
 1
AC1009
 0
ENDSEC
 0
SECTION
 2
TABLES
 0
TABLE
 2
LTYPE
 70
1
 0
LTYPE
 2
CONTINUOUS
 70
64
 3
solid line
 72
65
 73
0
 40
0.0
 0
ENDTAB
 0
TABLE
 2
LAYER
 70
6
 0
LAYER
 2
0
 70
0
 62
7
 6
CONTINUOUS
 0
LAYER
 2
230_3100_M
 70
64
 62
7
 6
CONTINUOUS
 0
LAYER
 2
R_HRE
 70
64
 62
250
 6
CONTINUOUS
 0
LAYER
 2
PELATO2
 70
64
 62
250
 6
CONTINUOUS
 0
LAYER
 2
AUSLAUF
 70
64
 62
250
 6
CONTINUOUS
 0
LAYER
 2
AUSLAU1
 70
64
 62
250
 6
CONTINUOUS
 0
LAYER
 2
K_RPER
 70
64
 62
250
 6
CONTINUOUS
 0
LAYER
 2
R_H1
 70
64
 62
250
 6
CONTINUOUS
 0
LAYER
 2
R_HR2
 70
64
 62
250
 6
CONTINUOUS
 0
LAYER
 2
AUSLA2
 70
64
 62
250
 6
CONTINUOUS
 0
LAYER
 2
ZYLINDER
 70
64
 62
250
 6
CONTINUOUS
 0
LAYER
 2
ROSETTE_1
 70
64
 62
250
 6
CONTINUOUS
 0
LAYER
 2
R_H3
 70
64
 62
250
 6
CONTINUOUS
 0
LAYER
 2
ZYLINDE1
 70
64
 62
250
 6
CONTINUOUS
 0
LAYER
 2
ROSETT2
 70
64
 62
250
 6
CONTINUOUS
 0
LAYER
 2
R_H4
 70
64
 62
250
 6
CONTINUOUS
 0
LAYER
 2
ZYLINDE2
 70
64
 62
250
 6
CONTINUOUS
 0
LAYER
 2
K_RPE1
 70
64
 62
250
 6
CONTINUOUS
 0
LAYER
 2
ZYLINDE3
 70
64
 62
250
 6
CONTINUOUS
 0
LAYER
 2
K_RPE2
 70
64
 62
250
 6
CONTINUOUS
 0
LAYER
 2
K_RPE3
 70
64
 62
250
 6
CONTINUOUS
 0
ENDTAB
 0
ENDSEC
 0
SECTION
 2
BLOCKS
 0
ENDSEC
 0
SECTION
 2
ENTITIES
 0
POLYLINE
 8
R_HRE
 66
1
 10
0.0
 20
0.0
 30
0.0
 70
64
 71
13
 72
12
 0
VERTEX
 8
R_HRE
 10
0.2899
 20
-10.5322
 30
15.1958
 70
192
 0
VERTEX
 8
R_HRE
 10
0.7886
 20
-10.6646
 30
15.2144
 70
192
 0
VERTEX
 8
R_HRE
 10
1.1537
 20
-11.0261
 30
15.2652
 70
192
 0
VERTEX
 8
R_HRE
 10
1.2874
 20
-11.52
 30
15.3346
 70
192
 0
VERTEX
 8
R_HRE
 10
1.1537
 20
-12.0139
 30
15.404
 70
192
 0
VERTEX
 8
R_HRE
 10
0.7886
 20
-12.3755
 30
15.4548
 70
192
 0
VERTEX
 8
R_HRE
 10
0.2899
 20
-12.5078
 30
15.4734
 70
192
 0
VERTEX
 8
R_HRE
 10
0.2899
 20
-11.52
 30
15.3346
 70
192
 0
VERTEX
 8
R_HRE
 10
-0.2089
 20
-12.3755
 30
15.4548
 70
192
 0
VERTEX
 8
R_HRE
 10
-0.574
 20
-12.0139
 30
15.404
 70
192
 0
VERTEX
 8
R_HRE
 10
-0.7076
 20
-11.52
 30
15.3346
 70
192
 0
VERTEX
 8
R_HRE
 10
-0.574
 20
-11.0261
 30
15.2652
 70
192
 0
VERTEX
 8
R_HRE
 10
-0.2089
 20
-10.6646
 30
15.2144
 70
192
 0
VERTEX
 8
R_HRE
 10
0
 20
0
 30
0
 70
128
 71
5
 72
8
 73
6
 74
6
 0
VERTEX
 8
R_HRE
 10
0
 20
0
 30
0
 70
128
 71
6
 72
8
 73
7
 74
7
 0
VERTEX
 8
R_HRE
 10
0
 20
0
 30
0
 70
128
 71
1
 72
8
 73
2
 74
2
 0
VERTEX
 8
R_HRE
 10
0
 20
0
 30
0
 70
128
 71
7
 72
8
 73
9
 74
9
 0
VERTEX
 8
R_HRE
 10
0
 20
0
 30
0
 70
128
 71
9
 72
8
 73
10
 74
10
 0
VERTEX
 8
R_HRE
 10
0
 20
0
 30
0
 70
128
 71
2
 72
8
 73
3
 74
3
 0
VERTEX
 8
R_HRE
 10
0
 20
0
 30
0
 70
128
 71
10
 72
8
 73
11
 74
11
 0
VERTEX
 8
R_HRE
 10
0
 20
0
 30
0
 70
128
 71
11
 72
8
 73
12
 74
12
 0
VERTEX
 8
R_HRE
 10
0
 20
0
 30
0
 70
128
 71
3
 72
8
 73
4
 74
4
 0
VERTEX
 8
R_HRE
 10
0
 20
0
 30
0
 70
128
 71
12
 72
8
 73
13
 74
13
 0
VERTEX
 8
R_HRE
 10
0
 20
0
 30
0
 70
128
 71
13
 72
8
 73
1
 74
1
 0
VERTEX
 8
R_HRE
 10
0
 20
0
 30
0
 70
128
 71
4
 72
8
 73
5
 74
5
 0
SEQEND
 0
POLYLINE
 8
PELATO2
 66
1
 10
0.0
 20
0.0
 30
0.0
 70
64
 71
58
 72
44
 0
VERTEX
 8
PELATO2
 10
1.5397
 20
-11.3053
 30
16.7964
 70
192
 0
VERTEX
 8
PELATO2
 10
1.2897
 20
-11.3053
 30
16.7964
 70
192
 0
VERTEX
 8
PELATO2
 10
1.2897
 20
-11.514
 30
15.311
 70
192
 0
VERTEX
 8
PELATO2
 10
1.3723
 20
-10.8951
 30
15.224
 70
192
 0
VERTEX
 8
PELATO2
 10
1.3723
 20
-10.6864
 30
16.7094
 70
192
 0
VERTEX
 8
PELATO2
 10
1.1558
 20
-10.8101
 30
16.7268
 70
192
 0
VERTEX
 8
PELATO2
 10
1.1558
 20
-11.0189
 30
15.2414
 70
192
 0
VERTEX
 8
PELATO2
 10
0.9147
 20
-10.442
 30
15.1603
 70
192
 0
VERTEX
 8
PELATO2
 10
0.9147
 20
-10.2333
 30
16.6457
 70
192
 0
VERTEX
 8
PELATO2
 10
0.7897
 20
-10.4477
 30
16.6758
 70
192
 0
VERTEX
 8
PELATO2
 10
0.7897
 20
-10.6564
 30
15.1904
 70
192
 0
VERTEX
 8
PELATO2
 10
0.2897
 20
-10.2762
 30
15.137
 70
192
 0
VERTEX
 8
PELATO2
 10
0.2897
 20
-10.0674
 30
16.6224
 70
192
 0
VERTEX
 8
PELATO2
 10
0.2897
 20
-10.315
 30
16.6572
 70
192
 0
VERTEX
 8
PELATO2
 10
0.2897
 20
-10.5238
 30
15.1718
 70
192
 0
VERTEX
 8
PELATO2
 10
-0.3353
 20
-10.442
 30
15.1603
 70
192
 0
VERTEX
 8
PELATO2
 10
-0.3353
 20
-10.2333
 30
16.6457
 70
192
 0
VERTEX
 8
PELATO2
 10
-0.2103
 20
-10.4477
 30
16.6758
 70
192
 0
VERTEX
 8
PELATO2
 10
-0.2103
 20
-10.6564
 30
15.1904
 70
192
 0
VERTEX
 8
PELATO2
 10
-0.7928
 20
-10.8951
 30
15.224
 70
192
 0
VERTEX
 8
PELATO2
 10
-0.7928
 20
-10.6864
 30
16.7094
 70
192
 0
VERTEX
 8
PELATO2
 10
-0.5763
 20
-10.8101
 30
16.7268
 70
192
 0
VERTEX
 8
PELATO2
 10
-0.5763
 20
-11.0189
 30
15.2414
 70
192
 0
VERTEX
 8
PELATO2
 10
-0.7103
 20
-11.514
 30
15.311
 70
192
 0
VERTEX
 8
PELATO2
 10
-0.9603
 20
-11.3053
 30
16.7964
 70
192
 0
VERTEX
 8
PELATO2
 10
-0.7103
 20
-11.3053
 30
16.7964
 70
192
 0
VERTEX
 8
PELATO2
 10
-0.5763
 20
-12.0092
 30
15.3806
 70
192
 0
VERTEX
 8
PELATO2
 10
-0.7928
 20
-12.133
 30
15.398
 70
192
 0
VERTEX
 8
PELATO2
 10
-0.7928
 20
-11.9242
 30
16.8834
 70
192
 0
VERTEX
 8
PELATO2
 10
-0.5763
 20
-11.8004
 30
16.866
 70
192
 0
VERTEX
 8
PELATO2
 10
-0.2103
 20
-12.3716
 30
15.4315
 70
192
 0
VERTEX
 8
PELATO2
 10
-0.3353
 20
-12.586
 30
15.4616
 70
192
 0
VERTEX
 8
PELATO2
 10
-0.3353
 20
-12.3773
 30
16.947
 70
192
 0
VERTEX
 8
PELATO2
 10
-0.2103
 20
-12.1629
 30
16.9169
 70
192
 0
VERTEX
 8
PELATO2
 10
0.2897
 20
-12.7519
 30
15.4849
 70
192
 0
VERTEX
 8
PELATO2
 10
0.2897
 20
-12.5431
 30
16.9703
 70
192
 0
VERTEX
 8
PELATO2
 10
0.2897
 20
-12.2956
 30
16.9355
 70
192
 0
VERTEX
 8
PELATO2
 10
0.2897
 20
-12.5043
 30
15.4501
 70
192
 0
VERTEX
 8
PELATO2
 10
0.7897
 20
-12.3716
 30
15.4315
 70
192
 0
VERTEX
 8
PELATO2
 10
0.9147
 20
-12.586
 30
15.4616
 70
192
 0
VERTEX
 8
PELATO2
 10
0.9147
 20
-12.3773
 30
16.947
 70
192
 0
VERTEX
 8
PELATO2
 10
0.7897
 20
-12.1629
 30
16.9169
 70
192
 0
VERTEX
 8
PELATO2
 10
1.1558
 20
-12.0092
 30
15.3806
 70
192
 0
VERTEX
 8
PELATO2
 10
1.3723
 20
-12.133
 30
15.398
 70
192
 0
VERTEX
 8
PELATO2
 10
1.3723
 20
-11.9242
 30
16.8834
 70
192
 0
VERTEX
 8
PELATO2
 10
1.1558
 20
-11.8004
 30
16.866
 70
192
 0
VERTEX
 8
PELATO2
 10
1.4056
 20
-11.0184
 30
15.2413
 70
192
 0
VERTEX
 8
PELATO2
 10
1.4056
 20
-11.514
 30
15.311
 70
192
 0
VERTEX
 8
PELATO2
 10
-0.8113
 20
-11.514
 30
15.311
 70
192
 0
VERTEX
 8
PELATO2
 10
1.5397
 20
-11.4742
 30
15.5942
 70
192
 0
VERTEX
 8
PELATO2
 10
-0.8113
 20
-10.9635
 30
15.2336
 70
192
 0
VERTEX
 8
PELATO2
 10
-0.9603
 20
-11.4741
 30
15.5953
 70
192
 0
VERTEX
 8
PELATO2
 10
-0.8113
 20
-12.0646
 30
15.3883
 70
192
 0
VERTEX
 8
PELATO2
 10
1.4056
 20
-12.0097
 30
15.3806
 70
192
 0
VERTEX
 8
PELATO2
 10
-0.8113
 20
-10.9236
 30
15.518
 70
192
 0
VERTEX
 8
PELATO2
 10
1.4056
 20
-10.9786
 30
15.5245
 70
192
 0
VERTEX
 8
PELATO2
 10
1.4056
 20
-11.9699
 30
15.6638
 70
192
 0
VERTEX
 8
PELATO2
 10
-0.8113
 20
-12.0246
 30
15.6727
 70
192
 0
VERTEX
 8
PELATO2
 10
0
 20
0
 30
0
 70
128
 71
3
 72
48
 73
47
 74
47
 0
VERTEX
 8
PELATO2
 10
0
 20
0
 30
0
 70
128
 71
4
 72
7
 73
3
 74
47
 0
VERTEX
 8
PELATO2
 10
0
 20
0
 30
0
 70
128
 71
56
 72
50
 73
1
 74
5
 0
VERTEX
 8
PELATO2
 10
0
 20
0
 30
0
 70
128
 71
4
 72
47
 73
56
 74
5
 0
VERTEX
 8
PELATO2
 10
0
 20
0
 30
0
 70
128
 71
37
 72
38
 73
39
 74
42
 0
VERTEX
 8
PELATO2
 10
0
 20
0
 30
0
 70
128
 71
2
 72
3
 73
7
 74
6
 0
VERTEX
 8
PELATO2
 10
0
 20
0
 30
0
 70
128
 71
7
 72
4
 73
8
 74
11
 0
VERTEX
 8
PELATO2
 10
0
 20
0
 30
0
 70
128
 71
4
 72
5
 73
9
 74
8
 0
VERTEX
 8
PELATO2
 10
0
 20
0
 30
0
 70
128
 71
39
 72
40
 73
44
 74
43
 0
VERTEX
 8
PELATO2
 10
0
 20
0
 30
0
 70
128
 71
6
 72
7
 73
11
 74
10
 0
VERTEX
 8
PELATO2
 10
0
 20
0
 30
0
 70
128
 71
11
 72
8
 73
12
 74
15
 0
VERTEX
 8
PELATO2
 10
0
 20
0
 30
0
 70
128
 71
8
 72
9
 73
13
 74
12
 0
VERTEX
 8
PELATO2
 10
0
 20
0
 30
0
 70
128
 71
40
 72
41
 73
45
 74
44
 0
VERTEX
 8
PELATO2
 10
0
 20
0
 30
0
 70
128
 71
10
 72
11
 73
15
 74
14
 0
VERTEX
 8
PELATO2
 10
0
 20
0
 30
0
 70
128
 71
15
 72
12
 73
16
 74
19
 0
VERTEX
 8
PELATO2
 10
0
 20
0
 30
0
 70
128
 71
12
 72
13
 73
17
 74
16
 0
VERTEX
 8
PELATO2
 10
0
 20
0
 30
0
 70
128
 71
42
 72
39
 73
43
 74
46
 0
VERTEX
 8
PELATO2
 10
0
 20
0
 30
0
 70
128
 71
14
 72
15
 73
19
 74
18
 0
VERTEX
 8
PELATO2
 10
0
 20
0
 30
0
 70
128
 71
19
 72
16
 73
20
 74
23
 0
VERTEX
 8
PELATO2
 10
0
 20
0
 30
0
 70
128
 71
16
 72
17
 73
21
 74
20
 0
VERTEX
 8
PELATO2
 10
0
 20
0
 30
0
 70
128
 71
54
 72
48
 73
3
 74
3
 0
VERTEX
 8
PELATO2
 10
0
 20
0
 30
0
 70
128
 71
18
 72
19
 73
23
 74
22
 0
VERTEX
 8
PELATO2
 10
0
 20
0
 30
0
 70
128
 71
51
 72
49
 73
24
 74
20
 0
VERTEX
 8
PELATO2
 10
0
 20
0
 30
0
 70
128
 71
23
 72
20
 73
24
 74
24
 0
VERTEX
 8
PELATO2
 10
0
 20
0
 30
0
 70
128
 71
51
 72
20
 73
21
 74
55
 0
VERTEX
 8
PELATO2
 10
0
 20
0
 30
0
 70
128
 71
21
 72
25
 73
52
 74
55
 0
VERTEX
 8
PELATO2
 10
0
 20
0
 30
0
 70
128
 71
3
 72
43
 73
44
 74
54
 0
VERTEX
 8
PELATO2
 10
0
 20
0
 30
0
 70
128
 71
22
 72
23
 73
24
 74
26
 0
VERTEX
 8
PELATO2
 10
0
 20
0
 30
0
 70
128
 71
24
 72
49
 73
53
 74
53
 0
VERTEX
 8
PELATO2
 10
0
 20
0
 30
0
 70
128
 71
28
 72
27
 73
24
 74
53
 0
VERTEX
 8
PELATO2
 10
0
 20
0
 30
0
 70
128
 71
52
 72
25
 73
29
 74
58
 0
VERTEX
 8
PELATO2
 10
0
 20
0
 30
0
 70
128
 71
29
 72
28
 73
53
 74
58
 0
VERTEX
 8
PELATO2
 10
0
 20
0
 30
0
 70
128
 71
57
 72
54
 73
44
 74
45
 0
VERTEX
 8
PELATO2
 10
0
 20
0
 30
0
 70
128
 71
26
 72
24
 73
27
 74
30
 0
VERTEX
 8
PELATO2
 10
0
 20
0
 30
0
 70
128
 71
27
 72
28
 73
32
 74
31
 0
VERTEX
 8
PELATO2
 10
0
 20
0
 30
0
 70
128
 71
28
 72
29
 73
33
 74
32
 0
VERTEX
 8
PELATO2
 10
0
 20
0
 30
0
 70
128
 71
1
 72
50
 73
57
 74
45
 0
VERTEX
 8
PELATO2
 10
0
 20
0
 30
0
 70
128
 71
30
 72
27
 73
31
 74
34
 0
VERTEX
 8
PELATO2
 10
0
 20
0
 30
0
 70
128
 71
31
 72
32
 73
35
 74
38
 0
VERTEX
 8
PELATO2
 10
0
 20
0
 30
0
 70
128
 71
32
 72
33
 73
36
 74
35
 0
VERTEX
 8
PELATO2
 10
0
 20
0
 30
0
 70
128
 71
46
 72
43
 73
3
 74
2
 0
VERTEX
 8
PELATO2
 10
0
 20
0
 30
0
 70
128
 71
34
 72
31
 73
38
 74
37
 0
VERTEX
 8
PELATO2
 10
0
 20
0
 30
0
 70
128
 71
38
 72
35
 73
40
 74
39
 0
VERTEX
 8
PELATO2
 10
0
 20
0
 30
0
 70
128
 71
35
 72
36
 73
41
 74
40
 0
SEQEND
 0
POLYLINE
 8
AUSLAUF
 66
1
 10
0.0
 20
0.0
 30
0.0
 70
64
 71
6
 72
3
 0
VERTEX
 8
AUSLAUF
 10
-0.8113
 20
-10.9236
 30
15.518
 70
192
 0
VERTEX
 8
AUSLAUF
 10
-0.8113
 20
-12.0246
 30
15.6727
 70
192
 0
VERTEX
 8
AUSLAUF
 10
-0.8113
 20
-10.9635
 30
15.2336
 70
192
 0
VERTEX
 8
AUSLAUF
 10
-0.8113
 20
-11.514
 30
15.311
 70
192
 0
VERTEX
 8
AUSLAUF
 10
-0.8113
 20
-12.0646
 30
15.3883
 70
192
 0
VERTEX
 8
AUSLAUF
 10
-0.9603
 20
-11.4741
 30
15.5953
 70
192
 0
VERTEX
 8
AUSLAUF
 10
0
 20
0
 30
0
 70
128
 71
5
 72
4
 73
2
 74
2
 0
VERTEX
 8
AUSLAUF
 10
0
 20
0
 30
0
 70
128
 71
1
 72
2
 73
4
 74
3
 0
VERTEX
 8
AUSLAUF
 10
0
 20
0
 30
0
 70
128
 71
2
 72
1
 73
6
 74
6
 0
SEQEND
 0
POLYLINE
 8
AUSLAU1
 66
1
 10
0.0
 20
0.0
 30
0.0
 70
64
 71
6
 72
3
 0
VERTEX
 8
AUSLAU1
 10
1.4056
 20
-11.9699
 30
15.6638
 70
192
 0
VERTEX
 8
AUSLAU1
 10
1.4056
 20
-10.9786
 30
15.5245
 70
192
 0
VERTEX
 8
AUSLAU1
 10
1.4056
 20
-11.0184
 30
15.2413
 70
192
 0
VERTEX
 8
AUSLAU1
 10
1.4056
 20
-11.514
 30
15.311
 70
192
 0
VERTEX
 8
AUSLAU1
 10
1.5397
 20
-11.4742
 30
15.5942
 70
192
 0
VERTEX
 8
AUSLAU1
 10
1.4056
 20
-12.0097
 30
15.3806
 70
192
 0
VERTEX
 8
AUSLAU1
 10
0
 20
0
 30
0
 70
128
 71
3
 72
4
 73
2
 74
2
 0
VERTEX
 8
AUSLAU1
 10
0
 20
0
 30
0
 70
128
 71
4
 72
6
 73
1
 74
2
 0
VERTEX
 8
AUSLAU1
 10
0
 20
0
 30
0
 70
128
 71
2
 72
1
 73
5
 74
5
 0
SEQEND
 0
POLYLINE
 8
K_RPER
 66
1
 10
0.0
 20
0.0
 30
0.0
 70
64
 71
24
 72
26
 0
VERTEX
 8
K_RPER
 10
-0.6289
 20
0.1807
 30
19.6142
 70
192
 0
VERTEX
 8
K_RPER
 10
-0.6289
 20
-0.2393
 30
19.6142
 70
192
 0
VERTEX
 8
K_RPER
 10
1.2911
 20
-0.2393
 30
19.6142
 70
192
 0
VERTEX
 8
K_RPER
 10
1.2911
 20
0.1807
 30
19.6142
 70
192
 0
VERTEX
 8
K_RPER
 10
-0.6689
 20
0.1807
 30
19.6542
 70
192
 0
VERTEX
 8
K_RPER
 10
-0.6689
 20
-0.2393
 30
19.6542
 70
192
 0
VERTEX
 8
K_RPER
 10
-0.6289
 20
-0.2793
 30
19.6542
 70
192
 0
VERTEX
 8
K_RPER
 10
1.2911
 20
-0.2793
 30
19.6542
 70
192
 0
VERTEX
 8
K_RPER
 10
1.3311
 20
-0.2393
 30
19.6542
 70
192
 0
VERTEX
 8
K_RPER
 10
1.3311
 20
0.1807
 30
19.6542
 70
192
 0
VERTEX
 8
K_RPER
 10
1.2911
 20
0.2207
 30
19.6542
 70
192
 0
VERTEX
 8
K_RPER
 10
-0.6289
 20
0.2207
 30
19.6542
 70
192
 0
VERTEX
 8
K_RPER
 10
-0.6689
 20
0.1807
 30
21.0742
 70
192
 0
VERTEX
 8
K_RPER
 10
-0.6689
 20
-0.2393
 30
21.0742
 70
192
 0
VERTEX
 8
K_RPER
 10
-0.6289
 20
-0.2793
 30
21.0742
 70
192
 0
VERTEX
 8
K_RPER
 10
1.2911
 20
-0.2793
 30
21.0742
 70
192
 0
VERTEX
 8
K_RPER
 10
1.3311
 20
-0.2393
 30
21.0742
 70
192
 0
VERTEX
 8
K_RPER
 10
1.3311
 20
0.1807
 30
21.0742
 70
192
 0
VERTEX
 8
K_RPER
 10
1.2911
 20
0.2207
 30
21.0742
 70
192
 0
VERTEX
 8
K_RPER
 10
-0.6289
 20
0.2207
 30
21.0742
 70
192
 0
VERTEX
 8
K_RPER
 10
-0.6289
 20
0.1807
 30
21.1142
 70
192
 0
VERTEX
 8
K_RPER
 10
-0.6289
 20
-0.2393
 30
21.1142
 70
192
 0
VERTEX
 8
K_RPER
 10
1.2911
 20
-0.2393
 30
21.1142
 70
192
 0
VERTEX
 8
K_RPER
 10
1.2911
 20
0.1807
 30
21.1142
 70
192
 0
VERTEX
 8
K_RPER
 10
0
 20
0
 30
0
 70
128
 71
1
 72
5
 73
6
 74
2
 0
VERTEX
 8
K_RPER
 10
0
 20
0
 30
0
 70
128
 71
5
 72
13
 73
14
 74
6
 0
VERTEX
 8
K_RPER
 10
0
 20
0
 30
0
 70
128
 71
13
 72
21
 73
22
 74
14
 0
VERTEX
 8
K_RPER
 10
0
 20
0
 30
0
 70
128
 71
2
 72
6
 73
7
 74
7
 0
VERTEX
 8
K_RPER
 10
0
 20
0
 30
0
 70
128
 71
6
 72
14
 73
15
 74
7
 0
VERTEX
 8
K_RPER
 10
0
 20
0
 30
0
 70
128
 71
14
 72
22
 73
15
 74
15
 0
VERTEX
 8
K_RPER
 10
0
 20
0
 30
0
 70
128
 71
2
 72
7
 73
8
 74
3
 0
VERTEX
 8
K_RPER
 10
0
 20
0
 30
0
 70
128
 71
7
 72
15
 73
16
 74
8
 0
VERTEX
 8
K_RPER
 10
0
 20
0
 30
0
 70
128
 71
15
 72
22
 73
23
 74
16
 0
VERTEX
 8
K_RPER
 10
0
 20
0
 30
0
 70
128
 71
3
 72
8
 73
9
 74
9
 0
VERTEX
 8
K_RPER
 10
0
 20
0
 30
0
 70
128
 71
8
 72
16
 73
17
 74
9
 0
VERTEX
 8
K_RPER
 10
0
 20
0
 30
0
 70
128
 71
16
 72
23
 73
17
 74
17
 0
VERTEX
 8
K_RPER
 10
0
 20
0
 30
0
 70
128
 71
3
 72
9
 73
10
 74
4
 0
VERTEX
 8
K_RPER
 10
0
 20
0
 30
0
 70
128
 71
9
 72
17
 73
18
 74
10
 0
VERTEX
 8
K_RPER
 10
0
 20
0
 30
0
 70
128
 71
17
 72
23
 73
24
 74
18
 0
VERTEX
 8
K_RPER
 10
0
 20
0
 30
0
 70
128
 71
4
 72
10
 73
11
 74
11
 0
VERTEX
 8
K_RPER
 10
0
 20
0
 30
0
 70
128
 71
10
 72
18
 73
19
 74
11
 0
VERTEX
 8
K_RPER
 10
0
 20
0
 30
0
 70
128
 71
18
 72
24
 73
19
 74
19
 0
VERTEX
 8
K_RPER
 10
0
 20
0
 30
0
 70
128
 71
4
 72
11
 73
12
 74
1
 0
VERTEX
 8
K_RPER
 10
0
 20
0
 30
0
 70
128
 71
11
 72
19
 73
20
 74
12
 0
VERTEX
 8
K_RPER
 10
0
 20
0
 30
0
 70
128
 71
19
 72
24
 73
21
 74
20
 0
VERTEX
 8
K_RPER
 10
0
 20
0
 30
0
 70
128
 71
1
 72
12
 73
5
 74
5
 0
VERTEX
 8
K_RPER
 10
0
 20
0
 30
0
 70
128
 71
12
 72
20
 73
13
 74
5
 0
VERTEX
 8
K_RPER
 10
0
 20
0
 30
0
 70
128
 71
20
 72
21
 73
13
 74
13
 0
VERTEX
 8
K_RPER
 10
0
 20
0
 30
0
 70
128
 71
21
 72
24
 73
23
 74
22
 0
VERTEX
 8
K_RPER
 10
0
 20
0
 30
0
 70
128
 71
1
 72
2
 73
3
 74
4
 0
SEQEND
 0
POLYLINE
 8
R_H1
 66
1
 10
0.0
 20
0.0
 30
0.0
 70
64
 71
48
 72
48
 0
VERTEX
 8
R_H1
 10
0.3198
 20
-0.3293
 30
18.9906
 70
192
 0
VERTEX
 8
R_H1
 10
0.3198
 20
-0.5093
 30
18.9906
 70
192
 0
VERTEX
 8
R_H1
 10
0.3198
 20
-0.5093
 30
19.6326
 70
192
 0
VERTEX
 8
R_H1
 10
0.3198
 20
-0.3293
 30
19.6326
 70
192
 0
VERTEX
 8
R_H1
 10
0.4698
 20
-0.2891
 30
18.9906
 70
192
 0
VERTEX
 8
R_H1
 10
0.5598
 20
-0.445
 30
18.9906
 70
192
 0
VERTEX
 8
R_H1
 10
0.5598
 20
-0.445
 30
19.6326
 70
192
 0
VERTEX
 8
R_H1
 10
0.4698
 20
-0.2891
 30
19.6326
 70
192
 0
VERTEX
 8
R_H1
 10
0.7355
 20
-0.2693
 30
18.9906
 70
192
 0
VERTEX
 8
R_H1
 10
0.7355
 20
-0.2693
 30
19.6326
 70
192
 0
VERTEX
 8
R_H1
 10
0.5796
 20
-0.1793
 30
19.6326
 70
192
 0
VERTEX
 8
R_H1
 10
0.5796
 20
-0.1793
 30
18.9906
 70
192
 0
VERTEX
 8
R_H1
 10
0.7998
 20
-0.0293
 30
18.9906
 70
192
 0
VERTEX
 8
R_H1
 10
0.7998
 20
-0.0293
 30
19.6326
 70
192
 0
VERTEX
 8
R_H1
 10
0.6198
 20
-0.0293
 30
19.6326
 70
192
 0
VERTEX
 8
R_H1
 10
0.6198
 20
-0.0293
 30
18.9906
 70
192
 0
VERTEX
 8
R_H1
 10
0.5796
 20
0.1207
 30
18.9906
 70
192
 0
VERTEX
 8
R_H1
 10
0.7355
 20
0.2107
 30
18.9906
 70
192
 0
VERTEX
 8
R_H1
 10
0.7355
 20
0.2107
 30
19.6326
 70
192
 0
VERTEX
 8
R_H1
 10
0.5796
 20
0.1207
 30
19.6326
 70
192
 0
VERTEX
 8
R_H1
 10
0.5598
 20
0.3864
 30
18.9906
 70
192
 0
VERTEX
 8
R_H1
 10
0.5598
 20
0.3864
 30
19.6326
 70
192
 0
VERTEX
 8
R_H1
 10
0.4698
 20
0.2305
 30
19.6326
 70
192
 0
VERTEX
 8
R_H1
 10
0.4698
 20
0.2305
 30
18.9906
 70
192
 0
VERTEX
 8
R_H1
 10
0.3198
 20
0.2707
 30
18.9906
 70
192
 0
VERTEX
 8
R_H1
 10
0.3198
 20
0.4507
 30
18.9906
 70
192
 0
VERTEX
 8
R_H1
 10
0.3198
 20
0.4507
 30
19.6326
 70
192
 0
VERTEX
 8
R_H1
 10
0.3198
 20
0.2707
 30
19.6326
 70
192
 0
VERTEX
 8
R_H1
 10
0.0798
 20
0.3864
 30
18.9906
 70
192
 0
VERTEX
 8
R_H1
 10
0.0798
 20
0.3864
 30
19.6326
 70
192
 0
VERTEX
 8
R_H1
 10
0.1698
 20
0.2305
 30
19.6326
 70
192
 0
VERTEX
 8
R_H1
 10
0.1698
 20
0.2305
 30
18.9906
 70
192
 0
VERTEX
 8
R_H1
 10
0.06
 20
0.1207
 30
18.9906
 70
192
 0
VERTEX
 8
R_H1
 10
-0.0959
 20
0.2107
 30
18.9906
 70
192
 0
VERTEX
 8
R_H1
 10
-0.0959
 20
0.2107
 30
19.6326
 70
192
 0
VERTEX
 8
R_H1
 10
0.06
 20
0.1207
 30
19.6326
 70
192
 0
VERTEX
 8
R_H1
 10
-0.1602
 20
-0.0293
 30
18.9906
 70
192
 0
VERTEX
 8
R_H1
 10
-0.1602
 20
-0.0293
 30
19.6326
 70
192
 0
VERTEX
 8
R_H1
 10
0.0198
 20
-0.0293
 30
19.6326
 70
192
 0
VERTEX
 8
R_H1
 10
0.0198
 20
-0.0293
 30
18.9906
 70
192
 0
VERTEX
 8
R_H1
 10
-0.0959
 20
-0.2693
 30
18.9906
 70
192
 0
VERTEX
 8
R_H1
 10
-0.0959
 20
-0.2693
 30
19.6326
 70
192
 0
VERTEX
 8
R_H1
 10
0.06
 20
-0.1793
 30
19.6326
 70
192
 0
VERTEX
 8
R_H1
 10
0.06
 20
-0.1793
 30
18.9906
 70
192
 0
VERTEX
 8
R_H1
 10
0.1698
 20
-0.2891
 30
18.9906
 70
192
 0
VERTEX
 8
R_H1
 10
0.0798
 20
-0.445
 30
18.9906
 70
192
 0
VERTEX
 8
R_H1
 10
0.0798
 20
-0.445
 30
19.6326
 70
192
 0
VERTEX
 8
R_H1
 10
0.1698
 20
-0.2891
 30
19.6326
 70
192
 0
VERTEX
 8
R_H1
 10
0
 20
0
 30
0
 70
128
 71
1
 72
2
 73
6
 74
5
 0
VERTEX
 8
R_H1
 10
0
 20
0
 30
0
 70
128
 71
2
 72
3
 73
7
 74
6
 0
VERTEX
 8
R_H1
 10
0
 20
0
 30
0
 70
128
 71
3
 72
4
 73
8
 74
7
 0
VERTEX
 8
R_H1
 10
0
 20
0
 30
0
 70
128
 71
4
 72
1
 73
5
 74
8
 0
VERTEX
 8
R_H1
 10
0
 20
0
 30
0
 70
128
 71
5
 72
6
 73
9
 74
12
 0
VERTEX
 8
R_H1
 10
0
 20
0
 30
0
 70
128
 71
6
 72
7
 73
10
 74
9
 0
VERTEX
 8
R_H1
 10
0
 20
0
 30
0
 70
128
 71
7
 72
8
 73
11
 74
10
 0
VERTEX
 8
R_H1
 10
0
 20
0
 30
0
 70
128
 71
8
 72
5
 73
12
 74
11
 0
VERTEX
 8
R_H1
 10
0
 20
0
 30
0
 70
128
 71
12
 72
9
 73
13
 74
16
 0
VERTEX
 8
R_H1
 10
0
 20
0
 30
0
 70
128
 71
9
 72
10
 73
14
 74
13
 0
VERTEX
 8
R_H1
 10
0
 20
0
 30
0
 70
128
 71
10
 72
11
 73
15
 74
14
 0
VERTEX
 8
R_H1
 10
0
 20
0
 30
0
 70
128
 71
11
 72
12
 73
16
 74
15
 0
VERTEX
 8
R_H1
 10
0
 20
0
 30
0
 70
128
 71
16
 72
13
 73
18
 74
17
 0
VERTEX
 8
R_H1
 10
0
 20
0
 30
0
 70
128
 71
13
 72
14
 73
19
 74
18
 0
VERTEX
 8
R_H1
 10
0
 20
0
 30
0
 70
128
 71
14
 72
15
 73
20
 74
19
 0
VERTEX
 8
R_H1
 10
0
 20
0
 30
0
 70
128
 71
15
 72
16
 73
17
 74
20
 0
VERTEX
 8
R_H1
 10
0
 20
0
 30
0
 70
128
 71
17
 72
18
 73
21
 74
24
 0
VERTEX
 8
R_H1
 10
0
 20
0
 30
0
 70
128
 71
18
 72
19
 73
22
 74
21
 0
VERTEX
 8
R_H1
 10
0
 20
0
 30
0
 70
128
 71
19
 72
20
 73
23
 74
22
 0
VERTEX
 8
R_H1
 10
0
 20
0
 30
0
 70
128
 71
20
 72
17
 73
24
 74
23
 0
VERTEX
 8
R_H1
 10
0
 20
0
 30
0
 70
128
 71
24
 72
21
 73
26
 74
25
 0
VERTEX
 8
R_H1
 10
0
 20
0
 30
0
 70
128
 71
21
 72
22
 73
27
 74
26
 0
VERTEX
 8
R_H1
 10
0
 20
0
 30
0
 70
128
 71
22
 72
23
 73
28
 74
27
 0
VERTEX
 8
R_H1
 10
0
 20
0
 30
0
 70
128
 71
23
 72
24
 73
25
 74
28
 0
VERTEX
 8
R_H1
 10
0
 20
0
 30
0
 70
128
 71
25
 72
26
 73
29
 74
32
 0
VERTEX
 8
R_H1
 10
0
 20
0
 30
0
 70
128
 71
26
 72
27
 73
30
 74
29
 0
VERTEX
 8
R_H1
 10
0
 20
0
 30
0
 70
128
 71
27
 72
28
 73
31
 74
30
 0
VERTEX
 8
R_H1
 10
0
 20
0
 30
0
 70
128
 71
28
 72
25
 73
32
 74
31
 0
VERTEX
 8
R_H1
 10
0
 20
0
 30
0
 70
128
 71
32
 72
29
 73
34
 74
33
 0
VERTEX
 8
R_H1
 10
0
 20
0
 30
0
 70
128
 71
29
 72
30
 73
35
 74
34
 0
VERTEX
 8
R_H1
 10
0
 20
0
 30
0
 70
128
 71
30
 72
31
 73
36
 74
35
 0
VERTEX
 8
R_H1
 10
0
 20
0
 30
0
 70
128
 71
31
 72
32
 73
33
 74
36
 0
VERTEX
 8
R_H1
 10
0
 20
0
 30
0
 70
128
 71
33
 72
34
 73
37
 74
40
 0
VERTEX
 8
R_H1
 10
0
 20
0
 30
0
 70
128
 71
34
 72
35
 73
38
 74
37
 0
VERTEX
 8
R_H1
 10
0
 20
0
 30
0
 70
128
 71
35
 72
36
 73
39
 74
38
 0
VERTEX
 8
R_H1
 10
0
 20
0
 30
0
 70
128
 71
36
 72
33
 73
40
 74
39
 0
VERTEX
 8
R_H1
 10
0
 20
0
 30
0
 70
128
 71
40
 72
37
 73
41
 74
44
 0
VERTEX
 8
R_H1
 10
0
 20
0
 30
0
 70
128
 71
37
 72
38
 73
42
 74
41
 0
VERTEX
 8
R_H1
 10
0
 20
0
 30
0
 70
128
 71
38
 72
39
 73
43
 74
42
 0
VERTEX
 8
R_H1
 10
0
 20
0
 30
0
 70
128
 71
39
 72
40
 73
44
 74
43
 0
VERTEX
 8
R_H1
 10
0
 20
0
 30
0
 70
128
 71
44
 72
41
 73
46
 74
45
 0
VERTEX
 8
R_H1
 10
0
 20
0
 30
0
 70
128
 71
41
 72
42
 73
47
 74
46
 0
VERTEX
 8
R_H1
 10
0
 20
0
 30
0
 70
128
 71
42
 72
43
 73
48
 74
47
 0
VERTEX
 8
R_H1
 10
0
 20
0
 30
0
 70
128
 71
43
 72
44
 73
45
 74
48
 0
VERTEX
 8
R_H1
 10
0
 20
0
 30
0
 70
128
 71
45
 72
46
 73
2
 74
1
 0
VERTEX
 8
R_H1
 10
0
 20
0
 30
0
 70
128
 71
46
 72
47
 73
3
 74
2
 0
VERTEX
 8
R_H1
 10
0
 20
0
 30
0
 70
128
 71
47
 72
48
 73
4
 74
3
 0
VERTEX
 8
R_H1
 10
0
 20
0
 30
0
 70
128
 71
48
 72
45
 73
1
 74
4
 0
SEQEND
 0
POLYLINE
 8
R_HR2
 66
1
 10
0.0
 20
0.0
 30
0.0
 70
64
 71
26
 72
36
 0
VERTEX
 8
R_HR2
 10
0.3198
 20
-1.0293
 30
18.983
 70
192
 0
VERTEX
 8
R_HR2
 10
0.3198
 20
-1.0293
 30
19.183
 70
192
 0
VERTEX
 8
R_HR2
 10
0.8198
 20
-0.8953
 30
18.983
 70
192
 0
VERTEX
 8
R_HR2
 10
0.8198
 20
-0.8953
 30
19.183
 70
192
 0
VERTEX
 8
R_HR2
 10
1.1859
 20
-0.5293
 30
18.983
 70
192
 0
VERTEX
 8
R_HR2
 10
1.1859
 20
-0.5293
 30
19.183
 70
192
 0
VERTEX
 8
R_HR2
 10
1.3198
 20
-0.0293
 30
18.983
 70
192
 0
VERTEX
 8
R_HR2
 10
1.3198
 20
-0.0293
 30
19.183
 70
192
 0
VERTEX
 8
R_HR2
 10
1.1859
 20
0.4707
 30
18.983
 70
192
 0
VERTEX
 8
R_HR2
 10
1.1859
 20
0.4707
 30
19.183
 70
192
 0
VERTEX
 8
R_HR2
 10
0.3198
 20
-0.0293
 30
19.183
 70
192
 0
VERTEX
 8
R_HR2
 10
0.3198
 20
-0.0293
 30
18.983
 70
192
 0
VERTEX
 8
R_HR2
 10
0.8198
 20
0.8367
 30
18.983
 70
192
 0
VERTEX
 8
R_HR2
 10
0.8198
 20
0.8367
 30
19.183
 70
192
 0
VERTEX
 8
R_HR2
 10
0.3198
 20
0.9707
 30
18.983
 70
192
 0
VERTEX
 8
R_HR2
 10
0.3198
 20
0.9707
 30
19.183
 70
192
 0
VERTEX
 8
R_HR2
 10
-0.1802
 20
0.8367
 30
18.983
 70
192
 0
VERTEX
 8
R_HR2
 10
-0.1802
 20
0.8367
 30
19.183
 70
192
 0
VERTEX
 8
R_HR2
 10
-0.5462
 20
0.4707
 30
18.983
 70
192
 0
VERTEX
 8
R_HR2
 10
-0.5462
 20
0.4707
 30
19.183
 70
192
 0
VERTEX
 8
R_HR2
 10
-0.6802
 20
-0.0293
 30
18.983
 70
192
 0
VERTEX
 8
R_HR2
 10
-0.6802
 20
-0.0293
 30
19.183
 70
192
 0
VERTEX
 8
R_HR2
 10
-0.5462
 20
-0.5293
 30
18.983
 70
192
 0
VERTEX
 8
R_HR2
 10
-0.5462
 20
-0.5293
 30
19.183
 70
192
 0
VERTEX
 8
R_HR2
 10
-0.1802
 20
-0.8953
 30
18.983
 70
192
 0
VERTEX
 8
R_HR2
 10
-0.1802
 20
-0.8953
 30
19.183
 70
192
 0
VERTEX
 8
R_HR2
 10
0
 20
0
 30
0
 70
128
 71
12
 72
1
 73
3
 74
3
 0
VERTEX
 8
R_HR2
 10
0
 20
0
 30
0
 70
128
 71
1
 72
2
 73
4
 74
3
 0
VERTEX
 8
R_HR2
 10
0
 20
0
 30
0
 70
128
 71
2
 72
11
 73
4
 74
4
 0
VERTEX
 8
R_HR2
 10
0
 20
0
 30
0
 70
128
 71
12
 72
3
 73
5
 74
5
 0
VERTEX
 8
R_HR2
 10
0
 20
0
 30
0
 70
128
 71
3
 72
4
 73
6
 74
5
 0
VERTEX
 8
R_HR2
 10
0
 20
0
 30
0
 70
128
 71
4
 72
11
 73
6
 74
6
 0
VERTEX
 8
R_HR2
 10
0
 20
0
 30
0
 70
128
 71
12
 72
5
 73
7
 74
7
 0
VERTEX
 8
R_HR2
 10
0
 20
0
 30
0
 70
128
 71
5
 72
6
 73
8
 74
7
 0
VERTEX
 8
R_HR2
 10
0
 20
0
 30
0
 70
128
 71
6
 72
11
 73
8
 74
8
 0
VERTEX
 8
R_HR2
 10
0
 20
0
 30
0
 70
128
 71
12
 72
7
 73
9
 74
9
 0
VERTEX
 8
R_HR2
 10
0
 20
0
 30
0
 70
128
 71
7
 72
8
 73
10
 74
9
 0
VERTEX
 8
R_HR2
 10
0
 20
0
 30
0
 70
128
 71
8
 72
11
 73
10
 74
10
 0
VERTEX
 8
R_HR2
 10
0
 20
0
 30
0
 70
128
 71
12
 72
9
 73
13
 74
13
 0
VERTEX
 8
R_HR2
 10
0
 20
0
 30
0
 70
128
 71
9
 72
10
 73
14
 74
13
 0
VERTEX
 8
R_HR2
 10
0
 20
0
 30
0
 70
128
 71
10
 72
11
 73
14
 74
14
 0
VERTEX
 8
R_HR2
 10
0
 20
0
 30
0
 70
128
 71
12
 72
13
 73
15
 74
15
 0
VERTEX
 8
R_HR2
 10
0
 20
0
 30
0
 70
128
 71
13
 72
14
 73
16
 74
15
 0
VERTEX
 8
R_HR2
 10
0
 20
0
 30
0
 70
128
 71
14
 72
11
 73
16
 74
16
 0
VERTEX
 8
R_HR2
 10
0
 20
0
 30
0
 70
128
 71
12
 72
15
 73
17
 74
17
 0
VERTEX
 8
R_HR2
 10
0
 20
0
 30
0
 70
128
 71
15
 72
16
 73
18
 74
17
 0
VERTEX
 8
R_HR2
 10
0
 20
0
 30
0
 70
128
 71
16
 72
11
 73
18
 74
18
 0
VERTEX
 8
R_HR2
 10
0
 20
0
 30
0
 70
128
 71
12
 72
17
 73
19
 74
19
 0
VERTEX
 8
R_HR2
 10
0
 20
0
 30
0
 70
128
 71
17
 72
18
 73
20
 74
19
 0
VERTEX
 8
R_HR2
 10
0
 20
0
 30
0
 70
128
 71
18
 72
11
 73
20
 74
20
 0
VERTEX
 8
R_HR2
 10
0
 20
0
 30
0
 70
128
 71
12
 72
19
 73
21
 74
21
 0
VERTEX
 8
R_HR2
 10
0
 20
0
 30
0
 70
128
 71
19
 72
20
 73
22
 74
21
 0
VERTEX
 8
R_HR2
 10
0
 20
0
 30
0
 70
128
 71
20
 72
11
 73
22
 74
22
 0
VERTEX
 8
R_HR2
 10
0
 20
0
 30
0
 70
128
 71
12
 72
21
 73
23
 74
23
 0
VERTEX
 8
R_HR2
 10
0
 20
0
 30
0
 70
128
 71
21
 72
22
 73
24
 74
23
 0
VERTEX
 8
R_HR2
 10
0
 20
0
 30
0
 70
128
 71
22
 72
11
 73
24
 74
24
 0
VERTEX
 8
R_HR2
 10
0
 20
0
 30
0
 70
128
 71
12
 72
23
 73
25
 74
25
 0
VERTEX
 8
R_HR2
 10
0
 20
0
 30
0
 70
128
 71
23
 72
24
 73
26
 74
25
 0
VERTEX
 8
R_HR2
 10
0
 20
0
 30
0
 70
128
 71
24
 72
11
 73
26
 74
26
 0
VERTEX
 8
R_HR2
 10
0
 20
0
 30
0
 70
128
 71
12
 72
25
 73
1
 74
1
 0
VERTEX
 8
R_HR2
 10
0
 20
0
 30
0
 70
128
 71
25
 72
26
 73
2
 74
1
 0
VERTEX
 8
R_HR2
 10
0
 20
0
 30
0
 70
128
 71
26
 72
11
 73
2
 74
2
 0
SEQEND
 0
POLYLINE
 8
AUSLA2
 66
1
 10
0.0
 20
0.0
 30
0.0
 70
64
 71
20
 72
36
 0
VERTEX
 8
AUSLA2
 10
-0.5914
 20
-13.0413
 30
17.9908
 70
192
 0
VERTEX
 8
AUSLA2
 10
2.0959
 20
-12.4208
 30
17.9922
 70
192
 0
VERTEX
 8
AUSLA2
 10
1.2561
 20
-13.0447
 30
17.9622
 70
192
 0
VERTEX
 8
AUSLA2
 10
2.157
 20
-2.047
 30
15.9926
 70
192
 0
VERTEX
 8
AUSLA2
 10
-1.438
 20
-2.047
 30
17.9916
 70
192
 0
VERTEX
 8
AUSLA2
 10
-0.9705
 20
-12.8934
 30
16.0621
 70
192
 0
VERTEX
 8
AUSLA2
 10
2.1592
 20
-12.1396
 30
16.0255
 70
192
 0
VERTEX
 8
AUSLA2
 10
-1.2885
 20
-12.5754
 30
17.9221
 70
192
 0
VERTEX
 8
AUSLA2
 10
2.159
 20
-12.1874
 30
17.9441
 70
192
 0
VERTEX
 8
AUSLA2
 10
2.1582
 20
-2.0485
 30
17.9913
 70
192
 0
VERTEX
 8
AUSLA2
 10
1.3104
 20
-13.0413
 30
15.9934
 70
192
 0
VERTEX
 8
AUSLA2
 10
-1.4402
 20
-12.1422
 30
16.0397
 70
192
 0
VERTEX
 8
AUSLA2
 10
-1.4399
 20
-12.2239
 30
17.9584
 70
192
 0
VERTEX
 8
AUSLA2
 10
-1.4392
 20
-2.0485
 30
15.9929
 70
192
 0
VERTEX
 8
AUSLA2
 10
1.741
 20
-12.8822
 30
17.9497
 70
192
 0
VERTEX
 8
AUSLA2
 10
-0.5725
 20
-13.0441
 30
16.0227
 70
192
 0
VERTEX
 8
AUSLA2
 10
-1.0209
 20
-12.8673
 30
17.9923
 70
192
 0
VERTEX
 8
AUSLA2
 10
2.0613
 20
-12.4884
 30
15.9958
 70
192
 0
VERTEX
 8
AUSLA2
 10
1.7725
 20
-12.8486
 30
16.0203
 70
192
 0
VERTEX
 8
AUSLA2
 10
-1.3473
 20
-12.503
 30
15.9917
 70
192
 0
VERTEX
 8
AUSLA2
 10
0
 20
0
 30
0
 70
128
 71
14
 72
5
 73
13
 74
13
 0
VERTEX
 8
AUSLA2
 10
0
 20
0
 30
0
 70
128
 71
16
 72
1
 73
3
 74
3
 0
VERTEX
 8
AUSLA2
 10
0
 20
0
 30
0
 70
128
 71
7
 72
9
 73
10
 74
10
 0
VERTEX
 8
AUSLA2
 10
0
 20
0
 30
0
 70
128
 71
4
 72
10
 73
5
 74
5
 0
VERTEX
 8
AUSLA2
 10
0
 20
0
 30
0
 70
128
 71
1
 72
17
 73
5
 74
5
 0
VERTEX
 8
AUSLA2
 10
0
 20
0
 30
0
 70
128
 71
9
 72
7
 73
18
 74
18
 0
VERTEX
 8
AUSLA2
 10
0
 20
0
 30
0
 70
128
 71
2
 72
1
 73
5
 74
5
 0
VERTEX
 8
AUSLA2
 10
0
 20
0
 30
0
 70
128
 71
20
 72
17
 73
6
 74
6
 0
VERTEX
 8
AUSLA2
 10
0
 20
0
 30
0
 70
128
 71
16
 72
3
 73
11
 74
11
 0
VERTEX
 8
AUSLA2
 10
0
 20
0
 30
0
 70
128
 71
5
 72
10
 73
2
 74
2
 0
VERTEX
 8
AUSLA2
 10
0
 20
0
 30
0
 70
128
 71
20
 72
8
 73
17
 74
17
 0
VERTEX
 8
AUSLA2
 10
0
 20
0
 30
0
 70
128
 71
15
 72
18
 73
19
 74
19
 0
VERTEX
 8
AUSLA2
 10
0
 20
0
 30
0
 70
128
 71
14
 72
13
 73
12
 74
12
 0
VERTEX
 8
AUSLA2
 10
0
 20
0
 30
0
 70
128
 71
11
 72
18
 73
4
 74
4
 0
VERTEX
 8
AUSLA2
 10
0
 20
0
 30
0
 70
128
 71
4
 72
5
 73
14
 74
14
 0
VERTEX
 8
AUSLA2
 10
0
 20
0
 30
0
 70
128
 71
9
 72
2
 73
10
 74
10
 0
VERTEX
 8
AUSLA2
 10
0
 20
0
 30
0
 70
128
 71
3
 72
2
 73
15
 74
15
 0
VERTEX
 8
AUSLA2
 10
0
 20
0
 30
0
 70
128
 71
1
 72
2
 73
3
 74
3
 0
VERTEX
 8
AUSLA2
 10
0
 20
0
 30
0
 70
128
 71
16
 72
20
 73
6
 74
6
 0
VERTEX
 8
AUSLA2
 10
0
 20
0
 30
0
 70
128
 71
12
 72
20
 73
14
 74
14
 0
VERTEX
 8
AUSLA2
 10
0
 20
0
 30
0
 70
128
 71
12
 72
13
 73
20
 74
20
 0
VERTEX
 8
AUSLA2
 10
0
 20
0
 30
0
 70
128
 71
11
 72
15
 73
19
 74
19
 0
VERTEX
 8
AUSLA2
 10
0
 20
0
 30
0
 70
128
 71
6
 72
1
 73
16
 74
16
 0
VERTEX
 8
AUSLA2
 10
0
 20
0
 30
0
 70
128
 71
3
 72
15
 73
11
 74
11
 0
VERTEX
 8
AUSLA2
 10
0
 20
0
 30
0
 70
128
 71
17
 72
8
 73
13
 74
13
 0
VERTEX
 8
AUSLA2
 10
0
 20
0
 30
0
 70
128
 71
7
 72
10
 73
4
 74
4
 0
VERTEX
 8
AUSLA2
 10
0
 20
0
 30
0
 70
128
 71
20
 72
13
 73
8
 74
8
 0
VERTEX
 8
AUSLA2
 10
0
 20
0
 30
0
 70
128
 71
15
 72
2
 73
18
 74
18
 0
VERTEX
 8
AUSLA2
 10
0
 20
0
 30
0
 70
128
 71
6
 72
17
 73
1
 74
1
 0
VERTEX
 8
AUSLA2
 10
0
 20
0
 30
0
 70
128
 71
13
 72
5
 73
17
 74
17
 0
VERTEX
 8
AUSLA2
 10
0
 20
0
 30
0
 70
128
 71
20
 72
11
 73
4
 74
4
 0
VERTEX
 8
AUSLA2
 10
0
 20
0
 30
0
 70
128
 71
18
 72
2
 73
9
 74
9
 0
VERTEX
 8
AUSLA2
 10
0
 20
0
 30
0
 70
128
 71
7
 72
4
 73
18
 74
18
 0
VERTEX
 8
AUSLA2
 10
0
 20
0
 30
0
 70
128
 71
11
 72
20
 73
16
 74
16
 0
VERTEX
 8
AUSLA2
 10
0
 20
0
 30
0
 70
128
 71
4
 72
14
 73
20
 74
20
 0
VERTEX
 8
AUSLA2
 10
0
 20
0
 30
0
 70
128
 71
11
 72
19
 73
18
 74
18
 0
SEQEND
 0
POLYLINE
 8
ZYLINDER
 66
1
 10
0.0
 20
0.0
 30
0.0
 70
64
 71
37
 72
36
 0
VERTEX
 8
ZYLINDER
 10
0.4824
 20
-0.074
 30
13.6298
 70
192
 0
VERTEX
 8
ZYLINDER
 10
0.4824
 20
-0.924
 30
13.6298
 70
192
 0
VERTEX
 8
ZYLINDER
 10
0.4824
 20
-0.974
 30
13.6798
 70
192
 0
VERTEX
 8
ZYLINDER
 10
0.4824
 20
-0.974
 30
15.4798
 70
192
 0
VERTEX
 8
ZYLINDER
 10
0.9074
 20
-0.8102
 30
13.6298
 70
192
 0
VERTEX
 8
ZYLINDER
 10
0.9324
 20
-0.8535
 30
13.6798
 70
192
 0
VERTEX
 8
ZYLINDER
 10
0.9324
 20
-0.8535
 30
15.4798
 70
192
 0
VERTEX
 8
ZYLINDER
 10
1.2185
 20
-0.499
 30
13.6298
 70
192
 0
VERTEX
 8
ZYLINDER
 10
1.2618
 20
-0.524
 30
13.6798
 70
192
 0
VERTEX
 8
ZYLINDER
 10
1.2618
 20
-0.524
 30
15.4798
 70
192
 0
VERTEX
 8
ZYLINDER
 10
1.3324
 20
-0.074
 30
13.6298
 70
192
 0
VERTEX
 8
ZYLINDER
 10
1.3824
 20
-0.074
 30
13.6798
 70
192
 0
VERTEX
 8
ZYLINDER
 10
1.3824
 20
-0.074
 30
15.4798
 70
192
 0
VERTEX
 8
ZYLINDER
 10
1.2185
 20
0.351
 30
13.6298
 70
192
 0
VERTEX
 8
ZYLINDER
 10
1.2618
 20
0.376
 30
13.6798
 70
192
 0
VERTEX
 8
ZYLINDER
 10
1.2618
 20
0.376
 30
15.4798
 70
192
 0
VERTEX
 8
ZYLINDER
 10
0.9074
 20
0.6621
 30
13.6298
 70
192
 0
VERTEX
 8
ZYLINDER
 10
0.9324
 20
0.7054
 30
13.6798
 70
192
 0
VERTEX
 8
ZYLINDER
 10
0.9324
 20
0.7054
 30
15.4798
 70
192
 0
VERTEX
 8
ZYLINDER
 10
0.4824
 20
0.776
 30
13.6298
 70
192
 0
VERTEX
 8
ZYLINDER
 10
0.4824
 20
0.826
 30
13.6798
 70
192
 0
VERTEX
 8
ZYLINDER
 10
0.4824
 20
0.826
 30
15.4798
 70
192
 0
VERTEX
 8
ZYLINDER
 10
0.0574
 20
0.6621
 30
13.6298
 70
192
 0
VERTEX
 8
ZYLINDER
 10
0.0324
 20
0.7054
 30
13.6798
 70
192
 0
VERTEX
 8
ZYLINDER
 10
0.0324
 20
0.7054
 30
15.4798
 70
192
 0
VERTEX
 8
ZYLINDER
 10
-0.2538
 20
0.351
 30
13.6298
 70
192
 0
VERTEX
 8
ZYLINDER
 10
-0.2971
 20
0.376
 30
13.6798
 70
192
 0
VERTEX
 8
ZYLINDER
 10
-0.2971
 20
0.376
 30
15.4798
 70
192
 0
VERTEX
 8
ZYLINDER
 10
-0.3676
 20
-0.074
 30
13.6298
 70
192
 0
VERTEX
 8
ZYLINDER
 10
-0.4176
 20
-0.074
 30
13.6798
 70
192
 0
VERTEX
 8
ZYLINDER
 10
-0.4176
 20
-0.074
 30
15.4798
 70
192
 0
VERTEX
 8
ZYLINDER
 10
-0.2538
 20
-0.499
 30
13.6298
 70
192
 0
VERTEX
 8
ZYLINDER
 10
-0.2971
 20
-0.524
 30
13.6798
 70
192
 0
VERTEX
 8
ZYLINDER
 10
-0.2971
 20
-0.524
 30
15.4798
 70
192
 0
VERTEX
 8
ZYLINDER
 10
0.0574
 20
-0.8102
 30
13.6298
 70
192
 0
VERTEX
 8
ZYLINDER
 10
0.0324
 20
-0.8535
 30
13.6798
 70
192
 0
VERTEX
 8
ZYLINDER
 10
0.0324
 20
-0.8535
 30
15.4798
 70
192
 0
VERTEX
 8
ZYLINDER
 10
0
 20
0
 30
0
 70
128
 71
1
 72
2
 73
5
 74
5
 0
VERTEX
 8
ZYLINDER
 10
0
 20
0
 30
0
 70
128
 71
2
 72
3
 73
6
 74
5
 0
VERTEX
 8
ZYLINDER
 10
0
 20
0
 30
0
 70
128
 71
3
 72
4
 73
7
 74
6
 0
VERTEX
 8
ZYLINDER
 10
0
 20
0
 30
0
 70
128
 71
23
 72
24
 73
27
 74
26
 0
VERTEX
 8
ZYLINDER
 10
0
 20
0
 30
0
 70
128
 71
24
 72
25
 73
28
 74
27
 0
VERTEX
 8
ZYLINDER
 10
0
 20
0
 30
0
 70
128
 71
1
 72
5
 73
8
 74
8
 0
VERTEX
 8
ZYLINDER
 10
0
 20
0
 30
0
 70
128
 71
5
 72
6
 73
9
 74
8
 0
VERTEX
 8
ZYLINDER
 10
0
 20
0
 30
0
 70
128
 71
6
 72
7
 73
10
 74
9
 0
VERTEX
 8
ZYLINDER
 10
0
 20
0
 30
0
 70
128
 71
1
 72
26
 73
29
 74
29
 0
VERTEX
 8
ZYLINDER
 10
0
 20
0
 30
0
 70
128
 71
26
 72
27
 73
30
 74
29
 0
VERTEX
 8
ZYLINDER
 10
0
 20
0
 30
0
 70
128
 71
1
 72
8
 73
11
 74
11
 0
VERTEX
 8
ZYLINDER
 10
0
 20
0
 30
0
 70
128
 71
8
 72
9
 73
12
 74
11
 0
VERTEX
 8
ZYLINDER
 10
0
 20
0
 30
0
 70
128
 71
9
 72
10
 73
13
 74
12
 0
VERTEX
 8
ZYLINDER
 10
0
 20
0
 30
0
 70
128
 71
27
 72
28
 73
31
 74
30
 0
VERTEX
 8
ZYLINDER
 10
0
 20
0
 30
0
 70
128
 71
1
 72
29
 73
32
 74
32
 0
VERTEX
 8
ZYLINDER
 10
0
 20
0
 30
0
 70
128
 71
1
 72
11
 73
14
 74
14
 0
VERTEX
 8
ZYLINDER
 10
0
 20
0
 30
0
 70
128
 71
11
 72
12
 73
15
 74
14
 0
VERTEX
 8
ZYLINDER
 10
0
 20
0
 30
0
 70
128
 71
12
 72
13
 73
16
 74
15
 0
VERTEX
 8
ZYLINDER
 10
0
 20
0
 30
0
 70
128
 71
29
 72
30
 73
33
 74
32
 0
VERTEX
 8
ZYLINDER
 10
0
 20
0
 30
0
 70
128
 71
30
 72
31
 73
34
 74
33
 0
VERTEX
 8
ZYLINDER
 10
0
 20
0
 30
0
 70
128
 71
1
 72
14
 73
17
 74
17
 0
VERTEX
 8
ZYLINDER
 10
0
 20
0
 30
0
 70
128
 71
14
 72
15
 73
18
 74
17
 0
VERTEX
 8
ZYLINDER
 10
0
 20
0
 30
0
 70
128
 71
15
 72
16
 73
19
 74
18
 0
VERTEX
 8
ZYLINDER
 10
0
 20
0
 30
0
 70
128
 71
1
 72
32
 73
35
 74
35
 0
VERTEX
 8
ZYLINDER
 10
0
 20
0
 30
0
 70
128
 71
32
 72
33
 73
36
 74
35
 0
VERTEX
 8
ZYLINDER
 10
0
 20
0
 30
0
 70
128
 71
1
 72
17
 73
20
 74
20
 0
VERTEX
 8
ZYLINDER
 10
0
 20
0
 30
0
 70
128
 71
17
 72
18
 73
21
 74
20
 0
VERTEX
 8
ZYLINDER
 10
0
 20
0
 30
0
 70
128
 71
18
 72
19
 73
22
 74
21
 0
VERTEX
 8
ZYLINDER
 10
0
 20
0
 30
0
 70
128
 71
33
 72
34
 73
37
 74
36
 0
VERTEX
 8
ZYLINDER
 10
0
 20
0
 30
0
 70
128
 71
1
 72
35
 73
2
 74
2
 0
VERTEX
 8
ZYLINDER
 10
0
 20
0
 30
0
 70
128
 71
1
 72
20
 73
23
 74
23
 0
VERTEX
 8
ZYLINDER
 10
0
 20
0
 30
0
 70
128
 71
20
 72
21
 73
24
 74
23
 0
VERTEX
 8
ZYLINDER
 10
0
 20
0
 30
0
 70
128
 71
21
 72
22
 73
25
 74
24
 0
VERTEX
 8
ZYLINDER
 10
0
 20
0
 30
0
 70
128
 71
35
 72
36
 73
3
 74
2
 0
VERTEX
 8
ZYLINDER
 10
0
 20
0
 30
0
 70
128
 71
36
 72
37
 73
4
 74
3
 0
VERTEX
 8
ZYLINDER
 10
0
 20
0
 30
0
 70
128
 71
1
 72
23
 73
26
 74
26
 0
SEQEND
 0
POLYLINE
 8
ROSETTE_1
 66
1
 10
0.0
 20
0.0
 30
0.0
 70
64
 71
33
 72
62
 0
VERTEX
 8
ROSETTE_1
 10
5.6454
 20
5.5018
 30
14.3283
 70
192
 0
VERTEX
 8
ROSETTE_1
 10
10.4654
 20
8.3618
 30
19.1482
 70
192
 0
VERTEX
 8
ROSETTE_1
 10
10.224
 20
8.4265
 30
19.4907
 70
192
 0
VERTEX
 8
ROSETTE_1
 10
9.7531
 20
8.4062
 30
19.7391
 70
192
 0
VERTEX
 8
ROSETTE_1
 10
9.7531
 20
5.4574
 30
14.2451
 70
192
 0
VERTEX
 8
ROSETTE_1
 10
9.652
 20
5.4323
 30
19.7411
 70
192
 0
VERTEX
 8
ROSETTE_1
 10
10.224
 20
5.4371
 30
14.4935
 70
192
 0
VERTEX
 8
ROSETTE_1
 10
9.9577
 20
5.5018
 30
19.6559
 70
192
 0
VERTEX
 8
ROSETTE_1
 10
10.5485
 20
5.4574
 30
18.9436
 70
192
 0
VERTEX
 8
ROSETTE_1
 10
5.85
 20
5.4574
 30
19.7391
 70
192
 0
VERTEX
 8
ROSETTE_1
 10
5.3029
 20
5.4371
 30
14.5696
 70
192
 0
VERTEX
 8
ROSETTE_1
 10
5.0531
 20
5.4583
 30
15.0968
 70
192
 0
VERTEX
 8
ROSETTE_1
 10
5.3029
 20
8.4265
 30
19.4146
 70
192
 0
VERTEX
 8
ROSETTE_1
 10
5.0546
 20
8.4062
 30
18.9436
 70
192
 0
VERTEX
 8
ROSETTE_1
 10
10.3002
 20
8.4265
 30
14.5696
 70
192
 0
VERTEX
 8
ROSETTE_1
 10
5.9511
 20
8.4313
 30
19.7411
 70
192
 0
VERTEX
 8
ROSETTE_1
 10
5.0526
 20
5.4321
 30
18.8425
 70
192
 0
VERTEX
 8
ROSETTE_1
 10
5.85
 20
8.4062
 30
14.2451
 70
192
 0
VERTEX
 8
ROSETTE_1
 10
5.6454
 20
8.3618
 30
19.6559
 70
192
 0
VERTEX
 8
ROSETTE_1
 10
10.4654
 20
5.5018
 30
14.836
 70
192
 0
VERTEX
 8
ROSETTE_1
 10
10.5485
 20
8.4062
 30
15.0406
 70
192
 0
VERTEX
 8
ROSETTE_1
 10
9.652
 20
8.4313
 30
14.2431
 70
192
 0
VERTEX
 8
ROSETTE_1
 10
5.3791
 20
5.4371
 30
19.4907
 70
192
 0
VERTEX
 8
ROSETTE_1
 10
10.5506
 20
5.4321
 30
15.1417
 70
192
 0
VERTEX
 8
ROSETTE_1
 10
5.0526
 20
8.4315
 30
15.1417
 70
192
 0
VERTEX
 8
ROSETTE_1
 10
5.1377
 20
5.5018
 30
19.1482
 70
192
 0
VERTEX
 8
ROSETTE_1
 10
5.1377
 20
5.5018
 30
14.836
 70
192
 0
VERTEX
 8
ROSETTE_1
 10
9.9577
 20
8.3618
 30
14.3283
 70
192
 0
VERTEX
 8
ROSETTE_1
 10
5.9511
 20
5.4323
 30
14.2431
 70
192
 0
VERTEX
 8
ROSETTE_1
 10
5.1377
 20
8.3618
 30
14.836
 70
192
 0
VERTEX
 8
ROSETTE_1
 10
10.5506
 20
8.4315
 30
18.8425
 70
192
 0
VERTEX
 8
ROSETTE_1
 10
5.3791
 20
8.4265
 30
14.4935
 70
192
 0
VERTEX
 8
ROSETTE_1
 10
10.3002
 20
5.4371
 30
19.4146
 70
192
 0
VERTEX
 8
ROSETTE_1
 10
0
 20
0
 30
0
 70
128
 71
25
 72
14
 73
17
 74
17
 0
VERTEX
 8
ROSETTE_1
 10
0
 20
0
 30
0
 70
128
 71
31
 72
16
 73
25
 74
25
 0
VERTEX
 8
ROSETTE_1
 10
0
 20
0
 30
0
 70
128
 71
24
 72
9
 73
31
 74
31
 0
VERTEX
 8
ROSETTE_1
 10
0
 20
0
 30
0
 70
128
 71
11
 72
1
 73
32
 74
32
 0
VERTEX
 8
ROSETTE_1
 10
0
 20
0
 30
0
 70
128
 71
16
 72
4
 73
6
 74
6
 0
VERTEX
 8
ROSETTE_1
 10
0
 20
0
 30
0
 70
128
 71
22
 72
18
 73
29
 74
29
 0
VERTEX
 8
ROSETTE_1
 10
0
 20
0
 30
0
 70
128
 71
29
 72
24
 73
7
 74
7
 0
VERTEX
 8
ROSETTE_1
 10
0
 20
0
 30
0
 70
128
 71
24
 72
31
 73
21
 74
21
 0
VERTEX
 8
ROSETTE_1
 10
0
 20
0
 30
0
 70
128
 71
29
 72
7
 73
5
 74
5
 0
VERTEX
 8
ROSETTE_1
 10
0
 20
0
 30
0
 70
128
 71
17
 72
24
 73
29
 74
29
 0
VERTEX
 8
ROSETTE_1
 10
0
 20
0
 30
0
 70
128
 71
31
 72
9
 73
2
 74
2
 0
VERTEX
 8
ROSETTE_1
 10
0
 20
0
 30
0
 70
128
 71
18
 72
1
 73
29
 74
29
 0
VERTEX
 8
ROSETTE_1
 10
0
 20
0
 30
0
 70
128
 71
13
 72
19
 73
23
 74
23
 0
VERTEX
 8
ROSETTE_1
 10
0
 20
0
 30
0
 70
128
 71
12
 72
11
 73
27
 74
27
 0
VERTEX
 8
ROSETTE_1
 10
0
 20
0
 30
0
 70
128
 71
5
 72
28
 73
22
 74
22
 0
VERTEX
 8
ROSETTE_1
 10
0
 20
0
 30
0
 70
128
 71
25
 72
13
 73
14
 74
14
 0
VERTEX
 8
ROSETTE_1
 10
0
 20
0
 30
0
 70
128
 71
33
 72
3
 73
2
 74
2
 0
VERTEX
 8
ROSETTE_1
 10
0
 20
0
 30
0
 70
128
 71
19
 72
10
 73
23
 74
23
 0
VERTEX
 8
ROSETTE_1
 10
0
 20
0
 30
0
 70
128
 71
6
 72
17
 73
23
 74
23
 0
VERTEX
 8
ROSETTE_1
 10
0
 20
0
 30
0
 70
128
 71
9
 72
33
 73
2
 74
2
 0
VERTEX
 8
ROSETTE_1
 10
0
 20
0
 30
0
 70
128
 71
24
 72
20
 73
7
 74
7
 0
VERTEX
 8
ROSETTE_1
 10
0
 20
0
 30
0
 70
128
 71
29
 72
1
 73
11
 74
11
 0
VERTEX
 8
ROSETTE_1
 10
0
 20
0
 30
0
 70
128
 71
17
 72
29
 73
11
 74
11
 0
VERTEX
 8
ROSETTE_1
 10
0
 20
0
 30
0
 70
128
 71
1
 72
18
 73
32
 74
32
 0
VERTEX
 8
ROSETTE_1
 10
0
 20
0
 30
0
 70
128
 71
17
 72
11
 73
12
 74
12
 0
VERTEX
 8
ROSETTE_1
 10
0
 20
0
 30
0
 70
128
 71
6
 72
8
 73
33
 74
33
 0
VERTEX
 8
ROSETTE_1
 10
0
 20
0
 30
0
 70
128
 71
17
 72
6
 73
24
 74
24
 0
VERTEX
 8
ROSETTE_1
 10
0
 20
0
 30
0
 70
128
 71
4
 72
8
 73
6
 74
6
 0
VERTEX
 8
ROSETTE_1
 10
0
 20
0
 30
0
 70
128
 71
25
 72
17
 73
12
 74
12
 0
VERTEX
 8
ROSETTE_1
 10
0
 20
0
 30
0
 70
128
 71
25
 72
16
 73
13
 74
13
 0
VERTEX
 8
ROSETTE_1
 10
0
 20
0
 30
0
 70
128
 71
10
 72
19
 73
16
 74
16
 0
VERTEX
 8
ROSETTE_1
 10
0
 20
0
 30
0
 70
128
 71
15
 72
28
 73
7
 74
7
 0
VERTEX
 8
ROSETTE_1
 10
0
 20
0
 30
0
 70
128
 71
32
 72
25
 73
30
 74
30
 0
VERTEX
 8
ROSETTE_1
 10
0
 20
0
 30
0
 70
128
 71
6
 72
23
 73
10
 74
10
 0
VERTEX
 8
ROSETTE_1
 10
0
 20
0
 30
0
 70
128
 71
22
 72
29
 73
5
 74
5
 0
VERTEX
 8
ROSETTE_1
 10
0
 20
0
 30
0
 70
128
 71
25
 72
12
 73
30
 74
30
 0
VERTEX
 8
ROSETTE_1
 10
0
 20
0
 30
0
 70
128
 71
16
 72
6
 73
10
 74
10
 0
VERTEX
 8
ROSETTE_1
 10
0
 20
0
 30
0
 70
128
 71
31
 72
2
 73
3
 74
3
 0
VERTEX
 8
ROSETTE_1
 10
0
 20
0
 30
0
 70
128
 71
24
 72
6
 73
33
 74
33
 0
VERTEX
 8
ROSETTE_1
 10
0
 20
0
 30
0
 70
128
 71
24
 72
21
 73
20
 74
20
 0
VERTEX
 8
ROSETTE_1
 10
0
 20
0
 30
0
 70
128
 71
24
 72
33
 73
9
 74
9
 0
VERTEX
 8
ROSETTE_1
 10
0
 20
0
 30
0
 70
128
 71
15
 72
7
 73
20
 74
20
 0
VERTEX
 8
ROSETTE_1
 10
0
 20
0
 30
0
 70
128
 71
22
 72
25
 73
32
 74
32
 0
VERTEX
 8
ROSETTE_1
 10
0
 20
0
 30
0
 70
128
 71
33
 72
8
 73
3
 74
3
 0
VERTEX
 8
ROSETTE_1
 10
0
 20
0
 30
0
 70
128
 71
22
 72
32
 73
18
 74
18
 0
VERTEX
 8
ROSETTE_1
 10
0
 20
0
 30
0
 70
128
 71
17
 72
14
 73
26
 74
26
 0
VERTEX
 8
ROSETTE_1
 10
0
 20
0
 30
0
 70
128
 71
12
 72
27
 73
30
 74
30
 0
VERTEX
 8
ROSETTE_1
 10
0
 20
0
 30
0
 70
128
 71
16
 72
19
 73
13
 74
13
 0
VERTEX
 8
ROSETTE_1
 10
0
 20
0
 30
0
 70
128
 71
8
 72
4
 73
3
 74
3
 0
VERTEX
 8
ROSETTE_1
 10
0
 20
0
 30
0
 70
128
 71
16
 72
3
 73
4
 74
4
 0
VERTEX
 8
ROSETTE_1
 10
0
 20
0
 30
0
 70
128
 71
17
 72
26
 73
23
 74
23
 0
VERTEX
 8
ROSETTE_1
 10
0
 20
0
 30
0
 70
128
 71
15
 72
22
 73
28
 74
28
 0
VERTEX
 8
ROSETTE_1
 10
0
 20
0
 30
0
 70
128
 71
11
 72
32
 73
30
 74
30
 0
VERTEX
 8
ROSETTE_1
 10
0
 20
0
 30
0
 70
128
 71
28
 72
5
 73
7
 74
7
 0
VERTEX
 8
ROSETTE_1
 10
0
 20
0
 30
0
 70
128
 71
16
 72
31
 73
3
 74
3
 0
VERTEX
 8
ROSETTE_1
 10
0
 20
0
 30
0
 70
128
 71
27
 72
11
 73
30
 74
30
 0
VERTEX
 8
ROSETTE_1
 10
0
 20
0
 30
0
 70
128
 71
21
 72
15
 73
20
 74
20
 0
VERTEX
 8
ROSETTE_1
 10
0
 20
0
 30
0
 70
128
 71
13
 72
23
 73
26
 74
26
 0
VERTEX
 8
ROSETTE_1
 10
0
 20
0
 30
0
 70
128
 71
31
 72
22
 73
15
 74
15
 0
VERTEX
 8
ROSETTE_1
 10
0
 20
0
 30
0
 70
128
 71
31
 72
25
 73
22
 74
22
 0
VERTEX
 8
ROSETTE_1
 10
0
 20
0
 30
0
 70
128
 71
31
 72
15
 73
21
 74
21
 0
VERTEX
 8
ROSETTE_1
 10
0
 20
0
 30
0
 70
128
 71
14
 72
13
 73
26
 74
26
 0
SEQEND
 0
POLYLINE
 8
R_H3
 66
1
 10
0.0
 20
0.0
 30
0.0
 70
64
 71
60
 72
60
 0
VERTEX
 8
R_H3
 10
7.8055
 20
5.4237
 30
15.7066
 70
192
 0
VERTEX
 8
R_H3
 10
7.8055
 20
5.4237
 30
15.2566
 70
192
 0
VERTEX
 8
R_H3
 10
7.8055
 20
4.9237
 30
15.2566
 70
192
 0
VERTEX
 8
R_H3
 10
7.8055
 20
4.9237
 30
15.7066
 70
192
 0
VERTEX
 8
R_H3
 10
8.3342
 20
5.4237
 30
15.8189
 70
192
 0
VERTEX
 8
R_H3
 10
8.5173
 20
5.4237
 30
15.4079
 70
192
 0
VERTEX
 8
R_H3
 10
8.5173
 20
4.9237
 30
15.4079
 70
192
 0
VERTEX
 8
R_H3
 10
8.3342
 20
4.9237
 30
15.8189
 70
192
 0
VERTEX
 8
R_H3
 10
8.7716
 20
5.4237
 30
16.1367
 70
192
 0
VERTEX
 8
R_H3
 10
9.106
 20
5.4237
 30
15.8356
 70
192
 0
VERTEX
 8
R_H3
 10
9.106
 20
4.9237
 30
15.8356
 70
192
 0
VERTEX
 8
R_H3
 10
8.7716
 20
4.9237
 30
16.1367
 70
192
 0
VERTEX
 8
R_H3
 10
9.0419
 20
5.4237
 30
16.6048
 70
192
 0
VERTEX
 8
R_H3
 10
9.4698
 20
5.4237
 30
16.4658
 70
192
 0
VERTEX
 8
R_H3
 10
9.4698
 20
4.9237
 30
16.4658
 70
192
 0
VERTEX
 8
R_H3
 10
9.0419
 20
4.9237
 30
16.6048
 70
192
 0
VERTEX
 8
R_H3
 10
9.0984
 20
5.4237
 30
17.1424
 70
192
 0
VERTEX
 8
R_H3
 10
9.5459
 20
5.4237
 30
17.1895
 70
192
 0
VERTEX
 8
R_H3
 10
9.5459
 20
4.9237
 30
17.1895
 70
192
 0
VERTEX
 8
R_H3
 10
9.0984
 20
4.9237
 30
17.1424
 70
192
 0
VERTEX
 8
R_H3
 10
8.9313
 20
5.4237
 30
17.6566
 70
192
 0
VERTEX
 8
R_H3
 10
9.321
 20
5.4237
 30
17.8816
 70
192
 0
VERTEX
 8
R_H3
 10
9.321
 20
4.9237
 30
17.8816
 70
192
 0
VERTEX
 8
R_H3
 10
8.9313
 20
4.9237
 30
17.6566
 70
192
 0
VERTEX
 8
R_H3
 10
8.8341
 20
5.4237
 30
18.4223
 70
192
 0
VERTEX
 8
R_H3
 10
8.8341
 20
4.9237
 30
18.4223
 70
192
 0
VERTEX
 8
R_H3
 10
8.5696
 20
4.9237
 30
18.0583
 70
192
 0
VERTEX
 8
R_H3
 10
8.5696
 20
5.4237
 30
18.0583
 70
192
 0
VERTEX
 8
R_H3
 10
8.1693
 20
5.4237
 30
18.7183
 70
192
 0
VERTEX
 8
R_H3
 10
8.1693
 20
4.9237
 30
18.7183
 70
192
 0
VERTEX
 8
R_H3
 10
8.0758
 20
4.9237
 30
18.2781
 70
192
 0
VERTEX
 8
R_H3
 10
8.0758
 20
5.4237
 30
18.2781
 70
192
 0
VERTEX
 8
R_H3
 10
7.4416
 20
5.4237
 30
18.7183
 70
192
 0
VERTEX
 8
R_H3
 10
7.4416
 20
4.9237
 30
18.7183
 70
192
 0
VERTEX
 8
R_H3
 10
7.5352
 20
4.9237
 30
18.2781
 70
192
 0
VERTEX
 8
R_H3
 10
7.5352
 20
5.4237
 30
18.2781
 70
192
 0
VERTEX
 8
R_H3
 10
6.7769
 20
5.4237
 30
18.4223
 70
192
 0
VERTEX
 8
R_H3
 10
6.7769
 20
4.9237
 30
18.4223
 70
192
 0
VERTEX
 8
R_H3
 10
7.0414
 20
4.9237
 30
18.0583
 70
192
 0
VERTEX
 8
R_H3
 10
7.0414
 20
5.4237
 30
18.0583
 70
192
 0
VERTEX
 8
R_H3
 10
6.6796
 20
5.4237
 30
17.6566
 70
192
 0
VERTEX
 8
R_H3
 10
6.2899
 20
5.4237
 30
17.8816
 70
192
 0
VERTEX
 8
R_H3
 10
6.2899
 20
4.9237
 30
17.8816
 70
192
 0
VERTEX
 8
R_H3
 10
6.6796
 20
4.9237
 30
17.6566
 70
192
 0
VERTEX
 8
R_H3
 10
6.5126
 20
5.4237
 30
17.1424
 70
192
 0
VERTEX
 8
R_H3
 10
6.0651
 20
5.4237
 30
17.1895
 70
192
 0
VERTEX
 8
R_H3
 10
6.0651
 20
4.9237
 30
17.1895
 70
192
 0
VERTEX
 8
R_H3
 10
6.5126
 20
4.9237
 30
17.1424
 70
192
 0
VERTEX
 8
R_H3
 10
6.5691
 20
5.4237
 30
16.6048
 70
192
 0
VERTEX
 8
R_H3
 10
6.1411
 20
5.4237
 30
16.4658
 70
192
 0
VERTEX
 8
R_H3
 10
6.1411
 20
4.9237
 30
16.4658
 70
192
 0
VERTEX
 8
R_H3
 10
6.5691
 20
4.9237
 30
16.6048
 70
192
 0
VERTEX
 8
R_H3
 10
6.8394
 20
5.4237
 30
16.1367
 70
192
 0
VERTEX
 8
R_H3
 10
6.505
 20
5.4237
 30
15.8356
 70
192
 0
VERTEX
 8
R_H3
 10
6.505
 20
4.9237
 30
15.8356
 70
192
 0
VERTEX
 8
R_H3
 10
6.8394
 20
4.9237
 30
16.1367
 70
192
 0
VERTEX
 8
R_H3
 10
7.2767
 20
5.4237
 30
15.8189
 70
192
 0
VERTEX
 8
R_H3
 10
7.0937
 20
5.4237
 30
15.4079
 70
192
 0
VERTEX
 8
R_H3
 10
7.0937
 20
4.9237
 30
15.4079
 70
192
 0
VERTEX
 8
R_H3
 10
7.2767
 20
4.9237
 30
15.8189
 70
192
 0
VERTEX
 8
R_H3
 10
0
 20
0
 30
0
 70
128
 71
1
 72
2
 73
6
 74
5
 0
VERTEX
 8
R_H3
 10
0
 20
0
 30
0
 70
128
 71
2
 72
3
 73
7
 74
6
 0
VERTEX
 8
R_H3
 10
0
 20
0
 30
0
 70
128
 71
3
 72
4
 73
8
 74
7
 0
VERTEX
 8
R_H3
 10
0
 20
0
 30
0
 70
128
 71
4
 72
1
 73
5
 74
8
 0
VERTEX
 8
R_H3
 10
0
 20
0
 30
0
 70
128
 71
5
 72
6
 73
10
 74
9
 0
VERTEX
 8
R_H3
 10
0
 20
0
 30
0
 70
128
 71
6
 72
7
 73
11
 74
10
 0
VERTEX
 8
R_H3
 10
0
 20
0
 30
0
 70
128
 71
7
 72
8
 73
12
 74
11
 0
VERTEX
 8
R_H3
 10
0
 20
0
 30
0
 70
128
 71
8
 72
5
 73
9
 74
12
 0
VERTEX
 8
R_H3
 10
0
 20
0
 30
0
 70
128
 71
9
 72
10
 73
14
 74
13
 0
VERTEX
 8
R_H3
 10
0
 20
0
 30
0
 70
128
 71
10
 72
11
 73
15
 74
14
 0
VERTEX
 8
R_H3
 10
0
 20
0
 30
0
 70
128
 71
11
 72
12
 73
16
 74
15
 0
VERTEX
 8
R_H3
 10
0
 20
0
 30
0
 70
128
 71
12
 72
9
 73
13
 74
16
 0
VERTEX
 8
R_H3
 10
0
 20
0
 30
0
 70
128
 71
13
 72
14
 73
18
 74
17
 0
VERTEX
 8
R_H3
 10
0
 20
0
 30
0
 70
128
 71
14
 72
15
 73
19
 74
18
 0
VERTEX
 8
R_H3
 10
0
 20
0
 30
0
 70
128
 71
15
 72
16
 73
20
 74
19
 0
VERTEX
 8
R_H3
 10
0
 20
0
 30
0
 70
128
 71
16
 72
13
 73
17
 74
20
 0
VERTEX
 8
R_H3
 10
0
 20
0
 30
0
 70
128
 71
17
 72
18
 73
22
 74
21
 0
VERTEX
 8
R_H3
 10
0
 20
0
 30
0
 70
128
 71
18
 72
19
 73
23
 74
22
 0
VERTEX
 8
R_H3
 10
0
 20
0
 30
0
 70
128
 71
19
 72
20
 73
24
 74
23
 0
VERTEX
 8
R_H3
 10
0
 20
0
 30
0
 70
128
 71
20
 72
17
 73
21
 74
24
 0
VERTEX
 8
R_H3
 10
0
 20
0
 30
0
 70
128
 71
21
 72
22
 73
25
 74
28
 0
VERTEX
 8
R_H3
 10
0
 20
0
 30
0
 70
128
 71
22
 72
23
 73
26
 74
25
 0
VERTEX
 8
R_H3
 10
0
 20
0
 30
0
 70
128
 71
23
 72
24
 73
27
 74
26
 0
VERTEX
 8
R_H3
 10
0
 20
0
 30
0
 70
128
 71
24
 72
21
 73
28
 74
27
 0
VERTEX
 8
R_H3
 10
0
 20
0
 30
0
 70
128
 71
28
 72
25
 73
29
 74
32
 0
VERTEX
 8
R_H3
 10
0
 20
0
 30
0
 70
128
 71
25
 72
26
 73
30
 74
29
 0
VERTEX
 8
R_H3
 10
0
 20
0
 30
0
 70
128
 71
26
 72
27
 73
31
 74
30
 0
VERTEX
 8
R_H3
 10
0
 20
0
 30
0
 70
128
 71
27
 72
28
 73
32
 74
31
 0
VERTEX
 8
R_H3
 10
0
 20
0
 30
0
 70
128
 71
32
 72
29
 73
33
 74
36
 0
VERTEX
 8
R_H3
 10
0
 20
0
 30
0
 70
128
 71
29
 72
30
 73
34
 74
33
 0
VERTEX
 8
R_H3
 10
0
 20
0
 30
0
 70
128
 71
30
 72
31
 73
35
 74
34
 0
VERTEX
 8
R_H3
 10
0
 20
0
 30
0
 70
128
 71
31
 72
32
 73
36
 74
35
 0
VERTEX
 8
R_H3
 10
0
 20
0
 30
0
 70
128
 71
36
 72
33
 73
37
 74
40
 0
VERTEX
 8
R_H3
 10
0
 20
0
 30
0
 70
128
 71
33
 72
34
 73
38
 74
37
 0
VERTEX
 8
R_H3
 10
0
 20
0
 30
0
 70
128
 71
34
 72
35
 73
39
 74
38
 0
VERTEX
 8
R_H3
 10
0
 20
0
 30
0
 70
128
 71
35
 72
36
 73
40
 74
39
 0
VERTEX
 8
R_H3
 10
0
 20
0
 30
0
 70
128
 71
40
 72
37
 73
42
 74
41
 0
VERTEX
 8
R_H3
 10
0
 20
0
 30
0
 70
128
 71
37
 72
38
 73
43
 74
42
 0
VERTEX
 8
R_H3
 10
0
 20
0
 30
0
 70
128
 71
38
 72
39
 73
44
 74
43
 0
VERTEX
 8
R_H3
 10
0
 20
0
 30
0
 70
128
 71
39
 72
40
 73
41
 74
44
 0
VERTEX
 8
R_H3
 10
0
 20
0
 30
0
 70
128
 71
41
 72
42
 73
46
 74
45
 0
VERTEX
 8
R_H3
 10
0
 20
0
 30
0
 70
128
 71
42
 72
43
 73
47
 74
46
 0
VERTEX
 8
R_H3
 10
0
 20
0
 30
0
 70
128
 71
43
 72
44
 73
48
 74
47
 0
VERTEX
 8
R_H3
 10
0
 20
0
 30
0
 70
128
 71
44
 72
41
 73
45
 74
48
 0
VERTEX
 8
R_H3
 10
0
 20
0
 30
0
 70
128
 71
45
 72
46
 73
50
 74
49
 0
VERTEX
 8
R_H3
 10
0
 20
0
 30
0
 70
128
 71
46
 72
47
 73
51
 74
50
 0
VERTEX
 8
R_H3
 10
0
 20
0
 30
0
 70
128
 71
47
 72
48
 73
52
 74
51
 0
VERTEX
 8
R_H3
 10
0
 20
0
 30
0
 70
128
 71
48
 72
45
 73
49
 74
52
 0
VERTEX
 8
R_H3
 10
0
 20
0
 30
0
 70
128
 71
49
 72
50
 73
54
 74
53
 0
VERTEX
 8
R_H3
 10
0
 20
0
 30
0
 70
128
 71
50
 72
51
 73
55
 74
54
 0
VERTEX
 8
R_H3
 10
0
 20
0
 30
0
 70
128
 71
51
 72
52
 73
56
 74
55
 0
VERTEX
 8
R_H3
 10
0
 20
0
 30
0
 70
128
 71
52
 72
49
 73
53
 74
56
 0
VERTEX
 8
R_H3
 10
0
 20
0
 30
0
 70
128
 71
53
 72
54
 73
58
 74
57
 0
VERTEX
 8
R_H3
 10
0
 20
0
 30
0
 70
128
 71
54
 72
55
 73
59
 74
58
 0
VERTEX
 8
R_H3
 10
0
 20
0
 30
0
 70
128
 71
55
 72
56
 73
60
 74
59
 0
VERTEX
 8
R_H3
 10
0
 20
0
 30
0
 70
128
 71
56
 72
53
 73
57
 74
60
 0
VERTEX
 8
R_H3
 10
0
 20
0
 30
0
 70
128
 71
57
 72
58
 73
2
 74
1
 0
VERTEX
 8
R_H3
 10
0
 20
0
 30
0
 70
128
 71
58
 72
59
 73
3
 74
2
 0
VERTEX
 8
R_H3
 10
0
 20
0
 30
0
 70
128
 71
59
 72
60
 73
4
 74
3
 0
VERTEX
 8
R_H3
 10
0
 20
0
 30
0
 70
128
 71
60
 72
57
 73
1
 74
4
 0
SEQEND
 0
POLYLINE
 8
ZYLINDE1
 66
1
 10
0.0
 20
0.0
 30
0.0
 70
64
 71
30
 72
15
 0
VERTEX
 8
ZYLINDE1
 10
7.802
 20
5.7452
 30
15.7068
 70
192
 0
VERTEX
 8
ZYLINDE1
 10
7.802
 20
1.7452
 30
15.7068
 70
192
 0
VERTEX
 8
ZYLINDE1
 10
8.3308
 20
5.7452
 30
15.8192
 70
192
 0
VERTEX
 8
ZYLINDE1
 10
8.3308
 20
1.7452
 30
15.8192
 70
192
 0
VERTEX
 8
ZYLINDE1
 10
8.7681
 20
5.7452
 30
16.137
 70
192
 0
VERTEX
 8
ZYLINDE1
 10
8.7681
 20
1.7452
 30
16.137
 70
192
 0
VERTEX
 8
ZYLINDE1
 10
9.0384
 20
5.7452
 30
16.6051
 70
192
 0
VERTEX
 8
ZYLINDE1
 10
9.0384
 20
1.7452
 30
16.6051
 70
192
 0
VERTEX
 8
ZYLINDE1
 10
9.0949
 20
5.7452
 30
17.1427
 70
192
 0
VERTEX
 8
ZYLINDE1
 10
9.0949
 20
1.7452
 30
17.1427
 70
192
 0
VERTEX
 8
ZYLINDE1
 10
8.9278
 20
5.7452
 30
17.6568
 70
192
 0
VERTEX
 8
ZYLINDE1
 10
8.9278
 20
1.7452
 30
17.6568
 70
192
 0
VERTEX
 8
ZYLINDE1
 10
8.5661
 20
5.7452
 30
18.0585
 70
192
 0
VERTEX
 8
ZYLINDE1
 10
8.5661
 20
1.7452
 30
18.0585
 70
192
 0
VERTEX
 8
ZYLINDE1
 10
8.0723
 20
5.7452
 30
18.2784
 70
192
 0
VERTEX
 8
ZYLINDE1
 10
8.0723
 20
1.7452
 30
18.2784
 70
192
 0
VERTEX
 8
ZYLINDE1
 10
7.5317
 20
5.7452
 30
18.2784
 70
192
 0
VERTEX
 8
ZYLINDE1
 10
7.5317
 20
1.7452
 30
18.2784
 70
192
 0
VERTEX
 8
ZYLINDE1
 10
7.0379
 20
5.7452
 30
18.0585
 70
192
 0
VERTEX
 8
ZYLINDE1
 10
7.0379
 20
1.7452
 30
18.0585
 70
192
 0
VERTEX
 8
ZYLINDE1
 10
6.6762
 20
5.7452
 30
17.6568
 70
192
 0
VERTEX
 8
ZYLINDE1
 10
6.6762
 20
1.7452
 30
17.6568
 70
192
 0
VERTEX
 8
ZYLINDE1
 10
6.5091
 20
5.7452
 30
17.1427
 70
192
 0
VERTEX
 8
ZYLINDE1
 10
6.5091
 20
1.7452
 30
17.1427
 70
192
 0
VERTEX
 8
ZYLINDE1
 10
6.5656
 20
5.7452
 30
16.6051
 70
192
 0
VERTEX
 8
ZYLINDE1
 10
6.5656
 20
1.7452
 30
16.6051
 70
192
 0
VERTEX
 8
ZYLINDE1
 10
6.8359
 20
5.7452
 30
16.137
 70
192
 0
VERTEX
 8
ZYLINDE1
 10
6.8359
 20
1.7452
 30
16.137
 70
192
 0
VERTEX
 8
ZYLINDE1
 10
7.2732
 20
5.7452
 30
15.8192
 70
192
 0
VERTEX
 8
ZYLINDE1
 10
7.2732
 20
1.7452
 30
15.8192
 70
192
 0
VERTEX
 8
ZYLINDE1
 10
0
 20
0
 30
0
 70
128
 71
1
 72
2
 73
4
 74
3
 0
VERTEX
 8
ZYLINDE1
 10
0
 20
0
 30
0
 70
128
 71
3
 72
4
 73
6
 74
5
 0
VERTEX
 8
ZYLINDE1
 10
0
 20
0
 30
0
 70
128
 71
5
 72
6
 73
8
 74
7
 0
VERTEX
 8
ZYLINDE1
 10
0
 20
0
 30
0
 70
128
 71
7
 72
8
 73
10
 74
9
 0
VERTEX
 8
ZYLINDE1
 10
0
 20
0
 30
0
 70
128
 71
9
 72
10
 73
12
 74
11
 0
VERTEX
 8
ZYLINDE1
 10
0
 20
0
 30
0
 70
128
 71
11
 72
12
 73
14
 74
13
 0
VERTEX
 8
ZYLINDE1
 10
0
 20
0
 30
0
 70
128
 71
13
 72
14
 73
16
 74
15
 0
VERTEX
 8
ZYLINDE1
 10
0
 20
0
 30
0
 70
128
 71
15
 72
16
 73
18
 74
17
 0
VERTEX
 8
ZYLINDE1
 10
0
 20
0
 30
0
 70
128
 71
17
 72
18
 73
20
 74
19
 0
VERTEX
 8
ZYLINDE1
 10
0
 20
0
 30
0
 70
128
 71
19
 72
20
 73
22
 74
21
 0
VERTEX
 8
ZYLINDE1
 10
0
 20
0
 30
0
 70
128
 71
21
 72
22
 73
24
 74
23
 0
VERTEX
 8
ZYLINDE1
 10
0
 20
0
 30
0
 70
128
 71
23
 72
24
 73
26
 74
25
 0
VERTEX
 8
ZYLINDE1
 10
0
 20
0
 30
0
 70
128
 71
25
 72
26
 73
28
 74
27
 0
VERTEX
 8
ZYLINDE1
 10
0
 20
0
 30
0
 70
128
 71
27
 72
28
 73
30
 74
29
 0
VERTEX
 8
ZYLINDE1
 10
0
 20
0
 30
0
 70
128
 71
29
 72
30
 73
2
 74
1
 0
SEQEND
 0
POLYLINE
 8
ROSETT2
 66
1
 10
0.0
 20
0.0
 30
0.0
 70
64
 71
33
 72
62
 0
VERTEX
 8
ROSETT2
 10
-9.3026
 20
5.5018
 30
14.3283
 70
192
 0
VERTEX
 8
ROSETT2
 10
-4.4826
 20
8.3618
 30
19.1482
 70
192
 0
VERTEX
 8
ROSETT2
 10
-4.724
 20
8.4265
 30
19.4907
 70
192
 0
VERTEX
 8
ROSETT2
 10
-5.1949
 20
8.4062
 30
19.7391
 70
192
 0
VERTEX
 8
ROSETT2
 10
-5.1949
 20
5.4574
 30
14.2451
 70
192
 0
VERTEX
 8
ROSETT2
 10
-5.296
 20
5.4323
 30
19.7411
 70
192
 0
VERTEX
 8
ROSETT2
 10
-4.724
 20
5.4371
 30
14.4935
 70
192
 0
VERTEX
 8
ROSETT2
 10
-4.9903
 20
5.5018
 30
19.6559
 70
192
 0
VERTEX
 8
ROSETT2
 10
-4.3995
 20
5.4574
 30
18.9436
 70
192
 0
VERTEX
 8
ROSETT2
 10
-9.098
 20
5.4574
 30
19.7391
 70
192
 0
VERTEX
 8
ROSETT2
 10
-9.645
 20
5.4371
 30
14.5696
 70
192
 0
VERTEX
 8
ROSETT2
 10
-9.8949
 20
5.4583
 30
15.0968
 70
192
 0
VERTEX
 8
ROSETT2
 10
-9.645
 20
8.4265
 30
19.4146
 70
192
 0
VERTEX
 8
ROSETT2
 10
-9.8934
 20
8.4062
 30
18.9436
 70
192
 0
VERTEX
 8
ROSETT2
 10
-4.6478
 20
8.4265
 30
14.5696
 70
192
 0
VERTEX
 8
ROSETT2
 10
-8.9969
 20
8.4313
 30
19.7411
 70
192
 0
VERTEX
 8
ROSETT2
 10
-9.8954
 20
5.4321
 30
18.8425
 70
192
 0
VERTEX
 8
ROSETT2
 10
-9.098
 20
8.4062
 30
14.2451
 70
192
 0
VERTEX
 8
ROSETT2
 10
-9.3026
 20
8.3618
 30
19.6559
 70
192
 0
VERTEX
 8
ROSETT2
 10
-4.4826
 20
5.5018
 30
14.836
 70
192
 0
VERTEX
 8
ROSETT2
 10
-4.3995
 20
8.4062
 30
15.0406
 70
192
 0
VERTEX
 8
ROSETT2
 10
-5.296
 20
8.4313
 30
14.2431
 70
192
 0
VERTEX
 8
ROSETT2
 10
-9.5689
 20
5.4371
 30
19.4907
 70
192
 0
VERTEX
 8
ROSETT2
 10
-4.3974
 20
5.4321
 30
15.1417
 70
192
 0
VERTEX
 8
ROSETT2
 10
-9.8954
 20
8.4315
 30
15.1417
 70
192
 0
VERTEX
 8
ROSETT2
 10
-9.8102
 20
5.5018
 30
19.1482
 70
192
 0
VERTEX
 8
ROSETT2
 10
-9.8102
 20
5.5018
 30
14.836
 70
192
 0
VERTEX
 8
ROSETT2
 10
-4.9903
 20
8.3618
 30
14.3283
 70
192
 0
VERTEX
 8
ROSETT2
 10
-8.9969
 20
5.4323
 30
14.2431
 70
192
 0
VERTEX
 8
ROSETT2
 10
-9.8102
 20
8.3618
 30
14.836
 70
192
 0
VERTEX
 8
ROSETT2
 10
-4.3974
 20
8.4315
 30
18.8425
 70
192
 0
VERTEX
 8
ROSETT2
 10
-9.5689
 20
8.4265
 30
14.4935
 70
192
 0
VERTEX
 8
ROSETT2
 10
-4.6478
 20
5.4371
 30
19.4146
 70
192
 0
VERTEX
 8
ROSETT2
 10
0
 20
0
 30
0
 70
128
 71
25
 72
14
 73
17
 74
17
 0
VERTEX
 8
ROSETT2
 10
0
 20
0
 30
0
 70
128
 71
31
 72
16
 73
25
 74
25
 0
VERTEX
 8
ROSETT2
 10
0
 20
0
 30
0
 70
128
 71
24
 72
9
 73
31
 74
31
 0
VERTEX
 8
ROSETT2
 10
0
 20
0
 30
0
 70
128
 71
11
 72
1
 73
32
 74
32
 0
VERTEX
 8
ROSETT2
 10
0
 20
0
 30
0
 70
128
 71
16
 72
4
 73
6
 74
6
 0
VERTEX
 8
ROSETT2
 10
0
 20
0
 30
0
 70
128
 71
22
 72
18
 73
29
 74
29
 0
VERTEX
 8
ROSETT2
 10
0
 20
0
 30
0
 70
128
 71
29
 72
24
 73
7
 74
7
 0
VERTEX
 8
ROSETT2
 10
0
 20
0
 30
0
 70
128
 71
24
 72
31
 73
21
 74
21
 0
VERTEX
 8
ROSETT2
 10
0
 20
0
 30
0
 70
128
 71
29
 72
7
 73
5
 74
5
 0
VERTEX
 8
ROSETT2
 10
0
 20
0
 30
0
 70
128
 71
17
 72
24
 73
29
 74
29
 0
VERTEX
 8
ROSETT2
 10
0
 20
0
 30
0
 70
128
 71
31
 72
9
 73
2
 74
2
 0
VERTEX
 8
ROSETT2
 10
0
 20
0
 30
0
 70
128
 71
18
 72
1
 73
29
 74
29
 0
VERTEX
 8
ROSETT2
 10
0
 20
0
 30
0
 70
128
 71
13
 72
19
 73
23
 74
23
 0
VERTEX
 8
ROSETT2
 10
0
 20
0
 30
0
 70
128
 71
12
 72
11
 73
27
 74
27
 0
VERTEX
 8
ROSETT2
 10
0
 20
0
 30
0
 70
128
 71
5
 72
28
 73
22
 74
22
 0
VERTEX
 8
ROSETT2
 10
0
 20
0
 30
0
 70
128
 71
25
 72
13
 73
14
 74
14
 0
VERTEX
 8
ROSETT2
 10
0
 20
0
 30
0
 70
128
 71
33
 72
3
 73
2
 74
2
 0
VERTEX
 8
ROSETT2
 10
0
 20
0
 30
0
 70
128
 71
19
 72
10
 73
23
 74
23
 0
VERTEX
 8
ROSETT2
 10
0
 20
0
 30
0
 70
128
 71
6
 72
17
 73
23
 74
23
 0
VERTEX
 8
ROSETT2
 10
0
 20
0
 30
0
 70
128
 71
9
 72
33
 73
2
 74
2
 0
VERTEX
 8
ROSETT2
 10
0
 20
0
 30
0
 70
128
 71
24
 72
20
 73
7
 74
7
 0
VERTEX
 8
ROSETT2
 10
0
 20
0
 30
0
 70
128
 71
29
 72
1
 73
11
 74
11
 0
VERTEX
 8
ROSETT2
 10
0
 20
0
 30
0
 70
128
 71
17
 72
29
 73
11
 74
11
 0
VERTEX
 8
ROSETT2
 10
0
 20
0
 30
0
 70
128
 71
1
 72
18
 73
32
 74
32
 0
VERTEX
 8
ROSETT2
 10
0
 20
0
 30
0
 70
128
 71
17
 72
11
 73
12
 74
12
 0
VERTEX
 8
ROSETT2
 10
0
 20
0
 30
0
 70
128
 71
6
 72
8
 73
33
 74
33
 0
VERTEX
 8
ROSETT2
 10
0
 20
0
 30
0
 70
128
 71
17
 72
6
 73
24
 74
24
 0
VERTEX
 8
ROSETT2
 10
0
 20
0
 30
0
 70
128
 71
4
 72
8
 73
6
 74
6
 0
VERTEX
 8
ROSETT2
 10
0
 20
0
 30
0
 70
128
 71
25
 72
17
 73
12
 74
12
 0
VERTEX
 8
ROSETT2
 10
0
 20
0
 30
0
 70
128
 71
25
 72
16
 73
13
 74
13
 0
VERTEX
 8
ROSETT2
 10
0
 20
0
 30
0
 70
128
 71
10
 72
19
 73
16
 74
16
 0
VERTEX
 8
ROSETT2
 10
0
 20
0
 30
0
 70
128
 71
15
 72
28
 73
7
 74
7
 0
VERTEX
 8
ROSETT2
 10
0
 20
0
 30
0
 70
128
 71
32
 72
25
 73
30
 74
30
 0
VERTEX
 8
ROSETT2
 10
0
 20
0
 30
0
 70
128
 71
6
 72
23
 73
10
 74
10
 0
VERTEX
 8
ROSETT2
 10
0
 20
0
 30
0
 70
128
 71
22
 72
29
 73
5
 74
5
 0
VERTEX
 8
ROSETT2
 10
0
 20
0
 30
0
 70
128
 71
25
 72
12
 73
30
 74
30
 0
VERTEX
 8
ROSETT2
 10
0
 20
0
 30
0
 70
128
 71
16
 72
6
 73
10
 74
10
 0
VERTEX
 8
ROSETT2
 10
0
 20
0
 30
0
 70
128
 71
31
 72
2
 73
3
 74
3
 0
VERTEX
 8
ROSETT2
 10
0
 20
0
 30
0
 70
128
 71
24
 72
6
 73
33
 74
33
 0
VERTEX
 8
ROSETT2
 10
0
 20
0
 30
0
 70
128
 71
24
 72
21
 73
20
 74
20
 0
VERTEX
 8
ROSETT2
 10
0
 20
0
 30
0
 70
128
 71
24
 72
33
 73
9
 74
9
 0
VERTEX
 8
ROSETT2
 10
0
 20
0
 30
0
 70
128
 71
15
 72
7
 73
20
 74
20
 0
VERTEX
 8
ROSETT2
 10
0
 20
0
 30
0
 70
128
 71
22
 72
25
 73
32
 74
32
 0
VERTEX
 8
ROSETT2
 10
0
 20
0
 30
0
 70
128
 71
33
 72
8
 73
3
 74
3
 0
VERTEX
 8
ROSETT2
 10
0
 20
0
 30
0
 70
128
 71
22
 72
32
 73
18
 74
18
 0
VERTEX
 8
ROSETT2
 10
0
 20
0
 30
0
 70
128
 71
17
 72
14
 73
26
 74
26
 0
VERTEX
 8
ROSETT2
 10
0
 20
0
 30
0
 70
128
 71
12
 72
27
 73
30
 74
30
 0
VERTEX
 8
ROSETT2
 10
0
 20
0
 30
0
 70
128
 71
16
 72
19
 73
13
 74
13
 0
VERTEX
 8
ROSETT2
 10
0
 20
0
 30
0
 70
128
 71
8
 72
4
 73
3
 74
3
 0
VERTEX
 8
ROSETT2
 10
0
 20
0
 30
0
 70
128
 71
16
 72
3
 73
4
 74
4
 0
VERTEX
 8
ROSETT2
 10
0
 20
0
 30
0
 70
128
 71
17
 72
26
 73
23
 74
23
 0
VERTEX
 8
ROSETT2
 10
0
 20
0
 30
0
 70
128
 71
15
 72
22
 73
28
 74
28
 0
VERTEX
 8
ROSETT2
 10
0
 20
0
 30
0
 70
128
 71
11
 72
32
 73
30
 74
30
 0
VERTEX
 8
ROSETT2
 10
0
 20
0
 30
0
 70
128
 71
28
 72
5
 73
7
 74
7
 0
VERTEX
 8
ROSETT2
 10
0
 20
0
 30
0
 70
128
 71
16
 72
31
 73
3
 74
3
 0
VERTEX
 8
ROSETT2
 10
0
 20
0
 30
0
 70
128
 71
27
 72
11
 73
30
 74
30
 0
VERTEX
 8
ROSETT2
 10
0
 20
0
 30
0
 70
128
 71
21
 72
15
 73
20
 74
20
 0
VERTEX
 8
ROSETT2
 10
0
 20
0
 30
0
 70
128
 71
13
 72
23
 73
26
 74
26
 0
VERTEX
 8
ROSETT2
 10
0
 20
0
 30
0
 70
128
 71
31
 72
22
 73
15
 74
15
 0
VERTEX
 8
ROSETT2
 10
0
 20
0
 30
0
 70
128
 71
31
 72
25
 73
22
 74
22
 0
VERTEX
 8
ROSETT2
 10
0
 20
0
 30
0
 70
128
 71
31
 72
15
 73
21
 74
21
 0
VERTEX
 8
ROSETT2
 10
0
 20
0
 30
0
 70
128
 71
14
 72
13
 73
26
 74
26
 0
SEQEND
 0
POLYLINE
 8
R_H4
 66
1
 10
0.0
 20
0.0
 30
0.0
 70
64
 71
60
 72
60
 0
VERTEX
 8
R_H4
 10
-7.1425
 20
5.4237
 30
15.7066
 70
192
 0
VERTEX
 8
R_H4
 10
-7.1425
 20
5.4237
 30
15.2566
 70
192
 0
VERTEX
 8
R_H4
 10
-7.1425
 20
4.9237
 30
15.2566
 70
192
 0
VERTEX
 8
R_H4
 10
-7.1425
 20
4.9237
 30
15.7066
 70
192
 0
VERTEX
 8
R_H4
 10
-6.6138
 20
5.4237
 30
15.8189
 70
192
 0
VERTEX
 8
R_H4
 10
-6.4307
 20
5.4237
 30
15.4079
 70
192
 0
VERTEX
 8
R_H4
 10
-6.4307
 20
4.9237
 30
15.4079
 70
192
 0
VERTEX
 8
R_H4
 10
-6.6138
 20
4.9237
 30
15.8189
 70
192
 0
VERTEX
 8
R_H4
 10
-6.1764
 20
5.4237
 30
16.1367
 70
192
 0
VERTEX
 8
R_H4
 10
-5.842
 20
5.4237
 30
15.8356
 70
192
 0
VERTEX
 8
R_H4
 10
-5.842
 20
4.9237
 30
15.8356
 70
192
 0
VERTEX
 8
R_H4
 10
-6.1764
 20
4.9237
 30
16.1367
 70
192
 0
VERTEX
 8
R_H4
 10
-5.9061
 20
5.4237
 30
16.6048
 70
192
 0
VERTEX
 8
R_H4
 10
-5.4782
 20
5.4237
 30
16.4658
 70
192
 0
VERTEX
 8
R_H4
 10
-5.4782
 20
4.9237
 30
16.4658
 70
192
 0
VERTEX
 8
R_H4
 10
-5.9061
 20
4.9237
 30
16.6048
 70
192
 0
VERTEX
 8
R_H4
 10
-5.8496
 20
5.4237
 30
17.1424
 70
192
 0
VERTEX
 8
R_H4
 10
-5.4021
 20
5.4237
 30
17.1895
 70
192
 0
VERTEX
 8
R_H4
 10
-5.4021
 20
4.9237
 30
17.1895
 70
192
 0
VERTEX
 8
R_H4
 10
-5.8496
 20
4.9237
 30
17.1424
 70
192
 0
VERTEX
 8
R_H4
 10
-6.0167
 20
5.4237
 30
17.6566
 70
192
 0
VERTEX
 8
R_H4
 10
-5.627
 20
5.4237
 30
17.8816
 70
192
 0
VERTEX
 8
R_H4
 10
-5.627
 20
4.9237
 30
17.8816
 70
192
 0
VERTEX
 8
R_H4
 10
-6.0167
 20
4.9237
 30
17.6566
 70
192
 0
VERTEX
 8
R_H4
 10
-6.1139
 20
5.4237
 30
18.4223
 70
192
 0
VERTEX
 8
R_H4
 10
-6.1139
 20
4.9237
 30
18.4223
 70
192
 0
VERTEX
 8
R_H4
 10
-6.3784
 20
4.9237
 30
18.0583
 70
192
 0
VERTEX
 8
R_H4
 10
-6.3784
 20
5.4237
 30
18.0583
 70
192
 0
VERTEX
 8
R_H4
 10
-6.7787
 20
5.4237
 30
18.7183
 70
192
 0
VERTEX
 8
R_H4
 10
-6.7787
 20
4.9237
 30
18.7183
 70
192
 0
VERTEX
 8
R_H4
 10
-6.8722
 20
4.9237
 30
18.2781
 70
192
 0
VERTEX
 8
R_H4
 10
-6.8722
 20
5.4237
 30
18.2781
 70
192
 0
VERTEX
 8
R_H4
 10
-7.5064
 20
5.4237
 30
18.7183
 70
192
 0
VERTEX
 8
R_H4
 10
-7.5064
 20
4.9237
 30
18.7183
 70
192
 0
VERTEX
 8
R_H4
 10
-7.4128
 20
4.9237
 30
18.2781
 70
192
 0
VERTEX
 8
R_H4
 10
-7.4128
 20
5.4237
 30
18.2781
 70
192
 0
VERTEX
 8
R_H4
 10
-8.1711
 20
5.4237
 30
18.4223
 70
192
 0
VERTEX
 8
R_H4
 10
-8.1711
 20
4.9237
 30
18.4223
 70
192
 0
VERTEX
 8
R_H4
 10
-7.9066
 20
4.9237
 30
18.0583
 70
192
 0
VERTEX
 8
R_H4
 10
-7.9066
 20
5.4237
 30
18.0583
 70
192
 0
VERTEX
 8
R_H4
 10
-8.2683
 20
5.4237
 30
17.6566
 70
192
 0
VERTEX
 8
R_H4
 10
-8.6581
 20
5.4237
 30
17.8816
 70
192
 0
VERTEX
 8
R_H4
 10
-8.6581
 20
4.9237
 30
17.8816
 70
192
 0
VERTEX
 8
R_H4
 10
-8.2683
 20
4.9237
 30
17.6566
 70
192
 0
VERTEX
 8
R_H4
 10
-8.4354
 20
5.4237
 30
17.1424
 70
192
 0
VERTEX
 8
R_H4
 10
-8.8829
 20
5.4237
 30
17.1895
 70
192
 0
VERTEX
 8
R_H4
 10
-8.8829
 20
4.9237
 30
17.1895
 70
192
 0
VERTEX
 8
R_H4
 10
-8.4354
 20
4.9237
 30
17.1424
 70
192
 0
VERTEX
 8
R_H4
 10
-8.3789
 20
5.4237
 30
16.6048
 70
192
 0
VERTEX
 8
R_H4
 10
-8.8069
 20
5.4237
 30
16.4658
 70
192
 0
VERTEX
 8
R_H4
 10
-8.8069
 20
4.9237
 30
16.4658
 70
192
 0
VERTEX
 8
R_H4
 10
-8.3789
 20
4.9237
 30
16.6048
 70
192
 0
VERTEX
 8
R_H4
 10
-8.1086
 20
5.4237
 30
16.1367
 70
192
 0
VERTEX
 8
R_H4
 10
-8.443
 20
5.4237
 30
15.8356
 70
192
 0
VERTEX
 8
R_H4
 10
-8.443
 20
4.9237
 30
15.8356
 70
192
 0
VERTEX
 8
R_H4
 10
-8.1086
 20
4.9237
 30
16.1367
 70
192
 0
VERTEX
 8
R_H4
 10
-7.6713
 20
5.4237
 30
15.8189
 70
192
 0
VERTEX
 8
R_H4
 10
-7.8543
 20
5.4237
 30
15.4079
 70
192
 0
VERTEX
 8
R_H4
 10
-7.8543
 20
4.9237
 30
15.4079
 70
192
 0
VERTEX
 8
R_H4
 10
-7.6713
 20
4.9237
 30
15.8189
 70
192
 0
VERTEX
 8
R_H4
 10
0
 20
0
 30
0
 70
128
 71
1
 72
2
 73
6
 74
5
 0
VERTEX
 8
R_H4
 10
0
 20
0
 30
0
 70
128
 71
2
 72
3
 73
7
 74
6
 0
VERTEX
 8
R_H4
 10
0
 20
0
 30
0
 70
128
 71
3
 72
4
 73
8
 74
7
 0
VERTEX
 8
R_H4
 10
0
 20
0
 30
0
 70
128
 71
4
 72
1
 73
5
 74
8
 0
VERTEX
 8
R_H4
 10
0
 20
0
 30
0
 70
128
 71
5
 72
6
 73
10
 74
9
 0
VERTEX
 8
R_H4
 10
0
 20
0
 30
0
 70
128
 71
6
 72
7
 73
11
 74
10
 0
VERTEX
 8
R_H4
 10
0
 20
0
 30
0
 70
128
 71
7
 72
8
 73
12
 74
11
 0
VERTEX
 8
R_H4
 10
0
 20
0
 30
0
 70
128
 71
8
 72
5
 73
9
 74
12
 0
VERTEX
 8
R_H4
 10
0
 20
0
 30
0
 70
128
 71
9
 72
10
 73
14
 74
13
 0
VERTEX
 8
R_H4
 10
0
 20
0
 30
0
 70
128
 71
10
 72
11
 73
15
 74
14
 0
VERTEX
 8
R_H4
 10
0
 20
0
 30
0
 70
128
 71
11
 72
12
 73
16
 74
15
 0
VERTEX
 8
R_H4
 10
0
 20
0
 30
0
 70
128
 71
12
 72
9
 73
13
 74
16
 0
VERTEX
 8
R_H4
 10
0
 20
0
 30
0
 70
128
 71
13
 72
14
 73
18
 74
17
 0
VERTEX
 8
R_H4
 10
0
 20
0
 30
0
 70
128
 71
14
 72
15
 73
19
 74
18
 0
VERTEX
 8
R_H4
 10
0
 20
0
 30
0
 70
128
 71
15
 72
16
 73
20
 74
19
 0
VERTEX
 8
R_H4
 10
0
 20
0
 30
0
 70
128
 71
16
 72
13
 73
17
 74
20
 0
VERTEX
 8
R_H4
 10
0
 20
0
 30
0
 70
128
 71
17
 72
18
 73
22
 74
21
 0
VERTEX
 8
R_H4
 10
0
 20
0
 30
0
 70
128
 71
18
 72
19
 73
23
 74
22
 0
VERTEX
 8
R_H4
 10
0
 20
0
 30
0
 70
128
 71
19
 72
20
 73
24
 74
23
 0
VERTEX
 8
R_H4
 10
0
 20
0
 30
0
 70
128
 71
20
 72
17
 73
21
 74
24
 0
VERTEX
 8
R_H4
 10
0
 20
0
 30
0
 70
128
 71
21
 72
22
 73
25
 74
28
 0
VERTEX
 8
R_H4
 10
0
 20
0
 30
0
 70
128
 71
22
 72
23
 73
26
 74
25
 0
VERTEX
 8
R_H4
 10
0
 20
0
 30
0
 70
128
 71
23
 72
24
 73
27
 74
26
 0
VERTEX
 8
R_H4
 10
0
 20
0
 30
0
 70
128
 71
24
 72
21
 73
28
 74
27
 0
VERTEX
 8
R_H4
 10
0
 20
0
 30
0
 70
128
 71
28
 72
25
 73
29
 74
32
 0
VERTEX
 8
R_H4
 10
0
 20
0
 30
0
 70
128
 71
25
 72
26
 73
30
 74
29
 0
VERTEX
 8
R_H4
 10
0
 20
0
 30
0
 70
128
 71
26
 72
27
 73
31
 74
30
 0
VERTEX
 8
R_H4
 10
0
 20
0
 30
0
 70
128
 71
27
 72
28
 73
32
 74
31
 0
VERTEX
 8
R_H4
 10
0
 20
0
 30
0
 70
128
 71
32
 72
29
 73
33
 74
36
 0
VERTEX
 8
R_H4
 10
0
 20
0
 30
0
 70
128
 71
29
 72
30
 73
34
 74
33
 0
VERTEX
 8
R_H4
 10
0
 20
0
 30
0
 70
128
 71
30
 72
31
 73
35
 74
34
 0
VERTEX
 8
R_H4
 10
0
 20
0
 30
0
 70
128
 71
31
 72
32
 73
36
 74
35
 0
VERTEX
 8
R_H4
 10
0
 20
0
 30
0
 70
128
 71
36
 72
33
 73
37
 74
40
 0
VERTEX
 8
R_H4
 10
0
 20
0
 30
0
 70
128
 71
33
 72
34
 73
38
 74
37
 0
VERTEX
 8
R_H4
 10
0
 20
0
 30
0
 70
128
 71
34
 72
35
 73
39
 74
38
 0
VERTEX
 8
R_H4
 10
0
 20
0
 30
0
 70
128
 71
35
 72
36
 73
40
 74
39
 0
VERTEX
 8
R_H4
 10
0
 20
0
 30
0
 70
128
 71
40
 72
37
 73
42
 74
41
 0
VERTEX
 8
R_H4
 10
0
 20
0
 30
0
 70
128
 71
37
 72
38
 73
43
 74
42
 0
VERTEX
 8
R_H4
 10
0
 20
0
 30
0
 70
128
 71
38
 72
39
 73
44
 74
43
 0
VERTEX
 8
R_H4
 10
0
 20
0
 30
0
 70
128
 71
39
 72
40
 73
41
 74
44
 0
VERTEX
 8
R_H4
 10
0
 20
0
 30
0
 70
128
 71
41
 72
42
 73
46
 74
45
 0
VERTEX
 8
R_H4
 10
0
 20
0
 30
0
 70
128
 71
42
 72
43
 73
47
 74
46
 0
VERTEX
 8
R_H4
 10
0
 20
0
 30
0
 70
128
 71
43
 72
44
 73
48
 74
47
 0
VERTEX
 8
R_H4
 10
0
 20
0
 30
0
 70
128
 71
44
 72
41
 73
45
 74
48
 0
VERTEX
 8
R_H4
 10
0
 20
0
 30
0
 70
128
 71
45
 72
46
 73
50
 74
49
 0
VERTEX
 8
R_H4
 10
0
 20
0
 30
0
 70
128
 71
46
 72
47
 73
51
 74
50
 0
VERTEX
 8
R_H4
 10
0
 20
0
 30
0
 70
128
 71
47
 72
48
 73
52
 74
51
 0
VERTEX
 8
R_H4
 10
0
 20
0
 30
0
 70
128
 71
48
 72
45
 73
49
 74
52
 0
VERTEX
 8
R_H4
 10
0
 20
0
 30
0
 70
128
 71
49
 72
50
 73
54
 74
53
 0
VERTEX
 8
R_H4
 10
0
 20
0
 30
0
 70
128
 71
50
 72
51
 73
55
 74
54
 0
VERTEX
 8
R_H4
 10
0
 20
0
 30
0
 70
128
 71
51
 72
52
 73
56
 74
55
 0
VERTEX
 8
R_H4
 10
0
 20
0
 30
0
 70
128
 71
52
 72
49
 73
53
 74
56
 0
VERTEX
 8
R_H4
 10
0
 20
0
 30
0
 70
128
 71
53
 72
54
 73
58
 74
57
 0
VERTEX
 8
R_H4
 10
0
 20
0
 30
0
 70
128
 71
54
 72
55
 73
59
 74
58
 0
VERTEX
 8
R_H4
 10
0
 20
0
 30
0
 70
128
 71
55
 72
56
 73
60
 74
59
 0
VERTEX
 8
R_H4
 10
0
 20
0
 30
0
 70
128
 71
56
 72
53
 73
57
 74
60
 0
VERTEX
 8
R_H4
 10
0
 20
0
 30
0
 70
128
 71
57
 72
58
 73
2
 74
1
 0
VERTEX
 8
R_H4
 10
0
 20
0
 30
0
 70
128
 71
58
 72
59
 73
3
 74
2
 0
VERTEX
 8
R_H4
 10
0
 20
0
 30
0
 70
128
 71
59
 72
60
 73
4
 74
3
 0
VERTEX
 8
R_H4
 10
0
 20
0
 30
0
 70
128
 71
60
 72
57
 73
1
 74
4
 0
SEQEND
 0
POLYLINE
 8
ZYLINDE2
 66
1
 10
0.0
 20
0.0
 30
0.0
 70
64
 71
30
 72
15
 0
VERTEX
 8
ZYLINDE2
 10
-7.146
 20
5.7452
 30
15.7068
 70
192
 0
VERTEX
 8
ZYLINDE2
 10
-7.146
 20
1.7452
 30
15.7068
 70
192
 0
VERTEX
 8
ZYLINDE2
 10
-6.6172
 20
5.7452
 30
15.8192
 70
192
 0
VERTEX
 8
ZYLINDE2
 10
-6.6172
 20
1.7452
 30
15.8192
 70
192
 0
VERTEX
 8
ZYLINDE2
 10
-6.1799
 20
5.7452
 30
16.137
 70
192
 0
VERTEX
 8
ZYLINDE2
 10
-6.1799
 20
1.7452
 30
16.137
 70
192
 0
VERTEX
 8
ZYLINDE2
 10
-5.9096
 20
5.7452
 30
16.6051
 70
192
 0
VERTEX
 8
ZYLINDE2
 10
-5.9096
 20
1.7452
 30
16.6051
 70
192
 0
VERTEX
 8
ZYLINDE2
 10
-5.8531
 20
5.7452
 30
17.1427
 70
192
 0
VERTEX
 8
ZYLINDE2
 10
-5.8531
 20
1.7452
 30
17.1427
 70
192
 0
VERTEX
 8
ZYLINDE2
 10
-6.0202
 20
5.7452
 30
17.6568
 70
192
 0
VERTEX
 8
ZYLINDE2
 10
-6.0202
 20
1.7452
 30
17.6568
 70
192
 0
VERTEX
 8
ZYLINDE2
 10
-6.3819
 20
5.7452
 30
18.0585
 70
192
 0
VERTEX
 8
ZYLINDE2
 10
-6.3819
 20
1.7452
 30
18.0585
 70
192
 0
VERTEX
 8
ZYLINDE2
 10
-6.8757
 20
5.7452
 30
18.2784
 70
192
 0
VERTEX
 8
ZYLINDE2
 10
-6.8757
 20
1.7452
 30
18.2784
 70
192
 0
VERTEX
 8
ZYLINDE2
 10
-7.4163
 20
5.7452
 30
18.2784
 70
192
 0
VERTEX
 8
ZYLINDE2
 10
-7.4163
 20
1.7452
 30
18.2784
 70
192
 0
VERTEX
 8
ZYLINDE2
 10
-7.9101
 20
5.7452
 30
18.0585
 70
192
 0
VERTEX
 8
ZYLINDE2
 10
-7.9101
 20
1.7452
 30
18.0585
 70
192
 0
VERTEX
 8
ZYLINDE2
 10
-8.2718
 20
5.7452
 30
17.6568
 70
192
 0
VERTEX
 8
ZYLINDE2
 10
-8.2718
 20
1.7452
 30
17.6568
 70
192
 0
VERTEX
 8
ZYLINDE2
 10
-8.4389
 20
5.7452
 30
17.1427
 70
192
 0
VERTEX
 8
ZYLINDE2
 10
-8.4389
 20
1.7452
 30
17.1427
 70
192
 0
VERTEX
 8
ZYLINDE2
 10
-8.3824
 20
5.7452
 30
16.6051
 70
192
 0
VERTEX
 8
ZYLINDE2
 10
-8.3824
 20
1.7452
 30
16.6051
 70
192
 0
VERTEX
 8
ZYLINDE2
 10
-8.1121
 20
5.7452
 30
16.137
 70
192
 0
VERTEX
 8
ZYLINDE2
 10
-8.1121
 20
1.7452
 30
16.137
 70
192
 0
VERTEX
 8
ZYLINDE2
 10
-7.6747
 20
5.7452
 30
15.8192
 70
192
 0
VERTEX
 8
ZYLINDE2
 10
-7.6747
 20
1.7452
 30
15.8192
 70
192
 0
VERTEX
 8
ZYLINDE2
 10
0
 20
0
 30
0
 70
128
 71
1
 72
2
 73
4
 74
3
 0
VERTEX
 8
ZYLINDE2
 10
0
 20
0
 30
0
 70
128
 71
3
 72
4
 73
6
 74
5
 0
VERTEX
 8
ZYLINDE2
 10
0
 20
0
 30
0
 70
128
 71
5
 72
6
 73
8
 74
7
 0
VERTEX
 8
ZYLINDE2
 10
0
 20
0
 30
0
 70
128
 71
7
 72
8
 73
10
 74
9
 0
VERTEX
 8
ZYLINDE2
 10
0
 20
0
 30
0
 70
128
 71
9
 72
10
 73
12
 74
11
 0
VERTEX
 8
ZYLINDE2
 10
0
 20
0
 30
0
 70
128
 71
11
 72
12
 73
14
 74
13
 0
VERTEX
 8
ZYLINDE2
 10
0
 20
0
 30
0
 70
128
 71
13
 72
14
 73
16
 74
15
 0
VERTEX
 8
ZYLINDE2
 10
0
 20
0
 30
0
 70
128
 71
15
 72
16
 73
18
 74
17
 0
VERTEX
 8
ZYLINDE2
 10
0
 20
0
 30
0
 70
128
 71
17
 72
18
 73
20
 74
19
 0
VERTEX
 8
ZYLINDE2
 10
0
 20
0
 30
0
 70
128
 71
19
 72
20
 73
22
 74
21
 0
VERTEX
 8
ZYLINDE2
 10
0
 20
0
 30
0
 70
128
 71
21
 72
22
 73
24
 74
23
 0
VERTEX
 8
ZYLINDE2
 10
0
 20
0
 30
0
 70
128
 71
23
 72
24
 73
26
 74
25
 0
VERTEX
 8
ZYLINDE2
 10
0
 20
0
 30
0
 70
128
 71
25
 72
26
 73
28
 74
27
 0
VERTEX
 8
ZYLINDE2
 10
0
 20
0
 30
0
 70
128
 71
27
 72
28
 73
30
 74
29
 0
VERTEX
 8
ZYLINDE2
 10
0
 20
0
 30
0
 70
128
 71
29
 72
30
 73
2
 74
1
 0
SEQEND
 0
POLYLINE
 8
K_RPE1
 66
1
 10
0.0
 20
0.0
 30
0.0
 70
64
 71
20
 72
36
 0
VERTEX
 8
K_RPE1
 10
14.3598
 20
1.9398
 30
15.8444
 70
192
 0
VERTEX
 8
K_RPE1
 10
14.3612
 20
-2.0006
 30
15.8893
 70
192
 0
VERTEX
 8
K_RPE1
 10
14.2756
 20
-1.9593
 30
15.586
 70
192
 0
VERTEX
 8
K_RPE1
 10
10.3628
 20
-2.0286
 30
18.9898
 70
192
 0
VERTEX
 8
K_RPE1
 10
13.5077
 20
1.9442
 30
18.9905
 70
192
 0
VERTEX
 8
K_RPE1
 10
10.3638
 20
-2.0286
 30
14.9933
 70
192
 0
VERTEX
 8
K_RPE1
 10
14.2756
 20
1.9007
 30
18.3982
 70
192
 0
VERTEX
 8
K_RPE1
 10
14.3612
 20
1.9419
 30
18.0949
 70
192
 0
VERTEX
 8
K_RPE1
 10
10.3638
 20
1.9699
 30
18.9909
 70
192
 0
VERTEX
 8
K_RPE1
 10
14.2472
 20
1.9707
 30
15.5257
 70
192
 0
VERTEX
 8
K_RPE1
 10
13.5596
 20
1.9384
 30
14.9938
 70
192
 0
VERTEX
 8
K_RPE1
 10
13.9705
 20
1.9641
 30
18.798
 70
192
 0
VERTEX
 8
K_RPE1
 10
13.5596
 20
-1.9971
 30
18.9904
 70
192
 0
VERTEX
 8
K_RPE1
 10
13.9705
 20
-2.0228
 30
15.1861
 70
192
 0
VERTEX
 8
K_RPE1
 10
10.3628
 20
1.9699
 30
14.9944
 70
192
 0
VERTEX
 8
K_RPE1
 10
14.035
 20
1.9265
 30
15.2433
 70
192
 0
VERTEX
 8
K_RPE1
 10
14.2472
 20
-2.0294
 30
18.4584
 70
192
 0
VERTEX
 8
K_RPE1
 10
14.3598
 20
-1.9985
 30
18.1398
 70
192
 0
VERTEX
 8
K_RPE1
 10
14.035
 20
-1.9852
 30
18.7409
 70
192
 0
VERTEX
 8
K_RPE1
 10
13.5077
 20
-2.0029
 30
14.9937
 70
192
 0
VERTEX
 8
K_RPE1
 10
0
 20
0
 30
0
 70
128
 71
15
 72
9
 73
4
 74
4
 0
VERTEX
 8
K_RPE1
 10
0
 20
0
 30
0
 70
128
 71
2
 72
1
 73
3
 74
3
 0
VERTEX
 8
K_RPE1
 10
0
 20
0
 30
0
 70
128
 71
2
 72
18
 73
8
 74
8
 0
VERTEX
 8
K_RPE1
 10
0
 20
0
 30
0
 70
128
 71
9
 72
10
 73
12
 74
12
 0
VERTEX
 8
K_RPE1
 10
0
 20
0
 30
0
 70
128
 71
9
 72
5
 73
13
 74
13
 0
VERTEX
 8
K_RPE1
 10
0
 20
0
 30
0
 70
128
 71
11
 72
15
 73
6
 74
6
 0
VERTEX
 8
K_RPE1
 10
0
 20
0
 30
0
 70
128
 71
6
 72
17
 73
14
 74
14
 0
VERTEX
 8
K_RPE1
 10
0
 20
0
 30
0
 70
128
 71
11
 72
16
 73
10
 74
10
 0
VERTEX
 8
K_RPE1
 10
0
 20
0
 30
0
 70
128
 71
10
 72
8
 73
12
 74
12
 0
VERTEX
 8
K_RPE1
 10
0
 20
0
 30
0
 70
128
 71
6
 72
14
 73
20
 74
20
 0
VERTEX
 8
K_RPE1
 10
0
 20
0
 30
0
 70
128
 71
2
 72
17
 73
18
 74
18
 0
VERTEX
 8
K_RPE1
 10
0
 20
0
 30
0
 70
128
 71
13
 72
5
 73
12
 74
12
 0
VERTEX
 8
K_RPE1
 10
0
 20
0
 30
0
 70
128
 71
8
 72
18
 73
7
 74
7
 0
VERTEX
 8
K_RPE1
 10
0
 20
0
 30
0
 70
128
 71
12
 72
19
 73
13
 74
13
 0
VERTEX
 8
K_RPE1
 10
0
 20
0
 30
0
 70
128
 71
7
 72
19
 73
12
 74
12
 0
VERTEX
 8
K_RPE1
 10
0
 20
0
 30
0
 70
128
 71
19
 72
17
 73
13
 74
13
 0
VERTEX
 8
K_RPE1
 10
0
 20
0
 30
0
 70
128
 71
14
 72
17
 73
2
 74
2
 0
VERTEX
 8
K_RPE1
 10
0
 20
0
 30
0
 70
128
 71
11
 72
20
 73
14
 74
14
 0
VERTEX
 8
K_RPE1
 10
0
 20
0
 30
0
 70
128
 71
3
 72
10
 73
16
 74
16
 0
VERTEX
 8
K_RPE1
 10
0
 20
0
 30
0
 70
128
 71
11
 72
6
 73
20
 74
20
 0
VERTEX
 8
K_RPE1
 10
0
 20
0
 30
0
 70
128
 71
4
 72
13
 73
17
 74
17
 0
VERTEX
 8
K_RPE1
 10
0
 20
0
 30
0
 70
128
 71
15
 72
10
 73
9
 74
9
 0
VERTEX
 8
K_RPE1
 10
0
 20
0
 30
0
 70
128
 71
2
 72
8
 73
1
 74
1
 0
VERTEX
 8
K_RPE1
 10
0
 20
0
 30
0
 70
128
 71
8
 72
7
 73
12
 74
12
 0
VERTEX
 8
K_RPE1
 10
0
 20
0
 30
0
 70
128
 71
3
 72
14
 73
2
 74
2
 0
VERTEX
 8
K_RPE1
 10
0
 20
0
 30
0
 70
128
 71
15
 72
11
 73
10
 74
10
 0
VERTEX
 8
K_RPE1
 10
0
 20
0
 30
0
 70
128
 71
9
 72
12
 73
5
 74
5
 0
VERTEX
 8
K_RPE1
 10
0
 20
0
 30
0
 70
128
 71
15
 72
4
 73
6
 74
6
 0
VERTEX
 8
K_RPE1
 10
0
 20
0
 30
0
 70
128
 71
7
 72
17
 73
19
 74
19
 0
VERTEX
 8
K_RPE1
 10
0
 20
0
 30
0
 70
128
 71
8
 72
10
 73
1
 74
1
 0
VERTEX
 8
K_RPE1
 10
0
 20
0
 30
0
 70
128
 71
9
 72
13
 73
4
 74
4
 0
VERTEX
 8
K_RPE1
 10
0
 20
0
 30
0
 70
128
 71
14
 72
16
 73
11
 74
11
 0
VERTEX
 8
K_RPE1
 10
0
 20
0
 30
0
 70
128
 71
4
 72
17
 73
6
 74
6
 0
VERTEX
 8
K_RPE1
 10
0
 20
0
 30
0
 70
128
 71
1
 72
10
 73
3
 74
3
 0
VERTEX
 8
K_RPE1
 10
0
 20
0
 30
0
 70
128
 71
18
 72
17
 73
7
 74
7
 0
VERTEX
 8
K_RPE1
 10
0
 20
0
 30
0
 70
128
 71
3
 72
16
 73
14
 74
14
 0
SEQEND
 0
POLYLINE
 8
ZYLINDE3
 66
1
 10
0.0
 20
0.0
 30
0.0
 70
64
 71
14
 72
18
 0
VERTEX
 8
ZYLINDE3
 10
12.8673
 20
-0.0296
 30
18.5596
 70
192
 0
VERTEX
 8
ZYLINDE3
 10
12.8673
 20
-0.0296
 30
19.5596
 70
192
 0
VERTEX
 8
ZYLINDE3
 10
12.8673
 20
-0.4096
 30
18.5596
 70
192
 0
VERTEX
 8
ZYLINDE3
 10
12.8673
 20
-0.4096
 30
19.5596
 70
192
 0
VERTEX
 8
ZYLINDE3
 10
13.1964
 20
-0.2196
 30
18.5596
 70
192
 0
VERTEX
 8
ZYLINDE3
 10
13.1964
 20
-0.2196
 30
19.5596
 70
192
 0
VERTEX
 8
ZYLINDE3
 10
13.1964
 20
0.1604
 30
18.5596
 70
192
 0
VERTEX
 8
ZYLINDE3
 10
13.1964
 20
0.1604
 30
19.5596
 70
192
 0
VERTEX
 8
ZYLINDE3
 10
12.8673
 20
0.3504
 30
18.5596
 70
192
 0
VERTEX
 8
ZYLINDE3
 10
12.8673
 20
0.3504
 30
19.5596
 70
192
 0
VERTEX
 8
ZYLINDE3
 10
12.5383
 20
0.1604
 30
18.5596
 70
192
 0
VERTEX
 8
ZYLINDE3
 10
12.5383
 20
0.1604
 30
19.5596
 70
192
 0
VERTEX
 8
ZYLINDE3
 10
12.5383
 20
-0.2196
 30
18.5596
 70
192
 0
VERTEX
 8
ZYLINDE3
 10
12.5383
 20
-0.2196
 30
19.5596
 70
192
 0
VERTEX
 8
ZYLINDE3
 10
0
 20
0
 30
0
 70
128
 71
1
 72
3
 73
5
 74
5
 0
VERTEX
 8
ZYLINDE3
 10
0
 20
0
 30
0
 70
128
 71
3
 72
4
 73
6
 74
5
 0
VERTEX
 8
ZYLINDE3
 10
0
 20
0
 30
0
 70
128
 71
4
 72
2
 73
6
 74
6
 0
VERTEX
 8
ZYLINDE3
 10
0
 20
0
 30
0
 70
128
 71
1
 72
5
 73
7
 74
7
 0
VERTEX
 8
ZYLINDE3
 10
0
 20
0
 30
0
 70
128
 71
5
 72
6
 73
8
 74
7
 0
VERTEX
 8
ZYLINDE3
 10
0
 20
0
 30
0
 70
128
 71
6
 72
2
 73
8
 74
8
 0
VERTEX
 8
ZYLINDE3
 10
0
 20
0
 30
0
 70
128
 71
1
 72
7
 73
9
 74
9
 0
VERTEX
 8
ZYLINDE3
 10
0
 20
0
 30
0
 70
128
 71
7
 72
8
 73
10
 74
9
 0
VERTEX
 8
ZYLINDE3
 10
0
 20
0
 30
0
 70
128
 71
8
 72
2
 73
10
 74
10
 0
VERTEX
 8
ZYLINDE3
 10
0
 20
0
 30
0
 70
128
 71
1
 72
9
 73
11
 74
11
 0
VERTEX
 8
ZYLINDE3
 10
0
 20
0
 30
0
 70
128
 71
9
 72
10
 73
12
 74
11
 0
VERTEX
 8
ZYLINDE3
 10
0
 20
0
 30
0
 70
128
 71
10
 72
2
 73
12
 74
12
 0
VERTEX
 8
ZYLINDE3
 10
0
 20
0
 30
0
 70
128
 71
1
 72
11
 73
13
 74
13
 0
VERTEX
 8
ZYLINDE3
 10
0
 20
0
 30
0
 70
128
 71
11
 72
12
 73
14
 74
13
 0
VERTEX
 8
ZYLINDE3
 10
0
 20
0
 30
0
 70
128
 71
12
 72
2
 73
14
 74
14
 0
VERTEX
 8
ZYLINDE3
 10
0
 20
0
 30
0
 70
128
 71
1
 72
13
 73
3
 74
3
 0
VERTEX
 8
ZYLINDE3
 10
0
 20
0
 30
0
 70
128
 71
13
 72
14
 73
4
 74
3
 0
VERTEX
 8
ZYLINDE3
 10
0
 20
0
 30
0
 70
128
 71
14
 72
2
 73
4
 74
4
 0
SEQEND
 0
POLYLINE
 8
K_RPE2
 66
1
 10
0.0
 20
0.0
 30
0.0
 70
64
 71
20
 72
36
 0
VERTEX
 8
K_RPE2
 10
-12.8727
 20
1.9384
 30
18.9904
 70
192
 0
VERTEX
 8
K_RPE2
 10
-13.2836
 20
-2.0228
 30
18.798
 70
192
 0
VERTEX
 8
K_RPE2
 10
-13.6729
 20
1.9398
 30
18.1398
 70
192
 0
VERTEX
 8
K_RPE2
 10
-13.6729
 20
-1.9985
 30
15.8444
 70
192
 0
VERTEX
 8
K_RPE2
 10
-13.5887
 20
-1.9593
 30
18.3982
 70
192
 0
VERTEX
 8
K_RPE2
 10
-13.2836
 20
1.9641
 30
15.1861
 70
192
 0
VERTEX
 8
K_RPE2
 10
-13.3481
 20
1.9266
 30
18.7409
 70
192
 0
VERTEX
 8
K_RPE2
 10
-9.676
 20
1.9699
 30
18.9898
 70
192
 0
VERTEX
 8
K_RPE2
 10
-13.6743
 20
1.9419
 30
15.8893
 70
192
 0
VERTEX
 8
K_RPE2
 10
-13.6743
 20
-2.0005
 30
18.0949
 70
192
 0
VERTEX
 8
K_RPE2
 10
-12.8208
 20
-2.0029
 30
18.9905
 70
192
 0
VERTEX
 8
K_RPE2
 10
-13.5603
 20
1.9707
 30
18.4584
 70
192
 0
VERTEX
 8
K_RPE2
 10
-9.676
 20
-2.0286
 30
14.9944
 70
192
 0
VERTEX
 8
K_RPE2
 10
-13.3481
 20
-1.9852
 30
15.2433
 70
192
 0
VERTEX
 8
K_RPE2
 10
-13.5603
 20
-2.0294
 30
15.5257
 70
192
 0
VERTEX
 8
K_RPE2
 10
-9.6769
 20
-2.0286
 30
18.9909
 70
192
 0
VERTEX
 8
K_RPE2
 10
-9.6769
 20
1.9699
 30
14.9933
 70
192
 0
VERTEX
 8
K_RPE2
 10
-12.8727
 20
-1.9971
 30
14.9938
 70
192
 0
VERTEX
 8
K_RPE2
 10
-13.5887
 20
1.9007
 30
15.586
 70
192
 0
VERTEX
 8
K_RPE2
 10
-12.8208
 20
1.9442
 30
14.9937
 70
192
 0
VERTEX
 8
K_RPE2
 10
0
 20
0
 30
0
 70
128
 71
9
 72
3
 73
10
 74
10
 0
VERTEX
 8
K_RPE2
 10
0
 20
0
 30
0
 70
128
 71
3
 72
9
 73
12
 74
12
 0
VERTEX
 8
K_RPE2
 10
0
 20
0
 30
0
 70
128
 71
13
 72
16
 73
8
 74
8
 0
VERTEX
 8
K_RPE2
 10
0
 20
0
 30
0
 70
128
 71
17
 72
12
 73
6
 74
6
 0
VERTEX
 8
K_RPE2
 10
0
 20
0
 30
0
 70
128
 71
1
 72
8
 73
16
 74
16
 0
VERTEX
 8
K_RPE2
 10
0
 20
0
 30
0
 70
128
 71
17
 72
20
 73
18
 74
18
 0
VERTEX
 8
K_RPE2
 10
0
 20
0
 30
0
 70
128
 71
13
 72
8
 73
17
 74
17
 0
VERTEX
 8
K_RPE2
 10
0
 20
0
 30
0
 70
128
 71
5
 72
12
 73
7
 74
7
 0
VERTEX
 8
K_RPE2
 10
0
 20
0
 30
0
 70
128
 71
16
 72
15
 73
2
 74
2
 0
VERTEX
 8
K_RPE2
 10
0
 20
0
 30
0
 70
128
 71
13
 72
18
 73
15
 74
15
 0
VERTEX
 8
K_RPE2
 10
0
 20
0
 30
0
 70
128
 71
16
 72
2
 73
11
 74
11
 0
VERTEX
 8
K_RPE2
 10
0
 20
0
 30
0
 70
128
 71
9
 72
19
 73
6
 74
6
 0
VERTEX
 8
K_RPE2
 10
0
 20
0
 30
0
 70
128
 71
6
 72
14
 73
18
 74
18
 0
VERTEX
 8
K_RPE2
 10
0
 20
0
 30
0
 70
128
 71
8
 72
1
 73
12
 74
12
 0
VERTEX
 8
K_RPE2
 10
0
 20
0
 30
0
 70
128
 71
9
 72
4
 73
19
 74
19
 0
VERTEX
 8
K_RPE2
 10
0
 20
0
 30
0
 70
128
 71
9
 72
10
 73
4
 74
4
 0
VERTEX
 8
K_RPE2
 10
0
 20
0
 30
0
 70
128
 71
8
 72
12
 73
17
 74
17
 0
VERTEX
 8
K_RPE2
 10
0
 20
0
 30
0
 70
128
 71
1
 72
7
 73
12
 74
12
 0
VERTEX
 8
K_RPE2
 10
0
 20
0
 30
0
 70
128
 71
5
 72
7
 73
2
 74
2
 0
VERTEX
 8
K_RPE2
 10
0
 20
0
 30
0
 70
128
 71
3
 72
12
 73
5
 74
5
 0
VERTEX
 8
K_RPE2
 10
0
 20
0
 30
0
 70
128
 71
4
 72
10
 73
15
 74
15
 0
VERTEX
 8
K_RPE2
 10
0
 20
0
 30
0
 70
128
 71
10
 72
3
 73
5
 74
5
 0
VERTEX
 8
K_RPE2
 10
0
 20
0
 30
0
 70
128
 71
14
 72
15
 73
18
 74
18
 0
VERTEX
 8
K_RPE2
 10
0
 20
0
 30
0
 70
128
 71
1
 72
11
 73
2
 74
2
 0
VERTEX
 8
K_RPE2
 10
0
 20
0
 30
0
 70
128
 71
17
 72
6
 73
20
 74
20
 0
VERTEX
 8
K_RPE2
 10
0
 20
0
 30
0
 70
128
 71
2
 72
7
 73
1
 74
1
 0
VERTEX
 8
K_RPE2
 10
0
 20
0
 30
0
 70
128
 71
12
 72
9
 73
6
 74
6
 0
VERTEX
 8
K_RPE2
 10
0
 20
0
 30
0
 70
128
 71
18
 72
20
 73
6
 74
6
 0
VERTEX
 8
K_RPE2
 10
0
 20
0
 30
0
 70
128
 71
19
 72
15
 73
14
 74
14
 0
VERTEX
 8
K_RPE2
 10
0
 20
0
 30
0
 70
128
 71
17
 72
18
 73
13
 74
13
 0
VERTEX
 8
K_RPE2
 10
0
 20
0
 30
0
 70
128
 71
2
 72
15
 73
10
 74
10
 0
VERTEX
 8
K_RPE2
 10
0
 20
0
 30
0
 70
128
 71
19
 72
14
 73
6
 74
6
 0
VERTEX
 8
K_RPE2
 10
0
 20
0
 30
0
 70
128
 71
5
 72
2
 73
10
 74
10
 0
VERTEX
 8
K_RPE2
 10
0
 20
0
 30
0
 70
128
 71
4
 72
15
 73
19
 74
19
 0
VERTEX
 8
K_RPE2
 10
0
 20
0
 30
0
 70
128
 71
1
 72
16
 73
11
 74
11
 0
VERTEX
 8
K_RPE2
 10
0
 20
0
 30
0
 70
128
 71
13
 72
15
 73
16
 74
16
 0
SEQEND
 0
POLYLINE
 8
K_RPE3
 66
1
 10
0.0
 20
0.0
 30
0.0
 70
64
 71
24
 72
26
 0
VERTEX
 8
K_RPE3
 10
-9.5849
 20
1.9007
 30
14.9921
 70
192
 0
VERTEX
 8
K_RPE3
 10
-9.5849
 20
-1.9593
 30
14.9921
 70
192
 0
VERTEX
 8
K_RPE3
 10
10.2751
 20
-1.9593
 30
14.9921
 70
192
 0
VERTEX
 8
K_RPE3
 10
10.2751
 20
1.9007
 30
14.9921
 70
192
 0
VERTEX
 8
K_RPE3
 10
-9.6549
 20
1.9007
 30
15.0621
 70
192
 0
VERTEX
 8
K_RPE3
 10
-9.6549
 20
-1.9593
 30
15.0621
 70
192
 0
VERTEX
 8
K_RPE3
 10
-9.5849
 20
-2.0293
 30
15.0621
 70
192
 0
VERTEX
 8
K_RPE3
 10
10.2751
 20
-2.0293
 30
15.0621
 70
192
 0
VERTEX
 8
K_RPE3
 10
10.3451
 20
-1.9593
 30
15.0621
 70
192
 0
VERTEX
 8
K_RPE3
 10
10.3451
 20
1.9007
 30
15.0621
 70
192
 0
VERTEX
 8
K_RPE3
 10
10.2751
 20
1.9707
 30
15.0621
 70
192
 0
VERTEX
 8
K_RPE3
 10
-9.5849
 20
1.9707
 30
15.0621
 70
192
 0
VERTEX
 8
K_RPE3
 10
-9.6549
 20
1.9007
 30
18.9221
 70
192
 0
VERTEX
 8
K_RPE3
 10
-9.6549
 20
-1.9593
 30
18.9221
 70
192
 0
VERTEX
 8
K_RPE3
 10
-9.5849
 20
-2.0293
 30
18.9221
 70
192
 0
VERTEX
 8
K_RPE3
 10
10.2751
 20
-2.0293
 30
18.9221
 70
192
 0
VERTEX
 8
K_RPE3
 10
10.3451
 20
-1.9593
 30
18.9221
 70
192
 0
VERTEX
 8
K_RPE3
 10
10.3451
 20
1.9007
 30
18.9221
 70
192
 0
VERTEX
 8
K_RPE3
 10
10.2751
 20
1.9707
 30
18.9221
 70
192
 0
VERTEX
 8
K_RPE3
 10
-9.5849
 20
1.9707
 30
18.9221
 70
192
 0
VERTEX
 8
K_RPE3
 10
-9.5849
 20
1.9007
 30
18.9921
 70
192
 0
VERTEX
 8
K_RPE3
 10
-9.5849
 20
-1.9593
 30
18.9921
 70
192
 0
VERTEX
 8
K_RPE3
 10
10.2751
 20
-1.9593
 30
18.9921
 70
192
 0
VERTEX
 8
K_RPE3
 10
10.2751
 20
1.9007
 30
18.9921
 70
192
 0
VERTEX
 8
K_RPE3
 10
0
 20
0
 30
0
 70
128
 71
1
 72
5
 73
6
 74
2
 0
VERTEX
 8
K_RPE3
 10
0
 20
0
 30
0
 70
128
 71
5
 72
13
 73
14
 74
6
 0
VERTEX
 8
K_RPE3
 10
0
 20
0
 30
0
 70
128
 71
13
 72
21
 73
22
 74
14
 0
VERTEX
 8
K_RPE3
 10
0
 20
0
 30
0
 70
128
 71
2
 72
6
 73
7
 74
7
 0
VERTEX
 8
K_RPE3
 10
0
 20
0
 30
0
 70
128
 71
6
 72
14
 73
15
 74
7
 0
VERTEX
 8
K_RPE3
 10
0
 20
0
 30
0
 70
128
 71
14
 72
22
 73
15
 74
15
 0
VERTEX
 8
K_RPE3
 10
0
 20
0
 30
0
 70
128
 71
2
 72
7
 73
8
 74
3
 0
VERTEX
 8
K_RPE3
 10
0
 20
0
 30
0
 70
128
 71
7
 72
15
 73
16
 74
8
 0
VERTEX
 8
K_RPE3
 10
0
 20
0
 30
0
 70
128
 71
15
 72
22
 73
23
 74
16
 0
VERTEX
 8
K_RPE3
 10
0
 20
0
 30
0
 70
128
 71
3
 72
8
 73
9
 74
9
 0
VERTEX
 8
K_RPE3
 10
0
 20
0
 30
0
 70
128
 71
8
 72
16
 73
17
 74
9
 0
VERTEX
 8
K_RPE3
 10
0
 20
0
 30
0
 70
128
 71
16
 72
23
 73
17
 74
17
 0
VERTEX
 8
K_RPE3
 10
0
 20
0
 30
0
 70
128
 71
3
 72
9
 73
10
 74
4
 0
VERTEX
 8
K_RPE3
 10
0
 20
0
 30
0
 70
128
 71
9
 72
17
 73
18
 74
10
 0
VERTEX
 8
K_RPE3
 10
0
 20
0
 30
0
 70
128
 71
17
 72
23
 73
24
 74
18
 0
VERTEX
 8
K_RPE3
 10
0
 20
0
 30
0
 70
128
 71
4
 72
10
 73
11
 74
11
 0
VERTEX
 8
K_RPE3
 10
0
 20
0
 30
0
 70
128
 71
10
 72
18
 73
19
 74
11
 0
VERTEX
 8
K_RPE3
 10
0
 20
0
 30
0
 70
128
 71
18
 72
24
 73
19
 74
19
 0
VERTEX
 8
K_RPE3
 10
0
 20
0
 30
0
 70
128
 71
4
 72
11
 73
12
 74
1
 0
VERTEX
 8
K_RPE3
 10
0
 20
0
 30
0
 70
128
 71
11
 72
19
 73
20
 74
12
 0
VERTEX
 8
K_RPE3
 10
0
 20
0
 30
0
 70
128
 71
19
 72
24
 73
21
 74
20
 0
VERTEX
 8
K_RPE3
 10
0
 20
0
 30
0
 70
128
 71
1
 72
12
 73
5
 74
5
 0
VERTEX
 8
K_RPE3
 10
0
 20
0
 30
0
 70
128
 71
12
 72
20
 73
13
 74
5
 0
VERTEX
 8
K_RPE3
 10
0
 20
0
 30
0
 70
128
 71
20
 72
21
 73
13
 74
13
 0
VERTEX
 8
K_RPE3
 10
0
 20
0
 30
0
 70
128
 71
21
 72
24
 73
23
 74
22
 0
VERTEX
 8
K_RPE3
 10
0
 20
0
 30
0
 70
128
 71
1
 72
2
 73
3
 74
4
 0
SEQEND
 0
ENDSEC
 0
EOF
