 0
SECTION
 2
HEADER
 9
$ACADVER
 1
AC1009
 0
ENDSEC
 0
SECTION
 2
TABLES
 0
TABLE
 2
LTYPE
 70
1
 0
LTYPE
 2
CONTINUOUS
 70
64
 3
solid line
 72
65
 73
0
 40
0.0
 0
ENDTAB
 0
TABLE
 2
LAYER
 70
6
 0
LAYER
 2
0
 70
0
 62
7
 6
CONTINUOUS
 0
LAYER
 2
250_1200_M
 70
64
 62
7
 6
CONTINUOUS
 0
LAYER
 2
K_RPER
 70
64
 62
250
 6
CONTINUOUS
 0
LAYER
 2
GRIFF_23
 70
64
 62
250
 6
CONTINUOUS
 0
LAYER
 2
GRIFF_22
 70
64
 62
250
 6
CONTINUOUS
 0
LAYER
 2
GRIFF_21
 70
64
 62
250
 6
CONTINUOUS
 0
LAYER
 2
GRIFF_20
 70
64
 62
250
 6
CONTINUOUS
 0
LAYER
 2
GRIFF_19
 70
64
 62
250
 6
CONTINUOUS
 0
LAYER
 2
GRIFF_18
 70
64
 62
250
 6
CONTINUOUS
 0
LAYER
 2
GRIFF_17
 70
64
 62
250
 6
CONTINUOUS
 0
LAYER
 2
GRIFF_16
 70
64
 62
250
 6
CONTINUOUS
 0
LAYER
 2
GRIFF_15
 70
64
 62
250
 6
CONTINUOUS
 0
LAYER
 2
GRIFF_14
 70
64
 62
250
 6
CONTINUOUS
 0
LAYER
 2
GRIFF_13
 70
64
 62
250
 6
CONTINUOUS
 0
LAYER
 2
GRIFF_11
 70
64
 62
250
 6
CONTINUOUS
 0
LAYER
 2
GRIFF_10
 70
64
 62
250
 6
CONTINUOUS
 0
LAYER
 2
GRIFF_9
 70
64
 62
250
 6
CONTINUOUS
 0
LAYER
 2
GRIFF_8
 70
64
 62
250
 6
CONTINUOUS
 0
LAYER
 2
GRIFF_7
 70
64
 62
250
 6
CONTINUOUS
 0
LAYER
 2
GRIFF_6
 70
64
 62
250
 6
CONTINUOUS
 0
LAYER
 2
GRIFF_5
 70
64
 62
250
 6
CONTINUOUS
 0
LAYER
 2
GRIFF_4
 70
64
 62
250
 6
CONTINUOUS
 0
LAYER
 2
GRIFF_3
 70
64
 62
250
 6
CONTINUOUS
 0
LAYER
 2
GRIFF_2
 70
64
 62
250
 6
CONTINUOUS
 0
LAYER
 2
GRIFF_1
 70
64
 62
250
 6
CONTINUOUS
 0
LAYER
 2
ZYLINDER
 70
64
 62
250
 6
CONTINUOUS
 0
LAYER
 2
ROSETTE_1
 70
64
 62
250
 6
CONTINUOUS
 0
LAYER
 2
ROSETTE
 70
64
 62
250
 6
CONTINUOUS
 0
ENDTAB
 0
ENDSEC
 0
SECTION
 2
BLOCKS
 0
ENDSEC
 0
SECTION
 2
ENTITIES
 0
POLYLINE
 8
K_RPER
 66
1
 10
0.0
 20
0.0
 30
0.0
 70
64
 71
30
 72
15
 0
VERTEX
 8
K_RPER
 10
7.5986
 20
-1.6063
 30
17.4053
 70
192
 0
VERTEX
 8
K_RPER
 10
-7.4014
 20
-1.6063
 30
17.4053
 70
192
 0
VERTEX
 8
K_RPER
 10
7.5986
 20
-1.4679
 30
18.0561
 70
192
 0
VERTEX
 8
K_RPER
 10
-7.4014
 20
-1.4679
 30
18.0561
 70
192
 0
VERTEX
 8
K_RPER
 10
7.5986
 20
-1.0769
 30
18.5943
 70
192
 0
VERTEX
 8
K_RPER
 10
-7.4014
 20
-1.0769
 30
18.5943
 70
192
 0
VERTEX
 8
K_RPER
 10
7.5986
 20
-0.5007
 30
18.927
 70
192
 0
VERTEX
 8
K_RPER
 10
-7.4014
 20
-0.5007
 30
18.927
 70
192
 0
VERTEX
 8
K_RPER
 10
7.5986
 20
0.161
 30
18.9965
 70
192
 0
VERTEX
 8
K_RPER
 10
-7.4014
 20
0.161
 30
18.9965
 70
192
 0
VERTEX
 8
K_RPER
 10
7.5986
 20
0.7937
 30
18.7909
 70
192
 0
VERTEX
 8
K_RPER
 10
-7.4014
 20
0.7937
 30
18.7909
 70
192
 0
VERTEX
 8
K_RPER
 10
7.5986
 20
1.2882
 30
18.3457
 70
192
 0
VERTEX
 8
K_RPER
 10
-7.4014
 20
1.2882
 30
18.3457
 70
192
 0
VERTEX
 8
K_RPER
 10
7.5986
 20
1.5588
 30
17.7379
 70
192
 0
VERTEX
 8
K_RPER
 10
-7.4014
 20
1.5588
 30
17.7379
 70
192
 0
VERTEX
 8
K_RPER
 10
7.5986
 20
1.5588
 30
17.0726
 70
192
 0
VERTEX
 8
K_RPER
 10
-7.4014
 20
1.5588
 30
17.0726
 70
192
 0
VERTEX
 8
K_RPER
 10
7.5986
 20
1.2882
 30
16.4648
 70
192
 0
VERTEX
 8
K_RPER
 10
-7.4014
 20
1.2882
 30
16.4648
 70
192
 0
VERTEX
 8
K_RPER
 10
7.5986
 20
0.7937
 30
16.0196
 70
192
 0
VERTEX
 8
K_RPER
 10
-7.4014
 20
0.7937
 30
16.0196
 70
192
 0
VERTEX
 8
K_RPER
 10
7.5986
 20
0.161
 30
15.814
 70
192
 0
VERTEX
 8
K_RPER
 10
-7.4014
 20
0.161
 30
15.814
 70
192
 0
VERTEX
 8
K_RPER
 10
7.5986
 20
-0.5007
 30
15.8836
 70
192
 0
VERTEX
 8
K_RPER
 10
-7.4014
 20
-0.5007
 30
15.8836
 70
192
 0
VERTEX
 8
K_RPER
 10
7.5986
 20
-1.0769
 30
16.2162
 70
192
 0
VERTEX
 8
K_RPER
 10
-7.4014
 20
-1.0769
 30
16.2162
 70
192
 0
VERTEX
 8
K_RPER
 10
7.5986
 20
-1.4679
 30
16.7545
 70
192
 0
VERTEX
 8
K_RPER
 10
-7.4014
 20
-1.4679
 30
16.7545
 70
192
 0
VERTEX
 8
K_RPER
 10
0
 20
0
 30
0
 70
128
 71
1
 72
2
 73
4
 74
3
 0
VERTEX
 8
K_RPER
 10
0
 20
0
 30
0
 70
128
 71
3
 72
4
 73
6
 74
5
 0
VERTEX
 8
K_RPER
 10
0
 20
0
 30
0
 70
128
 71
5
 72
6
 73
8
 74
7
 0
VERTEX
 8
K_RPER
 10
0
 20
0
 30
0
 70
128
 71
7
 72
8
 73
10
 74
9
 0
VERTEX
 8
K_RPER
 10
0
 20
0
 30
0
 70
128
 71
9
 72
10
 73
12
 74
11
 0
VERTEX
 8
K_RPER
 10
0
 20
0
 30
0
 70
128
 71
11
 72
12
 73
14
 74
13
 0
VERTEX
 8
K_RPER
 10
0
 20
0
 30
0
 70
128
 71
13
 72
14
 73
16
 74
15
 0
VERTEX
 8
K_RPER
 10
0
 20
0
 30
0
 70
128
 71
15
 72
16
 73
18
 74
17
 0
VERTEX
 8
K_RPER
 10
0
 20
0
 30
0
 70
128
 71
17
 72
18
 73
20
 74
19
 0
VERTEX
 8
K_RPER
 10
0
 20
0
 30
0
 70
128
 71
19
 72
20
 73
22
 74
21
 0
VERTEX
 8
K_RPER
 10
0
 20
0
 30
0
 70
128
 71
21
 72
22
 73
24
 74
23
 0
VERTEX
 8
K_RPER
 10
0
 20
0
 30
0
 70
128
 71
23
 72
24
 73
26
 74
25
 0
VERTEX
 8
K_RPER
 10
0
 20
0
 30
0
 70
128
 71
25
 72
26
 73
28
 74
27
 0
VERTEX
 8
K_RPER
 10
0
 20
0
 30
0
 70
128
 71
27
 72
28
 73
30
 74
29
 0
VERTEX
 8
K_RPER
 10
0
 20
0
 30
0
 70
128
 71
29
 72
30
 73
2
 74
1
 0
SEQEND
 0
POLYLINE
 8
GRIFF_23
 66
1
 10
0.0
 20
0.0
 30
0.0
 70
64
 71
12
 72
6
 0
VERTEX
 8
GRIFF_23
 10
-7.4742
 20
-5.1782
 30
16.9811
 70
192
 0
VERTEX
 8
GRIFF_23
 10
-7.4742
 20
-7.1782
 30
16.9811
 70
192
 0
VERTEX
 8
GRIFF_23
 10
-7.0412
 20
-5.1782
 30
17.2311
 70
192
 0
VERTEX
 8
GRIFF_23
 10
-7.0412
 20
-7.1782
 30
17.2311
 70
192
 0
VERTEX
 8
GRIFF_23
 10
-7.0412
 20
-5.1782
 30
17.7311
 70
192
 0
VERTEX
 8
GRIFF_23
 10
-7.0412
 20
-7.1782
 30
17.7311
 70
192
 0
VERTEX
 8
GRIFF_23
 10
-7.4742
 20
-5.1782
 30
17.9811
 70
192
 0
VERTEX
 8
GRIFF_23
 10
-7.4742
 20
-7.1782
 30
17.9811
 70
192
 0
VERTEX
 8
GRIFF_23
 10
-7.9072
 20
-5.1782
 30
17.7311
 70
192
 0
VERTEX
 8
GRIFF_23
 10
-7.9072
 20
-7.1782
 30
17.7311
 70
192
 0
VERTEX
 8
GRIFF_23
 10
-7.9072
 20
-5.1782
 30
17.2311
 70
192
 0
VERTEX
 8
GRIFF_23
 10
-7.9072
 20
-7.1782
 30
17.2311
 70
192
 0
VERTEX
 8
GRIFF_23
 10
0
 20
0
 30
0
 70
128
 71
1
 72
2
 73
4
 74
3
 0
VERTEX
 8
GRIFF_23
 10
0
 20
0
 30
0
 70
128
 71
3
 72
4
 73
6
 74
5
 0
VERTEX
 8
GRIFF_23
 10
0
 20
0
 30
0
 70
128
 71
5
 72
6
 73
8
 74
7
 0
VERTEX
 8
GRIFF_23
 10
0
 20
0
 30
0
 70
128
 71
7
 72
8
 73
10
 74
9
 0
VERTEX
 8
GRIFF_23
 10
0
 20
0
 30
0
 70
128
 71
9
 72
10
 73
12
 74
11
 0
VERTEX
 8
GRIFF_23
 10
0
 20
0
 30
0
 70
128
 71
11
 72
12
 73
2
 74
1
 0
SEQEND
 0
POLYLINE
 8
GRIFF_22
 66
1
 10
0.0
 20
0.0
 30
0.0
 70
64
 71
12
 72
6
 0
VERTEX
 8
GRIFF_22
 10
-7.7699
 20
-7.8779
 30
17.7768
 70
192
 0
VERTEX
 8
GRIFF_22
 10
-8.6185
 20
-7.8779
 30
18.6254
 70
192
 0
VERTEX
 8
GRIFF_22
 10
-7.5556
 20
-7.7029
 30
17.9912
 70
192
 0
VERTEX
 8
GRIFF_22
 10
-8.4041
 20
-7.7029
 30
18.8397
 70
192
 0
VERTEX
 8
GRIFF_22
 10
-7.5556
 20
-7.3529
 30
17.9912
 70
192
 0
VERTEX
 8
GRIFF_22
 10
-8.4041
 20
-7.3529
 30
18.8397
 70
192
 0
VERTEX
 8
GRIFF_22
 10
-7.7699
 20
-7.1779
 30
17.7768
 70
192
 0
VERTEX
 8
GRIFF_22
 10
-8.6185
 20
-7.1779
 30
18.6254
 70
192
 0
VERTEX
 8
GRIFF_22
 10
-7.9843
 20
-7.3529
 30
17.5625
 70
192
 0
VERTEX
 8
GRIFF_22
 10
-8.8328
 20
-7.3529
 30
18.411
 70
192
 0
VERTEX
 8
GRIFF_22
 10
-7.9843
 20
-7.7029
 30
17.5625
 70
192
 0
VERTEX
 8
GRIFF_22
 10
-8.8328
 20
-7.7029
 30
18.411
 70
192
 0
VERTEX
 8
GRIFF_22
 10
0
 20
0
 30
0
 70
128
 71
1
 72
2
 73
4
 74
3
 0
VERTEX
 8
GRIFF_22
 10
0
 20
0
 30
0
 70
128
 71
3
 72
4
 73
6
 74
5
 0
VERTEX
 8
GRIFF_22
 10
0
 20
0
 30
0
 70
128
 71
5
 72
6
 73
8
 74
7
 0
VERTEX
 8
GRIFF_22
 10
0
 20
0
 30
0
 70
128
 71
7
 72
8
 73
10
 74
9
 0
VERTEX
 8
GRIFF_22
 10
0
 20
0
 30
0
 70
128
 71
9
 72
10
 73
12
 74
11
 0
VERTEX
 8
GRIFF_22
 10
0
 20
0
 30
0
 70
128
 71
11
 72
12
 73
2
 74
1
 0
SEQEND
 0
POLYLINE
 8
GRIFF_21
 66
1
 10
0.0
 20
0.0
 30
0.0
 70
64
 71
18
 72
24
 0
VERTEX
 8
GRIFF_21
 10
-8.1658
 20
-7.5301
 30
18.1727
 70
192
 0
VERTEX
 8
GRIFF_21
 10
-9.58
 20
-7.5301
 30
19.5869
 70
192
 0
VERTEX
 8
GRIFF_21
 10
-8.1658
 20
-8.0301
 30
18.1727
 70
192
 0
VERTEX
 8
GRIFF_21
 10
-9.58
 20
-8.0301
 30
19.5869
 70
192
 0
VERTEX
 8
GRIFF_21
 10
-7.9158
 20
-7.8836
 30
18.4227
 70
192
 0
VERTEX
 8
GRIFF_21
 10
-9.33
 20
-7.8836
 30
19.8369
 70
192
 0
VERTEX
 8
GRIFF_21
 10
-7.8123
 20
-7.5301
 30
18.5263
 70
192
 0
VERTEX
 8
GRIFF_21
 10
-9.2265
 20
-7.5301
 30
19.9405
 70
192
 0
VERTEX
 8
GRIFF_21
 10
-7.9158
 20
-7.1765
 30
18.4227
 70
192
 0
VERTEX
 8
GRIFF_21
 10
-9.33
 20
-7.1765
 30
19.8369
 70
192
 0
VERTEX
 8
GRIFF_21
 10
-8.1658
 20
-7.0301
 30
18.1727
 70
192
 0
VERTEX
 8
GRIFF_21
 10
-9.58
 20
-7.0301
 30
19.5869
 70
192
 0
VERTEX
 8
GRIFF_21
 10
-8.4158
 20
-7.1765
 30
17.9227
 70
192
 0
VERTEX
 8
GRIFF_21
 10
-9.83
 20
-7.1765
 30
19.3369
 70
192
 0
VERTEX
 8
GRIFF_21
 10
-8.5194
 20
-7.5301
 30
17.8192
 70
192
 0
VERTEX
 8
GRIFF_21
 10
-9.9336
 20
-7.5301
 30
19.2334
 70
192
 0
VERTEX
 8
GRIFF_21
 10
-8.4158
 20
-7.8836
 30
17.9227
 70
192
 0
VERTEX
 8
GRIFF_21
 10
-9.83
 20
-7.8836
 30
19.3369
 70
192
 0
VERTEX
 8
GRIFF_21
 10
0
 20
0
 30
0
 70
128
 71
1
 72
3
 73
5
 74
5
 0
VERTEX
 8
GRIFF_21
 10
0
 20
0
 30
0
 70
128
 71
3
 72
4
 73
6
 74
5
 0
VERTEX
 8
GRIFF_21
 10
0
 20
0
 30
0
 70
128
 71
4
 72
2
 73
6
 74
6
 0
VERTEX
 8
GRIFF_21
 10
0
 20
0
 30
0
 70
128
 71
1
 72
5
 73
7
 74
7
 0
VERTEX
 8
GRIFF_21
 10
0
 20
0
 30
0
 70
128
 71
5
 72
6
 73
8
 74
7
 0
VERTEX
 8
GRIFF_21
 10
0
 20
0
 30
0
 70
128
 71
6
 72
2
 73
8
 74
8
 0
VERTEX
 8
GRIFF_21
 10
0
 20
0
 30
0
 70
128
 71
1
 72
7
 73
9
 74
9
 0
VERTEX
 8
GRIFF_21
 10
0
 20
0
 30
0
 70
128
 71
7
 72
8
 73
10
 74
9
 0
VERTEX
 8
GRIFF_21
 10
0
 20
0
 30
0
 70
128
 71
8
 72
2
 73
10
 74
10
 0
VERTEX
 8
GRIFF_21
 10
0
 20
0
 30
0
 70
128
 71
1
 72
9
 73
11
 74
11
 0
VERTEX
 8
GRIFF_21
 10
0
 20
0
 30
0
 70
128
 71
9
 72
10
 73
12
 74
11
 0
VERTEX
 8
GRIFF_21
 10
0
 20
0
 30
0
 70
128
 71
10
 72
2
 73
12
 74
12
 0
VERTEX
 8
GRIFF_21
 10
0
 20
0
 30
0
 70
128
 71
1
 72
11
 73
13
 74
13
 0
VERTEX
 8
GRIFF_21
 10
0
 20
0
 30
0
 70
128
 71
11
 72
12
 73
14
 74
13
 0
VERTEX
 8
GRIFF_21
 10
0
 20
0
 30
0
 70
128
 71
12
 72
2
 73
14
 74
14
 0
VERTEX
 8
GRIFF_21
 10
0
 20
0
 30
0
 70
128
 71
1
 72
13
 73
15
 74
15
 0
VERTEX
 8
GRIFF_21
 10
0
 20
0
 30
0
 70
128
 71
13
 72
14
 73
16
 74
15
 0
VERTEX
 8
GRIFF_21
 10
0
 20
0
 30
0
 70
128
 71
14
 72
2
 73
16
 74
16
 0
VERTEX
 8
GRIFF_21
 10
0
 20
0
 30
0
 70
128
 71
1
 72
15
 73
17
 74
17
 0
VERTEX
 8
GRIFF_21
 10
0
 20
0
 30
0
 70
128
 71
15
 72
16
 73
18
 74
17
 0
VERTEX
 8
GRIFF_21
 10
0
 20
0
 30
0
 70
128
 71
16
 72
2
 73
18
 74
18
 0
VERTEX
 8
GRIFF_21
 10
0
 20
0
 30
0
 70
128
 71
1
 72
17
 73
3
 74
3
 0
VERTEX
 8
GRIFF_21
 10
0
 20
0
 30
0
 70
128
 71
17
 72
18
 73
4
 74
3
 0
VERTEX
 8
GRIFF_21
 10
0
 20
0
 30
0
 70
128
 71
18
 72
2
 73
4
 74
4
 0
SEQEND
 0
POLYLINE
 8
GRIFF_20
 66
1
 10
0.0
 20
0.0
 30
0.0
 70
64
 71
12
 72
6
 0
VERTEX
 8
GRIFF_20
 10
-7.1539
 20
-7.8779
 30
17.1608
 70
192
 0
VERTEX
 8
GRIFF_20
 10
-6.3054
 20
-7.8779
 30
16.3122
 70
192
 0
VERTEX
 8
GRIFF_20
 10
-7.3682
 20
-7.7029
 30
16.9464
 70
192
 0
VERTEX
 8
GRIFF_20
 10
-6.5197
 20
-7.7029
 30
16.0979
 70
192
 0
VERTEX
 8
GRIFF_20
 10
-7.3682
 20
-7.3529
 30
16.9464
 70
192
 0
VERTEX
 8
GRIFF_20
 10
-6.5197
 20
-7.3529
 30
16.0979
 70
192
 0
VERTEX
 8
GRIFF_20
 10
-7.1539
 20
-7.1779
 30
17.1608
 70
192
 0
VERTEX
 8
GRIFF_20
 10
-6.3054
 20
-7.1779
 30
16.3122
 70
192
 0
VERTEX
 8
GRIFF_20
 10
-6.9396
 20
-7.3529
 30
17.3751
 70
192
 0
VERTEX
 8
GRIFF_20
 10
-6.091
 20
-7.3529
 30
16.5266
 70
192
 0
VERTEX
 8
GRIFF_20
 10
-6.9396
 20
-7.7029
 30
17.3751
 70
192
 0
VERTEX
 8
GRIFF_20
 10
-6.091
 20
-7.7029
 30
16.5266
 70
192
 0
VERTEX
 8
GRIFF_20
 10
0
 20
0
 30
0
 70
128
 71
1
 72
2
 73
4
 74
3
 0
VERTEX
 8
GRIFF_20
 10
0
 20
0
 30
0
 70
128
 71
3
 72
4
 73
6
 74
5
 0
VERTEX
 8
GRIFF_20
 10
0
 20
0
 30
0
 70
128
 71
5
 72
6
 73
8
 74
7
 0
VERTEX
 8
GRIFF_20
 10
0
 20
0
 30
0
 70
128
 71
7
 72
8
 73
10
 74
9
 0
VERTEX
 8
GRIFF_20
 10
0
 20
0
 30
0
 70
128
 71
9
 72
10
 73
12
 74
11
 0
VERTEX
 8
GRIFF_20
 10
0
 20
0
 30
0
 70
128
 71
11
 72
12
 73
2
 74
1
 0
SEQEND
 0
POLYLINE
 8
GRIFF_19
 66
1
 10
0.0
 20
0.0
 30
0.0
 70
64
 71
18
 72
24
 0
VERTEX
 8
GRIFF_19
 10
-6.7709
 20
-7.5301
 30
16.7778
 70
192
 0
VERTEX
 8
GRIFF_19
 10
-5.3567
 20
-7.5301
 30
15.3636
 70
192
 0
VERTEX
 8
GRIFF_19
 10
-6.7709
 20
-8.0301
 30
16.7778
 70
192
 0
VERTEX
 8
GRIFF_19
 10
-5.3567
 20
-8.0301
 30
15.3636
 70
192
 0
VERTEX
 8
GRIFF_19
 10
-7.0209
 20
-7.8836
 30
16.5278
 70
192
 0
VERTEX
 8
GRIFF_19
 10
-5.6067
 20
-7.8836
 30
15.1136
 70
192
 0
VERTEX
 8
GRIFF_19
 10
-7.1244
 20
-7.5301
 30
16.4242
 70
192
 0
VERTEX
 8
GRIFF_19
 10
-5.7102
 20
-7.5301
 30
15.01
 70
192
 0
VERTEX
 8
GRIFF_19
 10
-7.0209
 20
-7.1765
 30
16.5278
 70
192
 0
VERTEX
 8
GRIFF_19
 10
-5.6067
 20
-7.1765
 30
15.1136
 70
192
 0
VERTEX
 8
GRIFF_19
 10
-6.7709
 20
-7.0301
 30
16.7778
 70
192
 0
VERTEX
 8
GRIFF_19
 10
-5.3567
 20
-7.0301
 30
15.3636
 70
192
 0
VERTEX
 8
GRIFF_19
 10
-6.5209
 20
-7.1765
 30
17.0278
 70
192
 0
VERTEX
 8
GRIFF_19
 10
-5.1067
 20
-7.1765
 30
15.6136
 70
192
 0
VERTEX
 8
GRIFF_19
 10
-6.4173
 20
-7.5301
 30
17.1313
 70
192
 0
VERTEX
 8
GRIFF_19
 10
-5.0031
 20
-7.5301
 30
15.7171
 70
192
 0
VERTEX
 8
GRIFF_19
 10
-6.5209
 20
-7.8836
 30
17.0278
 70
192
 0
VERTEX
 8
GRIFF_19
 10
-5.1067
 20
-7.8836
 30
15.6136
 70
192
 0
VERTEX
 8
GRIFF_19
 10
0
 20
0
 30
0
 70
128
 71
1
 72
3
 73
5
 74
5
 0
VERTEX
 8
GRIFF_19
 10
0
 20
0
 30
0
 70
128
 71
3
 72
4
 73
6
 74
5
 0
VERTEX
 8
GRIFF_19
 10
0
 20
0
 30
0
 70
128
 71
4
 72
2
 73
6
 74
6
 0
VERTEX
 8
GRIFF_19
 10
0
 20
0
 30
0
 70
128
 71
1
 72
5
 73
7
 74
7
 0
VERTEX
 8
GRIFF_19
 10
0
 20
0
 30
0
 70
128
 71
5
 72
6
 73
8
 74
7
 0
VERTEX
 8
GRIFF_19
 10
0
 20
0
 30
0
 70
128
 71
6
 72
2
 73
8
 74
8
 0
VERTEX
 8
GRIFF_19
 10
0
 20
0
 30
0
 70
128
 71
1
 72
7
 73
9
 74
9
 0
VERTEX
 8
GRIFF_19
 10
0
 20
0
 30
0
 70
128
 71
7
 72
8
 73
10
 74
9
 0
VERTEX
 8
GRIFF_19
 10
0
 20
0
 30
0
 70
128
 71
8
 72
2
 73
10
 74
10
 0
VERTEX
 8
GRIFF_19
 10
0
 20
0
 30
0
 70
128
 71
1
 72
9
 73
11
 74
11
 0
VERTEX
 8
GRIFF_19
 10
0
 20
0
 30
0
 70
128
 71
9
 72
10
 73
12
 74
11
 0
VERTEX
 8
GRIFF_19
 10
0
 20
0
 30
0
 70
128
 71
10
 72
2
 73
12
 74
12
 0
VERTEX
 8
GRIFF_19
 10
0
 20
0
 30
0
 70
128
 71
1
 72
11
 73
13
 74
13
 0
VERTEX
 8
GRIFF_19
 10
0
 20
0
 30
0
 70
128
 71
11
 72
12
 73
14
 74
13
 0
VERTEX
 8
GRIFF_19
 10
0
 20
0
 30
0
 70
128
 71
12
 72
2
 73
14
 74
14
 0
VERTEX
 8
GRIFF_19
 10
0
 20
0
 30
0
 70
128
 71
1
 72
13
 73
15
 74
15
 0
VERTEX
 8
GRIFF_19
 10
0
 20
0
 30
0
 70
128
 71
13
 72
14
 73
16
 74
15
 0
VERTEX
 8
GRIFF_19
 10
0
 20
0
 30
0
 70
128
 71
14
 72
2
 73
16
 74
16
 0
VERTEX
 8
GRIFF_19
 10
0
 20
0
 30
0
 70
128
 71
1
 72
15
 73
17
 74
17
 0
VERTEX
 8
GRIFF_19
 10
0
 20
0
 30
0
 70
128
 71
15
 72
16
 73
18
 74
17
 0
VERTEX
 8
GRIFF_19
 10
0
 20
0
 30
0
 70
128
 71
16
 72
2
 73
18
 74
18
 0
VERTEX
 8
GRIFF_19
 10
0
 20
0
 30
0
 70
128
 71
1
 72
17
 73
3
 74
3
 0
VERTEX
 8
GRIFF_19
 10
0
 20
0
 30
0
 70
128
 71
17
 72
18
 73
4
 74
3
 0
VERTEX
 8
GRIFF_19
 10
0
 20
0
 30
0
 70
128
 71
18
 72
2
 73
4
 74
4
 0
SEQEND
 0
POLYLINE
 8
GRIFF_18
 66
1
 10
0.0
 20
0.0
 30
0.0
 70
64
 71
12
 72
6
 0
VERTEX
 8
GRIFF_18
 10
-7.8522
 20
-7.8779
 30
17.1297
 70
192
 0
VERTEX
 8
GRIFF_18
 10
-8.7007
 20
-7.8779
 30
16.2812
 70
192
 0
VERTEX
 8
GRIFF_18
 10
-8.0665
 20
-7.7029
 30
17.344
 70
192
 0
VERTEX
 8
GRIFF_18
 10
-8.915
 20
-7.7029
 30
16.4955
 70
192
 0
VERTEX
 8
GRIFF_18
 10
-8.0665
 20
-7.3529
 30
17.344
 70
192
 0
VERTEX
 8
GRIFF_18
 10
-8.915
 20
-7.3529
 30
16.4955
 70
192
 0
VERTEX
 8
GRIFF_18
 10
-7.8522
 20
-7.1779
 30
17.1297
 70
192
 0
VERTEX
 8
GRIFF_18
 10
-8.7007
 20
-7.1779
 30
16.2812
 70
192
 0
VERTEX
 8
GRIFF_18
 10
-7.6378
 20
-7.3529
 30
16.9154
 70
192
 0
VERTEX
 8
GRIFF_18
 10
-8.4864
 20
-7.3529
 30
16.0668
 70
192
 0
VERTEX
 8
GRIFF_18
 10
-7.6378
 20
-7.7029
 30
16.9154
 70
192
 0
VERTEX
 8
GRIFF_18
 10
-8.4864
 20
-7.7029
 30
16.0668
 70
192
 0
VERTEX
 8
GRIFF_18
 10
0
 20
0
 30
0
 70
128
 71
1
 72
2
 73
4
 74
3
 0
VERTEX
 8
GRIFF_18
 10
0
 20
0
 30
0
 70
128
 71
3
 72
4
 73
6
 74
5
 0
VERTEX
 8
GRIFF_18
 10
0
 20
0
 30
0
 70
128
 71
5
 72
6
 73
8
 74
7
 0
VERTEX
 8
GRIFF_18
 10
0
 20
0
 30
0
 70
128
 71
7
 72
8
 73
10
 74
9
 0
VERTEX
 8
GRIFF_18
 10
0
 20
0
 30
0
 70
128
 71
9
 72
10
 73
12
 74
11
 0
VERTEX
 8
GRIFF_18
 10
0
 20
0
 30
0
 70
128
 71
11
 72
12
 73
2
 74
1
 0
SEQEND
 0
POLYLINE
 8
GRIFF_17
 66
1
 10
0.0
 20
0.0
 30
0.0
 70
64
 71
18
 72
24
 0
VERTEX
 8
GRIFF_17
 10
-8.2352
 20
-7.5301
 30
16.7467
 70
192
 0
VERTEX
 8
GRIFF_17
 10
-9.6494
 20
-7.5301
 30
15.3325
 70
192
 0
VERTEX
 8
GRIFF_17
 10
-8.2352
 20
-8.0301
 30
16.7467
 70
192
 0
VERTEX
 8
GRIFF_17
 10
-9.6494
 20
-8.0301
 30
15.3325
 70
192
 0
VERTEX
 8
GRIFF_17
 10
-8.4852
 20
-7.8836
 30
16.9967
 70
192
 0
VERTEX
 8
GRIFF_17
 10
-9.8994
 20
-7.8836
 30
15.5825
 70
192
 0
VERTEX
 8
GRIFF_17
 10
-8.5887
 20
-7.5301
 30
17.1003
 70
192
 0
VERTEX
 8
GRIFF_17
 10
-10.0029
 20
-7.5301
 30
15.686
 70
192
 0
VERTEX
 8
GRIFF_17
 10
-8.4852
 20
-7.1765
 30
16.9967
 70
192
 0
VERTEX
 8
GRIFF_17
 10
-9.8994
 20
-7.1765
 30
15.5825
 70
192
 0
VERTEX
 8
GRIFF_17
 10
-8.2352
 20
-7.0301
 30
16.7467
 70
192
 0
VERTEX
 8
GRIFF_17
 10
-9.6494
 20
-7.0301
 30
15.3325
 70
192
 0
VERTEX
 8
GRIFF_17
 10
-7.9852
 20
-7.1765
 30
16.4967
 70
192
 0
VERTEX
 8
GRIFF_17
 10
-9.3994
 20
-7.1765
 30
15.0825
 70
192
 0
VERTEX
 8
GRIFF_17
 10
-7.8816
 20
-7.5301
 30
16.3932
 70
192
 0
VERTEX
 8
GRIFF_17
 10
-9.2958
 20
-7.5301
 30
14.9789
 70
192
 0
VERTEX
 8
GRIFF_17
 10
-7.9852
 20
-7.8836
 30
16.4967
 70
192
 0
VERTEX
 8
GRIFF_17
 10
-9.3994
 20
-7.8836
 30
15.0825
 70
192
 0
VERTEX
 8
GRIFF_17
 10
0
 20
0
 30
0
 70
128
 71
1
 72
3
 73
5
 74
5
 0
VERTEX
 8
GRIFF_17
 10
0
 20
0
 30
0
 70
128
 71
3
 72
4
 73
6
 74
5
 0
VERTEX
 8
GRIFF_17
 10
0
 20
0
 30
0
 70
128
 71
4
 72
2
 73
6
 74
6
 0
VERTEX
 8
GRIFF_17
 10
0
 20
0
 30
0
 70
128
 71
1
 72
5
 73
7
 74
7
 0
VERTEX
 8
GRIFF_17
 10
0
 20
0
 30
0
 70
128
 71
5
 72
6
 73
8
 74
7
 0
VERTEX
 8
GRIFF_17
 10
0
 20
0
 30
0
 70
128
 71
6
 72
2
 73
8
 74
8
 0
VERTEX
 8
GRIFF_17
 10
0
 20
0
 30
0
 70
128
 71
1
 72
7
 73
9
 74
9
 0
VERTEX
 8
GRIFF_17
 10
0
 20
0
 30
0
 70
128
 71
7
 72
8
 73
10
 74
9
 0
VERTEX
 8
GRIFF_17
 10
0
 20
0
 30
0
 70
128
 71
8
 72
2
 73
10
 74
10
 0
VERTEX
 8
GRIFF_17
 10
0
 20
0
 30
0
 70
128
 71
1
 72
9
 73
11
 74
11
 0
VERTEX
 8
GRIFF_17
 10
0
 20
0
 30
0
 70
128
 71
9
 72
10
 73
12
 74
11
 0
VERTEX
 8
GRIFF_17
 10
0
 20
0
 30
0
 70
128
 71
10
 72
2
 73
12
 74
12
 0
VERTEX
 8
GRIFF_17
 10
0
 20
0
 30
0
 70
128
 71
1
 72
11
 73
13
 74
13
 0
VERTEX
 8
GRIFF_17
 10
0
 20
0
 30
0
 70
128
 71
11
 72
12
 73
14
 74
13
 0
VERTEX
 8
GRIFF_17
 10
0
 20
0
 30
0
 70
128
 71
12
 72
2
 73
14
 74
14
 0
VERTEX
 8
GRIFF_17
 10
0
 20
0
 30
0
 70
128
 71
1
 72
13
 73
15
 74
15
 0
VERTEX
 8
GRIFF_17
 10
0
 20
0
 30
0
 70
128
 71
13
 72
14
 73
16
 74
15
 0
VERTEX
 8
GRIFF_17
 10
0
 20
0
 30
0
 70
128
 71
14
 72
2
 73
16
 74
16
 0
VERTEX
 8
GRIFF_17
 10
0
 20
0
 30
0
 70
128
 71
1
 72
15
 73
17
 74
17
 0
VERTEX
 8
GRIFF_17
 10
0
 20
0
 30
0
 70
128
 71
15
 72
16
 73
18
 74
17
 0
VERTEX
 8
GRIFF_17
 10
0
 20
0
 30
0
 70
128
 71
16
 72
2
 73
18
 74
18
 0
VERTEX
 8
GRIFF_17
 10
0
 20
0
 30
0
 70
128
 71
1
 72
17
 73
3
 74
3
 0
VERTEX
 8
GRIFF_17
 10
0
 20
0
 30
0
 70
128
 71
17
 72
18
 73
4
 74
3
 0
VERTEX
 8
GRIFF_17
 10
0
 20
0
 30
0
 70
128
 71
18
 72
2
 73
4
 74
4
 0
SEQEND
 0
POLYLINE
 8
GRIFF_16
 66
1
 10
0.0
 20
0.0
 30
0.0
 70
64
 71
12
 72
6
 0
VERTEX
 8
GRIFF_16
 10
-7.1487
 20
-7.8779
 30
17.8331
 70
192
 0
VERTEX
 8
GRIFF_16
 10
-6.3002
 20
-7.8779
 30
18.6817
 70
192
 0
VERTEX
 8
GRIFF_16
 10
-6.9344
 20
-7.7029
 30
17.6188
 70
192
 0
VERTEX
 8
GRIFF_16
 10
-6.0859
 20
-7.7029
 30
18.4673
 70
192
 0
VERTEX
 8
GRIFF_16
 10
-6.9344
 20
-7.3529
 30
17.6188
 70
192
 0
VERTEX
 8
GRIFF_16
 10
-6.0859
 20
-7.3529
 30
18.4673
 70
192
 0
VERTEX
 8
GRIFF_16
 10
-7.1487
 20
-7.1779
 30
17.8331
 70
192
 0
VERTEX
 8
GRIFF_16
 10
-6.3002
 20
-7.1779
 30
18.6817
 70
192
 0
VERTEX
 8
GRIFF_16
 10
-7.3631
 20
-7.3529
 30
18.0475
 70
192
 0
VERTEX
 8
GRIFF_16
 10
-6.5145
 20
-7.3529
 30
18.896
 70
192
 0
VERTEX
 8
GRIFF_16
 10
-7.3631
 20
-7.7029
 30
18.0475
 70
192
 0
VERTEX
 8
GRIFF_16
 10
-6.5145
 20
-7.7029
 30
18.896
 70
192
 0
VERTEX
 8
GRIFF_16
 10
0
 20
0
 30
0
 70
128
 71
1
 72
2
 73
4
 74
3
 0
VERTEX
 8
GRIFF_16
 10
0
 20
0
 30
0
 70
128
 71
3
 72
4
 73
6
 74
5
 0
VERTEX
 8
GRIFF_16
 10
0
 20
0
 30
0
 70
128
 71
5
 72
6
 73
8
 74
7
 0
VERTEX
 8
GRIFF_16
 10
0
 20
0
 30
0
 70
128
 71
7
 72
8
 73
10
 74
9
 0
VERTEX
 8
GRIFF_16
 10
0
 20
0
 30
0
 70
128
 71
9
 72
10
 73
12
 74
11
 0
VERTEX
 8
GRIFF_16
 10
0
 20
0
 30
0
 70
128
 71
11
 72
12
 73
2
 74
1
 0
SEQEND
 0
POLYLINE
 8
GRIFF_15
 66
1
 10
0.0
 20
0.0
 30
0.0
 70
64
 71
18
 72
24
 0
VERTEX
 8
GRIFF_15
 10
-6.7657
 20
-7.5301
 30
18.2161
 70
192
 0
VERTEX
 8
GRIFF_15
 10
-5.3515
 20
-7.5301
 30
19.6303
 70
192
 0
VERTEX
 8
GRIFF_15
 10
-6.7657
 20
-8.0301
 30
18.2161
 70
192
 0
VERTEX
 8
GRIFF_15
 10
-5.3515
 20
-8.0301
 30
19.6303
 70
192
 0
VERTEX
 8
GRIFF_15
 10
-6.5157
 20
-7.8836
 30
17.9661
 70
192
 0
VERTEX
 8
GRIFF_15
 10
-5.1015
 20
-7.8836
 30
19.3803
 70
192
 0
VERTEX
 8
GRIFF_15
 10
-6.4122
 20
-7.5301
 30
17.8626
 70
192
 0
VERTEX
 8
GRIFF_15
 10
-4.998
 20
-7.5301
 30
19.2768
 70
192
 0
VERTEX
 8
GRIFF_15
 10
-6.5157
 20
-7.1765
 30
17.9661
 70
192
 0
VERTEX
 8
GRIFF_15
 10
-5.1015
 20
-7.1765
 30
19.3803
 70
192
 0
VERTEX
 8
GRIFF_15
 10
-6.7657
 20
-7.0301
 30
18.2161
 70
192
 0
VERTEX
 8
GRIFF_15
 10
-5.3515
 20
-7.0301
 30
19.6303
 70
192
 0
VERTEX
 8
GRIFF_15
 10
-7.0157
 20
-7.1765
 30
18.4661
 70
192
 0
VERTEX
 8
GRIFF_15
 10
-5.6015
 20
-7.1765
 30
19.8803
 70
192
 0
VERTEX
 8
GRIFF_15
 10
-7.1193
 20
-7.5301
 30
18.5697
 70
192
 0
VERTEX
 8
GRIFF_15
 10
-5.7051
 20
-7.5301
 30
19.9839
 70
192
 0
VERTEX
 8
GRIFF_15
 10
-7.0157
 20
-7.8836
 30
18.4661
 70
192
 0
VERTEX
 8
GRIFF_15
 10
-5.6015
 20
-7.8836
 30
19.8803
 70
192
 0
VERTEX
 8
GRIFF_15
 10
0
 20
0
 30
0
 70
128
 71
1
 72
3
 73
5
 74
5
 0
VERTEX
 8
GRIFF_15
 10
0
 20
0
 30
0
 70
128
 71
3
 72
4
 73
6
 74
5
 0
VERTEX
 8
GRIFF_15
 10
0
 20
0
 30
0
 70
128
 71
4
 72
2
 73
6
 74
6
 0
VERTEX
 8
GRIFF_15
 10
0
 20
0
 30
0
 70
128
 71
1
 72
5
 73
7
 74
7
 0
VERTEX
 8
GRIFF_15
 10
0
 20
0
 30
0
 70
128
 71
5
 72
6
 73
8
 74
7
 0
VERTEX
 8
GRIFF_15
 10
0
 20
0
 30
0
 70
128
 71
6
 72
2
 73
8
 74
8
 0
VERTEX
 8
GRIFF_15
 10
0
 20
0
 30
0
 70
128
 71
1
 72
7
 73
9
 74
9
 0
VERTEX
 8
GRIFF_15
 10
0
 20
0
 30
0
 70
128
 71
7
 72
8
 73
10
 74
9
 0
VERTEX
 8
GRIFF_15
 10
0
 20
0
 30
0
 70
128
 71
8
 72
2
 73
10
 74
10
 0
VERTEX
 8
GRIFF_15
 10
0
 20
0
 30
0
 70
128
 71
1
 72
9
 73
11
 74
11
 0
VERTEX
 8
GRIFF_15
 10
0
 20
0
 30
0
 70
128
 71
9
 72
10
 73
12
 74
11
 0
VERTEX
 8
GRIFF_15
 10
0
 20
0
 30
0
 70
128
 71
10
 72
2
 73
12
 74
12
 0
VERTEX
 8
GRIFF_15
 10
0
 20
0
 30
0
 70
128
 71
1
 72
11
 73
13
 74
13
 0
VERTEX
 8
GRIFF_15
 10
0
 20
0
 30
0
 70
128
 71
11
 72
12
 73
14
 74
13
 0
VERTEX
 8
GRIFF_15
 10
0
 20
0
 30
0
 70
128
 71
12
 72
2
 73
14
 74
14
 0
VERTEX
 8
GRIFF_15
 10
0
 20
0
 30
0
 70
128
 71
1
 72
13
 73
15
 74
15
 0
VERTEX
 8
GRIFF_15
 10
0
 20
0
 30
0
 70
128
 71
13
 72
14
 73
16
 74
15
 0
VERTEX
 8
GRIFF_15
 10
0
 20
0
 30
0
 70
128
 71
14
 72
2
 73
16
 74
16
 0
VERTEX
 8
GRIFF_15
 10
0
 20
0
 30
0
 70
128
 71
1
 72
15
 73
17
 74
17
 0
VERTEX
 8
GRIFF_15
 10
0
 20
0
 30
0
 70
128
 71
15
 72
16
 73
18
 74
17
 0
VERTEX
 8
GRIFF_15
 10
0
 20
0
 30
0
 70
128
 71
16
 72
2
 73
18
 74
18
 0
VERTEX
 8
GRIFF_15
 10
0
 20
0
 30
0
 70
128
 71
1
 72
17
 73
3
 74
3
 0
VERTEX
 8
GRIFF_15
 10
0
 20
0
 30
0
 70
128
 71
17
 72
18
 73
4
 74
3
 0
VERTEX
 8
GRIFF_15
 10
0
 20
0
 30
0
 70
128
 71
18
 72
2
 73
4
 74
4
 0
SEQEND
 0
POLYLINE
 8
GRIFF_14
 66
1
 10
0.0
 20
0.0
 30
0.0
 70
64
 71
22
 72
30
 0
VERTEX
 8
GRIFF_14
 10
-7.4742
 20
-7.0385
 30
17.4811
 70
192
 0
VERTEX
 8
GRIFF_14
 10
-7.4742
 20
-8.0385
 30
17.4811
 70
192
 0
VERTEX
 8
GRIFF_14
 10
-6.9792
 20
-7.0385
 30
16.9861
 70
192
 0
VERTEX
 8
GRIFF_14
 10
-6.9792
 20
-8.0385
 30
16.9861
 70
192
 0
VERTEX
 8
GRIFF_14
 10
-6.7828
 20
-7.0385
 30
17.3716
 70
192
 0
VERTEX
 8
GRIFF_14
 10
-6.7828
 20
-8.0385
 30
17.3716
 70
192
 0
VERTEX
 8
GRIFF_14
 10
-6.8505
 20
-7.0385
 30
17.7989
 70
192
 0
VERTEX
 8
GRIFF_14
 10
-6.8505
 20
-8.0385
 30
17.7989
 70
192
 0
VERTEX
 8
GRIFF_14
 10
-7.1564
 20
-7.0385
 30
18.1048
 70
192
 0
VERTEX
 8
GRIFF_14
 10
-7.1564
 20
-8.0385
 30
18.1048
 70
192
 0
VERTEX
 8
GRIFF_14
 10
-7.5837
 20
-7.0385
 30
18.1725
 70
192
 0
VERTEX
 8
GRIFF_14
 10
-7.5837
 20
-8.0385
 30
18.1725
 70
192
 0
VERTEX
 8
GRIFF_14
 10
-7.9692
 20
-7.0385
 30
17.9761
 70
192
 0
VERTEX
 8
GRIFF_14
 10
-7.9692
 20
-8.0385
 30
17.9761
 70
192
 0
VERTEX
 8
GRIFF_14
 10
-8.1656
 20
-7.0385
 30
17.5906
 70
192
 0
VERTEX
 8
GRIFF_14
 10
-8.1656
 20
-8.0385
 30
17.5906
 70
192
 0
VERTEX
 8
GRIFF_14
 10
-8.0979
 20
-7.0385
 30
17.1633
 70
192
 0
VERTEX
 8
GRIFF_14
 10
-8.0979
 20
-8.0385
 30
17.1633
 70
192
 0
VERTEX
 8
GRIFF_14
 10
-7.792
 20
-7.0385
 30
16.8574
 70
192
 0
VERTEX
 8
GRIFF_14
 10
-7.792
 20
-8.0385
 30
16.8574
 70
192
 0
VERTEX
 8
GRIFF_14
 10
-7.3647
 20
-7.0385
 30
16.7897
 70
192
 0
VERTEX
 8
GRIFF_14
 10
-7.3647
 20
-8.0385
 30
16.7897
 70
192
 0
VERTEX
 8
GRIFF_14
 10
0
 20
0
 30
0
 70
128
 71
1
 72
3
 73
5
 74
5
 0
VERTEX
 8
GRIFF_14
 10
0
 20
0
 30
0
 70
128
 71
3
 72
4
 73
6
 74
5
 0
VERTEX
 8
GRIFF_14
 10
0
 20
0
 30
0
 70
128
 71
4
 72
2
 73
6
 74
6
 0
VERTEX
 8
GRIFF_14
 10
0
 20
0
 30
0
 70
128
 71
1
 72
5
 73
7
 74
7
 0
VERTEX
 8
GRIFF_14
 10
0
 20
0
 30
0
 70
128
 71
5
 72
6
 73
8
 74
7
 0
VERTEX
 8
GRIFF_14
 10
0
 20
0
 30
0
 70
128
 71
6
 72
2
 73
8
 74
8
 0
VERTEX
 8
GRIFF_14
 10
0
 20
0
 30
0
 70
128
 71
1
 72
7
 73
9
 74
9
 0
VERTEX
 8
GRIFF_14
 10
0
 20
0
 30
0
 70
128
 71
7
 72
8
 73
10
 74
9
 0
VERTEX
 8
GRIFF_14
 10
0
 20
0
 30
0
 70
128
 71
8
 72
2
 73
10
 74
10
 0
VERTEX
 8
GRIFF_14
 10
0
 20
0
 30
0
 70
128
 71
1
 72
9
 73
11
 74
11
 0
VERTEX
 8
GRIFF_14
 10
0
 20
0
 30
0
 70
128
 71
9
 72
10
 73
12
 74
11
 0
VERTEX
 8
GRIFF_14
 10
0
 20
0
 30
0
 70
128
 71
10
 72
2
 73
12
 74
12
 0
VERTEX
 8
GRIFF_14
 10
0
 20
0
 30
0
 70
128
 71
1
 72
11
 73
13
 74
13
 0
VERTEX
 8
GRIFF_14
 10
0
 20
0
 30
0
 70
128
 71
11
 72
12
 73
14
 74
13
 0
VERTEX
 8
GRIFF_14
 10
0
 20
0
 30
0
 70
128
 71
12
 72
2
 73
14
 74
14
 0
VERTEX
 8
GRIFF_14
 10
0
 20
0
 30
0
 70
128
 71
1
 72
13
 73
15
 74
15
 0
VERTEX
 8
GRIFF_14
 10
0
 20
0
 30
0
 70
128
 71
13
 72
14
 73
16
 74
15
 0
VERTEX
 8
GRIFF_14
 10
0
 20
0
 30
0
 70
128
 71
14
 72
2
 73
16
 74
16
 0
VERTEX
 8
GRIFF_14
 10
0
 20
0
 30
0
 70
128
 71
1
 72
15
 73
17
 74
17
 0
VERTEX
 8
GRIFF_14
 10
0
 20
0
 30
0
 70
128
 71
15
 72
16
 73
18
 74
17
 0
VERTEX
 8
GRIFF_14
 10
0
 20
0
 30
0
 70
128
 71
16
 72
2
 73
18
 74
18
 0
VERTEX
 8
GRIFF_14
 10
0
 20
0
 30
0
 70
128
 71
1
 72
17
 73
19
 74
19
 0
VERTEX
 8
GRIFF_14
 10
0
 20
0
 30
0
 70
128
 71
17
 72
18
 73
20
 74
19
 0
VERTEX
 8
GRIFF_14
 10
0
 20
0
 30
0
 70
128
 71
18
 72
2
 73
20
 74
20
 0
VERTEX
 8
GRIFF_14
 10
0
 20
0
 30
0
 70
128
 71
1
 72
19
 73
21
 74
21
 0
VERTEX
 8
GRIFF_14
 10
0
 20
0
 30
0
 70
128
 71
19
 72
20
 73
22
 74
21
 0
VERTEX
 8
GRIFF_14
 10
0
 20
0
 30
0
 70
128
 71
20
 72
2
 73
22
 74
22
 0
VERTEX
 8
GRIFF_14
 10
0
 20
0
 30
0
 70
128
 71
1
 72
21
 73
3
 74
3
 0
VERTEX
 8
GRIFF_14
 10
0
 20
0
 30
0
 70
128
 71
21
 72
22
 73
4
 74
3
 0
VERTEX
 8
GRIFF_14
 10
0
 20
0
 30
0
 70
128
 71
22
 72
2
 73
4
 74
4
 0
SEQEND
 0
POLYLINE
 8
GRIFF_13
 66
1
 10
0.0
 20
0.0
 30
0.0
 70
64
 71
25
 72
24
 0
VERTEX
 8
GRIFF_13
 10
-7.3942
 20
-5.5516
 30
17.4062
 70
192
 0
VERTEX
 8
GRIFF_13
 10
-7.3942
 20
6.7153
 30
15.7062
 70
192
 0
VERTEX
 8
GRIFF_13
 10
-7.3942
 20
-5.5516
 30
15.7062
 70
192
 0
VERTEX
 8
GRIFF_13
 10
-6.5442
 20
6.7153
 30
15.934
 70
192
 0
VERTEX
 8
GRIFF_13
 10
-6.5442
 20
-5.5516
 30
15.934
 70
192
 0
VERTEX
 8
GRIFF_13
 10
-5.9219
 20
6.7153
 30
16.5562
 70
192
 0
VERTEX
 8
GRIFF_13
 10
-5.9219
 20
-5.5516
 30
16.5562
 70
192
 0
VERTEX
 8
GRIFF_13
 10
-5.6942
 20
6.7153
 30
17.4062
 70
192
 0
VERTEX
 8
GRIFF_13
 10
-5.6942
 20
-5.5516
 30
17.4062
 70
192
 0
VERTEX
 8
GRIFF_13
 10
-5.9219
 20
6.7153
 30
18.2562
 70
192
 0
VERTEX
 8
GRIFF_13
 10
-5.9219
 20
-5.5516
 30
18.2562
 70
192
 0
VERTEX
 8
GRIFF_13
 10
-6.5442
 20
6.7153
 30
18.8785
 70
192
 0
VERTEX
 8
GRIFF_13
 10
-6.5442
 20
-5.5516
 30
18.8785
 70
192
 0
VERTEX
 8
GRIFF_13
 10
-7.3942
 20
6.7153
 30
19.1062
 70
192
 0
VERTEX
 8
GRIFF_13
 10
-7.3942
 20
-5.5516
 30
19.1062
 70
192
 0
VERTEX
 8
GRIFF_13
 10
-8.2442
 20
6.7153
 30
18.8785
 70
192
 0
VERTEX
 8
GRIFF_13
 10
-8.2442
 20
-5.5516
 30
18.8785
 70
192
 0
VERTEX
 8
GRIFF_13
 10
-8.8664
 20
6.7153
 30
18.2562
 70
192
 0
VERTEX
 8
GRIFF_13
 10
-8.8664
 20
-5.5516
 30
18.2562
 70
192
 0
VERTEX
 8
GRIFF_13
 10
-9.0942
 20
6.7153
 30
17.4062
 70
192
 0
VERTEX
 8
GRIFF_13
 10
-9.0942
 20
-5.5516
 30
17.4062
 70
192
 0
VERTEX
 8
GRIFF_13
 10
-8.8664
 20
6.7153
 30
16.5562
 70
192
 0
VERTEX
 8
GRIFF_13
 10
-8.8664
 20
-5.5516
 30
16.5562
 70
192
 0
VERTEX
 8
GRIFF_13
 10
-8.2442
 20
6.7153
 30
15.934
 70
192
 0
VERTEX
 8
GRIFF_13
 10
-8.2442
 20
-5.5516
 30
15.934
 70
192
 0
VERTEX
 8
GRIFF_13
 10
0
 20
0
 30
0
 70
128
 71
18
 72
19
 73
21
 74
20
 0
VERTEX
 8
GRIFF_13
 10
0
 20
0
 30
0
 70
128
 71
2
 72
3
 73
5
 74
4
 0
VERTEX
 8
GRIFF_13
 10
0
 20
0
 30
0
 70
128
 71
3
 72
1
 73
5
 74
5
 0
VERTEX
 8
GRIFF_13
 10
0
 20
0
 30
0
 70
128
 71
19
 72
1
 73
21
 74
21
 0
VERTEX
 8
GRIFF_13
 10
0
 20
0
 30
0
 70
128
 71
4
 72
5
 73
7
 74
6
 0
VERTEX
 8
GRIFF_13
 10
0
 20
0
 30
0
 70
128
 71
5
 72
1
 73
7
 74
7
 0
VERTEX
 8
GRIFF_13
 10
0
 20
0
 30
0
 70
128
 71
20
 72
21
 73
23
 74
22
 0
VERTEX
 8
GRIFF_13
 10
0
 20
0
 30
0
 70
128
 71
6
 72
7
 73
9
 74
8
 0
VERTEX
 8
GRIFF_13
 10
0
 20
0
 30
0
 70
128
 71
7
 72
1
 73
9
 74
9
 0
VERTEX
 8
GRIFF_13
 10
0
 20
0
 30
0
 70
128
 71
21
 72
1
 73
23
 74
23
 0
VERTEX
 8
GRIFF_13
 10
0
 20
0
 30
0
 70
128
 71
8
 72
9
 73
11
 74
10
 0
VERTEX
 8
GRIFF_13
 10
0
 20
0
 30
0
 70
128
 71
9
 72
1
 73
11
 74
11
 0
VERTEX
 8
GRIFF_13
 10
0
 20
0
 30
0
 70
128
 71
22
 72
23
 73
25
 74
24
 0
VERTEX
 8
GRIFF_13
 10
0
 20
0
 30
0
 70
128
 71
10
 72
11
 73
13
 74
12
 0
VERTEX
 8
GRIFF_13
 10
0
 20
0
 30
0
 70
128
 71
11
 72
1
 73
13
 74
13
 0
VERTEX
 8
GRIFF_13
 10
0
 20
0
 30
0
 70
128
 71
23
 72
1
 73
25
 74
25
 0
VERTEX
 8
GRIFF_13
 10
0
 20
0
 30
0
 70
128
 71
12
 72
13
 73
15
 74
14
 0
VERTEX
 8
GRIFF_13
 10
0
 20
0
 30
0
 70
128
 71
13
 72
1
 73
15
 74
15
 0
VERTEX
 8
GRIFF_13
 10
0
 20
0
 30
0
 70
128
 71
24
 72
25
 73
3
 74
2
 0
VERTEX
 8
GRIFF_13
 10
0
 20
0
 30
0
 70
128
 71
14
 72
15
 73
17
 74
16
 0
VERTEX
 8
GRIFF_13
 10
0
 20
0
 30
0
 70
128
 71
15
 72
1
 73
17
 74
17
 0
VERTEX
 8
GRIFF_13
 10
0
 20
0
 30
0
 70
128
 71
25
 72
1
 73
3
 74
3
 0
VERTEX
 8
GRIFF_13
 10
0
 20
0
 30
0
 70
128
 71
16
 72
17
 73
19
 74
18
 0
VERTEX
 8
GRIFF_13
 10
0
 20
0
 30
0
 70
128
 71
17
 72
1
 73
19
 74
19
 0
SEQEND
 0
POLYLINE
 8
GRIFF_11
 66
1
 10
0.0
 20
0.0
 30
0.0
 70
64
 71
12
 72
6
 0
VERTEX
 8
GRIFF_11
 10
7.5218
 20
-5.1782
 30
16.9811
 70
192
 0
VERTEX
 8
GRIFF_11
 10
7.5218
 20
-7.1782
 30
16.9811
 70
192
 0
VERTEX
 8
GRIFF_11
 10
7.9549
 20
-5.1782
 30
17.2311
 70
192
 0
VERTEX
 8
GRIFF_11
 10
7.9549
 20
-7.1782
 30
17.2311
 70
192
 0
VERTEX
 8
GRIFF_11
 10
7.9549
 20
-5.1782
 30
17.7311
 70
192
 0
VERTEX
 8
GRIFF_11
 10
7.9549
 20
-7.1782
 30
17.7311
 70
192
 0
VERTEX
 8
GRIFF_11
 10
7.5218
 20
-5.1782
 30
17.9811
 70
192
 0
VERTEX
 8
GRIFF_11
 10
7.5218
 20
-7.1782
 30
17.9811
 70
192
 0
VERTEX
 8
GRIFF_11
 10
7.0888
 20
-5.1782
 30
17.7311
 70
192
 0
VERTEX
 8
GRIFF_11
 10
7.0888
 20
-7.1782
 30
17.7311
 70
192
 0
VERTEX
 8
GRIFF_11
 10
7.0888
 20
-5.1782
 30
17.2311
 70
192
 0
VERTEX
 8
GRIFF_11
 10
7.0888
 20
-7.1782
 30
17.2311
 70
192
 0
VERTEX
 8
GRIFF_11
 10
0
 20
0
 30
0
 70
128
 71
1
 72
2
 73
4
 74
3
 0
VERTEX
 8
GRIFF_11
 10
0
 20
0
 30
0
 70
128
 71
3
 72
4
 73
6
 74
5
 0
VERTEX
 8
GRIFF_11
 10
0
 20
0
 30
0
 70
128
 71
5
 72
6
 73
8
 74
7
 0
VERTEX
 8
GRIFF_11
 10
0
 20
0
 30
0
 70
128
 71
7
 72
8
 73
10
 74
9
 0
VERTEX
 8
GRIFF_11
 10
0
 20
0
 30
0
 70
128
 71
9
 72
10
 73
12
 74
11
 0
VERTEX
 8
GRIFF_11
 10
0
 20
0
 30
0
 70
128
 71
11
 72
12
 73
2
 74
1
 0
SEQEND
 0
POLYLINE
 8
GRIFF_10
 66
1
 10
0.0
 20
0.0
 30
0.0
 70
64
 71
12
 72
6
 0
VERTEX
 8
GRIFF_10
 10
7.2261
 20
-7.8779
 30
17.7768
 70
192
 0
VERTEX
 8
GRIFF_10
 10
6.3776
 20
-7.8779
 30
18.6254
 70
192
 0
VERTEX
 8
GRIFF_10
 10
7.4405
 20
-7.7029
 30
17.9912
 70
192
 0
VERTEX
 8
GRIFF_10
 10
6.5919
 20
-7.7029
 30
18.8397
 70
192
 0
VERTEX
 8
GRIFF_10
 10
7.4405
 20
-7.3529
 30
17.9912
 70
192
 0
VERTEX
 8
GRIFF_10
 10
6.5919
 20
-7.3529
 30
18.8397
 70
192
 0
VERTEX
 8
GRIFF_10
 10
7.2261
 20
-7.1779
 30
17.7768
 70
192
 0
VERTEX
 8
GRIFF_10
 10
6.3776
 20
-7.1779
 30
18.6254
 70
192
 0
VERTEX
 8
GRIFF_10
 10
7.0118
 20
-7.3529
 30
17.5625
 70
192
 0
VERTEX
 8
GRIFF_10
 10
6.1633
 20
-7.3529
 30
18.411
 70
192
 0
VERTEX
 8
GRIFF_10
 10
7.0118
 20
-7.7029
 30
17.5625
 70
192
 0
VERTEX
 8
GRIFF_10
 10
6.1633
 20
-7.7029
 30
18.411
 70
192
 0
VERTEX
 8
GRIFF_10
 10
0
 20
0
 30
0
 70
128
 71
1
 72
2
 73
4
 74
3
 0
VERTEX
 8
GRIFF_10
 10
0
 20
0
 30
0
 70
128
 71
3
 72
4
 73
6
 74
5
 0
VERTEX
 8
GRIFF_10
 10
0
 20
0
 30
0
 70
128
 71
5
 72
6
 73
8
 74
7
 0
VERTEX
 8
GRIFF_10
 10
0
 20
0
 30
0
 70
128
 71
7
 72
8
 73
10
 74
9
 0
VERTEX
 8
GRIFF_10
 10
0
 20
0
 30
0
 70
128
 71
9
 72
10
 73
12
 74
11
 0
VERTEX
 8
GRIFF_10
 10
0
 20
0
 30
0
 70
128
 71
11
 72
12
 73
2
 74
1
 0
SEQEND
 0
POLYLINE
 8
GRIFF_9
 66
1
 10
0.0
 20
0.0
 30
0.0
 70
64
 71
18
 72
24
 0
VERTEX
 8
GRIFF_9
 10
6.8302
 20
-7.5301
 30
18.1727
 70
192
 0
VERTEX
 8
GRIFF_9
 10
5.416
 20
-7.5301
 30
19.5869
 70
192
 0
VERTEX
 8
GRIFF_9
 10
6.8302
 20
-8.0301
 30
18.1727
 70
192
 0
VERTEX
 8
GRIFF_9
 10
5.416
 20
-8.0301
 30
19.5869
 70
192
 0
VERTEX
 8
GRIFF_9
 10
7.0802
 20
-7.8836
 30
18.4227
 70
192
 0
VERTEX
 8
GRIFF_9
 10
5.666
 20
-7.8836
 30
19.8369
 70
192
 0
VERTEX
 8
GRIFF_9
 10
7.1838
 20
-7.5301
 30
18.5263
 70
192
 0
VERTEX
 8
GRIFF_9
 10
5.7696
 20
-7.5301
 30
19.9405
 70
192
 0
VERTEX
 8
GRIFF_9
 10
7.0802
 20
-7.1765
 30
18.4227
 70
192
 0
VERTEX
 8
GRIFF_9
 10
5.666
 20
-7.1765
 30
19.8369
 70
192
 0
VERTEX
 8
GRIFF_9
 10
6.8302
 20
-7.0301
 30
18.1727
 70
192
 0
VERTEX
 8
GRIFF_9
 10
5.416
 20
-7.0301
 30
19.5869
 70
192
 0
VERTEX
 8
GRIFF_9
 10
6.5802
 20
-7.1765
 30
17.9227
 70
192
 0
VERTEX
 8
GRIFF_9
 10
5.166
 20
-7.1765
 30
19.3369
 70
192
 0
VERTEX
 8
GRIFF_9
 10
6.4767
 20
-7.5301
 30
17.8192
 70
192
 0
VERTEX
 8
GRIFF_9
 10
5.0625
 20
-7.5301
 30
19.2334
 70
192
 0
VERTEX
 8
GRIFF_9
 10
6.5802
 20
-7.8836
 30
17.9227
 70
192
 0
VERTEX
 8
GRIFF_9
 10
5.166
 20
-7.8836
 30
19.3369
 70
192
 0
VERTEX
 8
GRIFF_9
 10
0
 20
0
 30
0
 70
128
 71
1
 72
3
 73
5
 74
5
 0
VERTEX
 8
GRIFF_9
 10
0
 20
0
 30
0
 70
128
 71
3
 72
4
 73
6
 74
5
 0
VERTEX
 8
GRIFF_9
 10
0
 20
0
 30
0
 70
128
 71
4
 72
2
 73
6
 74
6
 0
VERTEX
 8
GRIFF_9
 10
0
 20
0
 30
0
 70
128
 71
1
 72
5
 73
7
 74
7
 0
VERTEX
 8
GRIFF_9
 10
0
 20
0
 30
0
 70
128
 71
5
 72
6
 73
8
 74
7
 0
VERTEX
 8
GRIFF_9
 10
0
 20
0
 30
0
 70
128
 71
6
 72
2
 73
8
 74
8
 0
VERTEX
 8
GRIFF_9
 10
0
 20
0
 30
0
 70
128
 71
1
 72
7
 73
9
 74
9
 0
VERTEX
 8
GRIFF_9
 10
0
 20
0
 30
0
 70
128
 71
7
 72
8
 73
10
 74
9
 0
VERTEX
 8
GRIFF_9
 10
0
 20
0
 30
0
 70
128
 71
8
 72
2
 73
10
 74
10
 0
VERTEX
 8
GRIFF_9
 10
0
 20
0
 30
0
 70
128
 71
1
 72
9
 73
11
 74
11
 0
VERTEX
 8
GRIFF_9
 10
0
 20
0
 30
0
 70
128
 71
9
 72
10
 73
12
 74
11
 0
VERTEX
 8
GRIFF_9
 10
0
 20
0
 30
0
 70
128
 71
10
 72
2
 73
12
 74
12
 0
VERTEX
 8
GRIFF_9
 10
0
 20
0
 30
0
 70
128
 71
1
 72
11
 73
13
 74
13
 0
VERTEX
 8
GRIFF_9
 10
0
 20
0
 30
0
 70
128
 71
11
 72
12
 73
14
 74
13
 0
VERTEX
 8
GRIFF_9
 10
0
 20
0
 30
0
 70
128
 71
12
 72
2
 73
14
 74
14
 0
VERTEX
 8
GRIFF_9
 10
0
 20
0
 30
0
 70
128
 71
1
 72
13
 73
15
 74
15
 0
VERTEX
 8
GRIFF_9
 10
0
 20
0
 30
0
 70
128
 71
13
 72
14
 73
16
 74
15
 0
VERTEX
 8
GRIFF_9
 10
0
 20
0
 30
0
 70
128
 71
14
 72
2
 73
16
 74
16
 0
VERTEX
 8
GRIFF_9
 10
0
 20
0
 30
0
 70
128
 71
1
 72
15
 73
17
 74
17
 0
VERTEX
 8
GRIFF_9
 10
0
 20
0
 30
0
 70
128
 71
15
 72
16
 73
18
 74
17
 0
VERTEX
 8
GRIFF_9
 10
0
 20
0
 30
0
 70
128
 71
16
 72
2
 73
18
 74
18
 0
VERTEX
 8
GRIFF_9
 10
0
 20
0
 30
0
 70
128
 71
1
 72
17
 73
3
 74
3
 0
VERTEX
 8
GRIFF_9
 10
0
 20
0
 30
0
 70
128
 71
17
 72
18
 73
4
 74
3
 0
VERTEX
 8
GRIFF_9
 10
0
 20
0
 30
0
 70
128
 71
18
 72
2
 73
4
 74
4
 0
SEQEND
 0
POLYLINE
 8
GRIFF_8
 66
1
 10
0.0
 20
0.0
 30
0.0
 70
64
 71
12
 72
6
 0
VERTEX
 8
GRIFF_8
 10
7.8422
 20
-7.8779
 30
17.1608
 70
192
 0
VERTEX
 8
GRIFF_8
 10
8.6907
 20
-7.8779
 30
16.3123
 70
192
 0
VERTEX
 8
GRIFF_8
 10
7.6279
 20
-7.7029
 30
16.9464
 70
192
 0
VERTEX
 8
GRIFF_8
 10
8.4764
 20
-7.7029
 30
16.0979
 70
192
 0
VERTEX
 8
GRIFF_8
 10
7.6279
 20
-7.3529
 30
16.9464
 70
192
 0
VERTEX
 8
GRIFF_8
 10
8.4764
 20
-7.3529
 30
16.0979
 70
192
 0
VERTEX
 8
GRIFF_8
 10
7.8422
 20
-7.1779
 30
17.1608
 70
192
 0
VERTEX
 8
GRIFF_8
 10
8.6907
 20
-7.1779
 30
16.3123
 70
192
 0
VERTEX
 8
GRIFF_8
 10
8.0565
 20
-7.3529
 30
17.3751
 70
192
 0
VERTEX
 8
GRIFF_8
 10
8.905
 20
-7.3529
 30
16.5266
 70
192
 0
VERTEX
 8
GRIFF_8
 10
8.0565
 20
-7.7029
 30
17.3751
 70
192
 0
VERTEX
 8
GRIFF_8
 10
8.905
 20
-7.7029
 30
16.5266
 70
192
 0
VERTEX
 8
GRIFF_8
 10
0
 20
0
 30
0
 70
128
 71
1
 72
2
 73
4
 74
3
 0
VERTEX
 8
GRIFF_8
 10
0
 20
0
 30
0
 70
128
 71
3
 72
4
 73
6
 74
5
 0
VERTEX
 8
GRIFF_8
 10
0
 20
0
 30
0
 70
128
 71
5
 72
6
 73
8
 74
7
 0
VERTEX
 8
GRIFF_8
 10
0
 20
0
 30
0
 70
128
 71
7
 72
8
 73
10
 74
9
 0
VERTEX
 8
GRIFF_8
 10
0
 20
0
 30
0
 70
128
 71
9
 72
10
 73
12
 74
11
 0
VERTEX
 8
GRIFF_8
 10
0
 20
0
 30
0
 70
128
 71
11
 72
12
 73
2
 74
1
 0
SEQEND
 0
POLYLINE
 8
GRIFF_7
 66
1
 10
0.0
 20
0.0
 30
0.0
 70
64
 71
18
 72
24
 0
VERTEX
 8
GRIFF_7
 10
8.2252
 20
-7.5301
 30
16.7778
 70
192
 0
VERTEX
 8
GRIFF_7
 10
9.6394
 20
-7.5301
 30
15.3636
 70
192
 0
VERTEX
 8
GRIFF_7
 10
8.2252
 20
-8.0301
 30
16.7778
 70
192
 0
VERTEX
 8
GRIFF_7
 10
9.6394
 20
-8.0301
 30
15.3636
 70
192
 0
VERTEX
 8
GRIFF_7
 10
7.9752
 20
-7.8836
 30
16.5278
 70
192
 0
VERTEX
 8
GRIFF_7
 10
9.3894
 20
-7.8836
 30
15.1136
 70
192
 0
VERTEX
 8
GRIFF_7
 10
7.8716
 20
-7.5301
 30
16.4242
 70
192
 0
VERTEX
 8
GRIFF_7
 10
9.2858
 20
-7.5301
 30
15.01
 70
192
 0
VERTEX
 8
GRIFF_7
 10
7.9752
 20
-7.1765
 30
16.5278
 70
192
 0
VERTEX
 8
GRIFF_7
 10
9.3894
 20
-7.1765
 30
15.1136
 70
192
 0
VERTEX
 8
GRIFF_7
 10
8.2252
 20
-7.0301
 30
16.7778
 70
192
 0
VERTEX
 8
GRIFF_7
 10
9.6394
 20
-7.0301
 30
15.3636
 70
192
 0
VERTEX
 8
GRIFF_7
 10
8.4752
 20
-7.1765
 30
17.0278
 70
192
 0
VERTEX
 8
GRIFF_7
 10
9.8894
 20
-7.1765
 30
15.6136
 70
192
 0
VERTEX
 8
GRIFF_7
 10
8.5787
 20
-7.5301
 30
17.1313
 70
192
 0
VERTEX
 8
GRIFF_7
 10
9.9929
 20
-7.5301
 30
15.7171
 70
192
 0
VERTEX
 8
GRIFF_7
 10
8.4752
 20
-7.8836
 30
17.0278
 70
192
 0
VERTEX
 8
GRIFF_7
 10
9.8894
 20
-7.8836
 30
15.6136
 70
192
 0
VERTEX
 8
GRIFF_7
 10
0
 20
0
 30
0
 70
128
 71
1
 72
3
 73
5
 74
5
 0
VERTEX
 8
GRIFF_7
 10
0
 20
0
 30
0
 70
128
 71
3
 72
4
 73
6
 74
5
 0
VERTEX
 8
GRIFF_7
 10
0
 20
0
 30
0
 70
128
 71
4
 72
2
 73
6
 74
6
 0
VERTEX
 8
GRIFF_7
 10
0
 20
0
 30
0
 70
128
 71
1
 72
5
 73
7
 74
7
 0
VERTEX
 8
GRIFF_7
 10
0
 20
0
 30
0
 70
128
 71
5
 72
6
 73
8
 74
7
 0
VERTEX
 8
GRIFF_7
 10
0
 20
0
 30
0
 70
128
 71
6
 72
2
 73
8
 74
8
 0
VERTEX
 8
GRIFF_7
 10
0
 20
0
 30
0
 70
128
 71
1
 72
7
 73
9
 74
9
 0
VERTEX
 8
GRIFF_7
 10
0
 20
0
 30
0
 70
128
 71
7
 72
8
 73
10
 74
9
 0
VERTEX
 8
GRIFF_7
 10
0
 20
0
 30
0
 70
128
 71
8
 72
2
 73
10
 74
10
 0
VERTEX
 8
GRIFF_7
 10
0
 20
0
 30
0
 70
128
 71
1
 72
9
 73
11
 74
11
 0
VERTEX
 8
GRIFF_7
 10
0
 20
0
 30
0
 70
128
 71
9
 72
10
 73
12
 74
11
 0
VERTEX
 8
GRIFF_7
 10
0
 20
0
 30
0
 70
128
 71
10
 72
2
 73
12
 74
12
 0
VERTEX
 8
GRIFF_7
 10
0
 20
0
 30
0
 70
128
 71
1
 72
11
 73
13
 74
13
 0
VERTEX
 8
GRIFF_7
 10
0
 20
0
 30
0
 70
128
 71
11
 72
12
 73
14
 74
13
 0
VERTEX
 8
GRIFF_7
 10
0
 20
0
 30
0
 70
128
 71
12
 72
2
 73
14
 74
14
 0
VERTEX
 8
GRIFF_7
 10
0
 20
0
 30
0
 70
128
 71
1
 72
13
 73
15
 74
15
 0
VERTEX
 8
GRIFF_7
 10
0
 20
0
 30
0
 70
128
 71
13
 72
14
 73
16
 74
15
 0
VERTEX
 8
GRIFF_7
 10
0
 20
0
 30
0
 70
128
 71
14
 72
2
 73
16
 74
16
 0
VERTEX
 8
GRIFF_7
 10
0
 20
0
 30
0
 70
128
 71
1
 72
15
 73
17
 74
17
 0
VERTEX
 8
GRIFF_7
 10
0
 20
0
 30
0
 70
128
 71
15
 72
16
 73
18
 74
17
 0
VERTEX
 8
GRIFF_7
 10
0
 20
0
 30
0
 70
128
 71
16
 72
2
 73
18
 74
18
 0
VERTEX
 8
GRIFF_7
 10
0
 20
0
 30
0
 70
128
 71
1
 72
17
 73
3
 74
3
 0
VERTEX
 8
GRIFF_7
 10
0
 20
0
 30
0
 70
128
 71
17
 72
18
 73
4
 74
3
 0
VERTEX
 8
GRIFF_7
 10
0
 20
0
 30
0
 70
128
 71
18
 72
2
 73
4
 74
4
 0
SEQEND
 0
POLYLINE
 8
GRIFF_6
 66
1
 10
0.0
 20
0.0
 30
0.0
 70
64
 71
12
 72
6
 0
VERTEX
 8
GRIFF_6
 10
7.1439
 20
-7.8779
 30
17.1297
 70
192
 0
VERTEX
 8
GRIFF_6
 10
6.2954
 20
-7.8779
 30
16.2812
 70
192
 0
VERTEX
 8
GRIFF_6
 10
6.9296
 20
-7.7029
 30
17.344
 70
192
 0
VERTEX
 8
GRIFF_6
 10
6.081
 20
-7.7029
 30
16.4955
 70
192
 0
VERTEX
 8
GRIFF_6
 10
6.9296
 20
-7.3529
 30
17.344
 70
192
 0
VERTEX
 8
GRIFF_6
 10
6.081
 20
-7.3529
 30
16.4955
 70
192
 0
VERTEX
 8
GRIFF_6
 10
7.1439
 20
-7.1779
 30
17.1297
 70
192
 0
VERTEX
 8
GRIFF_6
 10
6.2954
 20
-7.1779
 30
16.2812
 70
192
 0
VERTEX
 8
GRIFF_6
 10
7.3582
 20
-7.3529
 30
16.9154
 70
192
 0
VERTEX
 8
GRIFF_6
 10
6.5097
 20
-7.3529
 30
16.0668
 70
192
 0
VERTEX
 8
GRIFF_6
 10
7.3582
 20
-7.7029
 30
16.9154
 70
192
 0
VERTEX
 8
GRIFF_6
 10
6.5097
 20
-7.7029
 30
16.0668
 70
192
 0
VERTEX
 8
GRIFF_6
 10
0
 20
0
 30
0
 70
128
 71
1
 72
2
 73
4
 74
3
 0
VERTEX
 8
GRIFF_6
 10
0
 20
0
 30
0
 70
128
 71
3
 72
4
 73
6
 74
5
 0
VERTEX
 8
GRIFF_6
 10
0
 20
0
 30
0
 70
128
 71
5
 72
6
 73
8
 74
7
 0
VERTEX
 8
GRIFF_6
 10
0
 20
0
 30
0
 70
128
 71
7
 72
8
 73
10
 74
9
 0
VERTEX
 8
GRIFF_6
 10
0
 20
0
 30
0
 70
128
 71
9
 72
10
 73
12
 74
11
 0
VERTEX
 8
GRIFF_6
 10
0
 20
0
 30
0
 70
128
 71
11
 72
12
 73
2
 74
1
 0
SEQEND
 0
POLYLINE
 8
GRIFF_5
 66
1
 10
0.0
 20
0.0
 30
0.0
 70
64
 71
18
 72
24
 0
VERTEX
 8
GRIFF_5
 10
6.7609
 20
-7.5301
 30
16.7467
 70
192
 0
VERTEX
 8
GRIFF_5
 10
5.3467
 20
-7.5301
 30
15.3325
 70
192
 0
VERTEX
 8
GRIFF_5
 10
6.7609
 20
-8.0301
 30
16.7467
 70
192
 0
VERTEX
 8
GRIFF_5
 10
5.3467
 20
-8.0301
 30
15.3325
 70
192
 0
VERTEX
 8
GRIFF_5
 10
6.5109
 20
-7.8836
 30
16.9967
 70
192
 0
VERTEX
 8
GRIFF_5
 10
5.0967
 20
-7.8836
 30
15.5825
 70
192
 0
VERTEX
 8
GRIFF_5
 10
6.4074
 20
-7.5301
 30
17.1003
 70
192
 0
VERTEX
 8
GRIFF_5
 10
4.9931
 20
-7.5301
 30
15.6861
 70
192
 0
VERTEX
 8
GRIFF_5
 10
6.5109
 20
-7.1765
 30
16.9967
 70
192
 0
VERTEX
 8
GRIFF_5
 10
5.0967
 20
-7.1765
 30
15.5825
 70
192
 0
VERTEX
 8
GRIFF_5
 10
6.7609
 20
-7.0301
 30
16.7467
 70
192
 0
VERTEX
 8
GRIFF_5
 10
5.3467
 20
-7.0301
 30
15.3325
 70
192
 0
VERTEX
 8
GRIFF_5
 10
7.0109
 20
-7.1765
 30
16.4967
 70
192
 0
VERTEX
 8
GRIFF_5
 10
5.5967
 20
-7.1765
 30
15.0825
 70
192
 0
VERTEX
 8
GRIFF_5
 10
7.1145
 20
-7.5301
 30
16.3932
 70
192
 0
VERTEX
 8
GRIFF_5
 10
5.7003
 20
-7.5301
 30
14.9789
 70
192
 0
VERTEX
 8
GRIFF_5
 10
7.0109
 20
-7.8836
 30
16.4967
 70
192
 0
VERTEX
 8
GRIFF_5
 10
5.5967
 20
-7.8836
 30
15.0825
 70
192
 0
VERTEX
 8
GRIFF_5
 10
0
 20
0
 30
0
 70
128
 71
1
 72
3
 73
5
 74
5
 0
VERTEX
 8
GRIFF_5
 10
0
 20
0
 30
0
 70
128
 71
3
 72
4
 73
6
 74
5
 0
VERTEX
 8
GRIFF_5
 10
0
 20
0
 30
0
 70
128
 71
4
 72
2
 73
6
 74
6
 0
VERTEX
 8
GRIFF_5
 10
0
 20
0
 30
0
 70
128
 71
1
 72
5
 73
7
 74
7
 0
VERTEX
 8
GRIFF_5
 10
0
 20
0
 30
0
 70
128
 71
5
 72
6
 73
8
 74
7
 0
VERTEX
 8
GRIFF_5
 10
0
 20
0
 30
0
 70
128
 71
6
 72
2
 73
8
 74
8
 0
VERTEX
 8
GRIFF_5
 10
0
 20
0
 30
0
 70
128
 71
1
 72
7
 73
9
 74
9
 0
VERTEX
 8
GRIFF_5
 10
0
 20
0
 30
0
 70
128
 71
7
 72
8
 73
10
 74
9
 0
VERTEX
 8
GRIFF_5
 10
0
 20
0
 30
0
 70
128
 71
8
 72
2
 73
10
 74
10
 0
VERTEX
 8
GRIFF_5
 10
0
 20
0
 30
0
 70
128
 71
1
 72
9
 73
11
 74
11
 0
VERTEX
 8
GRIFF_5
 10
0
 20
0
 30
0
 70
128
 71
9
 72
10
 73
12
 74
11
 0
VERTEX
 8
GRIFF_5
 10
0
 20
0
 30
0
 70
128
 71
10
 72
2
 73
12
 74
12
 0
VERTEX
 8
GRIFF_5
 10
0
 20
0
 30
0
 70
128
 71
1
 72
11
 73
13
 74
13
 0
VERTEX
 8
GRIFF_5
 10
0
 20
0
 30
0
 70
128
 71
11
 72
12
 73
14
 74
13
 0
VERTEX
 8
GRIFF_5
 10
0
 20
0
 30
0
 70
128
 71
12
 72
2
 73
14
 74
14
 0
VERTEX
 8
GRIFF_5
 10
0
 20
0
 30
0
 70
128
 71
1
 72
13
 73
15
 74
15
 0
VERTEX
 8
GRIFF_5
 10
0
 20
0
 30
0
 70
128
 71
13
 72
14
 73
16
 74
15
 0
VERTEX
 8
GRIFF_5
 10
0
 20
0
 30
0
 70
128
 71
14
 72
2
 73
16
 74
16
 0
VERTEX
 8
GRIFF_5
 10
0
 20
0
 30
0
 70
128
 71
1
 72
15
 73
17
 74
17
 0
VERTEX
 8
GRIFF_5
 10
0
 20
0
 30
0
 70
128
 71
15
 72
16
 73
18
 74
17
 0
VERTEX
 8
GRIFF_5
 10
0
 20
0
 30
0
 70
128
 71
16
 72
2
 73
18
 74
18
 0
VERTEX
 8
GRIFF_5
 10
0
 20
0
 30
0
 70
128
 71
1
 72
17
 73
3
 74
3
 0
VERTEX
 8
GRIFF_5
 10
0
 20
0
 30
0
 70
128
 71
17
 72
18
 73
4
 74
3
 0
VERTEX
 8
GRIFF_5
 10
0
 20
0
 30
0
 70
128
 71
18
 72
2
 73
4
 74
4
 0
SEQEND
 0
POLYLINE
 8
GRIFF_4
 66
1
 10
0.0
 20
0.0
 30
0.0
 70
64
 71
12
 72
6
 0
VERTEX
 8
GRIFF_4
 10
7.8473
 20
-7.8779
 30
17.8331
 70
192
 0
VERTEX
 8
GRIFF_4
 10
8.6959
 20
-7.8779
 30
18.6817
 70
192
 0
VERTEX
 8
GRIFF_4
 10
8.0617
 20
-7.7029
 30
17.6188
 70
192
 0
VERTEX
 8
GRIFF_4
 10
8.9102
 20
-7.7029
 30
18.4673
 70
192
 0
VERTEX
 8
GRIFF_4
 10
8.0617
 20
-7.3529
 30
17.6188
 70
192
 0
VERTEX
 8
GRIFF_4
 10
8.9102
 20
-7.3529
 30
18.4673
 70
192
 0
VERTEX
 8
GRIFF_4
 10
7.8473
 20
-7.1779
 30
17.8331
 70
192
 0
VERTEX
 8
GRIFF_4
 10
8.6959
 20
-7.1779
 30
18.6817
 70
192
 0
VERTEX
 8
GRIFF_4
 10
7.633
 20
-7.3529
 30
18.0475
 70
192
 0
VERTEX
 8
GRIFF_4
 10
8.4815
 20
-7.3529
 30
18.896
 70
192
 0
VERTEX
 8
GRIFF_4
 10
7.633
 20
-7.7029
 30
18.0475
 70
192
 0
VERTEX
 8
GRIFF_4
 10
8.4815
 20
-7.7029
 30
18.896
 70
192
 0
VERTEX
 8
GRIFF_4
 10
0
 20
0
 30
0
 70
128
 71
1
 72
2
 73
4
 74
3
 0
VERTEX
 8
GRIFF_4
 10
0
 20
0
 30
0
 70
128
 71
3
 72
4
 73
6
 74
5
 0
VERTEX
 8
GRIFF_4
 10
0
 20
0
 30
0
 70
128
 71
5
 72
6
 73
8
 74
7
 0
VERTEX
 8
GRIFF_4
 10
0
 20
0
 30
0
 70
128
 71
7
 72
8
 73
10
 74
9
 0
VERTEX
 8
GRIFF_4
 10
0
 20
0
 30
0
 70
128
 71
9
 72
10
 73
12
 74
11
 0
VERTEX
 8
GRIFF_4
 10
0
 20
0
 30
0
 70
128
 71
11
 72
12
 73
2
 74
1
 0
SEQEND
 0
POLYLINE
 8
GRIFF_3
 66
1
 10
0.0
 20
0.0
 30
0.0
 70
64
 71
18
 72
24
 0
VERTEX
 8
GRIFF_3
 10
8.2303
 20
-7.5301
 30
18.2161
 70
192
 0
VERTEX
 8
GRIFF_3
 10
9.6445
 20
-7.5301
 30
19.6303
 70
192
 0
VERTEX
 8
GRIFF_3
 10
8.2303
 20
-8.0301
 30
18.2161
 70
192
 0
VERTEX
 8
GRIFF_3
 10
9.6445
 20
-8.0301
 30
19.6303
 70
192
 0
VERTEX
 8
GRIFF_3
 10
8.4803
 20
-7.8836
 30
17.9661
 70
192
 0
VERTEX
 8
GRIFF_3
 10
9.8945
 20
-7.8836
 30
19.3803
 70
192
 0
VERTEX
 8
GRIFF_3
 10
8.5839
 20
-7.5301
 30
17.8626
 70
192
 0
VERTEX
 8
GRIFF_3
 10
9.9981
 20
-7.5301
 30
19.2768
 70
192
 0
VERTEX
 8
GRIFF_3
 10
8.4803
 20
-7.1765
 30
17.9661
 70
192
 0
VERTEX
 8
GRIFF_3
 10
9.8945
 20
-7.1765
 30
19.3803
 70
192
 0
VERTEX
 8
GRIFF_3
 10
8.2303
 20
-7.0301
 30
18.2161
 70
192
 0
VERTEX
 8
GRIFF_3
 10
9.6445
 20
-7.0301
 30
19.6303
 70
192
 0
VERTEX
 8
GRIFF_3
 10
7.9803
 20
-7.1765
 30
18.4661
 70
192
 0
VERTEX
 8
GRIFF_3
 10
9.3945
 20
-7.1765
 30
19.8803
 70
192
 0
VERTEX
 8
GRIFF_3
 10
7.8768
 20
-7.5301
 30
18.5697
 70
192
 0
VERTEX
 8
GRIFF_3
 10
9.291
 20
-7.5301
 30
19.9839
 70
192
 0
VERTEX
 8
GRIFF_3
 10
7.9803
 20
-7.8836
 30
18.4661
 70
192
 0
VERTEX
 8
GRIFF_3
 10
9.3945
 20
-7.8836
 30
19.8803
 70
192
 0
VERTEX
 8
GRIFF_3
 10
0
 20
0
 30
0
 70
128
 71
1
 72
3
 73
5
 74
5
 0
VERTEX
 8
GRIFF_3
 10
0
 20
0
 30
0
 70
128
 71
3
 72
4
 73
6
 74
5
 0
VERTEX
 8
GRIFF_3
 10
0
 20
0
 30
0
 70
128
 71
4
 72
2
 73
6
 74
6
 0
VERTEX
 8
GRIFF_3
 10
0
 20
0
 30
0
 70
128
 71
1
 72
5
 73
7
 74
7
 0
VERTEX
 8
GRIFF_3
 10
0
 20
0
 30
0
 70
128
 71
5
 72
6
 73
8
 74
7
 0
VERTEX
 8
GRIFF_3
 10
0
 20
0
 30
0
 70
128
 71
6
 72
2
 73
8
 74
8
 0
VERTEX
 8
GRIFF_3
 10
0
 20
0
 30
0
 70
128
 71
1
 72
7
 73
9
 74
9
 0
VERTEX
 8
GRIFF_3
 10
0
 20
0
 30
0
 70
128
 71
7
 72
8
 73
10
 74
9
 0
VERTEX
 8
GRIFF_3
 10
0
 20
0
 30
0
 70
128
 71
8
 72
2
 73
10
 74
10
 0
VERTEX
 8
GRIFF_3
 10
0
 20
0
 30
0
 70
128
 71
1
 72
9
 73
11
 74
11
 0
VERTEX
 8
GRIFF_3
 10
0
 20
0
 30
0
 70
128
 71
9
 72
10
 73
12
 74
11
 0
VERTEX
 8
GRIFF_3
 10
0
 20
0
 30
0
 70
128
 71
10
 72
2
 73
12
 74
12
 0
VERTEX
 8
GRIFF_3
 10
0
 20
0
 30
0
 70
128
 71
1
 72
11
 73
13
 74
13
 0
VERTEX
 8
GRIFF_3
 10
0
 20
0
 30
0
 70
128
 71
11
 72
12
 73
14
 74
13
 0
VERTEX
 8
GRIFF_3
 10
0
 20
0
 30
0
 70
128
 71
12
 72
2
 73
14
 74
14
 0
VERTEX
 8
GRIFF_3
 10
0
 20
0
 30
0
 70
128
 71
1
 72
13
 73
15
 74
15
 0
VERTEX
 8
GRIFF_3
 10
0
 20
0
 30
0
 70
128
 71
13
 72
14
 73
16
 74
15
 0
VERTEX
 8
GRIFF_3
 10
0
 20
0
 30
0
 70
128
 71
14
 72
2
 73
16
 74
16
 0
VERTEX
 8
GRIFF_3
 10
0
 20
0
 30
0
 70
128
 71
1
 72
15
 73
17
 74
17
 0
VERTEX
 8
GRIFF_3
 10
0
 20
0
 30
0
 70
128
 71
15
 72
16
 73
18
 74
17
 0
VERTEX
 8
GRIFF_3
 10
0
 20
0
 30
0
 70
128
 71
16
 72
2
 73
18
 74
18
 0
VERTEX
 8
GRIFF_3
 10
0
 20
0
 30
0
 70
128
 71
1
 72
17
 73
3
 74
3
 0
VERTEX
 8
GRIFF_3
 10
0
 20
0
 30
0
 70
128
 71
17
 72
18
 73
4
 74
3
 0
VERTEX
 8
GRIFF_3
 10
0
 20
0
 30
0
 70
128
 71
18
 72
2
 73
4
 74
4
 0
SEQEND
 0
POLYLINE
 8
GRIFF_2
 66
1
 10
0.0
 20
0.0
 30
0.0
 70
64
 71
22
 72
30
 0
VERTEX
 8
GRIFF_2
 10
7.5218
 20
-7.0385
 30
17.4811
 70
192
 0
VERTEX
 8
GRIFF_2
 10
7.5218
 20
-8.0385
 30
17.4811
 70
192
 0
VERTEX
 8
GRIFF_2
 10
8.0168
 20
-7.0385
 30
16.9861
 70
192
 0
VERTEX
 8
GRIFF_2
 10
8.0168
 20
-8.0385
 30
16.9861
 70
192
 0
VERTEX
 8
GRIFF_2
 10
8.2132
 20
-7.0385
 30
17.3716
 70
192
 0
VERTEX
 8
GRIFF_2
 10
8.2132
 20
-8.0385
 30
17.3716
 70
192
 0
VERTEX
 8
GRIFF_2
 10
8.1455
 20
-7.0385
 30
17.7989
 70
192
 0
VERTEX
 8
GRIFF_2
 10
8.1455
 20
-8.0385
 30
17.7989
 70
192
 0
VERTEX
 8
GRIFF_2
 10
7.8396
 20
-7.0385
 30
18.1048
 70
192
 0
VERTEX
 8
GRIFF_2
 10
7.8396
 20
-8.0385
 30
18.1048
 70
192
 0
VERTEX
 8
GRIFF_2
 10
7.4123
 20
-7.0385
 30
18.1725
 70
192
 0
VERTEX
 8
GRIFF_2
 10
7.4123
 20
-8.0385
 30
18.1725
 70
192
 0
VERTEX
 8
GRIFF_2
 10
7.0269
 20
-7.0385
 30
17.9761
 70
192
 0
VERTEX
 8
GRIFF_2
 10
7.0269
 20
-8.0385
 30
17.9761
 70
192
 0
VERTEX
 8
GRIFF_2
 10
6.8305
 20
-7.0385
 30
17.5906
 70
192
 0
VERTEX
 8
GRIFF_2
 10
6.8305
 20
-8.0385
 30
17.5906
 70
192
 0
VERTEX
 8
GRIFF_2
 10
6.8981
 20
-7.0385
 30
17.1633
 70
192
 0
VERTEX
 8
GRIFF_2
 10
6.8981
 20
-8.0385
 30
17.1633
 70
192
 0
VERTEX
 8
GRIFF_2
 10
7.204
 20
-7.0385
 30
16.8574
 70
192
 0
VERTEX
 8
GRIFF_2
 10
7.2041
 20
-8.0385
 30
16.8574
 70
192
 0
VERTEX
 8
GRIFF_2
 10
7.6313
 20
-7.0385
 30
16.7897
 70
192
 0
VERTEX
 8
GRIFF_2
 10
7.6313
 20
-8.0385
 30
16.7897
 70
192
 0
VERTEX
 8
GRIFF_2
 10
0
 20
0
 30
0
 70
128
 71
1
 72
3
 73
5
 74
5
 0
VERTEX
 8
GRIFF_2
 10
0
 20
0
 30
0
 70
128
 71
3
 72
4
 73
6
 74
5
 0
VERTEX
 8
GRIFF_2
 10
0
 20
0
 30
0
 70
128
 71
4
 72
2
 73
6
 74
6
 0
VERTEX
 8
GRIFF_2
 10
0
 20
0
 30
0
 70
128
 71
1
 72
5
 73
7
 74
7
 0
VERTEX
 8
GRIFF_2
 10
0
 20
0
 30
0
 70
128
 71
5
 72
6
 73
8
 74
7
 0
VERTEX
 8
GRIFF_2
 10
0
 20
0
 30
0
 70
128
 71
6
 72
2
 73
8
 74
8
 0
VERTEX
 8
GRIFF_2
 10
0
 20
0
 30
0
 70
128
 71
1
 72
7
 73
9
 74
9
 0
VERTEX
 8
GRIFF_2
 10
0
 20
0
 30
0
 70
128
 71
7
 72
8
 73
10
 74
9
 0
VERTEX
 8
GRIFF_2
 10
0
 20
0
 30
0
 70
128
 71
8
 72
2
 73
10
 74
10
 0
VERTEX
 8
GRIFF_2
 10
0
 20
0
 30
0
 70
128
 71
1
 72
9
 73
11
 74
11
 0
VERTEX
 8
GRIFF_2
 10
0
 20
0
 30
0
 70
128
 71
9
 72
10
 73
12
 74
11
 0
VERTEX
 8
GRIFF_2
 10
0
 20
0
 30
0
 70
128
 71
10
 72
2
 73
12
 74
12
 0
VERTEX
 8
GRIFF_2
 10
0
 20
0
 30
0
 70
128
 71
1
 72
11
 73
13
 74
13
 0
VERTEX
 8
GRIFF_2
 10
0
 20
0
 30
0
 70
128
 71
11
 72
12
 73
14
 74
13
 0
VERTEX
 8
GRIFF_2
 10
0
 20
0
 30
0
 70
128
 71
12
 72
2
 73
14
 74
14
 0
VERTEX
 8
GRIFF_2
 10
0
 20
0
 30
0
 70
128
 71
1
 72
13
 73
15
 74
15
 0
VERTEX
 8
GRIFF_2
 10
0
 20
0
 30
0
 70
128
 71
13
 72
14
 73
16
 74
15
 0
VERTEX
 8
GRIFF_2
 10
0
 20
0
 30
0
 70
128
 71
14
 72
2
 73
16
 74
16
 0
VERTEX
 8
GRIFF_2
 10
0
 20
0
 30
0
 70
128
 71
1
 72
15
 73
17
 74
17
 0
VERTEX
 8
GRIFF_2
 10
0
 20
0
 30
0
 70
128
 71
15
 72
16
 73
18
 74
17
 0
VERTEX
 8
GRIFF_2
 10
0
 20
0
 30
0
 70
128
 71
16
 72
2
 73
18
 74
18
 0
VERTEX
 8
GRIFF_2
 10
0
 20
0
 30
0
 70
128
 71
1
 72
17
 73
19
 74
19
 0
VERTEX
 8
GRIFF_2
 10
0
 20
0
 30
0
 70
128
 71
17
 72
18
 73
20
 74
19
 0
VERTEX
 8
GRIFF_2
 10
0
 20
0
 30
0
 70
128
 71
18
 72
2
 73
20
 74
20
 0
VERTEX
 8
GRIFF_2
 10
0
 20
0
 30
0
 70
128
 71
1
 72
19
 73
21
 74
21
 0
VERTEX
 8
GRIFF_2
 10
0
 20
0
 30
0
 70
128
 71
19
 72
20
 73
22
 74
21
 0
VERTEX
 8
GRIFF_2
 10
0
 20
0
 30
0
 70
128
 71
20
 72
2
 73
22
 74
22
 0
VERTEX
 8
GRIFF_2
 10
0
 20
0
 30
0
 70
128
 71
1
 72
21
 73
3
 74
3
 0
VERTEX
 8
GRIFF_2
 10
0
 20
0
 30
0
 70
128
 71
21
 72
22
 73
4
 74
3
 0
VERTEX
 8
GRIFF_2
 10
0
 20
0
 30
0
 70
128
 71
22
 72
2
 73
4
 74
4
 0
SEQEND
 0
POLYLINE
 8
GRIFF_1
 66
1
 10
0.0
 20
0.0
 30
0.0
 70
64
 71
25
 72
24
 0
VERTEX
 8
GRIFF_1
 10
7.6019
 20
-5.5516
 30
17.4062
 70
192
 0
VERTEX
 8
GRIFF_1
 10
7.6019
 20
6.7153
 30
15.7062
 70
192
 0
VERTEX
 8
GRIFF_1
 10
7.6019
 20
-5.5516
 30
15.7062
 70
192
 0
VERTEX
 8
GRIFF_1
 10
8.4519
 20
6.7153
 30
15.934
 70
192
 0
VERTEX
 8
GRIFF_1
 10
8.4519
 20
-5.5516
 30
15.934
 70
192
 0
VERTEX
 8
GRIFF_1
 10
9.0741
 20
6.7153
 30
16.5562
 70
192
 0
VERTEX
 8
GRIFF_1
 10
9.0741
 20
-5.5516
 30
16.5562
 70
192
 0
VERTEX
 8
GRIFF_1
 10
9.3019
 20
6.7153
 30
17.4062
 70
192
 0
VERTEX
 8
GRIFF_1
 10
9.3019
 20
-5.5516
 30
17.4062
 70
192
 0
VERTEX
 8
GRIFF_1
 10
9.0741
 20
6.7153
 30
18.2562
 70
192
 0
VERTEX
 8
GRIFF_1
 10
9.0741
 20
-5.5516
 30
18.2562
 70
192
 0
VERTEX
 8
GRIFF_1
 10
8.4519
 20
6.7153
 30
18.8785
 70
192
 0
VERTEX
 8
GRIFF_1
 10
8.4519
 20
-5.5516
 30
18.8785
 70
192
 0
VERTEX
 8
GRIFF_1
 10
7.6019
 20
6.7153
 30
19.1062
 70
192
 0
VERTEX
 8
GRIFF_1
 10
7.6019
 20
-5.5516
 30
19.1062
 70
192
 0
VERTEX
 8
GRIFF_1
 10
6.7519
 20
6.7153
 30
18.8785
 70
192
 0
VERTEX
 8
GRIFF_1
 10
6.7519
 20
-5.5516
 30
18.8785
 70
192
 0
VERTEX
 8
GRIFF_1
 10
6.1296
 20
6.7153
 30
18.2562
 70
192
 0
VERTEX
 8
GRIFF_1
 10
6.1296
 20
-5.5516
 30
18.2562
 70
192
 0
VERTEX
 8
GRIFF_1
 10
5.9019
 20
6.7153
 30
17.4062
 70
192
 0
VERTEX
 8
GRIFF_1
 10
5.9019
 20
-5.5516
 30
17.4062
 70
192
 0
VERTEX
 8
GRIFF_1
 10
6.1296
 20
6.7153
 30
16.5562
 70
192
 0
VERTEX
 8
GRIFF_1
 10
6.1296
 20
-5.5516
 30
16.5562
 70
192
 0
VERTEX
 8
GRIFF_1
 10
6.7519
 20
6.7153
 30
15.934
 70
192
 0
VERTEX
 8
GRIFF_1
 10
6.7519
 20
-5.5516
 30
15.934
 70
192
 0
VERTEX
 8
GRIFF_1
 10
0
 20
0
 30
0
 70
128
 71
18
 72
19
 73
21
 74
20
 0
VERTEX
 8
GRIFF_1
 10
0
 20
0
 30
0
 70
128
 71
2
 72
3
 73
5
 74
4
 0
VERTEX
 8
GRIFF_1
 10
0
 20
0
 30
0
 70
128
 71
3
 72
1
 73
5
 74
5
 0
VERTEX
 8
GRIFF_1
 10
0
 20
0
 30
0
 70
128
 71
19
 72
1
 73
21
 74
21
 0
VERTEX
 8
GRIFF_1
 10
0
 20
0
 30
0
 70
128
 71
4
 72
5
 73
7
 74
6
 0
VERTEX
 8
GRIFF_1
 10
0
 20
0
 30
0
 70
128
 71
5
 72
1
 73
7
 74
7
 0
VERTEX
 8
GRIFF_1
 10
0
 20
0
 30
0
 70
128
 71
20
 72
21
 73
23
 74
22
 0
VERTEX
 8
GRIFF_1
 10
0
 20
0
 30
0
 70
128
 71
6
 72
7
 73
9
 74
8
 0
VERTEX
 8
GRIFF_1
 10
0
 20
0
 30
0
 70
128
 71
7
 72
1
 73
9
 74
9
 0
VERTEX
 8
GRIFF_1
 10
0
 20
0
 30
0
 70
128
 71
21
 72
1
 73
23
 74
23
 0
VERTEX
 8
GRIFF_1
 10
0
 20
0
 30
0
 70
128
 71
8
 72
9
 73
11
 74
10
 0
VERTEX
 8
GRIFF_1
 10
0
 20
0
 30
0
 70
128
 71
9
 72
1
 73
11
 74
11
 0
VERTEX
 8
GRIFF_1
 10
0
 20
0
 30
0
 70
128
 71
22
 72
23
 73
25
 74
24
 0
VERTEX
 8
GRIFF_1
 10
0
 20
0
 30
0
 70
128
 71
10
 72
11
 73
13
 74
12
 0
VERTEX
 8
GRIFF_1
 10
0
 20
0
 30
0
 70
128
 71
11
 72
1
 73
13
 74
13
 0
VERTEX
 8
GRIFF_1
 10
0
 20
0
 30
0
 70
128
 71
23
 72
1
 73
25
 74
25
 0
VERTEX
 8
GRIFF_1
 10
0
 20
0
 30
0
 70
128
 71
12
 72
13
 73
15
 74
14
 0
VERTEX
 8
GRIFF_1
 10
0
 20
0
 30
0
 70
128
 71
13
 72
1
 73
15
 74
15
 0
VERTEX
 8
GRIFF_1
 10
0
 20
0
 30
0
 70
128
 71
24
 72
25
 73
3
 74
2
 0
VERTEX
 8
GRIFF_1
 10
0
 20
0
 30
0
 70
128
 71
14
 72
15
 73
17
 74
16
 0
VERTEX
 8
GRIFF_1
 10
0
 20
0
 30
0
 70
128
 71
15
 72
1
 73
17
 74
17
 0
VERTEX
 8
GRIFF_1
 10
0
 20
0
 30
0
 70
128
 71
25
 72
1
 73
3
 74
3
 0
VERTEX
 8
GRIFF_1
 10
0
 20
0
 30
0
 70
128
 71
16
 72
17
 73
19
 74
18
 0
VERTEX
 8
GRIFF_1
 10
0
 20
0
 30
0
 70
128
 71
17
 72
1
 73
19
 74
19
 0
SEQEND
 0
POLYLINE
 8
ZYLINDER
 66
1
 10
0.0
 20
0.0
 30
0.0
 70
64
 71
37
 72
36
 0
VERTEX
 8
ZYLINDER
 10
0.0989
 20
-0.0507
 30
14.4673
 70
192
 0
VERTEX
 8
ZYLINDER
 10
0.0989
 20
-0.9857
 30
14.4673
 70
192
 0
VERTEX
 8
ZYLINDER
 10
0.0989
 20
-1.0407
 30
14.5223
 70
192
 0
VERTEX
 8
ZYLINDER
 10
0.0989
 20
-1.0407
 30
16.6123
 70
192
 0
VERTEX
 8
ZYLINDER
 10
0.5664
 20
-0.8604
 30
14.4673
 70
192
 0
VERTEX
 8
ZYLINDER
 10
0.5939
 20
-0.9081
 30
14.5223
 70
192
 0
VERTEX
 8
ZYLINDER
 10
0.5939
 20
-0.9081
 30
16.6123
 70
192
 0
VERTEX
 8
ZYLINDER
 10
0.9086
 20
-0.5182
 30
14.4673
 70
192
 0
VERTEX
 8
ZYLINDER
 10
0.9562
 20
-0.5457
 30
14.5223
 70
192
 0
VERTEX
 8
ZYLINDER
 10
0.9562
 20
-0.5457
 30
16.6123
 70
192
 0
VERTEX
 8
ZYLINDER
 10
1.0339
 20
-0.0507
 30
14.4673
 70
192
 0
VERTEX
 8
ZYLINDER
 10
1.0889
 20
-0.0507
 30
14.5223
 70
192
 0
VERTEX
 8
ZYLINDER
 10
1.0889
 20
-0.0507
 30
16.6123
 70
192
 0
VERTEX
 8
ZYLINDER
 10
0.9086
 20
0.4168
 30
14.4673
 70
192
 0
VERTEX
 8
ZYLINDER
 10
0.9562
 20
0.4443
 30
14.5223
 70
192
 0
VERTEX
 8
ZYLINDER
 10
0.9562
 20
0.4443
 30
16.6123
 70
192
 0
VERTEX
 8
ZYLINDER
 10
0.5664
 20
0.759
 30
14.4673
 70
192
 0
VERTEX
 8
ZYLINDER
 10
0.5939
 20
0.8067
 30
14.5223
 70
192
 0
VERTEX
 8
ZYLINDER
 10
0.5939
 20
0.8067
 30
16.6123
 70
192
 0
VERTEX
 8
ZYLINDER
 10
0.0989
 20
0.8843
 30
14.4673
 70
192
 0
VERTEX
 8
ZYLINDER
 10
0.0989
 20
0.9393
 30
14.5223
 70
192
 0
VERTEX
 8
ZYLINDER
 10
0.0989
 20
0.9393
 30
16.6123
 70
192
 0
VERTEX
 8
ZYLINDER
 10
-0.3686
 20
0.759
 30
14.4673
 70
192
 0
VERTEX
 8
ZYLINDER
 10
-0.3961
 20
0.8067
 30
14.5223
 70
192
 0
VERTEX
 8
ZYLINDER
 10
-0.3961
 20
0.8067
 30
16.6123
 70
192
 0
VERTEX
 8
ZYLINDER
 10
-0.7109
 20
0.4168
 30
14.4673
 70
192
 0
VERTEX
 8
ZYLINDER
 10
-0.7585
 20
0.4443
 30
14.5223
 70
192
 0
VERTEX
 8
ZYLINDER
 10
-0.7585
 20
0.4443
 30
16.6123
 70
192
 0
VERTEX
 8
ZYLINDER
 10
-0.8361
 20
-0.0507
 30
14.4673
 70
192
 0
VERTEX
 8
ZYLINDER
 10
-0.8911
 20
-0.0507
 30
14.5223
 70
192
 0
VERTEX
 8
ZYLINDER
 10
-0.8911
 20
-0.0507
 30
16.6123
 70
192
 0
VERTEX
 8
ZYLINDER
 10
-0.7109
 20
-0.5182
 30
14.4673
 70
192
 0
VERTEX
 8
ZYLINDER
 10
-0.7585
 20
-0.5457
 30
14.5223
 70
192
 0
VERTEX
 8
ZYLINDER
 10
-0.7585
 20
-0.5457
 30
16.6123
 70
192
 0
VERTEX
 8
ZYLINDER
 10
-0.3686
 20
-0.8604
 30
14.4673
 70
192
 0
VERTEX
 8
ZYLINDER
 10
-0.3961
 20
-0.9081
 30
14.5223
 70
192
 0
VERTEX
 8
ZYLINDER
 10
-0.3961
 20
-0.9081
 30
16.6123
 70
192
 0
VERTEX
 8
ZYLINDER
 10
0
 20
0
 30
0
 70
128
 71
1
 72
2
 73
5
 74
5
 0
VERTEX
 8
ZYLINDER
 10
0
 20
0
 30
0
 70
128
 71
2
 72
3
 73
6
 74
5
 0
VERTEX
 8
ZYLINDER
 10
0
 20
0
 30
0
 70
128
 71
3
 72
4
 73
7
 74
6
 0
VERTEX
 8
ZYLINDER
 10
0
 20
0
 30
0
 70
128
 71
24
 72
25
 73
28
 74
27
 0
VERTEX
 8
ZYLINDER
 10
0
 20
0
 30
0
 70
128
 71
1
 72
26
 73
29
 74
29
 0
VERTEX
 8
ZYLINDER
 10
0
 20
0
 30
0
 70
128
 71
1
 72
5
 73
8
 74
8
 0
VERTEX
 8
ZYLINDER
 10
0
 20
0
 30
0
 70
128
 71
5
 72
6
 73
9
 74
8
 0
VERTEX
 8
ZYLINDER
 10
0
 20
0
 30
0
 70
128
 71
6
 72
7
 73
10
 74
9
 0
VERTEX
 8
ZYLINDER
 10
0
 20
0
 30
0
 70
128
 71
26
 72
27
 73
30
 74
29
 0
VERTEX
 8
ZYLINDER
 10
0
 20
0
 30
0
 70
128
 71
27
 72
28
 73
31
 74
30
 0
VERTEX
 8
ZYLINDER
 10
0
 20
0
 30
0
 70
128
 71
1
 72
8
 73
11
 74
11
 0
VERTEX
 8
ZYLINDER
 10
0
 20
0
 30
0
 70
128
 71
8
 72
9
 73
12
 74
11
 0
VERTEX
 8
ZYLINDER
 10
0
 20
0
 30
0
 70
128
 71
9
 72
10
 73
13
 74
12
 0
VERTEX
 8
ZYLINDER
 10
0
 20
0
 30
0
 70
128
 71
1
 72
29
 73
32
 74
32
 0
VERTEX
 8
ZYLINDER
 10
0
 20
0
 30
0
 70
128
 71
29
 72
30
 73
33
 74
32
 0
VERTEX
 8
ZYLINDER
 10
0
 20
0
 30
0
 70
128
 71
1
 72
11
 73
14
 74
14
 0
VERTEX
 8
ZYLINDER
 10
0
 20
0
 30
0
 70
128
 71
11
 72
12
 73
15
 74
14
 0
VERTEX
 8
ZYLINDER
 10
0
 20
0
 30
0
 70
128
 71
12
 72
13
 73
16
 74
15
 0
VERTEX
 8
ZYLINDER
 10
0
 20
0
 30
0
 70
128
 71
30
 72
31
 73
34
 74
33
 0
VERTEX
 8
ZYLINDER
 10
0
 20
0
 30
0
 70
128
 71
1
 72
32
 73
35
 74
35
 0
VERTEX
 8
ZYLINDER
 10
0
 20
0
 30
0
 70
128
 71
1
 72
14
 73
17
 74
17
 0
VERTEX
 8
ZYLINDER
 10
0
 20
0
 30
0
 70
128
 71
14
 72
15
 73
18
 74
17
 0
VERTEX
 8
ZYLINDER
 10
0
 20
0
 30
0
 70
128
 71
15
 72
16
 73
19
 74
18
 0
VERTEX
 8
ZYLINDER
 10
0
 20
0
 30
0
 70
128
 71
32
 72
33
 73
36
 74
35
 0
VERTEX
 8
ZYLINDER
 10
0
 20
0
 30
0
 70
128
 71
33
 72
34
 73
37
 74
36
 0
VERTEX
 8
ZYLINDER
 10
0
 20
0
 30
0
 70
128
 71
1
 72
17
 73
20
 74
20
 0
VERTEX
 8
ZYLINDER
 10
0
 20
0
 30
0
 70
128
 71
17
 72
18
 73
21
 74
20
 0
VERTEX
 8
ZYLINDER
 10
0
 20
0
 30
0
 70
128
 71
18
 72
19
 73
22
 74
21
 0
VERTEX
 8
ZYLINDER
 10
0
 20
0
 30
0
 70
128
 71
23
 72
24
 73
27
 74
26
 0
VERTEX
 8
ZYLINDER
 10
0
 20
0
 30
0
 70
128
 71
1
 72
35
 73
2
 74
2
 0
VERTEX
 8
ZYLINDER
 10
0
 20
0
 30
0
 70
128
 71
1
 72
20
 73
23
 74
23
 0
VERTEX
 8
ZYLINDER
 10
0
 20
0
 30
0
 70
128
 71
20
 72
21
 73
24
 74
23
 0
VERTEX
 8
ZYLINDER
 10
0
 20
0
 30
0
 70
128
 71
21
 72
22
 73
25
 74
24
 0
VERTEX
 8
ZYLINDER
 10
0
 20
0
 30
0
 70
128
 71
35
 72
36
 73
3
 74
2
 0
VERTEX
 8
ZYLINDER
 10
0
 20
0
 30
0
 70
128
 71
36
 72
37
 73
4
 74
3
 0
VERTEX
 8
ZYLINDER
 10
0
 20
0
 30
0
 70
128
 71
1
 72
23
 73
26
 74
26
 0
SEQEND
 0
POLYLINE
 8
ROSETTE_1
 66
1
 10
0.0
 20
0.0
 30
0.0
 70
64
 71
30
 72
31
 0
VERTEX
 8
ROSETTE_1
 10
-7.3994
 20
7.7847
 30
14.0076
 70
192
 0
VERTEX
 8
ROSETTE_1
 10
-7.3994
 20
5.7847
 30
14.0076
 70
192
 0
VERTEX
 8
ROSETTE_1
 10
-8.1063
 20
7.7847
 30
20.7333
 70
192
 0
VERTEX
 8
ROSETTE_1
 10
-8.1063
 20
5.7847
 30
20.7333
 70
192
 0
VERTEX
 8
ROSETTE_1
 10
-6.0164
 20
7.7847
 30
14.3015
 70
192
 0
VERTEX
 8
ROSETTE_1
 10
-6.0164
 20
5.7847
 30
14.3015
 70
192
 0
VERTEX
 8
ROSETTE_1
 10
-9.3978
 20
7.7847
 30
20.1582
 70
192
 0
VERTEX
 8
ROSETTE_1
 10
-9.3978
 20
5.7847
 30
20.1582
 70
192
 0
VERTEX
 8
ROSETTE_1
 10
-4.8727
 20
7.7847
 30
15.1325
 70
192
 0
VERTEX
 8
ROSETTE_1
 10
-4.8727
 20
5.7847
 30
15.1325
 70
192
 0
VERTEX
 8
ROSETTE_1
 10
-10.3438
 20
7.7847
 30
19.1076
 70
192
 0
VERTEX
 8
ROSETTE_1
 10
-10.3438
 20
5.7847
 30
19.1076
 70
192
 0
VERTEX
 8
ROSETTE_1
 10
-4.1658
 20
7.7847
 30
16.3569
 70
192
 0
VERTEX
 8
ROSETTE_1
 10
-4.1658
 20
5.7847
 30
16.3569
 70
192
 0
VERTEX
 8
ROSETTE_1
 10
-10.7807
 20
7.7847
 30
17.763
 70
192
 0
VERTEX
 8
ROSETTE_1
 10
-10.7807
 20
5.7847
 30
17.763
 70
192
 0
VERTEX
 8
ROSETTE_1
 10
-4.018
 20
7.7847
 30
17.763
 70
192
 0
VERTEX
 8
ROSETTE_1
 10
-4.018
 20
5.7847
 30
17.763
 70
192
 0
VERTEX
 8
ROSETTE_1
 10
-10.6329
 20
7.7847
 30
16.3569
 70
192
 0
VERTEX
 8
ROSETTE_1
 10
-10.6329
 20
5.7847
 30
16.3569
 70
192
 0
VERTEX
 8
ROSETTE_1
 10
-4.4549
 20
7.7847
 30
19.1076
 70
192
 0
VERTEX
 8
ROSETTE_1
 10
-4.4549
 20
5.7847
 30
19.1076
 70
192
 0
VERTEX
 8
ROSETTE_1
 10
-9.926
 20
7.7847
 30
15.1325
 70
192
 0
VERTEX
 8
ROSETTE_1
 10
-9.926
 20
5.7847
 30
15.1325
 70
192
 0
VERTEX
 8
ROSETTE_1
 10
-5.4009
 20
7.7847
 30
20.1582
 70
192
 0
VERTEX
 8
ROSETTE_1
 10
-5.4009
 20
5.7847
 30
20.1582
 70
192
 0
VERTEX
 8
ROSETTE_1
 10
-8.7823
 20
7.7847
 30
14.3015
 70
192
 0
VERTEX
 8
ROSETTE_1
 10
-8.7823
 20
5.7847
 30
14.3015
 70
192
 0
VERTEX
 8
ROSETTE_1
 10
-6.6925
 20
7.7847
 30
20.7333
 70
192
 0
VERTEX
 8
ROSETTE_1
 10
-6.6925
 20
5.7847
 30
20.7333
 70
192
 0
VERTEX
 8
ROSETTE_1
 10
0
 20
0
 30
0
 70
128
 71
17
 72
18
 73
22
 74
21
 0
VERTEX
 8
ROSETTE_1
 10
0
 20
0
 30
0
 70
128
 71
1
 72
2
 73
6
 74
5
 0
VERTEX
 8
ROSETTE_1
 10
0
 20
0
 30
0
 70
128
 71
21
 72
22
 73
26
 74
25
 0
VERTEX
 8
ROSETTE_1
 10
0
 20
0
 30
0
 70
128
 71
25
 72
26
 73
30
 74
29
 0
VERTEX
 8
ROSETTE_1
 10
0
 20
0
 30
0
 70
128
 71
29
 72
30
 73
4
 74
3
 0
VERTEX
 8
ROSETTE_1
 10
0
 20
0
 30
0
 70
128
 71
5
 72
6
 73
10
 74
9
 0
VERTEX
 8
ROSETTE_1
 10
0
 20
0
 30
0
 70
128
 71
3
 72
4
 73
8
 74
7
 0
VERTEX
 8
ROSETTE_1
 10
0
 20
0
 30
0
 70
128
 71
7
 72
8
 73
12
 74
11
 0
VERTEX
 8
ROSETTE_1
 10
0
 20
0
 30
0
 70
128
 71
11
 72
12
 73
16
 74
15
 0
VERTEX
 8
ROSETTE_1
 10
0
 20
0
 30
0
 70
128
 71
9
 72
10
 73
14
 74
13
 0
VERTEX
 8
ROSETTE_1
 10
0
 20
0
 30
0
 70
128
 71
15
 72
16
 73
20
 74
19
 0
VERTEX
 8
ROSETTE_1
 10
0
 20
0
 30
0
 70
128
 71
19
 72
20
 73
24
 74
23
 0
VERTEX
 8
ROSETTE_1
 10
0
 20
0
 30
0
 70
128
 71
23
 72
24
 73
28
 74
27
 0
VERTEX
 8
ROSETTE_1
 10
0
 20
0
 30
0
 70
128
 71
13
 72
14
 73
18
 74
17
 0
VERTEX
 8
ROSETTE_1
 10
0
 20
0
 30
0
 70
128
 71
27
 72
28
 73
2
 74
1
 0
VERTEX
 8
ROSETTE_1
 10
0
 20
0
 30
0
 70
128
 71
15
 72
19
 73
23
 74
11
 0
VERTEX
 8
ROSETTE_1
 10
0
 20
0
 30
0
 70
128
 71
11
 72
23
 73
27
 74
1
 0
VERTEX
 8
ROSETTE_1
 10
0
 20
0
 30
0
 70
128
 71
13
 72
1
 73
5
 74
9
 0
VERTEX
 8
ROSETTE_1
 10
0
 20
0
 30
0
 70
128
 71
1
 72
13
 73
3
 74
11
 0
VERTEX
 8
ROSETTE_1
 10
0
 20
0
 30
0
 70
128
 71
13
 72
17
 73
21
 74
21
 0
VERTEX
 8
ROSETTE_1
 10
0
 20
0
 30
0
 70
128
 71
3
 72
13
 73
21
 74
25
 0
VERTEX
 8
ROSETTE_1
 10
0
 20
0
 30
0
 70
128
 71
25
 72
29
 73
3
 74
3
 0
VERTEX
 8
ROSETTE_1
 10
0
 20
0
 30
0
 70
128
 71
3
 72
7
 73
11
 74
11
 0
VERTEX
 8
ROSETTE_1
 10
0
 20
0
 30
0
 70
128
 71
12
 72
8
 73
4
 74
16
 0
VERTEX
 8
ROSETTE_1
 10
0
 20
0
 30
0
 70
128
 71
4
 72
30
 73
26
 74
22
 0
VERTEX
 8
ROSETTE_1
 10
0
 20
0
 30
0
 70
128
 71
16
 72
4
 73
22
 74
6
 0
VERTEX
 8
ROSETTE_1
 10
0
 20
0
 30
0
 70
128
 71
6
 72
22
 73
18
 74
10
 0
VERTEX
 8
ROSETTE_1
 10
0
 20
0
 30
0
 70
128
 71
18
 72
14
 73
10
 74
10
 0
VERTEX
 8
ROSETTE_1
 10
0
 20
0
 30
0
 70
128
 71
6
 72
2
 73
24
 74
16
 0
VERTEX
 8
ROSETTE_1
 10
0
 20
0
 30
0
 70
128
 71
2
 72
28
 73
24
 74
24
 0
VERTEX
 8
ROSETTE_1
 10
0
 20
0
 30
0
 70
128
 71
24
 72
20
 73
16
 74
16
 0
SEQEND
 0
POLYLINE
 8
ROSETTE
 66
1
 10
0.0
 20
0.0
 30
0.0
 70
64
 71
30
 72
31
 0
VERTEX
 8
ROSETTE
 10
7.5922
 20
7.7847
 30
14.0076
 70
192
 0
VERTEX
 8
ROSETTE
 10
7.5922
 20
5.7847
 30
14.0076
 70
192
 0
VERTEX
 8
ROSETTE
 10
6.8853
 20
7.7847
 30
20.7333
 70
192
 0
VERTEX
 8
ROSETTE
 10
6.8853
 20
5.7847
 30
20.7333
 70
192
 0
VERTEX
 8
ROSETTE
 10
8.9751
 20
7.7847
 30
14.3015
 70
192
 0
VERTEX
 8
ROSETTE
 10
8.9751
 20
5.7847
 30
14.3015
 70
192
 0
VERTEX
 8
ROSETTE
 10
5.5937
 20
7.7847
 30
20.1582
 70
192
 0
VERTEX
 8
ROSETTE
 10
5.5937
 20
5.7847
 30
20.1582
 70
192
 0
VERTEX
 8
ROSETTE
 10
10.1189
 20
7.7847
 30
15.1325
 70
192
 0
VERTEX
 8
ROSETTE
 10
10.1189
 20
5.7847
 30
15.1325
 70
192
 0
VERTEX
 8
ROSETTE
 10
4.6477
 20
7.7847
 30
19.1076
 70
192
 0
VERTEX
 8
ROSETTE
 10
4.6477
 20
5.7847
 30
19.1076
 70
192
 0
VERTEX
 8
ROSETTE
 10
10.8258
 20
7.7847
 30
16.3569
 70
192
 0
VERTEX
 8
ROSETTE
 10
10.8258
 20
5.7847
 30
16.3569
 70
192
 0
VERTEX
 8
ROSETTE
 10
4.2108
 20
7.7847
 30
17.763
 70
192
 0
VERTEX
 8
ROSETTE
 10
4.2108
 20
5.7847
 30
17.763
 70
192
 0
VERTEX
 8
ROSETTE
 10
10.9736
 20
7.7847
 30
17.763
 70
192
 0
VERTEX
 8
ROSETTE
 10
10.9736
 20
5.7847
 30
17.763
 70
192
 0
VERTEX
 8
ROSETTE
 10
4.3586
 20
7.7847
 30
16.3569
 70
192
 0
VERTEX
 8
ROSETTE
 10
4.3586
 20
5.7847
 30
16.3569
 70
192
 0
VERTEX
 8
ROSETTE
 10
10.5367
 20
7.7847
 30
19.1076
 70
192
 0
VERTEX
 8
ROSETTE
 10
10.5367
 20
5.7847
 30
19.1076
 70
192
 0
VERTEX
 8
ROSETTE
 10
5.0655
 20
7.7847
 30
15.1325
 70
192
 0
VERTEX
 8
ROSETTE
 10
5.0655
 20
5.7847
 30
15.1325
 70
192
 0
VERTEX
 8
ROSETTE
 10
9.5907
 20
7.7847
 30
20.1582
 70
192
 0
VERTEX
 8
ROSETTE
 10
9.5907
 20
5.7847
 30
20.1582
 70
192
 0
VERTEX
 8
ROSETTE
 10
6.2093
 20
7.7847
 30
14.3015
 70
192
 0
VERTEX
 8
ROSETTE
 10
6.2093
 20
5.7847
 30
14.3015
 70
192
 0
VERTEX
 8
ROSETTE
 10
8.2991
 20
7.7847
 30
20.7333
 70
192
 0
VERTEX
 8
ROSETTE
 10
8.2991
 20
5.7847
 30
20.7333
 70
192
 0
VERTEX
 8
ROSETTE
 10
0
 20
0
 30
0
 70
128
 71
17
 72
18
 73
22
 74
21
 0
VERTEX
 8
ROSETTE
 10
0
 20
0
 30
0
 70
128
 71
1
 72
2
 73
6
 74
5
 0
VERTEX
 8
ROSETTE
 10
0
 20
0
 30
0
 70
128
 71
21
 72
22
 73
26
 74
25
 0
VERTEX
 8
ROSETTE
 10
0
 20
0
 30
0
 70
128
 71
25
 72
26
 73
30
 74
29
 0
VERTEX
 8
ROSETTE
 10
0
 20
0
 30
0
 70
128
 71
29
 72
30
 73
4
 74
3
 0
VERTEX
 8
ROSETTE
 10
0
 20
0
 30
0
 70
128
 71
5
 72
6
 73
10
 74
9
 0
VERTEX
 8
ROSETTE
 10
0
 20
0
 30
0
 70
128
 71
3
 72
4
 73
8
 74
7
 0
VERTEX
 8
ROSETTE
 10
0
 20
0
 30
0
 70
128
 71
7
 72
8
 73
12
 74
11
 0
VERTEX
 8
ROSETTE
 10
0
 20
0
 30
0
 70
128
 71
11
 72
12
 73
16
 74
15
 0
VERTEX
 8
ROSETTE
 10
0
 20
0
 30
0
 70
128
 71
9
 72
10
 73
14
 74
13
 0
VERTEX
 8
ROSETTE
 10
0
 20
0
 30
0
 70
128
 71
15
 72
16
 73
20
 74
19
 0
VERTEX
 8
ROSETTE
 10
0
 20
0
 30
0
 70
128
 71
19
 72
20
 73
24
 74
23
 0
VERTEX
 8
ROSETTE
 10
0
 20
0
 30
0
 70
128
 71
23
 72
24
 73
28
 74
27
 0
VERTEX
 8
ROSETTE
 10
0
 20
0
 30
0
 70
128
 71
13
 72
14
 73
18
 74
17
 0
VERTEX
 8
ROSETTE
 10
0
 20
0
 30
0
 70
128
 71
27
 72
28
 73
2
 74
1
 0
VERTEX
 8
ROSETTE
 10
0
 20
0
 30
0
 70
128
 71
15
 72
19
 73
23
 74
11
 0
VERTEX
 8
ROSETTE
 10
0
 20
0
 30
0
 70
128
 71
11
 72
23
 73
27
 74
1
 0
VERTEX
 8
ROSETTE
 10
0
 20
0
 30
0
 70
128
 71
13
 72
1
 73
5
 74
9
 0
VERTEX
 8
ROSETTE
 10
0
 20
0
 30
0
 70
128
 71
1
 72
13
 73
3
 74
11
 0
VERTEX
 8
ROSETTE
 10
0
 20
0
 30
0
 70
128
 71
13
 72
17
 73
21
 74
21
 0
VERTEX
 8
ROSETTE
 10
0
 20
0
 30
0
 70
128
 71
3
 72
13
 73
21
 74
25
 0
VERTEX
 8
ROSETTE
 10
0
 20
0
 30
0
 70
128
 71
25
 72
29
 73
3
 74
3
 0
VERTEX
 8
ROSETTE
 10
0
 20
0
 30
0
 70
128
 71
3
 72
7
 73
11
 74
11
 0
VERTEX
 8
ROSETTE
 10
0
 20
0
 30
0
 70
128
 71
12
 72
8
 73
4
 74
16
 0
VERTEX
 8
ROSETTE
 10
0
 20
0
 30
0
 70
128
 71
4
 72
30
 73
26
 74
22
 0
VERTEX
 8
ROSETTE
 10
0
 20
0
 30
0
 70
128
 71
16
 72
4
 73
22
 74
6
 0
VERTEX
 8
ROSETTE
 10
0
 20
0
 30
0
 70
128
 71
6
 72
22
 73
18
 74
10
 0
VERTEX
 8
ROSETTE
 10
0
 20
0
 30
0
 70
128
 71
18
 72
14
 73
10
 74
10
 0
VERTEX
 8
ROSETTE
 10
0
 20
0
 30
0
 70
128
 71
6
 72
2
 73
24
 74
16
 0
VERTEX
 8
ROSETTE
 10
0
 20
0
 30
0
 70
128
 71
2
 72
28
 73
24
 74
24
 0
VERTEX
 8
ROSETTE
 10
0
 20
0
 30
0
 70
128
 71
24
 72
20
 73
16
 74
16
 0
SEQEND
 0
ENDSEC
 0
EOF
