 0
SECTION
 2
HEADER
 9
$ACADVER
 1
AC1009
 0
ENDSEC
 0
SECTION
 2
TABLES
 0
TABLE
 2
LTYPE
 70
1
 0
LTYPE
 2
CONTINUOUS
 70
64
 3
solid line
 72
65
 73
0
 40
0.0
 0
ENDTAB
 0
TABLE
 2
LAYER
 70
6
 0
LAYER
 2
0
 70
0
 62
7
 6
CONTINUOUS
 0
LAYER
 2
250_1400_M
 70
64
 62
7
 6
CONTINUOUS
 0
LAYER
 2
AUSLAUF_2
 70
64
 62
250
 6
CONTINUOUS
 0
LAYER
 2
AUSLAUF_1
 70
64
 62
250
 6
CONTINUOUS
 0
LAYER
 2
R_HRE
 70
64
 62
250
 6
CONTINUOUS
 0
LAYER
 2
ROSETTE
 70
64
 62
250
 6
CONTINUOUS
 0
LAYER
 2
K_RPER_1
 70
64
 62
250
 6
CONTINUOUS
 0
LAYER
 2
K1
 70
64
 62
250
 6
CONTINUOUS
 0
LAYER
 2
K2
 70
64
 62
250
 6
CONTINUOUS
 0
LAYER
 2
GRIFF_20
 70
64
 62
250
 6
CONTINUOUS
 0
LAYER
 2
GRIFF_19
 70
64
 62
250
 6
CONTINUOUS
 0
LAYER
 2
GRIFF_18
 70
64
 62
250
 6
CONTINUOUS
 0
LAYER
 2
GRIFF_17
 70
64
 62
250
 6
CONTINUOUS
 0
LAYER
 2
GRIFF_16
 70
64
 62
250
 6
CONTINUOUS
 0
LAYER
 2
GRIFF_15
 70
64
 62
250
 6
CONTINUOUS
 0
LAYER
 2
GRIFF_14
 70
64
 62
250
 6
CONTINUOUS
 0
LAYER
 2
GRIFF_13
 70
64
 62
250
 6
CONTINUOUS
 0
LAYER
 2
GRIFF_12
 70
64
 62
250
 6
CONTINUOUS
 0
LAYER
 2
GRIFF_11
 70
64
 62
250
 6
CONTINUOUS
 0
LAYER
 2
GRIFF_9
 70
64
 62
250
 6
CONTINUOUS
 0
LAYER
 2
GRIFF_8
 70
64
 62
250
 6
CONTINUOUS
 0
LAYER
 2
GRIFF_7
 70
64
 62
250
 6
CONTINUOUS
 0
LAYER
 2
GRIFF_6
 70
64
 62
250
 6
CONTINUOUS
 0
LAYER
 2
GRIFF_5
 70
64
 62
250
 6
CONTINUOUS
 0
LAYER
 2
GRIFF_4
 70
64
 62
250
 6
CONTINUOUS
 0
LAYER
 2
GRIFF_3
 70
64
 62
250
 6
CONTINUOUS
 0
LAYER
 2
GRIFF_2
 70
64
 62
250
 6
CONTINUOUS
 0
LAYER
 2
GRIFF_1
 70
64
 62
250
 6
CONTINUOUS
 0
LAYER
 2
GRIFF
 70
64
 62
250
 6
CONTINUOUS
 0
ENDTAB
 0
ENDSEC
 0
SECTION
 2
BLOCKS
 0
ENDSEC
 0
SECTION
 2
ENTITIES
 0
POLYLINE
 8
AUSLAUF_2
 66
1
 10
0.0
 20
0.0
 30
0.0
 70
64
 71
25
 72
24
 0
VERTEX
 8
AUSLAUF_2
 10
-0.0081
 20
-20.0883
 30
20.6131
 70
192
 0
VERTEX
 8
AUSLAUF_2
 10
-0.0081
 20
-19.3005
 30
20.4742
 70
192
 0
VERTEX
 8
AUSLAUF_2
 10
0.3919
 20
-19.406
 30
20.4928
 70
192
 0
VERTEX
 8
AUSLAUF_2
 10
0.6847
 20
-19.6944
 30
20.5437
 70
192
 0
VERTEX
 8
AUSLAUF_2
 10
0.7919
 20
-20.0883
 30
20.6131
 70
192
 0
VERTEX
 8
AUSLAUF_2
 10
0.6847
 20
-20.4823
 30
20.6826
 70
192
 0
VERTEX
 8
AUSLAUF_2
 10
0.3919
 20
-20.7706
 30
20.7334
 70
192
 0
VERTEX
 8
AUSLAUF_2
 10
-0.0081
 20
-20.8762
 30
20.752
 70
192
 0
VERTEX
 8
AUSLAUF_2
 10
-0.4081
 20
-20.7706
 30
20.7334
 70
192
 0
VERTEX
 8
AUSLAUF_2
 10
-0.701
 20
-20.4823
 30
20.6826
 70
192
 0
VERTEX
 8
AUSLAUF_2
 10
-0.8081
 20
-20.0883
 30
20.6131
 70
192
 0
VERTEX
 8
AUSLAUF_2
 10
-0.701
 20
-19.6944
 30
20.5437
 70
192
 0
VERTEX
 8
AUSLAUF_2
 10
-0.4081
 20
-19.406
 30
20.4928
 70
192
 0
VERTEX
 8
AUSLAUF_2
 10
-0.0081
 20
-19.5277
 30
19.1855
 70
192
 0
VERTEX
 8
AUSLAUF_2
 10
0.3919
 20
-19.6333
 30
19.2041
 70
192
 0
VERTEX
 8
AUSLAUF_2
 10
0.6847
 20
-20.7095
 30
19.3939
 70
192
 0
VERTEX
 8
AUSLAUF_2
 10
-0.701
 20
-20.7095
 30
19.3939
 70
192
 0
VERTEX
 8
AUSLAUF_2
 10
0.6847
 20
-19.9216
 30
19.255
 70
192
 0
VERTEX
 8
AUSLAUF_2
 10
0.7919
 20
-20.3156
 30
19.3244
 70
192
 0
VERTEX
 8
AUSLAUF_2
 10
-0.0081
 20
-21.1034
 30
19.4634
 70
192
 0
VERTEX
 8
AUSLAUF_2
 10
0.3919
 20
-20.9979
 30
19.4447
 70
192
 0
VERTEX
 8
AUSLAUF_2
 10
-0.8081
 20
-20.3156
 30
19.3244
 70
192
 0
VERTEX
 8
AUSLAUF_2
 10
-0.4081
 20
-20.9979
 30
19.4447
 70
192
 0
VERTEX
 8
AUSLAUF_2
 10
-0.701
 20
-19.9216
 30
19.255
 70
192
 0
VERTEX
 8
AUSLAUF_2
 10
-0.4081
 20
-19.6333
 30
19.2041
 70
192
 0
VERTEX
 8
AUSLAUF_2
 10
0
 20
0
 30
0
 70
128
 71
2
 72
1
 73
3
 74
3
 0
VERTEX
 8
AUSLAUF_2
 10
0
 20
0
 30
0
 70
128
 71
3
 72
15
 73
14
 74
2
 0
VERTEX
 8
AUSLAUF_2
 10
0
 20
0
 30
0
 70
128
 71
3
 72
1
 73
4
 74
4
 0
VERTEX
 8
AUSLAUF_2
 10
0
 20
0
 30
0
 70
128
 71
4
 72
18
 73
15
 74
3
 0
VERTEX
 8
AUSLAUF_2
 10
0
 20
0
 30
0
 70
128
 71
4
 72
1
 73
5
 74
5
 0
VERTEX
 8
AUSLAUF_2
 10
0
 20
0
 30
0
 70
128
 71
5
 72
19
 73
18
 74
4
 0
VERTEX
 8
AUSLAUF_2
 10
0
 20
0
 30
0
 70
128
 71
5
 72
1
 73
6
 74
6
 0
VERTEX
 8
AUSLAUF_2
 10
0
 20
0
 30
0
 70
128
 71
6
 72
16
 73
19
 74
5
 0
VERTEX
 8
AUSLAUF_2
 10
0
 20
0
 30
0
 70
128
 71
6
 72
1
 73
7
 74
7
 0
VERTEX
 8
AUSLAUF_2
 10
0
 20
0
 30
0
 70
128
 71
7
 72
21
 73
16
 74
6
 0
VERTEX
 8
AUSLAUF_2
 10
0
 20
0
 30
0
 70
128
 71
7
 72
1
 73
8
 74
8
 0
VERTEX
 8
AUSLAUF_2
 10
0
 20
0
 30
0
 70
128
 71
8
 72
20
 73
21
 74
7
 0
VERTEX
 8
AUSLAUF_2
 10
0
 20
0
 30
0
 70
128
 71
8
 72
1
 73
9
 74
9
 0
VERTEX
 8
AUSLAUF_2
 10
0
 20
0
 30
0
 70
128
 71
9
 72
23
 73
20
 74
8
 0
VERTEX
 8
AUSLAUF_2
 10
0
 20
0
 30
0
 70
128
 71
9
 72
1
 73
10
 74
10
 0
VERTEX
 8
AUSLAUF_2
 10
0
 20
0
 30
0
 70
128
 71
10
 72
17
 73
23
 74
9
 0
VERTEX
 8
AUSLAUF_2
 10
0
 20
0
 30
0
 70
128
 71
10
 72
1
 73
11
 74
11
 0
VERTEX
 8
AUSLAUF_2
 10
0
 20
0
 30
0
 70
128
 71
11
 72
22
 73
17
 74
10
 0
VERTEX
 8
AUSLAUF_2
 10
0
 20
0
 30
0
 70
128
 71
11
 72
1
 73
12
 74
12
 0
VERTEX
 8
AUSLAUF_2
 10
0
 20
0
 30
0
 70
128
 71
12
 72
24
 73
22
 74
11
 0
VERTEX
 8
AUSLAUF_2
 10
0
 20
0
 30
0
 70
128
 71
12
 72
1
 73
13
 74
13
 0
VERTEX
 8
AUSLAUF_2
 10
0
 20
0
 30
0
 70
128
 71
13
 72
25
 73
24
 74
12
 0
VERTEX
 8
AUSLAUF_2
 10
0
 20
0
 30
0
 70
128
 71
13
 72
1
 73
2
 74
2
 0
VERTEX
 8
AUSLAUF_2
 10
0
 20
0
 30
0
 70
128
 71
2
 72
14
 73
25
 74
13
 0
SEQEND
 0
POLYLINE
 8
AUSLAUF_1
 66
1
 10
0.0
 20
0.0
 30
0.0
 70
64
 71
180
 72
168
 0
VERTEX
 8
AUSLAUF_1
 10
-1.0081
 20
-20.3156
 30
19.3244
 70
192
 0
VERTEX
 8
AUSLAUF_1
 10
-0.8742
 20
-0.4642
 30
8.5137
 70
192
 0
VERTEX
 8
AUSLAUF_1
 10
-0.8742
 20
-0.4642
 30
19.262
 70
192
 0
VERTEX
 8
AUSLAUF_1
 10
-0.8742
 20
-0.4644
 30
21.0534
 70
192
 0
VERTEX
 8
AUSLAUF_1
 10
-0.8742
 20
-0.986
 30
24.0883
 70
192
 0
VERTEX
 8
AUSLAUF_1
 10
-0.0081
 20
-0.9642
 30
8.5137
 70
192
 0
VERTEX
 8
AUSLAUF_1
 10
-0.0081
 20
-0.9642
 30
19.262
 70
192
 0
VERTEX
 8
AUSLAUF_1
 10
-0.0081
 20
-0.9644
 30
21.0501
 70
192
 0
VERTEX
 8
AUSLAUF_1
 10
-0.0081
 20
-1.4584
 30
23.9245
 70
192
 0
VERTEX
 8
AUSLAUF_1
 10
-0.0081
 20
-2.8501
 30
26.4874
 70
192
 0
VERTEX
 8
AUSLAUF_1
 10
-0.0081
 20
-4.9918
 30
28.4671
 70
192
 0
VERTEX
 8
AUSLAUF_1
 10
-0.0081
 20
-7.6562
 30
29.6532
 70
192
 0
VERTEX
 8
AUSLAUF_1
 10
-0.0081
 20
-10.5604
 30
29.92
 70
192
 0
VERTEX
 8
AUSLAUF_1
 10
-0.0081
 20
-13.3963
 30
29.239
 70
192
 0
VERTEX
 8
AUSLAUF_1
 10
-0.0081
 20
-15.8628
 30
27.6826
 70
192
 0
VERTEX
 8
AUSLAUF_1
 10
-0.0081
 20
-17.6981
 30
25.416
 70
192
 0
VERTEX
 8
AUSLAUF_1
 10
-0.0081
 20
-18.7074
 30
22.6798
 70
192
 0
VERTEX
 8
AUSLAUF_1
 10
-0.0081
 20
-19.0243
 30
20.8887
 70
192
 0
VERTEX
 8
AUSLAUF_1
 10
-0.0081
 20
-19.3308
 30
19.1508
 70
192
 0
VERTEX
 8
AUSLAUF_1
 10
-0.8742
 20
-2.4554
 30
26.7944
 70
192
 0
VERTEX
 8
AUSLAUF_1
 10
-0.8742
 20
-4.7168
 30
28.8846
 70
192
 0
VERTEX
 8
AUSLAUF_1
 10
-0.8742
 20
-7.53
 30
30.137
 70
192
 0
VERTEX
 8
AUSLAUF_1
 10
-0.8742
 20
-10.5964
 30
30.4187
 70
192
 0
VERTEX
 8
AUSLAUF_1
 10
0.4919
 20
-0.8302
 30
8.5137
 70
192
 0
VERTEX
 8
AUSLAUF_1
 10
0.4919
 20
-0.8302
 30
19.262
 70
192
 0
VERTEX
 8
AUSLAUF_1
 10
0.4919
 20
-0.8304
 30
21.051
 70
192
 0
VERTEX
 8
AUSLAUF_1
 10
0.4919
 20
-1.3318
 30
23.9684
 70
192
 0
VERTEX
 8
AUSLAUF_1
 10
0.4919
 20
-2.7443
 30
26.5697
 70
192
 0
VERTEX
 8
AUSLAUF_1
 10
0.4919
 20
-4.9181
 30
28.579
 70
192
 0
VERTEX
 8
AUSLAUF_1
 10
0.4919
 20
-7.6224
 30
29.7828
 70
192
 0
VERTEX
 8
AUSLAUF_1
 10
0.4919
 20
-10.5701
 30
30.0536
 70
192
 0
VERTEX
 8
AUSLAUF_1
 10
0.4919
 20
-13.4484
 30
29.3625
 70
192
 0
VERTEX
 8
AUSLAUF_1
 10
0.4919
 20
-15.9518
 30
27.7828
 70
192
 0
VERTEX
 8
AUSLAUF_1
 10
0.4919
 20
-17.8146
 30
25.4823
 70
192
 0
VERTEX
 8
AUSLAUF_1
 10
0.4919
 20
-18.839
 30
22.7051
 70
192
 0
VERTEX
 8
AUSLAUF_1
 10
0.4919
 20
-19.1563
 30
20.912
 70
192
 0
VERTEX
 8
AUSLAUF_1
 10
0.4919
 20
-19.4627
 30
19.1741
 70
192
 0
VERTEX
 8
AUSLAUF_1
 10
-0.8742
 20
-13.5907
 30
29.6997
 70
192
 0
VERTEX
 8
AUSLAUF_1
 10
-0.8742
 20
-16.1949
 30
28.0564
 70
192
 0
VERTEX
 8
AUSLAUF_1
 10
-0.8742
 20
-18.1328
 30
25.6632
 70
192
 0
VERTEX
 8
AUSLAUF_1
 10
-0.8742
 20
-19.1985
 30
22.7741
 70
192
 0
VERTEX
 8
AUSLAUF_1
 10
0.8579
 20
-0.4642
 30
8.5137
 70
192
 0
VERTEX
 8
AUSLAUF_1
 10
0.8579
 20
-0.4642
 30
19.262
 70
192
 0
VERTEX
 8
AUSLAUF_1
 10
0.8579
 20
-0.4644
 30
21.0534
 70
192
 0
VERTEX
 8
AUSLAUF_1
 10
0.8579
 20
-0.986
 30
24.0883
 70
192
 0
VERTEX
 8
AUSLAUF_1
 10
0.8579
 20
-2.4554
 30
26.7944
 70
192
 0
VERTEX
 8
AUSLAUF_1
 10
0.8579
 20
-4.7168
 30
28.8846
 70
192
 0
VERTEX
 8
AUSLAUF_1
 10
0.8579
 20
-7.53
 30
30.137
 70
192
 0
VERTEX
 8
AUSLAUF_1
 10
0.8579
 20
-10.5964
 30
30.4187
 70
192
 0
VERTEX
 8
AUSLAUF_1
 10
0.8579
 20
-13.5907
 30
29.6997
 70
192
 0
VERTEX
 8
AUSLAUF_1
 10
0.8579
 20
-16.1949
 30
28.0564
 70
192
 0
VERTEX
 8
AUSLAUF_1
 10
0.8579
 20
-18.1328
 30
25.6632
 70
192
 0
VERTEX
 8
AUSLAUF_1
 10
0.8579
 20
-19.1985
 30
22.7741
 70
192
 0
VERTEX
 8
AUSLAUF_1
 10
0.8579
 20
-19.5167
 30
20.9755
 70
192
 0
VERTEX
 8
AUSLAUF_1
 10
0.8579
 20
-19.8232
 30
19.2376
 70
192
 0
VERTEX
 8
AUSLAUF_1
 10
-0.8742
 20
-19.5167
 30
20.9755
 70
192
 0
VERTEX
 8
AUSLAUF_1
 10
-0.8742
 20
-19.8232
 30
19.2376
 70
192
 0
VERTEX
 8
AUSLAUF_1
 10
-0.5081
 20
-0.8302
 30
8.5137
 70
192
 0
VERTEX
 8
AUSLAUF_1
 10
-0.5081
 20
-0.8302
 30
19.262
 70
192
 0
VERTEX
 8
AUSLAUF_1
 10
0.9919
 20
0.0358
 30
8.5137
 70
192
 0
VERTEX
 8
AUSLAUF_1
 10
0.9919
 20
0.0358
 30
19.262
 70
192
 0
VERTEX
 8
AUSLAUF_1
 10
0.9919
 20
0.0356
 30
21.0567
 70
192
 0
VERTEX
 8
AUSLAUF_1
 10
0.9919
 20
-0.5136
 30
24.2521
 70
192
 0
VERTEX
 8
AUSLAUF_1
 10
0.9919
 20
-2.0608
 30
27.1014
 70
192
 0
VERTEX
 8
AUSLAUF_1
 10
0.9919
 20
-4.4417
 30
29.3022
 70
192
 0
VERTEX
 8
AUSLAUF_1
 10
0.9919
 20
-7.4037
 30
30.6208
 70
192
 0
VERTEX
 8
AUSLAUF_1
 10
0.9919
 20
-10.6324
 30
30.9174
 70
192
 0
VERTEX
 8
AUSLAUF_1
 10
0.9919
 20
-13.7851
 30
30.1604
 70
192
 0
VERTEX
 8
AUSLAUF_1
 10
0.9919
 20
-16.5271
 30
28.4301
 70
192
 0
VERTEX
 8
AUSLAUF_1
 10
0.9919
 20
-18.5674
 30
25.9103
 70
192
 0
VERTEX
 8
AUSLAUF_1
 10
0.9919
 20
-19.6895
 30
22.8684
 70
192
 0
VERTEX
 8
AUSLAUF_1
 10
0.9919
 20
-20.0091
 30
21.0623
 70
192
 0
VERTEX
 8
AUSLAUF_1
 10
0.9919
 20
-20.3156
 30
19.3244
 70
192
 0
VERTEX
 8
AUSLAUF_1
 10
-0.5081
 20
-0.8304
 30
21.051
 70
192
 0
VERTEX
 8
AUSLAUF_1
 10
-0.5081
 20
-1.3318
 30
23.9684
 70
192
 0
VERTEX
 8
AUSLAUF_1
 10
-0.5081
 20
-2.7443
 30
26.5697
 70
192
 0
VERTEX
 8
AUSLAUF_1
 10
-0.5081
 20
-4.9181
 30
28.579
 70
192
 0
VERTEX
 8
AUSLAUF_1
 10
0.8579
 20
0.5358
 30
8.5137
 70
192
 0
VERTEX
 8
AUSLAUF_1
 10
0.8579
 20
0.5358
 30
19.262
 70
192
 0
VERTEX
 8
AUSLAUF_1
 10
0.8579
 20
0.5356
 30
21.06
 70
192
 0
VERTEX
 8
AUSLAUF_1
 10
0.8579
 20
-0.0412
 30
24.416
 70
192
 0
VERTEX
 8
AUSLAUF_1
 10
0.8579
 20
-1.6661
 30
27.4084
 70
192
 0
VERTEX
 8
AUSLAUF_1
 10
0.8579
 20
-4.1667
 30
29.7197
 70
192
 0
VERTEX
 8
AUSLAUF_1
 10
0.8579
 20
-7.2775
 30
31.1046
 70
192
 0
VERTEX
 8
AUSLAUF_1
 10
0.8579
 20
-10.6684
 30
31.4161
 70
192
 0
VERTEX
 8
AUSLAUF_1
 10
0.8579
 20
-13.9794
 30
30.621
 70
192
 0
VERTEX
 8
AUSLAUF_1
 10
0.8579
 20
-16.8592
 30
28.8039
 70
192
 0
VERTEX
 8
AUSLAUF_1
 10
0.8579
 20
-19.0021
 30
26.1575
 70
192
 0
VERTEX
 8
AUSLAUF_1
 10
0.8579
 20
-20.1805
 30
22.9627
 70
192
 0
VERTEX
 8
AUSLAUF_1
 10
0.8579
 20
-20.5015
 30
21.1492
 70
192
 0
VERTEX
 8
AUSLAUF_1
 10
0.8579
 20
-20.808
 30
19.4113
 70
192
 0
VERTEX
 8
AUSLAUF_1
 10
-0.5081
 20
-7.6224
 30
29.7828
 70
192
 0
VERTEX
 8
AUSLAUF_1
 10
-0.5081
 20
-10.5701
 30
30.0536
 70
192
 0
VERTEX
 8
AUSLAUF_1
 10
-0.5081
 20
-13.4484
 30
29.3625
 70
192
 0
VERTEX
 8
AUSLAUF_1
 10
-0.5081
 20
-15.9518
 30
27.7828
 70
192
 0
VERTEX
 8
AUSLAUF_1
 10
0.4919
 20
0.9019
 30
8.5137
 70
192
 0
VERTEX
 8
AUSLAUF_1
 10
0.4919
 20
0.9019
 30
19.262
 70
192
 0
VERTEX
 8
AUSLAUF_1
 10
0.4919
 20
0.9016
 30
21.0624
 70
192
 0
VERTEX
 8
AUSLAUF_1
 10
0.4919
 20
0.3046
 30
24.5359
 70
192
 0
VERTEX
 8
AUSLAUF_1
 10
0.4919
 20
-1.3772
 30
27.6331
 70
192
 0
VERTEX
 8
AUSLAUF_1
 10
0.4919
 20
-3.9653
 30
30.0254
 70
192
 0
VERTEX
 8
AUSLAUF_1
 10
0.4919
 20
-7.1851
 30
31.4588
 70
192
 0
VERTEX
 8
AUSLAUF_1
 10
0.4919
 20
-10.6947
 30
31.7812
 70
192
 0
VERTEX
 8
AUSLAUF_1
 10
0.4919
 20
-14.1217
 30
30.9583
 70
192
 0
VERTEX
 8
AUSLAUF_1
 10
0.4919
 20
-17.1024
 30
29.0775
 70
192
 0
VERTEX
 8
AUSLAUF_1
 10
0.4919
 20
-19.3202
 30
26.3384
 70
192
 0
VERTEX
 8
AUSLAUF_1
 10
0.4919
 20
-20.54
 30
23.0318
 70
192
 0
VERTEX
 8
AUSLAUF_1
 10
0.4919
 20
-20.862
 30
21.2127
 70
192
 0
VERTEX
 8
AUSLAUF_1
 10
0.4919
 20
-21.1684
 30
19.4748
 70
192
 0
VERTEX
 8
AUSLAUF_1
 10
-0.5081
 20
-17.8146
 30
25.4823
 70
192
 0
VERTEX
 8
AUSLAUF_1
 10
-0.5081
 20
-18.839
 30
22.7051
 70
192
 0
VERTEX
 8
AUSLAUF_1
 10
-0.5081
 20
-19.1563
 30
20.912
 70
192
 0
VERTEX
 8
AUSLAUF_1
 10
-0.5081
 20
-19.4627
 30
19.1741
 70
192
 0
VERTEX
 8
AUSLAUF_1
 10
-0.0081
 20
1.0358
 30
8.5137
 70
192
 0
VERTEX
 8
AUSLAUF_1
 10
-0.0081
 20
1.0358
 30
19.262
 70
192
 0
VERTEX
 8
AUSLAUF_1
 10
-0.0081
 20
1.0356
 30
21.0633
 70
192
 0
VERTEX
 8
AUSLAUF_1
 10
-0.0081
 20
0.4312
 30
24.5798
 70
192
 0
VERTEX
 8
AUSLAUF_1
 10
-0.0081
 20
-1.2714
 30
27.7154
 70
192
 0
VERTEX
 8
AUSLAUF_1
 10
-0.0081
 20
-3.8916
 30
30.1373
 70
192
 0
VERTEX
 8
AUSLAUF_1
 10
-0.0081
 20
-7.1513
 30
31.5884
 70
192
 0
VERTEX
 8
AUSLAUF_1
 10
-0.0081
 20
-10.7044
 30
31.9148
 70
192
 0
VERTEX
 8
AUSLAUF_1
 10
-0.0081
 20
-14.1738
 30
31.0817
 70
192
 0
VERTEX
 8
AUSLAUF_1
 10
-0.0081
 20
-17.1914
 30
29.1776
 70
192
 0
VERTEX
 8
AUSLAUF_1
 10
-0.0081
 20
-19.4367
 30
26.4046
 70
192
 0
VERTEX
 8
AUSLAUF_1
 10
-0.0081
 20
-20.6715
 30
23.0571
 70
192
 0
VERTEX
 8
AUSLAUF_1
 10
-0.0081
 20
-20.9939
 30
21.236
 70
192
 0
VERTEX
 8
AUSLAUF_1
 10
-0.0081
 20
-21.3004
 30
19.4981
 70
192
 0
VERTEX
 8
AUSLAUF_1
 10
-0.0081
 20
-19.5277
 30
19.1855
 70
192
 0
VERTEX
 8
AUSLAUF_1
 10
0.3919
 20
-19.6333
 30
19.2041
 70
192
 0
VERTEX
 8
AUSLAUF_1
 10
-0.4081
 20
-20.9979
 30
19.4447
 70
192
 0
VERTEX
 8
AUSLAUF_1
 10
0.6847
 20
-20.7095
 30
19.3939
 70
192
 0
VERTEX
 8
AUSLAUF_1
 10
-0.5081
 20
0.9019
 30
8.5137
 70
192
 0
VERTEX
 8
AUSLAUF_1
 10
-0.5081
 20
0.9019
 30
19.262
 70
192
 0
VERTEX
 8
AUSLAUF_1
 10
-0.5081
 20
0.9016
 30
21.0624
 70
192
 0
VERTEX
 8
AUSLAUF_1
 10
-0.5081
 20
0.3046
 30
24.5359
 70
192
 0
VERTEX
 8
AUSLAUF_1
 10
-0.5081
 20
-1.3772
 30
27.6331
 70
192
 0
VERTEX
 8
AUSLAUF_1
 10
-0.5081
 20
-3.9653
 30
30.0254
 70
192
 0
VERTEX
 8
AUSLAUF_1
 10
-0.5081
 20
-7.1851
 30
31.4588
 70
192
 0
VERTEX
 8
AUSLAUF_1
 10
-0.5081
 20
-10.6947
 30
31.7812
 70
192
 0
VERTEX
 8
AUSLAUF_1
 10
-0.5081
 20
-14.1217
 30
30.9583
 70
192
 0
VERTEX
 8
AUSLAUF_1
 10
-0.5081
 20
-17.1024
 30
29.0775
 70
192
 0
VERTEX
 8
AUSLAUF_1
 10
-0.5081
 20
-19.3202
 30
26.3384
 70
192
 0
VERTEX
 8
AUSLAUF_1
 10
-0.5081
 20
-20.54
 30
23.0318
 70
192
 0
VERTEX
 8
AUSLAUF_1
 10
-0.5081
 20
-20.862
 30
21.2127
 70
192
 0
VERTEX
 8
AUSLAUF_1
 10
-0.5081
 20
-21.1684
 30
19.4748
 70
192
 0
VERTEX
 8
AUSLAUF_1
 10
0.6847
 20
-19.9216
 30
19.255
 70
192
 0
VERTEX
 8
AUSLAUF_1
 10
0.3919
 20
-20.9979
 30
19.4447
 70
192
 0
VERTEX
 8
AUSLAUF_1
 10
0.7919
 20
-20.3156
 30
19.3244
 70
192
 0
VERTEX
 8
AUSLAUF_1
 10
-0.701
 20
-20.7095
 30
19.3939
 70
192
 0
VERTEX
 8
AUSLAUF_1
 10
-0.8742
 20
0.5358
 30
8.5137
 70
192
 0
VERTEX
 8
AUSLAUF_1
 10
-0.8742
 20
0.5358
 30
19.262
 70
192
 0
VERTEX
 8
AUSLAUF_1
 10
-0.8742
 20
0.5356
 30
21.06
 70
192
 0
VERTEX
 8
AUSLAUF_1
 10
-0.8742
 20
-0.0412
 30
24.416
 70
192
 0
VERTEX
 8
AUSLAUF_1
 10
-0.8742
 20
-1.6661
 30
27.4084
 70
192
 0
VERTEX
 8
AUSLAUF_1
 10
-0.8742
 20
-4.1667
 30
29.7197
 70
192
 0
VERTEX
 8
AUSLAUF_1
 10
-0.8742
 20
-7.2775
 30
31.1046
 70
192
 0
VERTEX
 8
AUSLAUF_1
 10
-0.8742
 20
-10.6684
 30
31.4161
 70
192
 0
VERTEX
 8
AUSLAUF_1
 10
-0.8742
 20
-13.9794
 30
30.621
 70
192
 0
VERTEX
 8
AUSLAUF_1
 10
-0.8742
 20
-16.8592
 30
28.8039
 70
192
 0
VERTEX
 8
AUSLAUF_1
 10
-0.8742
 20
-19.0021
 30
26.1575
 70
192
 0
VERTEX
 8
AUSLAUF_1
 10
-0.8742
 20
-20.1805
 30
22.9627
 70
192
 0
VERTEX
 8
AUSLAUF_1
 10
-0.8742
 20
-20.5015
 30
21.1492
 70
192
 0
VERTEX
 8
AUSLAUF_1
 10
-0.8742
 20
-20.808
 30
19.4113
 70
192
 0
VERTEX
 8
AUSLAUF_1
 10
-0.701
 20
-19.9216
 30
19.255
 70
192
 0
VERTEX
 8
AUSLAUF_1
 10
-0.0081
 20
-21.1034
 30
19.4634
 70
192
 0
VERTEX
 8
AUSLAUF_1
 10
-0.8081
 20
-20.3156
 30
19.3244
 70
192
 0
VERTEX
 8
AUSLAUF_1
 10
-0.4081
 20
-19.6333
 30
19.2041
 70
192
 0
VERTEX
 8
AUSLAUF_1
 10
-1.0081
 20
0.0358
 30
8.5137
 70
192
 0
VERTEX
 8
AUSLAUF_1
 10
-1.0081
 20
0.0358
 30
19.262
 70
192
 0
VERTEX
 8
AUSLAUF_1
 10
-1.0081
 20
0.0356
 30
21.0567
 70
192
 0
VERTEX
 8
AUSLAUF_1
 10
-1.0081
 20
-0.5136
 30
24.2521
 70
192
 0
VERTEX
 8
AUSLAUF_1
 10
-1.0081
 20
-2.0608
 30
27.1014
 70
192
 0
VERTEX
 8
AUSLAUF_1
 10
-1.0081
 20
-4.4417
 30
29.3022
 70
192
 0
VERTEX
 8
AUSLAUF_1
 10
-1.0081
 20
-7.4037
 30
30.6208
 70
192
 0
VERTEX
 8
AUSLAUF_1
 10
-1.0081
 20
-10.6324
 30
30.9174
 70
192
 0
VERTEX
 8
AUSLAUF_1
 10
-1.0081
 20
-13.7851
 30
30.1604
 70
192
 0
VERTEX
 8
AUSLAUF_1
 10
-1.0081
 20
-16.5271
 30
28.4301
 70
192
 0
VERTEX
 8
AUSLAUF_1
 10
-1.0081
 20
-18.5674
 30
25.9103
 70
192
 0
VERTEX
 8
AUSLAUF_1
 10
-1.0081
 20
-19.6895
 30
22.8684
 70
192
 0
VERTEX
 8
AUSLAUF_1
 10
-1.0081
 20
-20.0091
 30
21.0623
 70
192
 0
VERTEX
 8
AUSLAUF_1
 10
0
 20
0
 30
0
 70
128
 71
161
 72
162
 73
180
 74
179
 0
VERTEX
 8
AUSLAUF_1
 10
0
 20
0
 30
0
 70
128
 71
162
 72
163
 73
1
 74
180
 0
VERTEX
 8
AUSLAUF_1
 10
0
 20
0
 30
0
 70
128
 71
163
 72
149
 73
166
 74
1
 0
VERTEX
 8
AUSLAUF_1
 10
0
 20
0
 30
0
 70
128
 71
168
 72
169
 73
3
 74
2
 0
VERTEX
 8
AUSLAUF_1
 10
0
 20
0
 30
0
 70
128
 71
169
 72
170
 73
4
 74
3
 0
VERTEX
 8
AUSLAUF_1
 10
0
 20
0
 30
0
 70
128
 71
6
 72
7
 73
25
 74
24
 0
VERTEX
 8
AUSLAUF_1
 10
0
 20
0
 30
0
 70
128
 71
7
 72
8
 73
26
 74
25
 0
VERTEX
 8
AUSLAUF_1
 10
0
 20
0
 30
0
 70
128
 71
8
 72
9
 73
27
 74
26
 0
VERTEX
 8
AUSLAUF_1
 10
0
 20
0
 30
0
 70
128
 71
9
 72
10
 73
28
 74
27
 0
VERTEX
 8
AUSLAUF_1
 10
0
 20
0
 30
0
 70
128
 71
10
 72
11
 73
29
 74
28
 0
VERTEX
 8
AUSLAUF_1
 10
0
 20
0
 30
0
 70
128
 71
11
 72
12
 73
30
 74
29
 0
VERTEX
 8
AUSLAUF_1
 10
0
 20
0
 30
0
 70
128
 71
12
 72
13
 73
31
 74
30
 0
VERTEX
 8
AUSLAUF_1
 10
0
 20
0
 30
0
 70
128
 71
13
 72
14
 73
32
 74
31
 0
VERTEX
 8
AUSLAUF_1
 10
0
 20
0
 30
0
 70
128
 71
14
 72
15
 73
33
 74
32
 0
VERTEX
 8
AUSLAUF_1
 10
0
 20
0
 30
0
 70
128
 71
15
 72
16
 73
34
 74
33
 0
VERTEX
 8
AUSLAUF_1
 10
0
 20
0
 30
0
 70
128
 71
16
 72
17
 73
35
 74
34
 0
VERTEX
 8
AUSLAUF_1
 10
0
 20
0
 30
0
 70
128
 71
17
 72
18
 73
36
 74
35
 0
VERTEX
 8
AUSLAUF_1
 10
0
 20
0
 30
0
 70
128
 71
18
 72
19
 73
37
 74
36
 0
VERTEX
 8
AUSLAUF_1
 10
0
 20
0
 30
0
 70
128
 71
128
 72
129
 73
37
 74
19
 0
VERTEX
 8
AUSLAUF_1
 10
0
 20
0
 30
0
 70
128
 71
170
 72
171
 73
5
 74
4
 0
VERTEX
 8
AUSLAUF_1
 10
0
 20
0
 30
0
 70
128
 71
171
 72
172
 73
20
 74
5
 0
VERTEX
 8
AUSLAUF_1
 10
0
 20
0
 30
0
 70
128
 71
172
 72
173
 73
21
 74
20
 0
VERTEX
 8
AUSLAUF_1
 10
0
 20
0
 30
0
 70
128
 71
173
 72
174
 73
22
 74
21
 0
VERTEX
 8
AUSLAUF_1
 10
0
 20
0
 30
0
 70
128
 71
174
 72
175
 73
23
 74
22
 0
VERTEX
 8
AUSLAUF_1
 10
0
 20
0
 30
0
 70
128
 71
24
 72
25
 73
43
 74
42
 0
VERTEX
 8
AUSLAUF_1
 10
0
 20
0
 30
0
 70
128
 71
25
 72
26
 73
44
 74
43
 0
VERTEX
 8
AUSLAUF_1
 10
0
 20
0
 30
0
 70
128
 71
26
 72
27
 73
45
 74
44
 0
VERTEX
 8
AUSLAUF_1
 10
0
 20
0
 30
0
 70
128
 71
27
 72
28
 73
46
 74
45
 0
VERTEX
 8
AUSLAUF_1
 10
0
 20
0
 30
0
 70
128
 71
28
 72
29
 73
47
 74
46
 0
VERTEX
 8
AUSLAUF_1
 10
0
 20
0
 30
0
 70
128
 71
29
 72
30
 73
48
 74
47
 0
VERTEX
 8
AUSLAUF_1
 10
0
 20
0
 30
0
 70
128
 71
30
 72
31
 73
49
 74
48
 0
VERTEX
 8
AUSLAUF_1
 10
0
 20
0
 30
0
 70
128
 71
31
 72
32
 73
50
 74
49
 0
VERTEX
 8
AUSLAUF_1
 10
0
 20
0
 30
0
 70
128
 71
32
 72
33
 73
51
 74
50
 0
VERTEX
 8
AUSLAUF_1
 10
0
 20
0
 30
0
 70
128
 71
33
 72
34
 73
52
 74
51
 0
VERTEX
 8
AUSLAUF_1
 10
0
 20
0
 30
0
 70
128
 71
34
 72
35
 73
53
 74
52
 0
VERTEX
 8
AUSLAUF_1
 10
0
 20
0
 30
0
 70
128
 71
35
 72
36
 73
54
 74
53
 0
VERTEX
 8
AUSLAUF_1
 10
0
 20
0
 30
0
 70
128
 71
36
 72
37
 73
55
 74
54
 0
VERTEX
 8
AUSLAUF_1
 10
0
 20
0
 30
0
 70
128
 71
37
 72
129
 73
146
 74
55
 0
VERTEX
 8
AUSLAUF_1
 10
0
 20
0
 30
0
 70
128
 71
175
 72
176
 73
38
 74
23
 0
VERTEX
 8
AUSLAUF_1
 10
0
 20
0
 30
0
 70
128
 71
176
 72
177
 73
39
 74
38
 0
VERTEX
 8
AUSLAUF_1
 10
0
 20
0
 30
0
 70
128
 71
177
 72
178
 73
40
 74
39
 0
VERTEX
 8
AUSLAUF_1
 10
0
 20
0
 30
0
 70
128
 71
178
 72
179
 73
41
 74
40
 0
VERTEX
 8
AUSLAUF_1
 10
0
 20
0
 30
0
 70
128
 71
179
 72
180
 73
56
 74
41
 0
VERTEX
 8
AUSLAUF_1
 10
0
 20
0
 30
0
 70
128
 71
42
 72
43
 73
61
 74
60
 0
VERTEX
 8
AUSLAUF_1
 10
0
 20
0
 30
0
 70
128
 71
43
 72
44
 73
62
 74
61
 0
VERTEX
 8
AUSLAUF_1
 10
0
 20
0
 30
0
 70
128
 71
44
 72
45
 73
63
 74
62
 0
VERTEX
 8
AUSLAUF_1
 10
0
 20
0
 30
0
 70
128
 71
45
 72
46
 73
64
 74
63
 0
VERTEX
 8
AUSLAUF_1
 10
0
 20
0
 30
0
 70
128
 71
46
 72
47
 73
65
 74
64
 0
VERTEX
 8
AUSLAUF_1
 10
0
 20
0
 30
0
 70
128
 71
47
 72
48
 73
66
 74
65
 0
VERTEX
 8
AUSLAUF_1
 10
0
 20
0
 30
0
 70
128
 71
48
 72
49
 73
67
 74
66
 0
VERTEX
 8
AUSLAUF_1
 10
0
 20
0
 30
0
 70
128
 71
49
 72
50
 73
68
 74
67
 0
VERTEX
 8
AUSLAUF_1
 10
0
 20
0
 30
0
 70
128
 71
50
 72
51
 73
69
 74
68
 0
VERTEX
 8
AUSLAUF_1
 10
0
 20
0
 30
0
 70
128
 71
51
 72
52
 73
70
 74
69
 0
VERTEX
 8
AUSLAUF_1
 10
0
 20
0
 30
0
 70
128
 71
52
 72
53
 73
71
 74
70
 0
VERTEX
 8
AUSLAUF_1
 10
0
 20
0
 30
0
 70
128
 71
53
 72
54
 73
72
 74
71
 0
VERTEX
 8
AUSLAUF_1
 10
0
 20
0
 30
0
 70
128
 71
54
 72
55
 73
73
 74
72
 0
VERTEX
 8
AUSLAUF_1
 10
0
 20
0
 30
0
 70
128
 71
55
 72
146
 73
148
 74
73
 0
VERTEX
 8
AUSLAUF_1
 10
0
 20
0
 30
0
 70
128
 71
180
 72
1
 73
57
 74
56
 0
VERTEX
 8
AUSLAUF_1
 10
0
 20
0
 30
0
 70
128
 71
57
 72
1
 73
166
 74
164
 0
VERTEX
 8
AUSLAUF_1
 10
0
 20
0
 30
0
 70
128
 71
2
 72
3
 73
59
 74
58
 0
VERTEX
 8
AUSLAUF_1
 10
0
 20
0
 30
0
 70
128
 71
3
 72
4
 73
74
 74
59
 0
VERTEX
 8
AUSLAUF_1
 10
0
 20
0
 30
0
 70
128
 71
4
 72
5
 73
75
 74
74
 0
VERTEX
 8
AUSLAUF_1
 10
0
 20
0
 30
0
 70
128
 71
60
 72
61
 73
79
 74
78
 0
VERTEX
 8
AUSLAUF_1
 10
0
 20
0
 30
0
 70
128
 71
61
 72
62
 73
80
 74
79
 0
VERTEX
 8
AUSLAUF_1
 10
0
 20
0
 30
0
 70
128
 71
62
 72
63
 73
81
 74
80
 0
VERTEX
 8
AUSLAUF_1
 10
0
 20
0
 30
0
 70
128
 71
63
 72
64
 73
82
 74
81
 0
VERTEX
 8
AUSLAUF_1
 10
0
 20
0
 30
0
 70
128
 71
64
 72
65
 73
83
 74
82
 0
VERTEX
 8
AUSLAUF_1
 10
0
 20
0
 30
0
 70
128
 71
65
 72
66
 73
84
 74
83
 0
VERTEX
 8
AUSLAUF_1
 10
0
 20
0
 30
0
 70
128
 71
66
 72
67
 73
85
 74
84
 0
VERTEX
 8
AUSLAUF_1
 10
0
 20
0
 30
0
 70
128
 71
67
 72
68
 73
86
 74
85
 0
VERTEX
 8
AUSLAUF_1
 10
0
 20
0
 30
0
 70
128
 71
68
 72
69
 73
87
 74
86
 0
VERTEX
 8
AUSLAUF_1
 10
0
 20
0
 30
0
 70
128
 71
69
 72
70
 73
88
 74
87
 0
VERTEX
 8
AUSLAUF_1
 10
0
 20
0
 30
0
 70
128
 71
70
 72
71
 73
89
 74
88
 0
VERTEX
 8
AUSLAUF_1
 10
0
 20
0
 30
0
 70
128
 71
71
 72
72
 73
90
 74
89
 0
VERTEX
 8
AUSLAUF_1
 10
0
 20
0
 30
0
 70
128
 71
72
 72
73
 73
91
 74
90
 0
VERTEX
 8
AUSLAUF_1
 10
0
 20
0
 30
0
 70
128
 71
131
 72
91
 73
73
 74
148
 0
VERTEX
 8
AUSLAUF_1
 10
0
 20
0
 30
0
 70
128
 71
5
 72
20
 73
76
 74
75
 0
VERTEX
 8
AUSLAUF_1
 10
0
 20
0
 30
0
 70
128
 71
20
 72
21
 73
77
 74
76
 0
VERTEX
 8
AUSLAUF_1
 10
0
 20
0
 30
0
 70
128
 71
21
 72
22
 73
92
 74
77
 0
VERTEX
 8
AUSLAUF_1
 10
0
 20
0
 30
0
 70
128
 71
22
 72
23
 73
93
 74
92
 0
VERTEX
 8
AUSLAUF_1
 10
0
 20
0
 30
0
 70
128
 71
23
 72
38
 73
94
 74
93
 0
VERTEX
 8
AUSLAUF_1
 10
0
 20
0
 30
0
 70
128
 71
78
 72
79
 73
97
 74
96
 0
VERTEX
 8
AUSLAUF_1
 10
0
 20
0
 30
0
 70
128
 71
79
 72
80
 73
98
 74
97
 0
VERTEX
 8
AUSLAUF_1
 10
0
 20
0
 30
0
 70
128
 71
80
 72
81
 73
99
 74
98
 0
VERTEX
 8
AUSLAUF_1
 10
0
 20
0
 30
0
 70
128
 71
81
 72
82
 73
100
 74
99
 0
VERTEX
 8
AUSLAUF_1
 10
0
 20
0
 30
0
 70
128
 71
82
 72
83
 73
101
 74
100
 0
VERTEX
 8
AUSLAUF_1
 10
0
 20
0
 30
0
 70
128
 71
83
 72
84
 73
102
 74
101
 0
VERTEX
 8
AUSLAUF_1
 10
0
 20
0
 30
0
 70
128
 71
84
 72
85
 73
103
 74
102
 0
VERTEX
 8
AUSLAUF_1
 10
0
 20
0
 30
0
 70
128
 71
85
 72
86
 73
104
 74
103
 0
VERTEX
 8
AUSLAUF_1
 10
0
 20
0
 30
0
 70
128
 71
86
 72
87
 73
105
 74
104
 0
VERTEX
 8
AUSLAUF_1
 10
0
 20
0
 30
0
 70
128
 71
87
 72
88
 73
106
 74
105
 0
VERTEX
 8
AUSLAUF_1
 10
0
 20
0
 30
0
 70
128
 71
88
 72
89
 73
107
 74
106
 0
VERTEX
 8
AUSLAUF_1
 10
0
 20
0
 30
0
 70
128
 71
89
 72
90
 73
108
 74
107
 0
VERTEX
 8
AUSLAUF_1
 10
0
 20
0
 30
0
 70
128
 71
90
 72
91
 73
109
 74
108
 0
VERTEX
 8
AUSLAUF_1
 10
0
 20
0
 30
0
 70
128
 71
147
 72
109
 73
91
 74
131
 0
VERTEX
 8
AUSLAUF_1
 10
0
 20
0
 30
0
 70
128
 71
38
 72
39
 73
95
 74
94
 0
VERTEX
 8
AUSLAUF_1
 10
0
 20
0
 30
0
 70
128
 71
39
 72
40
 73
110
 74
95
 0
VERTEX
 8
AUSLAUF_1
 10
0
 20
0
 30
0
 70
128
 71
40
 72
41
 73
111
 74
110
 0
VERTEX
 8
AUSLAUF_1
 10
0
 20
0
 30
0
 70
128
 71
41
 72
56
 73
112
 74
111
 0
VERTEX
 8
AUSLAUF_1
 10
0
 20
0
 30
0
 70
128
 71
56
 72
57
 73
113
 74
112
 0
VERTEX
 8
AUSLAUF_1
 10
0
 20
0
 30
0
 70
128
 71
96
 72
97
 73
115
 74
114
 0
VERTEX
 8
AUSLAUF_1
 10
0
 20
0
 30
0
 70
128
 71
97
 72
98
 73
116
 74
115
 0
VERTEX
 8
AUSLAUF_1
 10
0
 20
0
 30
0
 70
128
 71
98
 72
99
 73
117
 74
116
 0
VERTEX
 8
AUSLAUF_1
 10
0
 20
0
 30
0
 70
128
 71
99
 72
100
 73
118
 74
117
 0
VERTEX
 8
AUSLAUF_1
 10
0
 20
0
 30
0
 70
128
 71
100
 72
101
 73
119
 74
118
 0
VERTEX
 8
AUSLAUF_1
 10
0
 20
0
 30
0
 70
128
 71
101
 72
102
 73
120
 74
119
 0
VERTEX
 8
AUSLAUF_1
 10
0
 20
0
 30
0
 70
128
 71
102
 72
103
 73
121
 74
120
 0
VERTEX
 8
AUSLAUF_1
 10
0
 20
0
 30
0
 70
128
 71
103
 72
104
 73
122
 74
121
 0
VERTEX
 8
AUSLAUF_1
 10
0
 20
0
 30
0
 70
128
 71
104
 72
105
 73
123
 74
122
 0
VERTEX
 8
AUSLAUF_1
 10
0
 20
0
 30
0
 70
128
 71
105
 72
106
 73
124
 74
123
 0
VERTEX
 8
AUSLAUF_1
 10
0
 20
0
 30
0
 70
128
 71
106
 72
107
 73
125
 74
124
 0
VERTEX
 8
AUSLAUF_1
 10
0
 20
0
 30
0
 70
128
 71
107
 72
108
 73
126
 74
125
 0
VERTEX
 8
AUSLAUF_1
 10
0
 20
0
 30
0
 70
128
 71
108
 72
109
 73
127
 74
126
 0
VERTEX
 8
AUSLAUF_1
 10
0
 20
0
 30
0
 70
128
 71
165
 72
127
 73
109
 74
147
 0
VERTEX
 8
AUSLAUF_1
 10
0
 20
0
 30
0
 70
128
 71
113
 72
57
 73
164
 74
167
 0
VERTEX
 8
AUSLAUF_1
 10
0
 20
0
 30
0
 70
128
 71
58
 72
59
 73
7
 74
6
 0
VERTEX
 8
AUSLAUF_1
 10
0
 20
0
 30
0
 70
128
 71
59
 72
74
 73
8
 74
7
 0
VERTEX
 8
AUSLAUF_1
 10
0
 20
0
 30
0
 70
128
 71
74
 72
75
 73
9
 74
8
 0
VERTEX
 8
AUSLAUF_1
 10
0
 20
0
 30
0
 70
128
 71
75
 72
76
 73
10
 74
9
 0
VERTEX
 8
AUSLAUF_1
 10
0
 20
0
 30
0
 70
128
 71
114
 72
115
 73
133
 74
132
 0
VERTEX
 8
AUSLAUF_1
 10
0
 20
0
 30
0
 70
128
 71
115
 72
116
 73
134
 74
133
 0
VERTEX
 8
AUSLAUF_1
 10
0
 20
0
 30
0
 70
128
 71
116
 72
117
 73
135
 74
134
 0
VERTEX
 8
AUSLAUF_1
 10
0
 20
0
 30
0
 70
128
 71
117
 72
118
 73
136
 74
135
 0
VERTEX
 8
AUSLAUF_1
 10
0
 20
0
 30
0
 70
128
 71
118
 72
119
 73
137
 74
136
 0
VERTEX
 8
AUSLAUF_1
 10
0
 20
0
 30
0
 70
128
 71
119
 72
120
 73
138
 74
137
 0
VERTEX
 8
AUSLAUF_1
 10
0
 20
0
 30
0
 70
128
 71
120
 72
121
 73
139
 74
138
 0
VERTEX
 8
AUSLAUF_1
 10
0
 20
0
 30
0
 70
128
 71
121
 72
122
 73
140
 74
139
 0
VERTEX
 8
AUSLAUF_1
 10
0
 20
0
 30
0
 70
128
 71
122
 72
123
 73
141
 74
140
 0
VERTEX
 8
AUSLAUF_1
 10
0
 20
0
 30
0
 70
128
 71
123
 72
124
 73
142
 74
141
 0
VERTEX
 8
AUSLAUF_1
 10
0
 20
0
 30
0
 70
128
 71
124
 72
125
 73
143
 74
142
 0
VERTEX
 8
AUSLAUF_1
 10
0
 20
0
 30
0
 70
128
 71
125
 72
126
 73
144
 74
143
 0
VERTEX
 8
AUSLAUF_1
 10
0
 20
0
 30
0
 70
128
 71
126
 72
127
 73
145
 74
144
 0
VERTEX
 8
AUSLAUF_1
 10
0
 20
0
 30
0
 70
128
 71
145
 72
127
 73
165
 74
130
 0
VERTEX
 8
AUSLAUF_1
 10
0
 20
0
 30
0
 70
128
 71
76
 72
77
 73
11
 74
10
 0
VERTEX
 8
AUSLAUF_1
 10
0
 20
0
 30
0
 70
128
 71
77
 72
92
 73
12
 74
11
 0
VERTEX
 8
AUSLAUF_1
 10
0
 20
0
 30
0
 70
128
 71
92
 72
93
 73
13
 74
12
 0
VERTEX
 8
AUSLAUF_1
 10
0
 20
0
 30
0
 70
128
 71
93
 72
94
 73
14
 74
13
 0
VERTEX
 8
AUSLAUF_1
 10
0
 20
0
 30
0
 70
128
 71
94
 72
95
 73
15
 74
14
 0
VERTEX
 8
AUSLAUF_1
 10
0
 20
0
 30
0
 70
128
 71
132
 72
133
 73
151
 74
150
 0
VERTEX
 8
AUSLAUF_1
 10
0
 20
0
 30
0
 70
128
 71
133
 72
134
 73
152
 74
151
 0
VERTEX
 8
AUSLAUF_1
 10
0
 20
0
 30
0
 70
128
 71
134
 72
135
 73
153
 74
152
 0
VERTEX
 8
AUSLAUF_1
 10
0
 20
0
 30
0
 70
128
 71
135
 72
136
 73
154
 74
153
 0
VERTEX
 8
AUSLAUF_1
 10
0
 20
0
 30
0
 70
128
 71
136
 72
137
 73
155
 74
154
 0
VERTEX
 8
AUSLAUF_1
 10
0
 20
0
 30
0
 70
128
 71
137
 72
138
 73
156
 74
155
 0
VERTEX
 8
AUSLAUF_1
 10
0
 20
0
 30
0
 70
128
 71
138
 72
139
 73
157
 74
156
 0
VERTEX
 8
AUSLAUF_1
 10
0
 20
0
 30
0
 70
128
 71
139
 72
140
 73
158
 74
157
 0
VERTEX
 8
AUSLAUF_1
 10
0
 20
0
 30
0
 70
128
 71
140
 72
141
 73
159
 74
158
 0
VERTEX
 8
AUSLAUF_1
 10
0
 20
0
 30
0
 70
128
 71
141
 72
142
 73
160
 74
159
 0
VERTEX
 8
AUSLAUF_1
 10
0
 20
0
 30
0
 70
128
 71
142
 72
143
 73
161
 74
160
 0
VERTEX
 8
AUSLAUF_1
 10
0
 20
0
 30
0
 70
128
 71
143
 72
144
 73
162
 74
161
 0
VERTEX
 8
AUSLAUF_1
 10
0
 20
0
 30
0
 70
128
 71
144
 72
145
 73
163
 74
162
 0
VERTEX
 8
AUSLAUF_1
 10
0
 20
0
 30
0
 70
128
 71
163
 72
145
 73
130
 74
149
 0
VERTEX
 8
AUSLAUF_1
 10
0
 20
0
 30
0
 70
128
 71
95
 72
110
 73
16
 74
15
 0
VERTEX
 8
AUSLAUF_1
 10
0
 20
0
 30
0
 70
128
 71
110
 72
111
 73
17
 74
16
 0
VERTEX
 8
AUSLAUF_1
 10
0
 20
0
 30
0
 70
128
 71
111
 72
112
 73
18
 74
17
 0
VERTEX
 8
AUSLAUF_1
 10
0
 20
0
 30
0
 70
128
 71
112
 72
113
 73
19
 74
18
 0
VERTEX
 8
AUSLAUF_1
 10
0
 20
0
 30
0
 70
128
 71
113
 72
167
 73
128
 74
19
 0
VERTEX
 8
AUSLAUF_1
 10
0
 20
0
 30
0
 70
128
 71
150
 72
151
 73
169
 74
168
 0
VERTEX
 8
AUSLAUF_1
 10
0
 20
0
 30
0
 70
128
 71
151
 72
152
 73
170
 74
169
 0
VERTEX
 8
AUSLAUF_1
 10
0
 20
0
 30
0
 70
128
 71
152
 72
153
 73
171
 74
170
 0
VERTEX
 8
AUSLAUF_1
 10
0
 20
0
 30
0
 70
128
 71
153
 72
154
 73
172
 74
171
 0
VERTEX
 8
AUSLAUF_1
 10
0
 20
0
 30
0
 70
128
 71
154
 72
155
 73
173
 74
172
 0
VERTEX
 8
AUSLAUF_1
 10
0
 20
0
 30
0
 70
128
 71
155
 72
156
 73
174
 74
173
 0
VERTEX
 8
AUSLAUF_1
 10
0
 20
0
 30
0
 70
128
 71
156
 72
157
 73
175
 74
174
 0
VERTEX
 8
AUSLAUF_1
 10
0
 20
0
 30
0
 70
128
 71
157
 72
158
 73
176
 74
175
 0
VERTEX
 8
AUSLAUF_1
 10
0
 20
0
 30
0
 70
128
 71
158
 72
159
 73
177
 74
176
 0
VERTEX
 8
AUSLAUF_1
 10
0
 20
0
 30
0
 70
128
 71
159
 72
160
 73
178
 74
177
 0
VERTEX
 8
AUSLAUF_1
 10
0
 20
0
 30
0
 70
128
 71
160
 72
161
 73
179
 74
178
 0
SEQEND
 0
POLYLINE
 8
R_HRE
 66
1
 10
0.0
 20
0.0
 30
0.0
 70
64
 71
96
 72
36
 0
VERTEX
 8
R_HRE
 10
-0.008
 20
-20.1845
 30
19.9062
 70
192
 0
VERTEX
 8
R_HRE
 10
-0.008
 20
-19.2553
 30
19.7087
 70
192
 0
VERTEX
 8
R_HRE
 10
-0.008
 20
-19.2553
 30
19.7087
 70
192
 0
VERTEX
 8
R_HRE
 10
-0.008
 20
-19.3592
 30
19.2196
 70
192
 0
VERTEX
 8
R_HRE
 10
-0.008
 20
-19.3592
 30
19.2196
 70
192
 0
VERTEX
 8
R_HRE
 10
-0.008
 20
-20.2884
 30
19.4171
 70
192
 0
VERTEX
 8
R_HRE
 10
-0.008
 20
-20.2884
 30
19.4171
 70
192
 0
VERTEX
 8
R_HRE
 10
-0.008
 20
-20.1845
 30
19.9062
 70
192
 0
VERTEX
 8
R_HRE
 10
-0.008
 20
-20.1845
 30
19.9062
 70
192
 0
VERTEX
 8
R_HRE
 10
0.467
 20
-19.3797
 30
19.7352
 70
192
 0
VERTEX
 8
R_HRE
 10
0.467
 20
-19.3797
 30
19.7352
 70
192
 0
VERTEX
 8
R_HRE
 10
0.467
 20
-19.4837
 30
19.2461
 70
192
 0
VERTEX
 8
R_HRE
 10
0.467
 20
-19.4837
 30
19.2461
 70
192
 0
VERTEX
 8
R_HRE
 10
-0.008
 20
-20.2884
 30
19.4171
 70
192
 0
VERTEX
 8
R_HRE
 10
-0.008
 20
-20.2884
 30
19.4171
 70
192
 0
VERTEX
 8
R_HRE
 10
-0.008
 20
-20.1845
 30
19.9062
 70
192
 0
VERTEX
 8
R_HRE
 10
-0.008
 20
-20.1845
 30
19.9062
 70
192
 0
VERTEX
 8
R_HRE
 10
0.8148
 20
-19.7199
 30
19.8074
 70
192
 0
VERTEX
 8
R_HRE
 10
0.8148
 20
-19.7199
 30
19.8074
 70
192
 0
VERTEX
 8
R_HRE
 10
0.8148
 20
-19.8238
 30
19.3184
 70
192
 0
VERTEX
 8
R_HRE
 10
0.8148
 20
-19.8238
 30
19.3184
 70
192
 0
VERTEX
 8
R_HRE
 10
-0.008
 20
-20.2884
 30
19.4171
 70
192
 0
VERTEX
 8
R_HRE
 10
-0.008
 20
-20.2884
 30
19.4171
 70
192
 0
VERTEX
 8
R_HRE
 10
-0.008
 20
-20.1845
 30
19.9062
 70
192
 0
VERTEX
 8
R_HRE
 10
-0.008
 20
-20.1845
 30
19.9062
 70
192
 0
VERTEX
 8
R_HRE
 10
0.942
 20
-20.1845
 30
19.9062
 70
192
 0
VERTEX
 8
R_HRE
 10
0.942
 20
-20.1845
 30
19.9062
 70
192
 0
VERTEX
 8
R_HRE
 10
0.942
 20
-20.2884
 30
19.4171
 70
192
 0
VERTEX
 8
R_HRE
 10
0.942
 20
-20.2884
 30
19.4171
 70
192
 0
VERTEX
 8
R_HRE
 10
-0.008
 20
-20.2884
 30
19.4171
 70
192
 0
VERTEX
 8
R_HRE
 10
-0.008
 20
-20.2884
 30
19.4171
 70
192
 0
VERTEX
 8
R_HRE
 10
-0.008
 20
-20.1845
 30
19.9062
 70
192
 0
VERTEX
 8
R_HRE
 10
-0.008
 20
-20.1845
 30
19.9062
 70
192
 0
VERTEX
 8
R_HRE
 10
0.8148
 20
-20.6491
 30
20.005
 70
192
 0
VERTEX
 8
R_HRE
 10
0.8148
 20
-20.6491
 30
20.005
 70
192
 0
VERTEX
 8
R_HRE
 10
0.8148
 20
-20.7531
 30
19.5159
 70
192
 0
VERTEX
 8
R_HRE
 10
0.8148
 20
-20.7531
 30
19.5159
 70
192
 0
VERTEX
 8
R_HRE
 10
-0.008
 20
-20.2884
 30
19.4171
 70
192
 0
VERTEX
 8
R_HRE
 10
-0.008
 20
-20.2884
 30
19.4171
 70
192
 0
VERTEX
 8
R_HRE
 10
-0.008
 20
-20.1845
 30
19.9062
 70
192
 0
VERTEX
 8
R_HRE
 10
-0.008
 20
-20.1845
 30
19.9062
 70
192
 0
VERTEX
 8
R_HRE
 10
0.467
 20
-20.9892
 30
20.0773
 70
192
 0
VERTEX
 8
R_HRE
 10
0.467
 20
-20.9892
 30
20.0773
 70
192
 0
VERTEX
 8
R_HRE
 10
0.467
 20
-21.0932
 30
19.5882
 70
192
 0
VERTEX
 8
R_HRE
 10
0.467
 20
-21.0932
 30
19.5882
 70
192
 0
VERTEX
 8
R_HRE
 10
-0.008
 20
-20.2884
 30
19.4171
 70
192
 0
VERTEX
 8
R_HRE
 10
-0.008
 20
-20.2884
 30
19.4171
 70
192
 0
VERTEX
 8
R_HRE
 10
-0.008
 20
-20.1845
 30
19.9062
 70
192
 0
VERTEX
 8
R_HRE
 10
-0.008
 20
-20.1845
 30
19.9062
 70
192
 0
VERTEX
 8
R_HRE
 10
-0.008
 20
-21.1137
 30
20.1037
 70
192
 0
VERTEX
 8
R_HRE
 10
-0.008
 20
-21.1137
 30
20.1037
 70
192
 0
VERTEX
 8
R_HRE
 10
-0.008
 20
-21.2177
 30
19.6146
 70
192
 0
VERTEX
 8
R_HRE
 10
-0.008
 20
-21.2177
 30
19.6146
 70
192
 0
VERTEX
 8
R_HRE
 10
-0.008
 20
-20.2884
 30
19.4171
 70
192
 0
VERTEX
 8
R_HRE
 10
-0.008
 20
-20.2884
 30
19.4171
 70
192
 0
VERTEX
 8
R_HRE
 10
-0.008
 20
-20.1845
 30
19.9062
 70
192
 0
VERTEX
 8
R_HRE
 10
-0.008
 20
-20.1845
 30
19.9062
 70
192
 0
VERTEX
 8
R_HRE
 10
-0.483
 20
-20.9892
 30
20.0773
 70
192
 0
VERTEX
 8
R_HRE
 10
-0.483
 20
-20.9892
 30
20.0773
 70
192
 0
VERTEX
 8
R_HRE
 10
-0.483
 20
-21.0932
 30
19.5882
 70
192
 0
VERTEX
 8
R_HRE
 10
-0.483
 20
-21.0932
 30
19.5882
 70
192
 0
VERTEX
 8
R_HRE
 10
-0.008
 20
-20.2884
 30
19.4171
 70
192
 0
VERTEX
 8
R_HRE
 10
-0.008
 20
-20.2884
 30
19.4171
 70
192
 0
VERTEX
 8
R_HRE
 10
-0.008
 20
-20.1845
 30
19.9062
 70
192
 0
VERTEX
 8
R_HRE
 10
-0.008
 20
-20.1845
 30
19.9062
 70
192
 0
VERTEX
 8
R_HRE
 10
-0.8307
 20
-20.6491
 30
20.005
 70
192
 0
VERTEX
 8
R_HRE
 10
-0.8307
 20
-20.6491
 30
20.005
 70
192
 0
VERTEX
 8
R_HRE
 10
-0.8307
 20
-20.7531
 30
19.5159
 70
192
 0
VERTEX
 8
R_HRE
 10
-0.8307
 20
-20.7531
 30
19.5159
 70
192
 0
VERTEX
 8
R_HRE
 10
-0.008
 20
-20.2884
 30
19.4171
 70
192
 0
VERTEX
 8
R_HRE
 10
-0.008
 20
-20.2884
 30
19.4171
 70
192
 0
VERTEX
 8
R_HRE
 10
-0.008
 20
-20.1845
 30
19.9062
 70
192
 0
VERTEX
 8
R_HRE
 10
-0.008
 20
-20.1845
 30
19.9062
 70
192
 0
VERTEX
 8
R_HRE
 10
-0.958
 20
-20.1845
 30
19.9062
 70
192
 0
VERTEX
 8
R_HRE
 10
-0.958
 20
-20.1845
 30
19.9062
 70
192
 0
VERTEX
 8
R_HRE
 10
-0.958
 20
-20.2884
 30
19.4171
 70
192
 0
VERTEX
 8
R_HRE
 10
-0.958
 20
-20.2884
 30
19.4171
 70
192
 0
VERTEX
 8
R_HRE
 10
-0.008
 20
-20.2884
 30
19.4171
 70
192
 0
VERTEX
 8
R_HRE
 10
-0.008
 20
-20.2884
 30
19.4171
 70
192
 0
VERTEX
 8
R_HRE
 10
-0.008
 20
-20.1845
 30
19.9062
 70
192
 0
VERTEX
 8
R_HRE
 10
-0.008
 20
-20.1845
 30
19.9062
 70
192
 0
VERTEX
 8
R_HRE
 10
-0.8307
 20
-19.7199
 30
19.8074
 70
192
 0
VERTEX
 8
R_HRE
 10
-0.8307
 20
-19.7199
 30
19.8074
 70
192
 0
VERTEX
 8
R_HRE
 10
-0.8307
 20
-19.8238
 30
19.3184
 70
192
 0
VERTEX
 8
R_HRE
 10
-0.8307
 20
-19.8238
 30
19.3184
 70
192
 0
VERTEX
 8
R_HRE
 10
-0.008
 20
-20.2884
 30
19.4171
 70
192
 0
VERTEX
 8
R_HRE
 10
-0.008
 20
-20.2884
 30
19.4171
 70
192
 0
VERTEX
 8
R_HRE
 10
-0.008
 20
-20.1845
 30
19.9062
 70
192
 0
VERTEX
 8
R_HRE
 10
-0.008
 20
-20.1845
 30
19.9062
 70
192
 0
VERTEX
 8
R_HRE
 10
-0.483
 20
-19.3797
 30
19.7352
 70
192
 0
VERTEX
 8
R_HRE
 10
-0.483
 20
-19.3797
 30
19.7352
 70
192
 0
VERTEX
 8
R_HRE
 10
-0.483
 20
-19.4837
 30
19.2461
 70
192
 0
VERTEX
 8
R_HRE
 10
-0.483
 20
-19.4837
 30
19.2461
 70
192
 0
VERTEX
 8
R_HRE
 10
-0.008
 20
-20.2884
 30
19.4171
 70
192
 0
VERTEX
 8
R_HRE
 10
-0.008
 20
-20.2884
 30
19.4171
 70
192
 0
VERTEX
 8
R_HRE
 10
-0.008
 20
-20.1845
 30
19.9062
 70
192
 0
VERTEX
 8
R_HRE
 10
0
 20
0
 30
0
 70
128
 71
1
 72
2
 73
10
 74
10
 0
VERTEX
 8
R_HRE
 10
0
 20
0
 30
0
 70
128
 71
3
 72
4
 73
12
 74
11
 0
VERTEX
 8
R_HRE
 10
0
 20
0
 30
0
 70
128
 71
5
 72
14
 73
13
 74
13
 0
VERTEX
 8
R_HRE
 10
0
 20
0
 30
0
 70
128
 71
9
 72
10
 73
18
 74
18
 0
VERTEX
 8
R_HRE
 10
0
 20
0
 30
0
 70
128
 71
11
 72
12
 73
20
 74
19
 0
VERTEX
 8
R_HRE
 10
0
 20
0
 30
0
 70
128
 71
13
 72
22
 73
21
 74
21
 0
VERTEX
 8
R_HRE
 10
0
 20
0
 30
0
 70
128
 71
17
 72
18
 73
26
 74
26
 0
VERTEX
 8
R_HRE
 10
0
 20
0
 30
0
 70
128
 71
19
 72
20
 73
28
 74
27
 0
VERTEX
 8
R_HRE
 10
0
 20
0
 30
0
 70
128
 71
21
 72
30
 73
29
 74
29
 0
VERTEX
 8
R_HRE
 10
0
 20
0
 30
0
 70
128
 71
25
 72
26
 73
34
 74
34
 0
VERTEX
 8
R_HRE
 10
0
 20
0
 30
0
 70
128
 71
27
 72
28
 73
36
 74
35
 0
VERTEX
 8
R_HRE
 10
0
 20
0
 30
0
 70
128
 71
29
 72
38
 73
37
 74
37
 0
VERTEX
 8
R_HRE
 10
0
 20
0
 30
0
 70
128
 71
33
 72
34
 73
42
 74
42
 0
VERTEX
 8
R_HRE
 10
0
 20
0
 30
0
 70
128
 71
35
 72
36
 73
44
 74
43
 0
VERTEX
 8
R_HRE
 10
0
 20
0
 30
0
 70
128
 71
37
 72
46
 73
45
 74
45
 0
VERTEX
 8
R_HRE
 10
0
 20
0
 30
0
 70
128
 71
41
 72
42
 73
50
 74
50
 0
VERTEX
 8
R_HRE
 10
0
 20
0
 30
0
 70
128
 71
43
 72
44
 73
52
 74
51
 0
VERTEX
 8
R_HRE
 10
0
 20
0
 30
0
 70
128
 71
45
 72
54
 73
53
 74
53
 0
VERTEX
 8
R_HRE
 10
0
 20
0
 30
0
 70
128
 71
49
 72
50
 73
58
 74
58
 0
VERTEX
 8
R_HRE
 10
0
 20
0
 30
0
 70
128
 71
51
 72
52
 73
60
 74
59
 0
VERTEX
 8
R_HRE
 10
0
 20
0
 30
0
 70
128
 71
53
 72
62
 73
61
 74
61
 0
VERTEX
 8
R_HRE
 10
0
 20
0
 30
0
 70
128
 71
57
 72
58
 73
66
 74
66
 0
VERTEX
 8
R_HRE
 10
0
 20
0
 30
0
 70
128
 71
59
 72
60
 73
68
 74
67
 0
VERTEX
 8
R_HRE
 10
0
 20
0
 30
0
 70
128
 71
61
 72
70
 73
69
 74
69
 0
VERTEX
 8
R_HRE
 10
0
 20
0
 30
0
 70
128
 71
65
 72
66
 73
74
 74
74
 0
VERTEX
 8
R_HRE
 10
0
 20
0
 30
0
 70
128
 71
67
 72
68
 73
76
 74
75
 0
VERTEX
 8
R_HRE
 10
0
 20
0
 30
0
 70
128
 71
69
 72
78
 73
77
 74
77
 0
VERTEX
 8
R_HRE
 10
0
 20
0
 30
0
 70
128
 71
73
 72
74
 73
82
 74
82
 0
VERTEX
 8
R_HRE
 10
0
 20
0
 30
0
 70
128
 71
75
 72
76
 73
84
 74
83
 0
VERTEX
 8
R_HRE
 10
0
 20
0
 30
0
 70
128
 71
77
 72
86
 73
85
 74
85
 0
VERTEX
 8
R_HRE
 10
0
 20
0
 30
0
 70
128
 71
81
 72
82
 73
90
 74
90
 0
VERTEX
 8
R_HRE
 10
0
 20
0
 30
0
 70
128
 71
83
 72
84
 73
92
 74
91
 0
VERTEX
 8
R_HRE
 10
0
 20
0
 30
0
 70
128
 71
85
 72
94
 73
93
 74
93
 0
VERTEX
 8
R_HRE
 10
0
 20
0
 30
0
 70
128
 71
89
 72
90
 73
2
 74
2
 0
VERTEX
 8
R_HRE
 10
0
 20
0
 30
0
 70
128
 71
91
 72
92
 73
4
 74
3
 0
VERTEX
 8
R_HRE
 10
0
 20
0
 30
0
 70
128
 71
93
 72
6
 73
5
 74
5
 0
SEQEND
 0
POLYLINE
 8
ROSETTE
 66
1
 10
0.0
 20
0.0
 30
0.0
 70
64
 71
62
 72
45
 0
VERTEX
 8
ROSETTE
 10
-0.0081
 20
0.0358
 30
1.3104
 70
192
 0
VERTEX
 8
ROSETTE
 10
-0.0081
 20
0.0358
 30
1.9104
 70
192
 0
VERTEX
 8
ROSETTE
 10
-0.0081
 20
-2.5642
 30
1.3104
 70
192
 0
VERTEX
 8
ROSETTE
 10
-0.0081
 20
-2.5642
 30
1.3104
 70
192
 0
VERTEX
 8
ROSETTE
 10
-0.0081
 20
-2.5642
 30
1.9104
 70
192
 0
VERTEX
 8
ROSETTE
 10
-0.0081
 20
-2.5642
 30
1.9104
 70
192
 0
VERTEX
 8
ROSETTE
 10
1.0494
 20
-2.3394
 30
1.3104
 70
192
 0
VERTEX
 8
ROSETTE
 10
1.0494
 20
-2.3394
 30
1.3104
 70
192
 0
VERTEX
 8
ROSETTE
 10
1.0494
 20
-2.3394
 30
1.9104
 70
192
 0
VERTEX
 8
ROSETTE
 10
1.0494
 20
-2.3394
 30
1.9104
 70
192
 0
VERTEX
 8
ROSETTE
 10
1.924
 20
-1.7039
 30
1.3104
 70
192
 0
VERTEX
 8
ROSETTE
 10
1.924
 20
-1.7039
 30
1.3104
 70
192
 0
VERTEX
 8
ROSETTE
 10
1.924
 20
-1.7039
 30
1.9104
 70
192
 0
VERTEX
 8
ROSETTE
 10
1.924
 20
-1.7039
 30
1.9104
 70
192
 0
VERTEX
 8
ROSETTE
 10
2.4646
 20
-0.7676
 30
1.3104
 70
192
 0
VERTEX
 8
ROSETTE
 10
2.4646
 20
-0.7676
 30
1.3104
 70
192
 0
VERTEX
 8
ROSETTE
 10
2.4646
 20
-0.7676
 30
1.9104
 70
192
 0
VERTEX
 8
ROSETTE
 10
2.4646
 20
-0.7676
 30
1.9104
 70
192
 0
VERTEX
 8
ROSETTE
 10
2.5776
 20
0.3076
 30
1.3104
 70
192
 0
VERTEX
 8
ROSETTE
 10
2.5776
 20
0.3076
 30
1.3104
 70
192
 0
VERTEX
 8
ROSETTE
 10
2.5776
 20
0.3076
 30
1.9104
 70
192
 0
VERTEX
 8
ROSETTE
 10
2.5776
 20
0.3076
 30
1.9104
 70
192
 0
VERTEX
 8
ROSETTE
 10
2.2435
 20
1.3358
 30
1.3104
 70
192
 0
VERTEX
 8
ROSETTE
 10
2.2435
 20
1.3358
 30
1.3104
 70
192
 0
VERTEX
 8
ROSETTE
 10
2.2435
 20
1.3358
 30
1.9104
 70
192
 0
VERTEX
 8
ROSETTE
 10
2.2435
 20
1.3358
 30
1.9104
 70
192
 0
VERTEX
 8
ROSETTE
 10
1.5201
 20
2.1393
 30
1.3104
 70
192
 0
VERTEX
 8
ROSETTE
 10
1.5201
 20
2.1393
 30
1.3104
 70
192
 0
VERTEX
 8
ROSETTE
 10
1.5201
 20
2.1393
 30
1.9104
 70
192
 0
VERTEX
 8
ROSETTE
 10
1.5201
 20
2.1393
 30
1.9104
 70
192
 0
VERTEX
 8
ROSETTE
 10
0.5324
 20
2.579
 30
1.3104
 70
192
 0
VERTEX
 8
ROSETTE
 10
0.5324
 20
2.579
 30
1.3104
 70
192
 0
VERTEX
 8
ROSETTE
 10
0.5324
 20
2.579
 30
1.9104
 70
192
 0
VERTEX
 8
ROSETTE
 10
0.5324
 20
2.579
 30
1.9104
 70
192
 0
VERTEX
 8
ROSETTE
 10
-0.5487
 20
2.579
 30
1.3104
 70
192
 0
VERTEX
 8
ROSETTE
 10
-0.5487
 20
2.579
 30
1.3104
 70
192
 0
VERTEX
 8
ROSETTE
 10
-0.5487
 20
2.579
 30
1.9104
 70
192
 0
VERTEX
 8
ROSETTE
 10
-0.5487
 20
2.579
 30
1.9104
 70
192
 0
VERTEX
 8
ROSETTE
 10
-1.5364
 20
2.1393
 30
1.3104
 70
192
 0
VERTEX
 8
ROSETTE
 10
-1.5364
 20
2.1393
 30
1.3104
 70
192
 0
VERTEX
 8
ROSETTE
 10
-1.5364
 20
2.1393
 30
1.9104
 70
192
 0
VERTEX
 8
ROSETTE
 10
-1.5364
 20
2.1393
 30
1.9104
 70
192
 0
VERTEX
 8
ROSETTE
 10
-2.2598
 20
1.3358
 30
1.3104
 70
192
 0
VERTEX
 8
ROSETTE
 10
-2.2598
 20
1.3358
 30
1.3104
 70
192
 0
VERTEX
 8
ROSETTE
 10
-2.2598
 20
1.3358
 30
1.9104
 70
192
 0
VERTEX
 8
ROSETTE
 10
-2.2598
 20
1.3358
 30
1.9104
 70
192
 0
VERTEX
 8
ROSETTE
 10
-2.5939
 20
0.3076
 30
1.3104
 70
192
 0
VERTEX
 8
ROSETTE
 10
-2.5939
 20
0.3076
 30
1.3104
 70
192
 0
VERTEX
 8
ROSETTE
 10
-2.5939
 20
0.3076
 30
1.9104
 70
192
 0
VERTEX
 8
ROSETTE
 10
-2.5939
 20
0.3076
 30
1.9104
 70
192
 0
VERTEX
 8
ROSETTE
 10
-2.4809
 20
-0.7676
 30
1.3104
 70
192
 0
VERTEX
 8
ROSETTE
 10
-2.4809
 20
-0.7676
 30
1.3104
 70
192
 0
VERTEX
 8
ROSETTE
 10
-2.4809
 20
-0.7676
 30
1.9104
 70
192
 0
VERTEX
 8
ROSETTE
 10
-2.4809
 20
-0.7676
 30
1.9104
 70
192
 0
VERTEX
 8
ROSETTE
 10
-1.9403
 20
-1.7039
 30
1.3104
 70
192
 0
VERTEX
 8
ROSETTE
 10
-1.9403
 20
-1.7039
 30
1.3104
 70
192
 0
VERTEX
 8
ROSETTE
 10
-1.9403
 20
-1.7039
 30
1.9104
 70
192
 0
VERTEX
 8
ROSETTE
 10
-1.9403
 20
-1.7039
 30
1.9104
 70
192
 0
VERTEX
 8
ROSETTE
 10
-1.0657
 20
-2.3394
 30
1.3104
 70
192
 0
VERTEX
 8
ROSETTE
 10
-1.0657
 20
-2.3394
 30
1.3104
 70
192
 0
VERTEX
 8
ROSETTE
 10
-1.0657
 20
-2.3394
 30
1.9104
 70
192
 0
VERTEX
 8
ROSETTE
 10
-1.0657
 20
-2.3394
 30
1.9104
 70
192
 0
VERTEX
 8
ROSETTE
 10
0
 20
0
 30
0
 70
128
 71
1
 72
3
 73
7
 74
7
 0
VERTEX
 8
ROSETTE
 10
0
 20
0
 30
0
 70
128
 71
4
 72
5
 73
9
 74
8
 0
VERTEX
 8
ROSETTE
 10
0
 20
0
 30
0
 70
128
 71
6
 72
2
 73
10
 74
10
 0
VERTEX
 8
ROSETTE
 10
0
 20
0
 30
0
 70
128
 71
1
 72
7
 73
11
 74
11
 0
VERTEX
 8
ROSETTE
 10
0
 20
0
 30
0
 70
128
 71
8
 72
9
 73
13
 74
12
 0
VERTEX
 8
ROSETTE
 10
0
 20
0
 30
0
 70
128
 71
10
 72
2
 73
14
 74
14
 0
VERTEX
 8
ROSETTE
 10
0
 20
0
 30
0
 70
128
 71
1
 72
11
 73
15
 74
15
 0
VERTEX
 8
ROSETTE
 10
0
 20
0
 30
0
 70
128
 71
12
 72
13
 73
17
 74
16
 0
VERTEX
 8
ROSETTE
 10
0
 20
0
 30
0
 70
128
 71
14
 72
2
 73
18
 74
18
 0
VERTEX
 8
ROSETTE
 10
0
 20
0
 30
0
 70
128
 71
1
 72
15
 73
19
 74
19
 0
VERTEX
 8
ROSETTE
 10
0
 20
0
 30
0
 70
128
 71
16
 72
17
 73
21
 74
20
 0
VERTEX
 8
ROSETTE
 10
0
 20
0
 30
0
 70
128
 71
18
 72
2
 73
22
 74
22
 0
VERTEX
 8
ROSETTE
 10
0
 20
0
 30
0
 70
128
 71
1
 72
19
 73
23
 74
23
 0
VERTEX
 8
ROSETTE
 10
0
 20
0
 30
0
 70
128
 71
20
 72
21
 73
25
 74
24
 0
VERTEX
 8
ROSETTE
 10
0
 20
0
 30
0
 70
128
 71
22
 72
2
 73
26
 74
26
 0
VERTEX
 8
ROSETTE
 10
0
 20
0
 30
0
 70
128
 71
1
 72
23
 73
27
 74
27
 0
VERTEX
 8
ROSETTE
 10
0
 20
0
 30
0
 70
128
 71
24
 72
25
 73
29
 74
28
 0
VERTEX
 8
ROSETTE
 10
0
 20
0
 30
0
 70
128
 71
26
 72
2
 73
30
 74
30
 0
VERTEX
 8
ROSETTE
 10
0
 20
0
 30
0
 70
128
 71
1
 72
27
 73
31
 74
31
 0
VERTEX
 8
ROSETTE
 10
0
 20
0
 30
0
 70
128
 71
28
 72
29
 73
33
 74
32
 0
VERTEX
 8
ROSETTE
 10
0
 20
0
 30
0
 70
128
 71
30
 72
2
 73
34
 74
34
 0
VERTEX
 8
ROSETTE
 10
0
 20
0
 30
0
 70
128
 71
1
 72
31
 73
35
 74
35
 0
VERTEX
 8
ROSETTE
 10
0
 20
0
 30
0
 70
128
 71
32
 72
33
 73
37
 74
36
 0
VERTEX
 8
ROSETTE
 10
0
 20
0
 30
0
 70
128
 71
34
 72
2
 73
38
 74
38
 0
VERTEX
 8
ROSETTE
 10
0
 20
0
 30
0
 70
128
 71
1
 72
35
 73
39
 74
39
 0
VERTEX
 8
ROSETTE
 10
0
 20
0
 30
0
 70
128
 71
36
 72
37
 73
41
 74
40
 0
VERTEX
 8
ROSETTE
 10
0
 20
0
 30
0
 70
128
 71
38
 72
2
 73
42
 74
42
 0
VERTEX
 8
ROSETTE
 10
0
 20
0
 30
0
 70
128
 71
1
 72
39
 73
43
 74
43
 0
VERTEX
 8
ROSETTE
 10
0
 20
0
 30
0
 70
128
 71
40
 72
41
 73
45
 74
44
 0
VERTEX
 8
ROSETTE
 10
0
 20
0
 30
0
 70
128
 71
42
 72
2
 73
46
 74
46
 0
VERTEX
 8
ROSETTE
 10
0
 20
0
 30
0
 70
128
 71
1
 72
43
 73
47
 74
47
 0
VERTEX
 8
ROSETTE
 10
0
 20
0
 30
0
 70
128
 71
44
 72
45
 73
49
 74
48
 0
VERTEX
 8
ROSETTE
 10
0
 20
0
 30
0
 70
128
 71
46
 72
2
 73
50
 74
50
 0
VERTEX
 8
ROSETTE
 10
0
 20
0
 30
0
 70
128
 71
1
 72
47
 73
51
 74
51
 0
VERTEX
 8
ROSETTE
 10
0
 20
0
 30
0
 70
128
 71
48
 72
49
 73
53
 74
52
 0
VERTEX
 8
ROSETTE
 10
0
 20
0
 30
0
 70
128
 71
50
 72
2
 73
54
 74
54
 0
VERTEX
 8
ROSETTE
 10
0
 20
0
 30
0
 70
128
 71
1
 72
51
 73
55
 74
55
 0
VERTEX
 8
ROSETTE
 10
0
 20
0
 30
0
 70
128
 71
52
 72
53
 73
57
 74
56
 0
VERTEX
 8
ROSETTE
 10
0
 20
0
 30
0
 70
128
 71
54
 72
2
 73
58
 74
58
 0
VERTEX
 8
ROSETTE
 10
0
 20
0
 30
0
 70
128
 71
1
 72
55
 73
59
 74
59
 0
VERTEX
 8
ROSETTE
 10
0
 20
0
 30
0
 70
128
 71
56
 72
57
 73
61
 74
60
 0
VERTEX
 8
ROSETTE
 10
0
 20
0
 30
0
 70
128
 71
58
 72
2
 73
62
 74
62
 0
VERTEX
 8
ROSETTE
 10
0
 20
0
 30
0
 70
128
 71
1
 72
59
 73
3
 74
3
 0
VERTEX
 8
ROSETTE
 10
0
 20
0
 30
0
 70
128
 71
60
 72
61
 73
5
 74
4
 0
VERTEX
 8
ROSETTE
 10
0
 20
0
 30
0
 70
128
 71
62
 72
2
 73
6
 74
6
 0
SEQEND
 0
POLYLINE
 8
K_RPER_1
 66
1
 10
0.0
 20
0.0
 30
0.0
 70
64
 71
61
 72
30
 0
VERTEX
 8
K_RPER_1
 10
-0.9192
 20
-2.0105
 30
8.8979
 70
192
 0
VERTEX
 8
K_RPER_1
 10
-0.0081
 20
0.0358
 30
8.8979
 70
192
 0
VERTEX
 8
K_RPER_1
 10
-0.0081
 20
-2.2042
 30
1.8979
 70
192
 0
VERTEX
 8
K_RPER_1
 10
-0.0081
 20
-2.2042
 30
1.8979
 70
192
 0
VERTEX
 8
K_RPER_1
 10
-0.0081
 20
-2.2042
 30
8.8979
 70
192
 0
VERTEX
 8
K_RPER_1
 10
-0.0081
 20
-2.2042
 30
8.8979
 70
192
 0
VERTEX
 8
K_RPER_1
 10
0.9029
 20
-2.0105
 30
1.8979
 70
192
 0
VERTEX
 8
K_RPER_1
 10
0.9029
 20
-2.0105
 30
1.8979
 70
192
 0
VERTEX
 8
K_RPER_1
 10
0.9029
 20
-2.0105
 30
8.8979
 70
192
 0
VERTEX
 8
K_RPER_1
 10
0.9029
 20
-2.0105
 30
8.8979
 70
192
 0
VERTEX
 8
K_RPER_1
 10
1.6565
 20
-1.463
 30
1.8979
 70
192
 0
VERTEX
 8
K_RPER_1
 10
1.6565
 20
-1.463
 30
1.8979
 70
192
 0
VERTEX
 8
K_RPER_1
 10
1.6565
 20
-1.463
 30
8.8979
 70
192
 0
VERTEX
 8
K_RPER_1
 10
1.6565
 20
-1.463
 30
8.8979
 70
192
 0
VERTEX
 8
K_RPER_1
 10
2.1222
 20
-0.6564
 30
1.8979
 70
192
 0
VERTEX
 8
K_RPER_1
 10
2.1222
 20
-0.6564
 30
1.8979
 70
192
 0
VERTEX
 8
K_RPER_1
 10
2.1222
 20
-0.6564
 30
8.8979
 70
192
 0
VERTEX
 8
K_RPER_1
 10
2.1222
 20
-0.6564
 30
8.8979
 70
192
 0
VERTEX
 8
K_RPER_1
 10
2.2196
 20
0.27
 30
1.8979
 70
192
 0
VERTEX
 8
K_RPER_1
 10
2.2196
 20
0.27
 30
1.8979
 70
192
 0
VERTEX
 8
K_RPER_1
 10
2.2196
 20
0.27
 30
8.8979
 70
192
 0
VERTEX
 8
K_RPER_1
 10
2.2196
 20
0.27
 30
8.8979
 70
192
 0
VERTEX
 8
K_RPER_1
 10
1.9318
 20
1.1558
 30
1.8979
 70
192
 0
VERTEX
 8
K_RPER_1
 10
1.9318
 20
1.1558
 30
1.8979
 70
192
 0
VERTEX
 8
K_RPER_1
 10
1.9318
 20
1.1558
 30
8.8979
 70
192
 0
VERTEX
 8
K_RPER_1
 10
1.9318
 20
1.1558
 30
8.8979
 70
192
 0
VERTEX
 8
K_RPER_1
 10
1.3085
 20
1.848
 30
1.8979
 70
192
 0
VERTEX
 8
K_RPER_1
 10
1.3085
 20
1.848
 30
1.8979
 70
192
 0
VERTEX
 8
K_RPER_1
 10
1.3085
 20
1.848
 30
8.8979
 70
192
 0
VERTEX
 8
K_RPER_1
 10
1.3085
 20
1.848
 30
8.8979
 70
192
 0
VERTEX
 8
K_RPER_1
 10
0.4576
 20
2.2269
 30
1.8979
 70
192
 0
VERTEX
 8
K_RPER_1
 10
0.4576
 20
2.2269
 30
1.8979
 70
192
 0
VERTEX
 8
K_RPER_1
 10
0.4576
 20
2.2269
 30
8.8979
 70
192
 0
VERTEX
 8
K_RPER_1
 10
0.4576
 20
2.2269
 30
8.8979
 70
192
 0
VERTEX
 8
K_RPER_1
 10
-0.4739
 20
2.2269
 30
1.8979
 70
192
 0
VERTEX
 8
K_RPER_1
 10
-0.4739
 20
2.2269
 30
1.8979
 70
192
 0
VERTEX
 8
K_RPER_1
 10
-0.4739
 20
2.2269
 30
8.8979
 70
192
 0
VERTEX
 8
K_RPER_1
 10
-0.4739
 20
2.2269
 30
8.8979
 70
192
 0
VERTEX
 8
K_RPER_1
 10
-1.3248
 20
1.848
 30
1.8979
 70
192
 0
VERTEX
 8
K_RPER_1
 10
-1.3248
 20
1.848
 30
1.8979
 70
192
 0
VERTEX
 8
K_RPER_1
 10
-1.3248
 20
1.848
 30
8.8979
 70
192
 0
VERTEX
 8
K_RPER_1
 10
-1.3248
 20
1.848
 30
8.8979
 70
192
 0
VERTEX
 8
K_RPER_1
 10
-1.948
 20
1.1558
 30
1.8979
 70
192
 0
VERTEX
 8
K_RPER_1
 10
-1.948
 20
1.1558
 30
1.8979
 70
192
 0
VERTEX
 8
K_RPER_1
 10
-1.948
 20
1.1558
 30
8.8979
 70
192
 0
VERTEX
 8
K_RPER_1
 10
-1.948
 20
1.1558
 30
8.8979
 70
192
 0
VERTEX
 8
K_RPER_1
 10
-2.2359
 20
0.27
 30
1.8979
 70
192
 0
VERTEX
 8
K_RPER_1
 10
-2.2359
 20
0.27
 30
1.8979
 70
192
 0
VERTEX
 8
K_RPER_1
 10
-2.2359
 20
0.27
 30
8.8979
 70
192
 0
VERTEX
 8
K_RPER_1
 10
-2.2359
 20
0.27
 30
8.8979
 70
192
 0
VERTEX
 8
K_RPER_1
 10
-2.1385
 20
-0.6564
 30
1.8979
 70
192
 0
VERTEX
 8
K_RPER_1
 10
-2.1385
 20
-0.6564
 30
1.8979
 70
192
 0
VERTEX
 8
K_RPER_1
 10
-2.1385
 20
-0.6564
 30
8.8979
 70
192
 0
VERTEX
 8
K_RPER_1
 10
-2.1385
 20
-0.6564
 30
8.8979
 70
192
 0
VERTEX
 8
K_RPER_1
 10
-1.6728
 20
-1.463
 30
1.8979
 70
192
 0
VERTEX
 8
K_RPER_1
 10
-1.6728
 20
-1.463
 30
1.8979
 70
192
 0
VERTEX
 8
K_RPER_1
 10
-1.6728
 20
-1.463
 30
8.8979
 70
192
 0
VERTEX
 8
K_RPER_1
 10
-1.6728
 20
-1.463
 30
8.8979
 70
192
 0
VERTEX
 8
K_RPER_1
 10
-0.9192
 20
-2.0105
 30
1.8979
 70
192
 0
VERTEX
 8
K_RPER_1
 10
-0.9192
 20
-2.0105
 30
1.8979
 70
192
 0
VERTEX
 8
K_RPER_1
 10
-0.9192
 20
-2.0105
 30
8.8979
 70
192
 0
VERTEX
 8
K_RPER_1
 10
0
 20
0
 30
0
 70
128
 71
44
 72
45
 73
49
 74
48
 0
VERTEX
 8
K_RPER_1
 10
0
 20
0
 30
0
 70
128
 71
4
 72
5
 73
9
 74
8
 0
VERTEX
 8
K_RPER_1
 10
0
 20
0
 30
0
 70
128
 71
6
 72
2
 73
10
 74
10
 0
VERTEX
 8
K_RPER_1
 10
0
 20
0
 30
0
 70
128
 71
46
 72
2
 73
50
 74
50
 0
VERTEX
 8
K_RPER_1
 10
0
 20
0
 30
0
 70
128
 71
8
 72
9
 73
13
 74
12
 0
VERTEX
 8
K_RPER_1
 10
0
 20
0
 30
0
 70
128
 71
10
 72
2
 73
14
 74
14
 0
VERTEX
 8
K_RPER_1
 10
0
 20
0
 30
0
 70
128
 71
48
 72
49
 73
53
 74
52
 0
VERTEX
 8
K_RPER_1
 10
0
 20
0
 30
0
 70
128
 71
12
 72
13
 73
17
 74
16
 0
VERTEX
 8
K_RPER_1
 10
0
 20
0
 30
0
 70
128
 71
14
 72
2
 73
18
 74
18
 0
VERTEX
 8
K_RPER_1
 10
0
 20
0
 30
0
 70
128
 71
50
 72
2
 73
54
 74
54
 0
VERTEX
 8
K_RPER_1
 10
0
 20
0
 30
0
 70
128
 71
16
 72
17
 73
21
 74
20
 0
VERTEX
 8
K_RPER_1
 10
0
 20
0
 30
0
 70
128
 71
18
 72
2
 73
22
 74
22
 0
VERTEX
 8
K_RPER_1
 10
0
 20
0
 30
0
 70
128
 71
52
 72
53
 73
57
 74
56
 0
VERTEX
 8
K_RPER_1
 10
0
 20
0
 30
0
 70
128
 71
20
 72
21
 73
25
 74
24
 0
VERTEX
 8
K_RPER_1
 10
0
 20
0
 30
0
 70
128
 71
22
 72
2
 73
26
 74
26
 0
VERTEX
 8
K_RPER_1
 10
0
 20
0
 30
0
 70
128
 71
54
 72
2
 73
58
 74
58
 0
VERTEX
 8
K_RPER_1
 10
0
 20
0
 30
0
 70
128
 71
24
 72
25
 73
29
 74
28
 0
VERTEX
 8
K_RPER_1
 10
0
 20
0
 30
0
 70
128
 71
26
 72
2
 73
30
 74
30
 0
VERTEX
 8
K_RPER_1
 10
0
 20
0
 30
0
 70
128
 71
56
 72
57
 73
61
 74
60
 0
VERTEX
 8
K_RPER_1
 10
0
 20
0
 30
0
 70
128
 71
28
 72
29
 73
33
 74
32
 0
VERTEX
 8
K_RPER_1
 10
0
 20
0
 30
0
 70
128
 71
30
 72
2
 73
34
 74
34
 0
VERTEX
 8
K_RPER_1
 10
0
 20
0
 30
0
 70
128
 71
58
 72
2
 73
1
 74
1
 0
VERTEX
 8
K_RPER_1
 10
0
 20
0
 30
0
 70
128
 71
32
 72
33
 73
37
 74
36
 0
VERTEX
 8
K_RPER_1
 10
0
 20
0
 30
0
 70
128
 71
34
 72
2
 73
38
 74
38
 0
VERTEX
 8
K_RPER_1
 10
0
 20
0
 30
0
 70
128
 71
60
 72
61
 73
5
 74
4
 0
VERTEX
 8
K_RPER_1
 10
0
 20
0
 30
0
 70
128
 71
36
 72
37
 73
41
 74
40
 0
VERTEX
 8
K_RPER_1
 10
0
 20
0
 30
0
 70
128
 71
38
 72
2
 73
42
 74
42
 0
VERTEX
 8
K_RPER_1
 10
0
 20
0
 30
0
 70
128
 71
1
 72
2
 73
6
 74
6
 0
VERTEX
 8
K_RPER_1
 10
0
 20
0
 30
0
 70
128
 71
40
 72
41
 73
45
 74
44
 0
VERTEX
 8
K_RPER_1
 10
0
 20
0
 30
0
 70
128
 71
42
 72
2
 73
46
 74
46
 0
SEQEND
 0
POLYLINE
 8
K1
 66
1
 10
0.0
 20
0.0
 30
0.0
 70
64
 71
61
 72
30
 0
VERTEX
 8
K1
 10
-5.6601
 20
-1.2431
 30
8.6662
 70
192
 0
VERTEX
 8
K1
 10
-5.2941
 20
0.0358
 30
9.1024
 70
192
 0
VERTEX
 8
K1
 10
-1.4638
 20
-1.3642
 30
5.8884
 70
192
 0
VERTEX
 8
K1
 10
-1.4638
 20
-1.3642
 30
5.8884
 70
192
 0
VERTEX
 8
K1
 10
-5.2941
 20
-1.3642
 30
9.1024
 70
192
 0
VERTEX
 8
K1
 10
-5.2941
 20
-1.3642
 30
9.1024
 70
192
 0
VERTEX
 8
K1
 10
-1.0978
 20
-1.2431
 30
6.3246
 70
192
 0
VERTEX
 8
K1
 10
-1.0978
 20
-1.2431
 30
6.3246
 70
192
 0
VERTEX
 8
K1
 10
-4.928
 20
-1.2431
 30
9.5386
 70
192
 0
VERTEX
 8
K1
 10
-4.928
 20
-1.2431
 30
9.5386
 70
192
 0
VERTEX
 8
K1
 10
-0.7951
 20
-0.9009
 30
6.6854
 70
192
 0
VERTEX
 8
K1
 10
-0.7951
 20
-0.9009
 30
6.6854
 70
192
 0
VERTEX
 8
K1
 10
-4.6253
 20
-0.9009
 30
9.8994
 70
192
 0
VERTEX
 8
K1
 10
-4.6253
 20
-0.9009
 30
9.8994
 70
192
 0
VERTEX
 8
K1
 10
-0.608
 20
-0.3968
 30
6.9084
 70
192
 0
VERTEX
 8
K1
 10
-0.608
 20
-0.3968
 30
6.9084
 70
192
 0
VERTEX
 8
K1
 10
-4.4382
 20
-0.3968
 30
10.1223
 70
192
 0
VERTEX
 8
K1
 10
-4.4382
 20
-0.3968
 30
10.1223
 70
192
 0
VERTEX
 8
K1
 10
-0.5689
 20
0.1822
 30
6.955
 70
192
 0
VERTEX
 8
K1
 10
-0.5689
 20
0.1822
 30
6.955
 70
192
 0
VERTEX
 8
K1
 10
-4.3991
 20
0.1822
 30
10.169
 70
192
 0
VERTEX
 8
K1
 10
-4.3991
 20
0.1822
 30
10.169
 70
192
 0
VERTEX
 8
K1
 10
-0.6845
 20
0.7358
 30
6.8172
 70
192
 0
VERTEX
 8
K1
 10
-0.6845
 20
0.7358
 30
6.8172
 70
192
 0
VERTEX
 8
K1
 10
-4.5147
 20
0.7358
 30
10.0311
 70
192
 0
VERTEX
 8
K1
 10
-4.5147
 20
0.7358
 30
10.0311
 70
192
 0
VERTEX
 8
K1
 10
-0.9349
 20
1.1685
 30
6.5188
 70
192
 0
VERTEX
 8
K1
 10
-0.9349
 20
1.1685
 30
6.5188
 70
192
 0
VERTEX
 8
K1
 10
-4.7651
 20
1.1685
 30
9.7327
 70
192
 0
VERTEX
 8
K1
 10
-4.7651
 20
1.1685
 30
9.7327
 70
192
 0
VERTEX
 8
K1
 10
-1.2767
 20
1.4052
 30
6.1114
 70
192
 0
VERTEX
 8
K1
 10
-1.2767
 20
1.4052
 30
6.1114
 70
192
 0
VERTEX
 8
K1
 10
-5.107
 20
1.4052
 30
9.3253
 70
192
 0
VERTEX
 8
K1
 10
-5.107
 20
1.4052
 30
9.3253
 70
192
 0
VERTEX
 8
K1
 10
-1.6509
 20
1.4052
 30
5.6654
 70
192
 0
VERTEX
 8
K1
 10
-1.6509
 20
1.4052
 30
5.6654
 70
192
 0
VERTEX
 8
K1
 10
-5.4812
 20
1.4052
 30
8.8794
 70
192
 0
VERTEX
 8
K1
 10
-5.4812
 20
1.4052
 30
8.8794
 70
192
 0
VERTEX
 8
K1
 10
-1.9928
 20
1.1685
 30
5.258
 70
192
 0
VERTEX
 8
K1
 10
-1.9928
 20
1.1685
 30
5.258
 70
192
 0
VERTEX
 8
K1
 10
-5.823
 20
1.1685
 30
8.472
 70
192
 0
VERTEX
 8
K1
 10
-5.823
 20
1.1685
 30
8.472
 70
192
 0
VERTEX
 8
K1
 10
-2.2432
 20
0.7358
 30
4.9596
 70
192
 0
VERTEX
 8
K1
 10
-2.2432
 20
0.7358
 30
4.9596
 70
192
 0
VERTEX
 8
K1
 10
-6.0734
 20
0.7358
 30
8.1736
 70
192
 0
VERTEX
 8
K1
 10
-6.0734
 20
0.7358
 30
8.1736
 70
192
 0
VERTEX
 8
K1
 10
-2.3588
 20
0.1822
 30
4.8218
 70
192
 0
VERTEX
 8
K1
 10
-2.3588
 20
0.1822
 30
4.8218
 70
192
 0
VERTEX
 8
K1
 10
-6.189
 20
0.1822
 30
8.0358
 70
192
 0
VERTEX
 8
K1
 10
-6.189
 20
0.1822
 30
8.0358
 70
192
 0
VERTEX
 8
K1
 10
-2.3197
 20
-0.3968
 30
4.8685
 70
192
 0
VERTEX
 8
K1
 10
-2.3197
 20
-0.3968
 30
4.8685
 70
192
 0
VERTEX
 8
K1
 10
-6.1499
 20
-0.3968
 30
8.0824
 70
192
 0
VERTEX
 8
K1
 10
-6.1499
 20
-0.3968
 30
8.0824
 70
192
 0
VERTEX
 8
K1
 10
-2.1326
 20
-0.9009
 30
5.0914
 70
192
 0
VERTEX
 8
K1
 10
-2.1326
 20
-0.9009
 30
5.0914
 70
192
 0
VERTEX
 8
K1
 10
-5.9628
 20
-0.9009
 30
8.3054
 70
192
 0
VERTEX
 8
K1
 10
-5.9628
 20
-0.9009
 30
8.3054
 70
192
 0
VERTEX
 8
K1
 10
-1.8299
 20
-1.2431
 30
5.4522
 70
192
 0
VERTEX
 8
K1
 10
-1.8299
 20
-1.2431
 30
5.4522
 70
192
 0
VERTEX
 8
K1
 10
-5.6601
 20
-1.2431
 30
8.6662
 70
192
 0
VERTEX
 8
K1
 10
0
 20
0
 30
0
 70
128
 71
44
 72
45
 73
49
 74
48
 0
VERTEX
 8
K1
 10
0
 20
0
 30
0
 70
128
 71
4
 72
5
 73
9
 74
8
 0
VERTEX
 8
K1
 10
0
 20
0
 30
0
 70
128
 71
6
 72
2
 73
10
 74
10
 0
VERTEX
 8
K1
 10
0
 20
0
 30
0
 70
128
 71
46
 72
2
 73
50
 74
50
 0
VERTEX
 8
K1
 10
0
 20
0
 30
0
 70
128
 71
8
 72
9
 73
13
 74
12
 0
VERTEX
 8
K1
 10
0
 20
0
 30
0
 70
128
 71
10
 72
2
 73
14
 74
14
 0
VERTEX
 8
K1
 10
0
 20
0
 30
0
 70
128
 71
48
 72
49
 73
53
 74
52
 0
VERTEX
 8
K1
 10
0
 20
0
 30
0
 70
128
 71
12
 72
13
 73
17
 74
16
 0
VERTEX
 8
K1
 10
0
 20
0
 30
0
 70
128
 71
14
 72
2
 73
18
 74
18
 0
VERTEX
 8
K1
 10
0
 20
0
 30
0
 70
128
 71
50
 72
2
 73
54
 74
54
 0
VERTEX
 8
K1
 10
0
 20
0
 30
0
 70
128
 71
16
 72
17
 73
21
 74
20
 0
VERTEX
 8
K1
 10
0
 20
0
 30
0
 70
128
 71
18
 72
2
 73
22
 74
22
 0
VERTEX
 8
K1
 10
0
 20
0
 30
0
 70
128
 71
52
 72
53
 73
57
 74
56
 0
VERTEX
 8
K1
 10
0
 20
0
 30
0
 70
128
 71
20
 72
21
 73
25
 74
24
 0
VERTEX
 8
K1
 10
0
 20
0
 30
0
 70
128
 71
22
 72
2
 73
26
 74
26
 0
VERTEX
 8
K1
 10
0
 20
0
 30
0
 70
128
 71
54
 72
2
 73
58
 74
58
 0
VERTEX
 8
K1
 10
0
 20
0
 30
0
 70
128
 71
24
 72
25
 73
29
 74
28
 0
VERTEX
 8
K1
 10
0
 20
0
 30
0
 70
128
 71
26
 72
2
 73
30
 74
30
 0
VERTEX
 8
K1
 10
0
 20
0
 30
0
 70
128
 71
56
 72
57
 73
61
 74
60
 0
VERTEX
 8
K1
 10
0
 20
0
 30
0
 70
128
 71
28
 72
29
 73
33
 74
32
 0
VERTEX
 8
K1
 10
0
 20
0
 30
0
 70
128
 71
30
 72
2
 73
34
 74
34
 0
VERTEX
 8
K1
 10
0
 20
0
 30
0
 70
128
 71
58
 72
2
 73
1
 74
1
 0
VERTEX
 8
K1
 10
0
 20
0
 30
0
 70
128
 71
32
 72
33
 73
37
 74
36
 0
VERTEX
 8
K1
 10
0
 20
0
 30
0
 70
128
 71
34
 72
2
 73
38
 74
38
 0
VERTEX
 8
K1
 10
0
 20
0
 30
0
 70
128
 71
60
 72
61
 73
5
 74
4
 0
VERTEX
 8
K1
 10
0
 20
0
 30
0
 70
128
 71
36
 72
37
 73
41
 74
40
 0
VERTEX
 8
K1
 10
0
 20
0
 30
0
 70
128
 71
38
 72
2
 73
42
 74
42
 0
VERTEX
 8
K1
 10
0
 20
0
 30
0
 70
128
 71
1
 72
2
 73
6
 74
6
 0
VERTEX
 8
K1
 10
0
 20
0
 30
0
 70
128
 71
40
 72
41
 73
45
 74
44
 0
VERTEX
 8
K1
 10
0
 20
0
 30
0
 70
128
 71
42
 72
2
 73
46
 74
46
 0
SEQEND
 0
POLYLINE
 8
K2
 66
1
 10
0.0
 20
0.0
 30
0.0
 70
64
 71
61
 72
30
 0
VERTEX
 8
K2
 10
4.8717
 20
-1.2431
 30
9.5303
 70
192
 0
VERTEX
 8
K2
 10
5.2377
 20
0.0358
 30
9.0941
 70
192
 0
VERTEX
 8
K2
 10
1.4075
 20
-1.3642
 30
5.8802
 70
192
 0
VERTEX
 8
K2
 10
1.4075
 20
-1.3642
 30
5.8802
 70
192
 0
VERTEX
 8
K2
 10
5.2377
 20
-1.3642
 30
9.0941
 70
192
 0
VERTEX
 8
K2
 10
5.2377
 20
-1.3642
 30
9.0941
 70
192
 0
VERTEX
 8
K2
 10
1.7735
 20
-1.2431
 30
5.444
 70
192
 0
VERTEX
 8
K2
 10
1.7735
 20
-1.2431
 30
5.444
 70
192
 0
VERTEX
 8
K2
 10
5.6038
 20
-1.2431
 30
8.6579
 70
192
 0
VERTEX
 8
K2
 10
5.6038
 20
-1.2431
 30
8.6579
 70
192
 0
VERTEX
 8
K2
 10
2.0763
 20
-0.9009
 30
5.0832
 70
192
 0
VERTEX
 8
K2
 10
2.0763
 20
-0.9009
 30
5.0832
 70
192
 0
VERTEX
 8
K2
 10
5.9065
 20
-0.9009
 30
8.2971
 70
192
 0
VERTEX
 8
K2
 10
5.9065
 20
-0.9009
 30
8.2971
 70
192
 0
VERTEX
 8
K2
 10
2.2634
 20
-0.3968
 30
4.8602
 70
192
 0
VERTEX
 8
K2
 10
2.2634
 20
-0.3968
 30
4.8602
 70
192
 0
VERTEX
 8
K2
 10
6.0936
 20
-0.3968
 30
8.0742
 70
192
 0
VERTEX
 8
K2
 10
6.0936
 20
-0.3968
 30
8.0742
 70
192
 0
VERTEX
 8
K2
 10
2.3025
 20
0.1822
 30
4.8136
 70
192
 0
VERTEX
 8
K2
 10
2.3025
 20
0.1822
 30
4.8136
 70
192
 0
VERTEX
 8
K2
 10
6.1327
 20
0.1822
 30
8.0275
 70
192
 0
VERTEX
 8
K2
 10
6.1327
 20
0.1822
 30
8.0275
 70
192
 0
VERTEX
 8
K2
 10
2.1869
 20
0.7358
 30
4.9514
 70
192
 0
VERTEX
 8
K2
 10
2.1869
 20
0.7358
 30
4.9514
 70
192
 0
VERTEX
 8
K2
 10
6.0171
 20
0.7358
 30
8.1653
 70
192
 0
VERTEX
 8
K2
 10
6.0171
 20
0.7358
 30
8.1653
 70
192
 0
VERTEX
 8
K2
 10
1.9365
 20
1.1685
 30
5.2498
 70
192
 0
VERTEX
 8
K2
 10
1.9365
 20
1.1685
 30
5.2498
 70
192
 0
VERTEX
 8
K2
 10
5.7667
 20
1.1685
 30
8.4637
 70
192
 0
VERTEX
 8
K2
 10
5.7667
 20
1.1685
 30
8.4637
 70
192
 0
VERTEX
 8
K2
 10
1.5946
 20
1.4052
 30
5.6572
 70
192
 0
VERTEX
 8
K2
 10
1.5946
 20
1.4052
 30
5.6572
 70
192
 0
VERTEX
 8
K2
 10
5.4248
 20
1.4052
 30
8.8711
 70
192
 0
VERTEX
 8
K2
 10
5.4248
 20
1.4052
 30
8.8711
 70
192
 0
VERTEX
 8
K2
 10
1.2204
 20
1.4052
 30
6.1032
 70
192
 0
VERTEX
 8
K2
 10
1.2204
 20
1.4052
 30
6.1032
 70
192
 0
VERTEX
 8
K2
 10
5.0506
 20
1.4052
 30
9.3171
 70
192
 0
VERTEX
 8
K2
 10
5.0506
 20
1.4052
 30
9.3171
 70
192
 0
VERTEX
 8
K2
 10
0.8786
 20
1.1685
 30
6.5106
 70
192
 0
VERTEX
 8
K2
 10
0.8786
 20
1.1685
 30
6.5106
 70
192
 0
VERTEX
 8
K2
 10
4.7088
 20
1.1685
 30
9.7245
 70
192
 0
VERTEX
 8
K2
 10
4.7088
 20
1.1685
 30
9.7245
 70
192
 0
VERTEX
 8
K2
 10
0.6282
 20
0.7358
 30
6.809
 70
192
 0
VERTEX
 8
K2
 10
0.6282
 20
0.7358
 30
6.809
 70
192
 0
VERTEX
 8
K2
 10
4.4584
 20
0.7358
 30
10.0229
 70
192
 0
VERTEX
 8
K2
 10
4.4584
 20
0.7358
 30
10.0229
 70
192
 0
VERTEX
 8
K2
 10
0.5125
 20
0.1822
 30
6.9468
 70
192
 0
VERTEX
 8
K2
 10
0.5125
 20
0.1822
 30
6.9468
 70
192
 0
VERTEX
 8
K2
 10
4.3428
 20
0.1822
 30
10.1607
 70
192
 0
VERTEX
 8
K2
 10
4.3428
 20
0.1822
 30
10.1607
 70
192
 0
VERTEX
 8
K2
 10
0.5517
 20
-0.3968
 30
6.9002
 70
192
 0
VERTEX
 8
K2
 10
0.5517
 20
-0.3968
 30
6.9002
 70
192
 0
VERTEX
 8
K2
 10
4.3819
 20
-0.3968
 30
10.1141
 70
192
 0
VERTEX
 8
K2
 10
4.3819
 20
-0.3968
 30
10.1141
 70
192
 0
VERTEX
 8
K2
 10
0.7388
 20
-0.9009
 30
6.6772
 70
192
 0
VERTEX
 8
K2
 10
0.7388
 20
-0.9009
 30
6.6772
 70
192
 0
VERTEX
 8
K2
 10
4.569
 20
-0.9009
 30
9.8911
 70
192
 0
VERTEX
 8
K2
 10
4.569
 20
-0.9009
 30
9.8911
 70
192
 0
VERTEX
 8
K2
 10
1.0415
 20
-1.2431
 30
6.3164
 70
192
 0
VERTEX
 8
K2
 10
1.0415
 20
-1.2431
 30
6.3164
 70
192
 0
VERTEX
 8
K2
 10
4.8717
 20
-1.2431
 30
9.5303
 70
192
 0
VERTEX
 8
K2
 10
0
 20
0
 30
0
 70
128
 71
44
 72
45
 73
49
 74
48
 0
VERTEX
 8
K2
 10
0
 20
0
 30
0
 70
128
 71
4
 72
5
 73
9
 74
8
 0
VERTEX
 8
K2
 10
0
 20
0
 30
0
 70
128
 71
6
 72
2
 73
10
 74
10
 0
VERTEX
 8
K2
 10
0
 20
0
 30
0
 70
128
 71
46
 72
2
 73
50
 74
50
 0
VERTEX
 8
K2
 10
0
 20
0
 30
0
 70
128
 71
8
 72
9
 73
13
 74
12
 0
VERTEX
 8
K2
 10
0
 20
0
 30
0
 70
128
 71
10
 72
2
 73
14
 74
14
 0
VERTEX
 8
K2
 10
0
 20
0
 30
0
 70
128
 71
48
 72
49
 73
53
 74
52
 0
VERTEX
 8
K2
 10
0
 20
0
 30
0
 70
128
 71
12
 72
13
 73
17
 74
16
 0
VERTEX
 8
K2
 10
0
 20
0
 30
0
 70
128
 71
14
 72
2
 73
18
 74
18
 0
VERTEX
 8
K2
 10
0
 20
0
 30
0
 70
128
 71
50
 72
2
 73
54
 74
54
 0
VERTEX
 8
K2
 10
0
 20
0
 30
0
 70
128
 71
16
 72
17
 73
21
 74
20
 0
VERTEX
 8
K2
 10
0
 20
0
 30
0
 70
128
 71
18
 72
2
 73
22
 74
22
 0
VERTEX
 8
K2
 10
0
 20
0
 30
0
 70
128
 71
52
 72
53
 73
57
 74
56
 0
VERTEX
 8
K2
 10
0
 20
0
 30
0
 70
128
 71
20
 72
21
 73
25
 74
24
 0
VERTEX
 8
K2
 10
0
 20
0
 30
0
 70
128
 71
22
 72
2
 73
26
 74
26
 0
VERTEX
 8
K2
 10
0
 20
0
 30
0
 70
128
 71
54
 72
2
 73
58
 74
58
 0
VERTEX
 8
K2
 10
0
 20
0
 30
0
 70
128
 71
24
 72
25
 73
29
 74
28
 0
VERTEX
 8
K2
 10
0
 20
0
 30
0
 70
128
 71
26
 72
2
 73
30
 74
30
 0
VERTEX
 8
K2
 10
0
 20
0
 30
0
 70
128
 71
56
 72
57
 73
61
 74
60
 0
VERTEX
 8
K2
 10
0
 20
0
 30
0
 70
128
 71
28
 72
29
 73
33
 74
32
 0
VERTEX
 8
K2
 10
0
 20
0
 30
0
 70
128
 71
30
 72
2
 73
34
 74
34
 0
VERTEX
 8
K2
 10
0
 20
0
 30
0
 70
128
 71
58
 72
2
 73
1
 74
1
 0
VERTEX
 8
K2
 10
0
 20
0
 30
0
 70
128
 71
32
 72
33
 73
37
 74
36
 0
VERTEX
 8
K2
 10
0
 20
0
 30
0
 70
128
 71
34
 72
2
 73
38
 74
38
 0
VERTEX
 8
K2
 10
0
 20
0
 30
0
 70
128
 71
60
 72
61
 73
5
 74
4
 0
VERTEX
 8
K2
 10
0
 20
0
 30
0
 70
128
 71
36
 72
37
 73
41
 74
40
 0
VERTEX
 8
K2
 10
0
 20
0
 30
0
 70
128
 71
38
 72
2
 73
42
 74
42
 0
VERTEX
 8
K2
 10
0
 20
0
 30
0
 70
128
 71
1
 72
2
 73
6
 74
6
 0
VERTEX
 8
K2
 10
0
 20
0
 30
0
 70
128
 71
40
 72
41
 73
45
 74
44
 0
VERTEX
 8
K2
 10
0
 20
0
 30
0
 70
128
 71
42
 72
2
 73
46
 74
46
 0
SEQEND
 0
POLYLINE
 8
GRIFF_20
 66
1
 10
0.0
 20
0.0
 30
0.0
 70
64
 71
12
 72
6
 0
VERTEX
 8
GRIFF_20
 10
-4.7671
 20
-0.4644
 30
8.6599
 70
192
 0
VERTEX
 8
GRIFF_20
 10
-6.2992
 20
-0.4644
 30
9.9455
 70
192
 0
VERTEX
 8
GRIFF_20
 10
-4.4888
 20
-0.2144
 30
8.9916
 70
192
 0
VERTEX
 8
GRIFF_20
 10
-6.0209
 20
-0.2144
 30
10.2772
 70
192
 0
VERTEX
 8
GRIFF_20
 10
-4.4888
 20
0.2856
 30
8.9916
 70
192
 0
VERTEX
 8
GRIFF_20
 10
-6.0209
 20
0.2856
 30
10.2772
 70
192
 0
VERTEX
 8
GRIFF_20
 10
-4.7671
 20
0.5356
 30
8.6599
 70
192
 0
VERTEX
 8
GRIFF_20
 10
-6.2992
 20
0.5356
 30
9.9455
 70
192
 0
VERTEX
 8
GRIFF_20
 10
-5.0454
 20
0.2856
 30
8.3282
 70
192
 0
VERTEX
 8
GRIFF_20
 10
-6.5775
 20
0.2856
 30
9.6137
 70
192
 0
VERTEX
 8
GRIFF_20
 10
-5.0454
 20
-0.2144
 30
8.3282
 70
192
 0
VERTEX
 8
GRIFF_20
 10
-6.5775
 20
-0.2144
 30
9.6137
 70
192
 0
VERTEX
 8
GRIFF_20
 10
0
 20
0
 30
0
 70
128
 71
1
 72
2
 73
4
 74
3
 0
VERTEX
 8
GRIFF_20
 10
0
 20
0
 30
0
 70
128
 71
3
 72
4
 73
6
 74
5
 0
VERTEX
 8
GRIFF_20
 10
0
 20
0
 30
0
 70
128
 71
5
 72
6
 73
8
 74
7
 0
VERTEX
 8
GRIFF_20
 10
0
 20
0
 30
0
 70
128
 71
7
 72
8
 73
10
 74
9
 0
VERTEX
 8
GRIFF_20
 10
0
 20
0
 30
0
 70
128
 71
9
 72
10
 73
12
 74
11
 0
VERTEX
 8
GRIFF_20
 10
0
 20
0
 30
0
 70
128
 71
11
 72
12
 73
2
 74
1
 0
SEQEND
 0
POLYLINE
 8
GRIFF_19
 66
1
 10
0.0
 20
0.0
 30
0.0
 70
64
 71
12
 72
6
 0
VERTEX
 8
GRIFF_19
 10
-7.0253
 20
0.3313
 30
10.1687
 70
192
 0
VERTEX
 8
GRIFF_19
 10
-7.5707
 20
1.1798
 30
9.5187
 70
192
 0
VERTEX
 8
GRIFF_19
 10
-6.7534
 20
0.5456
 30
10.2204
 70
192
 0
VERTEX
 8
GRIFF_19
 10
-7.2989
 20
1.3941
 30
9.5704
 70
192
 0
VERTEX
 8
GRIFF_19
 10
-6.4853
 20
0.5456
 30
9.9954
 70
192
 0
VERTEX
 8
GRIFF_19
 10
-7.0308
 20
1.3941
 30
9.3454
 70
192
 0
VERTEX
 8
GRIFF_19
 10
-6.489
 20
0.3313
 30
9.7187
 70
192
 0
VERTEX
 8
GRIFF_19
 10
-7.0345
 20
1.1798
 30
9.0687
 70
192
 0
VERTEX
 8
GRIFF_19
 10
-6.7609
 20
0.1169
 30
9.667
 70
192
 0
VERTEX
 8
GRIFF_19
 10
-7.3063
 20
0.9655
 30
9.017
 70
192
 0
VERTEX
 8
GRIFF_19
 10
-7.029
 20
0.1169
 30
9.892
 70
192
 0
VERTEX
 8
GRIFF_19
 10
-7.5744
 20
0.9655
 30
9.242
 70
192
 0
VERTEX
 8
GRIFF_19
 10
0
 20
0
 30
0
 70
128
 71
1
 72
2
 73
4
 74
3
 0
VERTEX
 8
GRIFF_19
 10
0
 20
0
 30
0
 70
128
 71
3
 72
4
 73
6
 74
5
 0
VERTEX
 8
GRIFF_19
 10
0
 20
0
 30
0
 70
128
 71
5
 72
6
 73
8
 74
7
 0
VERTEX
 8
GRIFF_19
 10
0
 20
0
 30
0
 70
128
 71
7
 72
8
 73
10
 74
9
 0
VERTEX
 8
GRIFF_19
 10
0
 20
0
 30
0
 70
128
 71
9
 72
10
 73
12
 74
11
 0
VERTEX
 8
GRIFF_19
 10
0
 20
0
 30
0
 70
128
 71
11
 72
12
 73
2
 74
1
 0
SEQEND
 0
POLYLINE
 8
GRIFF_18
 66
1
 10
0.0
 20
0.0
 30
0.0
 70
64
 71
34
 72
24
 0
VERTEX
 8
GRIFF_18
 10
-7.0133
 20
0.7272
 30
9.6418
 70
192
 0
VERTEX
 8
GRIFF_18
 10
-7.9223
 20
2.1414
 30
8.5584
 70
192
 0
VERTEX
 8
GRIFF_18
 10
-7.3963
 20
0.7272
 30
9.9632
 70
192
 0
VERTEX
 8
GRIFF_18
 10
-7.3963
 20
0.7272
 30
9.9632
 70
192
 0
VERTEX
 8
GRIFF_18
 10
-8.3053
 20
2.1414
 30
8.8798
 70
192
 0
VERTEX
 8
GRIFF_18
 10
-8.3053
 20
2.1414
 30
8.8798
 70
192
 0
VERTEX
 8
GRIFF_18
 10
-7.1234
 20
0.9772
 30
10.0606
 70
192
 0
VERTEX
 8
GRIFF_18
 10
-7.1234
 20
0.9772
 30
10.0606
 70
192
 0
VERTEX
 8
GRIFF_18
 10
-8.0324
 20
2.3914
 30
8.9772
 70
192
 0
VERTEX
 8
GRIFF_18
 10
-8.0324
 20
2.3914
 30
8.9772
 70
192
 0
VERTEX
 8
GRIFF_18
 10
-6.786
 20
1.0807
 30
9.9126
 70
192
 0
VERTEX
 8
GRIFF_18
 10
-6.786
 20
1.0807
 30
9.9126
 70
192
 0
VERTEX
 8
GRIFF_18
 10
-7.695
 20
2.4949
 30
8.8293
 70
192
 0
VERTEX
 8
GRIFF_18
 10
-7.695
 20
2.4949
 30
8.8293
 70
192
 0
VERTEX
 8
GRIFF_18
 10
-6.5817
 20
0.9772
 30
9.606
 70
192
 0
VERTEX
 8
GRIFF_18
 10
-6.5817
 20
0.9772
 30
9.606
 70
192
 0
VERTEX
 8
GRIFF_18
 10
-7.4908
 20
2.3914
 30
8.5227
 70
192
 0
VERTEX
 8
GRIFF_18
 10
-7.4908
 20
2.3914
 30
8.5227
 70
192
 0
VERTEX
 8
GRIFF_18
 10
-6.6302
 20
0.7272
 30
9.3204
 70
192
 0
VERTEX
 8
GRIFF_18
 10
-6.6302
 20
0.7272
 30
9.3204
 70
192
 0
VERTEX
 8
GRIFF_18
 10
-7.5393
 20
2.1414
 30
8.237
 70
192
 0
VERTEX
 8
GRIFF_18
 10
-7.5393
 20
2.1414
 30
8.237
 70
192
 0
VERTEX
 8
GRIFF_18
 10
-6.9031
 20
0.4772
 30
9.223
 70
192
 0
VERTEX
 8
GRIFF_18
 10
-6.9031
 20
0.4772
 30
9.223
 70
192
 0
VERTEX
 8
GRIFF_18
 10
-7.8122
 20
1.8914
 30
8.1397
 70
192
 0
VERTEX
 8
GRIFF_18
 10
-7.8122
 20
1.8914
 30
8.1397
 70
192
 0
VERTEX
 8
GRIFF_18
 10
-7.2405
 20
0.3736
 30
9.371
 70
192
 0
VERTEX
 8
GRIFF_18
 10
-7.2405
 20
0.3736
 30
9.371
 70
192
 0
VERTEX
 8
GRIFF_18
 10
-8.1496
 20
1.7878
 30
8.2876
 70
192
 0
VERTEX
 8
GRIFF_18
 10
-8.1496
 20
1.7878
 30
8.2876
 70
192
 0
VERTEX
 8
GRIFF_18
 10
-7.4448
 20
0.4772
 30
9.6775
 70
192
 0
VERTEX
 8
GRIFF_18
 10
-7.4448
 20
0.4772
 30
9.6775
 70
192
 0
VERTEX
 8
GRIFF_18
 10
-8.3538
 20
1.8914
 30
8.5942
 70
192
 0
VERTEX
 8
GRIFF_18
 10
-8.3538
 20
1.8914
 30
8.5942
 70
192
 0
VERTEX
 8
GRIFF_18
 10
0
 20
0
 30
0
 70
128
 71
1
 72
3
 73
7
 74
7
 0
VERTEX
 8
GRIFF_18
 10
0
 20
0
 30
0
 70
128
 71
4
 72
5
 73
9
 74
8
 0
VERTEX
 8
GRIFF_18
 10
0
 20
0
 30
0
 70
128
 71
6
 72
2
 73
10
 74
10
 0
VERTEX
 8
GRIFF_18
 10
0
 20
0
 30
0
 70
128
 71
1
 72
7
 73
11
 74
11
 0
VERTEX
 8
GRIFF_18
 10
0
 20
0
 30
0
 70
128
 71
8
 72
9
 73
13
 74
12
 0
VERTEX
 8
GRIFF_18
 10
0
 20
0
 30
0
 70
128
 71
10
 72
2
 73
14
 74
14
 0
VERTEX
 8
GRIFF_18
 10
0
 20
0
 30
0
 70
128
 71
1
 72
11
 73
15
 74
15
 0
VERTEX
 8
GRIFF_18
 10
0
 20
0
 30
0
 70
128
 71
12
 72
13
 73
17
 74
16
 0
VERTEX
 8
GRIFF_18
 10
0
 20
0
 30
0
 70
128
 71
14
 72
2
 73
18
 74
18
 0
VERTEX
 8
GRIFF_18
 10
0
 20
0
 30
0
 70
128
 71
1
 72
15
 73
19
 74
19
 0
VERTEX
 8
GRIFF_18
 10
0
 20
0
 30
0
 70
128
 71
16
 72
17
 73
21
 74
20
 0
VERTEX
 8
GRIFF_18
 10
0
 20
0
 30
0
 70
128
 71
18
 72
2
 73
22
 74
22
 0
VERTEX
 8
GRIFF_18
 10
0
 20
0
 30
0
 70
128
 71
1
 72
19
 73
23
 74
23
 0
VERTEX
 8
GRIFF_18
 10
0
 20
0
 30
0
 70
128
 71
20
 72
21
 73
25
 74
24
 0
VERTEX
 8
GRIFF_18
 10
0
 20
0
 30
0
 70
128
 71
22
 72
2
 73
26
 74
26
 0
VERTEX
 8
GRIFF_18
 10
0
 20
0
 30
0
 70
128
 71
1
 72
23
 73
27
 74
27
 0
VERTEX
 8
GRIFF_18
 10
0
 20
0
 30
0
 70
128
 71
24
 72
25
 73
29
 74
28
 0
VERTEX
 8
GRIFF_18
 10
0
 20
0
 30
0
 70
128
 71
26
 72
2
 73
30
 74
30
 0
VERTEX
 8
GRIFF_18
 10
0
 20
0
 30
0
 70
128
 71
1
 72
27
 73
31
 74
31
 0
VERTEX
 8
GRIFF_18
 10
0
 20
0
 30
0
 70
128
 71
28
 72
29
 73
33
 74
32
 0
VERTEX
 8
GRIFF_18
 10
0
 20
0
 30
0
 70
128
 71
30
 72
2
 73
34
 74
34
 0
VERTEX
 8
GRIFF_18
 10
0
 20
0
 30
0
 70
128
 71
1
 72
31
 73
3
 74
3
 0
VERTEX
 8
GRIFF_18
 10
0
 20
0
 30
0
 70
128
 71
32
 72
33
 73
5
 74
4
 0
VERTEX
 8
GRIFF_18
 10
0
 20
0
 30
0
 70
128
 71
34
 72
2
 73
6
 74
6
 0
SEQEND
 0
POLYLINE
 8
GRIFF_17
 66
1
 10
0.0
 20
0.0
 30
0.0
 70
64
 71
12
 72
6
 0
VERTEX
 8
GRIFF_17
 10
-6.6293
 20
-0.2848
 30
10.6406
 70
192
 0
VERTEX
 8
GRIFF_17
 10
-6.0839
 20
-1.1333
 30
11.2906
 70
192
 0
VERTEX
 8
GRIFF_17
 10
-6.633
 20
-0.4991
 30
10.3639
 70
192
 0
VERTEX
 8
GRIFF_17
 10
-6.0876
 20
-1.3476
 30
11.0139
 70
192
 0
VERTEX
 8
GRIFF_17
 10
-6.3649
 20
-0.4991
 30
10.139
 70
192
 0
VERTEX
 8
GRIFF_17
 10
-5.8195
 20
-1.3476
 30
10.789
 70
192
 0
VERTEX
 8
GRIFF_17
 10
-6.0931
 20
-0.2848
 30
10.1907
 70
192
 0
VERTEX
 8
GRIFF_17
 10
-5.5476
 20
-1.1333
 30
10.8407
 70
192
 0
VERTEX
 8
GRIFF_17
 10
-6.0893
 20
-0.0705
 30
10.4673
 70
192
 0
VERTEX
 8
GRIFF_17
 10
-5.5439
 20
-0.919
 30
11.1173
 70
192
 0
VERTEX
 8
GRIFF_17
 10
-6.3575
 20
-0.0705
 30
10.6923
 70
192
 0
VERTEX
 8
GRIFF_17
 10
-5.812
 20
-0.919
 30
11.3423
 70
192
 0
VERTEX
 8
GRIFF_17
 10
0
 20
0
 30
0
 70
128
 71
1
 72
2
 73
4
 74
3
 0
VERTEX
 8
GRIFF_17
 10
0
 20
0
 30
0
 70
128
 71
3
 72
4
 73
6
 74
5
 0
VERTEX
 8
GRIFF_17
 10
0
 20
0
 30
0
 70
128
 71
5
 72
6
 73
8
 74
7
 0
VERTEX
 8
GRIFF_17
 10
0
 20
0
 30
0
 70
128
 71
7
 72
8
 73
10
 74
9
 0
VERTEX
 8
GRIFF_17
 10
0
 20
0
 30
0
 70
128
 71
9
 72
10
 73
12
 74
11
 0
VERTEX
 8
GRIFF_17
 10
0
 20
0
 30
0
 70
128
 71
11
 72
12
 73
2
 74
1
 0
SEQEND
 0
POLYLINE
 8
GRIFF_16
 66
1
 10
0.0
 20
0.0
 30
0.0
 70
64
 71
34
 72
24
 0
VERTEX
 8
GRIFF_16
 10
-6.1166
 20
-0.6678
 30
10.7104
 70
192
 0
VERTEX
 8
GRIFF_16
 10
-5.2076
 20
-2.082
 30
11.7937
 70
192
 0
VERTEX
 8
GRIFF_16
 10
-6.4996
 20
-0.6678
 30
11.0318
 70
192
 0
VERTEX
 8
GRIFF_16
 10
-6.4996
 20
-0.6678
 30
11.0318
 70
192
 0
VERTEX
 8
GRIFF_16
 10
-5.5906
 20
-2.082
 30
12.1151
 70
192
 0
VERTEX
 8
GRIFF_16
 10
-5.5906
 20
-2.082
 30
12.1151
 70
192
 0
VERTEX
 8
GRIFF_16
 10
-6.5481
 20
-0.9178
 30
10.7461
 70
192
 0
VERTEX
 8
GRIFF_16
 10
-6.5481
 20
-0.9178
 30
10.7461
 70
192
 0
VERTEX
 8
GRIFF_16
 10
-5.6391
 20
-2.332
 30
11.8295
 70
192
 0
VERTEX
 8
GRIFF_16
 10
-5.6391
 20
-2.332
 30
11.8295
 70
192
 0
VERTEX
 8
GRIFF_16
 10
-6.3439
 20
-1.0213
 30
10.4395
 70
192
 0
VERTEX
 8
GRIFF_16
 10
-6.3439
 20
-1.0213
 30
10.4395
 70
192
 0
VERTEX
 8
GRIFF_16
 10
-5.4348
 20
-2.4355
 30
11.5229
 70
192
 0
VERTEX
 8
GRIFF_16
 10
-5.4348
 20
-2.4355
 30
11.5229
 70
192
 0
VERTEX
 8
GRIFF_16
 10
-6.0065
 20
-0.9178
 30
10.2916
 70
192
 0
VERTEX
 8
GRIFF_16
 10
-6.0065
 20
-0.9178
 30
10.2916
 70
192
 0
VERTEX
 8
GRIFF_16
 10
-5.0974
 20
-2.332
 30
11.375
 70
192
 0
VERTEX
 8
GRIFF_16
 10
-5.0974
 20
-2.332
 30
11.375
 70
192
 0
VERTEX
 8
GRIFF_16
 10
-5.7336
 20
-0.6678
 30
10.389
 70
192
 0
VERTEX
 8
GRIFF_16
 10
-5.7336
 20
-0.6678
 30
10.389
 70
192
 0
VERTEX
 8
GRIFF_16
 10
-4.8245
 20
-2.082
 30
11.4723
 70
192
 0
VERTEX
 8
GRIFF_16
 10
-4.8245
 20
-2.082
 30
11.4723
 70
192
 0
VERTEX
 8
GRIFF_16
 10
-5.6851
 20
-0.4178
 30
10.6746
 70
192
 0
VERTEX
 8
GRIFF_16
 10
-5.6851
 20
-0.4178
 30
10.6746
 70
192
 0
VERTEX
 8
GRIFF_16
 10
-4.776
 20
-1.832
 30
11.758
 70
192
 0
VERTEX
 8
GRIFF_16
 10
-4.776
 20
-1.832
 30
11.758
 70
192
 0
VERTEX
 8
GRIFF_16
 10
-5.8894
 20
-0.3142
 30
10.9812
 70
192
 0
VERTEX
 8
GRIFF_16
 10
-5.8894
 20
-0.3142
 30
10.9812
 70
192
 0
VERTEX
 8
GRIFF_16
 10
-4.9803
 20
-1.7284
 30
12.0646
 70
192
 0
VERTEX
 8
GRIFF_16
 10
-4.9803
 20
-1.7284
 30
12.0646
 70
192
 0
VERTEX
 8
GRIFF_16
 10
-6.2268
 20
-0.4178
 30
11.1292
 70
192
 0
VERTEX
 8
GRIFF_16
 10
-6.2268
 20
-0.4178
 30
11.1292
 70
192
 0
VERTEX
 8
GRIFF_16
 10
-5.3177
 20
-1.832
 30
12.2125
 70
192
 0
VERTEX
 8
GRIFF_16
 10
-5.3177
 20
-1.832
 30
12.2125
 70
192
 0
VERTEX
 8
GRIFF_16
 10
0
 20
0
 30
0
 70
128
 71
1
 72
3
 73
7
 74
7
 0
VERTEX
 8
GRIFF_16
 10
0
 20
0
 30
0
 70
128
 71
4
 72
5
 73
9
 74
8
 0
VERTEX
 8
GRIFF_16
 10
0
 20
0
 30
0
 70
128
 71
6
 72
2
 73
10
 74
10
 0
VERTEX
 8
GRIFF_16
 10
0
 20
0
 30
0
 70
128
 71
1
 72
7
 73
11
 74
11
 0
VERTEX
 8
GRIFF_16
 10
0
 20
0
 30
0
 70
128
 71
8
 72
9
 73
13
 74
12
 0
VERTEX
 8
GRIFF_16
 10
0
 20
0
 30
0
 70
128
 71
10
 72
2
 73
14
 74
14
 0
VERTEX
 8
GRIFF_16
 10
0
 20
0
 30
0
 70
128
 71
1
 72
11
 73
15
 74
15
 0
VERTEX
 8
GRIFF_16
 10
0
 20
0
 30
0
 70
128
 71
12
 72
13
 73
17
 74
16
 0
VERTEX
 8
GRIFF_16
 10
0
 20
0
 30
0
 70
128
 71
14
 72
2
 73
18
 74
18
 0
VERTEX
 8
GRIFF_16
 10
0
 20
0
 30
0
 70
128
 71
1
 72
15
 73
19
 74
19
 0
VERTEX
 8
GRIFF_16
 10
0
 20
0
 30
0
 70
128
 71
16
 72
17
 73
21
 74
20
 0
VERTEX
 8
GRIFF_16
 10
0
 20
0
 30
0
 70
128
 71
18
 72
2
 73
22
 74
22
 0
VERTEX
 8
GRIFF_16
 10
0
 20
0
 30
0
 70
128
 71
1
 72
19
 73
23
 74
23
 0
VERTEX
 8
GRIFF_16
 10
0
 20
0
 30
0
 70
128
 71
20
 72
21
 73
25
 74
24
 0
VERTEX
 8
GRIFF_16
 10
0
 20
0
 30
0
 70
128
 71
22
 72
2
 73
26
 74
26
 0
VERTEX
 8
GRIFF_16
 10
0
 20
0
 30
0
 70
128
 71
1
 72
23
 73
27
 74
27
 0
VERTEX
 8
GRIFF_16
 10
0
 20
0
 30
0
 70
128
 71
24
 72
25
 73
29
 74
28
 0
VERTEX
 8
GRIFF_16
 10
0
 20
0
 30
0
 70
128
 71
26
 72
2
 73
30
 74
30
 0
VERTEX
 8
GRIFF_16
 10
0
 20
0
 30
0
 70
128
 71
1
 72
27
 73
31
 74
31
 0
VERTEX
 8
GRIFF_16
 10
0
 20
0
 30
0
 70
128
 71
28
 72
29
 73
33
 74
32
 0
VERTEX
 8
GRIFF_16
 10
0
 20
0
 30
0
 70
128
 71
30
 72
2
 73
34
 74
34
 0
VERTEX
 8
GRIFF_16
 10
0
 20
0
 30
0
 70
128
 71
1
 72
31
 73
3
 74
3
 0
VERTEX
 8
GRIFF_16
 10
0
 20
0
 30
0
 70
128
 71
32
 72
33
 73
5
 74
4
 0
VERTEX
 8
GRIFF_16
 10
0
 20
0
 30
0
 70
128
 71
34
 72
2
 73
6
 74
6
 0
SEQEND
 0
POLYLINE
 8
GRIFF_15
 66
1
 10
0.0
 20
0.0
 30
0.0
 70
64
 71
12
 72
6
 0
VERTEX
 8
GRIFF_15
 10
-7.0781
 20
-0.3159
 30
10.1057
 70
192
 0
VERTEX
 8
GRIFF_15
 10
-7.6236
 20
-1.1644
 30
9.4557
 70
192
 0
VERTEX
 8
GRIFF_15
 10
-7.0818
 20
-0.1015
 30
9.829
 70
192
 0
VERTEX
 8
GRIFF_15
 10
-7.6273
 20
-0.9501
 30
9.179
 70
192
 0
VERTEX
 8
GRIFF_15
 10
-6.8137
 20
-0.1015
 30
9.604
 70
192
 0
VERTEX
 8
GRIFF_15
 10
-7.3591
 20
-0.9501
 30
8.954
 70
192
 0
VERTEX
 8
GRIFF_15
 10
-6.5419
 20
-0.3159
 30
9.6557
 70
192
 0
VERTEX
 8
GRIFF_15
 10
-7.0873
 20
-1.1644
 30
9.0057
 70
192
 0
VERTEX
 8
GRIFF_15
 10
-6.5382
 20
-0.5302
 30
9.9324
 70
192
 0
VERTEX
 8
GRIFF_15
 10
-7.0836
 20
-1.3787
 30
9.2824
 70
192
 0
VERTEX
 8
GRIFF_15
 10
-6.8063
 20
-0.5302
 30
10.1574
 70
192
 0
VERTEX
 8
GRIFF_15
 10
-7.3517
 20
-1.3787
 30
9.5074
 70
192
 0
VERTEX
 8
GRIFF_15
 10
0
 20
0
 30
0
 70
128
 71
1
 72
2
 73
4
 74
3
 0
VERTEX
 8
GRIFF_15
 10
0
 20
0
 30
0
 70
128
 71
3
 72
4
 73
6
 74
5
 0
VERTEX
 8
GRIFF_15
 10
0
 20
0
 30
0
 70
128
 71
5
 72
6
 73
8
 74
7
 0
VERTEX
 8
GRIFF_15
 10
0
 20
0
 30
0
 70
128
 71
7
 72
8
 73
10
 74
9
 0
VERTEX
 8
GRIFF_15
 10
0
 20
0
 30
0
 70
128
 71
9
 72
10
 73
12
 74
11
 0
VERTEX
 8
GRIFF_15
 10
0
 20
0
 30
0
 70
128
 71
11
 72
12
 73
2
 74
1
 0
SEQEND
 0
POLYLINE
 8
GRIFF_14
 66
1
 10
0.0
 20
0.0
 30
0.0
 70
64
 71
34
 72
24
 0
VERTEX
 8
GRIFF_14
 10
-7.0578
 20
-0.6989
 30
9.5887
 70
192
 0
VERTEX
 8
GRIFF_14
 10
-7.9669
 20
-2.1131
 30
8.5053
 70
192
 0
VERTEX
 8
GRIFF_14
 10
-7.4408
 20
-0.6989
 30
9.9101
 70
192
 0
VERTEX
 8
GRIFF_14
 10
-7.4408
 20
-0.6989
 30
9.9101
 70
192
 0
VERTEX
 8
GRIFF_14
 10
-8.3499
 20
-2.1131
 30
8.8267
 70
192
 0
VERTEX
 8
GRIFF_14
 10
-8.3499
 20
-2.1131
 30
8.8267
 70
192
 0
VERTEX
 8
GRIFF_14
 10
-7.4894
 20
-0.4489
 30
9.6244
 70
192
 0
VERTEX
 8
GRIFF_14
 10
-7.4894
 20
-0.4489
 30
9.6244
 70
192
 0
VERTEX
 8
GRIFF_14
 10
-8.3984
 20
-1.8631
 30
8.5411
 70
192
 0
VERTEX
 8
GRIFF_14
 10
-8.3984
 20
-1.8631
 30
8.5411
 70
192
 0
VERTEX
 8
GRIFF_14
 10
-7.2851
 20
-0.3453
 30
9.3179
 70
192
 0
VERTEX
 8
GRIFF_14
 10
-7.2851
 20
-0.3453
 30
9.3179
 70
192
 0
VERTEX
 8
GRIFF_14
 10
-8.1941
 20
-1.7595
 30
8.2345
 70
192
 0
VERTEX
 8
GRIFF_14
 10
-8.1941
 20
-1.7595
 30
8.2345
 70
192
 0
VERTEX
 8
GRIFF_14
 10
-6.9477
 20
-0.4489
 30
9.1699
 70
192
 0
VERTEX
 8
GRIFF_14
 10
-6.9477
 20
-0.4489
 30
9.1699
 70
192
 0
VERTEX
 8
GRIFF_14
 10
-7.8567
 20
-1.8631
 30
8.0866
 70
192
 0
VERTEX
 8
GRIFF_14
 10
-7.8567
 20
-1.8631
 30
8.0866
 70
192
 0
VERTEX
 8
GRIFF_14
 10
-6.6748
 20
-0.6989
 30
9.2673
 70
192
 0
VERTEX
 8
GRIFF_14
 10
-6.6748
 20
-0.6989
 30
9.2673
 70
192
 0
VERTEX
 8
GRIFF_14
 10
-7.5838
 20
-2.1131
 30
8.1839
 70
192
 0
VERTEX
 8
GRIFF_14
 10
-7.5838
 20
-2.1131
 30
8.1839
 70
192
 0
VERTEX
 8
GRIFF_14
 10
-6.6263
 20
-0.9489
 30
9.5529
 70
192
 0
VERTEX
 8
GRIFF_14
 10
-6.6263
 20
-0.9489
 30
9.5529
 70
192
 0
VERTEX
 8
GRIFF_14
 10
-7.5353
 20
-2.3631
 30
8.4696
 70
192
 0
VERTEX
 8
GRIFF_14
 10
-7.5353
 20
-2.3631
 30
8.4696
 70
192
 0
VERTEX
 8
GRIFF_14
 10
-6.8306
 20
-1.0524
 30
9.8595
 70
192
 0
VERTEX
 8
GRIFF_14
 10
-6.8306
 20
-1.0524
 30
9.8595
 70
192
 0
VERTEX
 8
GRIFF_14
 10
-7.7396
 20
-2.4666
 30
8.7762
 70
192
 0
VERTEX
 8
GRIFF_14
 10
-7.7396
 20
-2.4666
 30
8.7762
 70
192
 0
VERTEX
 8
GRIFF_14
 10
-7.168
 20
-0.9489
 30
10.0075
 70
192
 0
VERTEX
 8
GRIFF_14
 10
-7.168
 20
-0.9489
 30
10.0075
 70
192
 0
VERTEX
 8
GRIFF_14
 10
-8.077
 20
-2.3631
 30
8.9241
 70
192
 0
VERTEX
 8
GRIFF_14
 10
-8.077
 20
-2.3631
 30
8.9241
 70
192
 0
VERTEX
 8
GRIFF_14
 10
0
 20
0
 30
0
 70
128
 71
1
 72
3
 73
7
 74
7
 0
VERTEX
 8
GRIFF_14
 10
0
 20
0
 30
0
 70
128
 71
4
 72
5
 73
9
 74
8
 0
VERTEX
 8
GRIFF_14
 10
0
 20
0
 30
0
 70
128
 71
6
 72
2
 73
10
 74
10
 0
VERTEX
 8
GRIFF_14
 10
0
 20
0
 30
0
 70
128
 71
1
 72
7
 73
11
 74
11
 0
VERTEX
 8
GRIFF_14
 10
0
 20
0
 30
0
 70
128
 71
8
 72
9
 73
13
 74
12
 0
VERTEX
 8
GRIFF_14
 10
0
 20
0
 30
0
 70
128
 71
10
 72
2
 73
14
 74
14
 0
VERTEX
 8
GRIFF_14
 10
0
 20
0
 30
0
 70
128
 71
1
 72
11
 73
15
 74
15
 0
VERTEX
 8
GRIFF_14
 10
0
 20
0
 30
0
 70
128
 71
12
 72
13
 73
17
 74
16
 0
VERTEX
 8
GRIFF_14
 10
0
 20
0
 30
0
 70
128
 71
14
 72
2
 73
18
 74
18
 0
VERTEX
 8
GRIFF_14
 10
0
 20
0
 30
0
 70
128
 71
1
 72
15
 73
19
 74
19
 0
VERTEX
 8
GRIFF_14
 10
0
 20
0
 30
0
 70
128
 71
16
 72
17
 73
21
 74
20
 0
VERTEX
 8
GRIFF_14
 10
0
 20
0
 30
0
 70
128
 71
18
 72
2
 73
22
 74
22
 0
VERTEX
 8
GRIFF_14
 10
0
 20
0
 30
0
 70
128
 71
1
 72
19
 73
23
 74
23
 0
VERTEX
 8
GRIFF_14
 10
0
 20
0
 30
0
 70
128
 71
20
 72
21
 73
25
 74
24
 0
VERTEX
 8
GRIFF_14
 10
0
 20
0
 30
0
 70
128
 71
22
 72
2
 73
26
 74
26
 0
VERTEX
 8
GRIFF_14
 10
0
 20
0
 30
0
 70
128
 71
1
 72
23
 73
27
 74
27
 0
VERTEX
 8
GRIFF_14
 10
0
 20
0
 30
0
 70
128
 71
24
 72
25
 73
29
 74
28
 0
VERTEX
 8
GRIFF_14
 10
0
 20
0
 30
0
 70
128
 71
26
 72
2
 73
30
 74
30
 0
VERTEX
 8
GRIFF_14
 10
0
 20
0
 30
0
 70
128
 71
1
 72
27
 73
31
 74
31
 0
VERTEX
 8
GRIFF_14
 10
0
 20
0
 30
0
 70
128
 71
28
 72
29
 73
33
 74
32
 0
VERTEX
 8
GRIFF_14
 10
0
 20
0
 30
0
 70
128
 71
30
 72
2
 73
34
 74
34
 0
VERTEX
 8
GRIFF_14
 10
0
 20
0
 30
0
 70
128
 71
1
 72
31
 73
3
 74
3
 0
VERTEX
 8
GRIFF_14
 10
0
 20
0
 30
0
 70
128
 71
32
 72
33
 73
5
 74
4
 0
VERTEX
 8
GRIFF_14
 10
0
 20
0
 30
0
 70
128
 71
34
 72
2
 73
6
 74
6
 0
SEQEND
 0
POLYLINE
 8
GRIFF_13
 66
1
 10
0.0
 20
0.0
 30
0.0
 70
64
 71
12
 72
6
 0
VERTEX
 8
GRIFF_13
 10
-6.626
 20
0.3876
 30
10.6445
 70
192
 0
VERTEX
 8
GRIFF_13
 10
-6.0806
 20
1.2361
 30
11.2946
 70
192
 0
VERTEX
 8
GRIFF_13
 10
-6.3541
 20
0.1732
 30
10.6962
 70
192
 0
VERTEX
 8
GRIFF_13
 10
-5.8087
 20
1.0218
 30
11.3463
 70
192
 0
VERTEX
 8
GRIFF_13
 10
-6.086
 20
0.1732
 30
10.4713
 70
192
 0
VERTEX
 8
GRIFF_13
 10
-5.5406
 20
1.0218
 30
11.1213
 70
192
 0
VERTEX
 8
GRIFF_13
 10
-6.0897
 20
0.3876
 30
10.1946
 70
192
 0
VERTEX
 8
GRIFF_13
 10
-5.5443
 20
1.2361
 30
10.8446
 70
192
 0
VERTEX
 8
GRIFF_13
 10
-6.3616
 20
0.6019
 30
10.1429
 70
192
 0
VERTEX
 8
GRIFF_13
 10
-5.8161
 20
1.4504
 30
10.7929
 70
192
 0
VERTEX
 8
GRIFF_13
 10
-6.6297
 20
0.6019
 30
10.3679
 70
192
 0
VERTEX
 8
GRIFF_13
 10
-6.0843
 20
1.4504
 30
11.0179
 70
192
 0
VERTEX
 8
GRIFF_13
 10
0
 20
0
 30
0
 70
128
 71
1
 72
2
 73
4
 74
3
 0
VERTEX
 8
GRIFF_13
 10
0
 20
0
 30
0
 70
128
 71
3
 72
4
 73
6
 74
5
 0
VERTEX
 8
GRIFF_13
 10
0
 20
0
 30
0
 70
128
 71
5
 72
6
 73
8
 74
7
 0
VERTEX
 8
GRIFF_13
 10
0
 20
0
 30
0
 70
128
 71
7
 72
8
 73
10
 74
9
 0
VERTEX
 8
GRIFF_13
 10
0
 20
0
 30
0
 70
128
 71
9
 72
10
 73
12
 74
11
 0
VERTEX
 8
GRIFF_13
 10
0
 20
0
 30
0
 70
128
 71
11
 72
12
 73
2
 74
1
 0
SEQEND
 0
POLYLINE
 8
GRIFF_12
 66
1
 10
0.0
 20
0.0
 30
0.0
 70
64
 71
34
 72
24
 0
VERTEX
 8
GRIFF_12
 10
-6.1133
 20
0.7706
 30
10.7143
 70
192
 0
VERTEX
 8
GRIFF_12
 10
-5.2043
 20
2.1848
 30
11.7977
 70
192
 0
VERTEX
 8
GRIFF_12
 10
-6.4963
 20
0.7706
 30
11.0357
 70
192
 0
VERTEX
 8
GRIFF_12
 10
-6.4963
 20
0.7706
 30
11.0357
 70
192
 0
VERTEX
 8
GRIFF_12
 10
-5.5873
 20
2.1848
 30
12.1191
 70
192
 0
VERTEX
 8
GRIFF_12
 10
-5.5873
 20
2.1848
 30
12.1191
 70
192
 0
VERTEX
 8
GRIFF_12
 10
-6.2234
 20
0.5206
 30
11.1331
 70
192
 0
VERTEX
 8
GRIFF_12
 10
-6.2234
 20
0.5206
 30
11.1331
 70
192
 0
VERTEX
 8
GRIFF_12
 10
-5.3144
 20
1.9348
 30
12.2164
 70
192
 0
VERTEX
 8
GRIFF_12
 10
-5.3144
 20
1.9348
 30
12.2164
 70
192
 0
VERTEX
 8
GRIFF_12
 10
-5.886
 20
0.417
 30
10.9852
 70
192
 0
VERTEX
 8
GRIFF_12
 10
-5.886
 20
0.417
 30
10.9852
 70
192
 0
VERTEX
 8
GRIFF_12
 10
-4.977
 20
1.8312
 30
12.0685
 70
192
 0
VERTEX
 8
GRIFF_12
 10
-4.977
 20
1.8312
 30
12.0685
 70
192
 0
VERTEX
 8
GRIFF_12
 10
-5.6818
 20
0.5206
 30
10.6786
 70
192
 0
VERTEX
 8
GRIFF_12
 10
-5.6818
 20
0.5206
 30
10.6786
 70
192
 0
VERTEX
 8
GRIFF_12
 10
-4.7727
 20
1.9348
 30
11.7619
 70
192
 0
VERTEX
 8
GRIFF_12
 10
-4.7727
 20
1.9348
 30
11.7619
 70
192
 0
VERTEX
 8
GRIFF_12
 10
-5.7303
 20
0.7706
 30
10.3929
 70
192
 0
VERTEX
 8
GRIFF_12
 10
-5.7303
 20
0.7706
 30
10.3929
 70
192
 0
VERTEX
 8
GRIFF_12
 10
-4.8212
 20
2.1848
 30
11.4763
 70
192
 0
VERTEX
 8
GRIFF_12
 10
-4.8212
 20
2.1848
 30
11.4763
 70
192
 0
VERTEX
 8
GRIFF_12
 10
-6.0032
 20
1.0206
 30
10.2956
 70
192
 0
VERTEX
 8
GRIFF_12
 10
-6.0032
 20
1.0206
 30
10.2956
 70
192
 0
VERTEX
 8
GRIFF_12
 10
-5.0941
 20
2.4348
 30
11.3789
 70
192
 0
VERTEX
 8
GRIFF_12
 10
-5.0941
 20
2.4348
 30
11.3789
 70
192
 0
VERTEX
 8
GRIFF_12
 10
-6.3406
 20
1.1241
 30
10.4435
 70
192
 0
VERTEX
 8
GRIFF_12
 10
-6.3406
 20
1.1241
 30
10.4435
 70
192
 0
VERTEX
 8
GRIFF_12
 10
-5.4315
 20
2.5383
 30
11.5268
 70
192
 0
VERTEX
 8
GRIFF_12
 10
-5.4315
 20
2.5383
 30
11.5268
 70
192
 0
VERTEX
 8
GRIFF_12
 10
-6.5448
 20
1.0206
 30
10.7501
 70
192
 0
VERTEX
 8
GRIFF_12
 10
-6.5448
 20
1.0206
 30
10.7501
 70
192
 0
VERTEX
 8
GRIFF_12
 10
-5.6358
 20
2.4348
 30
11.8334
 70
192
 0
VERTEX
 8
GRIFF_12
 10
-5.6358
 20
2.4348
 30
11.8334
 70
192
 0
VERTEX
 8
GRIFF_12
 10
0
 20
0
 30
0
 70
128
 71
1
 72
3
 73
7
 74
7
 0
VERTEX
 8
GRIFF_12
 10
0
 20
0
 30
0
 70
128
 71
4
 72
5
 73
9
 74
8
 0
VERTEX
 8
GRIFF_12
 10
0
 20
0
 30
0
 70
128
 71
6
 72
2
 73
10
 74
10
 0
VERTEX
 8
GRIFF_12
 10
0
 20
0
 30
0
 70
128
 71
1
 72
7
 73
11
 74
11
 0
VERTEX
 8
GRIFF_12
 10
0
 20
0
 30
0
 70
128
 71
8
 72
9
 73
13
 74
12
 0
VERTEX
 8
GRIFF_12
 10
0
 20
0
 30
0
 70
128
 71
10
 72
2
 73
14
 74
14
 0
VERTEX
 8
GRIFF_12
 10
0
 20
0
 30
0
 70
128
 71
1
 72
11
 73
15
 74
15
 0
VERTEX
 8
GRIFF_12
 10
0
 20
0
 30
0
 70
128
 71
12
 72
13
 73
17
 74
16
 0
VERTEX
 8
GRIFF_12
 10
0
 20
0
 30
0
 70
128
 71
14
 72
2
 73
18
 74
18
 0
VERTEX
 8
GRIFF_12
 10
0
 20
0
 30
0
 70
128
 71
1
 72
15
 73
19
 74
19
 0
VERTEX
 8
GRIFF_12
 10
0
 20
0
 30
0
 70
128
 71
16
 72
17
 73
21
 74
20
 0
VERTEX
 8
GRIFF_12
 10
0
 20
0
 30
0
 70
128
 71
18
 72
2
 73
22
 74
22
 0
VERTEX
 8
GRIFF_12
 10
0
 20
0
 30
0
 70
128
 71
1
 72
19
 73
23
 74
23
 0
VERTEX
 8
GRIFF_12
 10
0
 20
0
 30
0
 70
128
 71
20
 72
21
 73
25
 74
24
 0
VERTEX
 8
GRIFF_12
 10
0
 20
0
 30
0
 70
128
 71
22
 72
2
 73
26
 74
26
 0
VERTEX
 8
GRIFF_12
 10
0
 20
0
 30
0
 70
128
 71
1
 72
23
 73
27
 74
27
 0
VERTEX
 8
GRIFF_12
 10
0
 20
0
 30
0
 70
128
 71
24
 72
25
 73
29
 74
28
 0
VERTEX
 8
GRIFF_12
 10
0
 20
0
 30
0
 70
128
 71
26
 72
2
 73
30
 74
30
 0
VERTEX
 8
GRIFF_12
 10
0
 20
0
 30
0
 70
128
 71
1
 72
27
 73
31
 74
31
 0
VERTEX
 8
GRIFF_12
 10
0
 20
0
 30
0
 70
128
 71
28
 72
29
 73
33
 74
32
 0
VERTEX
 8
GRIFF_12
 10
0
 20
0
 30
0
 70
128
 71
30
 72
2
 73
34
 74
34
 0
VERTEX
 8
GRIFF_12
 10
0
 20
0
 30
0
 70
128
 71
1
 72
31
 73
3
 74
3
 0
VERTEX
 8
GRIFF_12
 10
0
 20
0
 30
0
 70
128
 71
32
 72
33
 73
5
 74
4
 0
VERTEX
 8
GRIFF_12
 10
0
 20
0
 30
0
 70
128
 71
34
 72
2
 73
6
 74
6
 0
SEQEND
 0
POLYLINE
 8
GRIFF_11
 66
1
 10
0.0
 20
0.0
 30
0.0
 70
64
 71
34
 72
24
 0
VERTEX
 8
GRIFF_11
 10
-6.1921
 20
0.0356
 30
9.8556
 70
192
 0
VERTEX
 8
GRIFF_11
 10
-6.9582
 20
0.0356
 30
10.4984
 70
192
 0
VERTEX
 8
GRIFF_11
 10
-5.874
 20
-0.4594
 30
10.2348
 70
192
 0
VERTEX
 8
GRIFF_11
 10
-5.874
 20
-0.4594
 30
10.2348
 70
192
 0
VERTEX
 8
GRIFF_11
 10
-6.64
 20
-0.4594
 30
10.8776
 70
192
 0
VERTEX
 8
GRIFF_11
 10
-6.64
 20
-0.4594
 30
10.8776
 70
192
 0
VERTEX
 8
GRIFF_11
 10
-5.7422
 20
0.0356
 30
10.3918
 70
192
 0
VERTEX
 8
GRIFF_11
 10
-5.7422
 20
0.0356
 30
10.3918
 70
192
 0
VERTEX
 8
GRIFF_11
 10
-6.5082
 20
0.0356
 30
11.0346
 70
192
 0
VERTEX
 8
GRIFF_11
 10
-6.5082
 20
0.0356
 30
11.0346
 70
192
 0
VERTEX
 8
GRIFF_11
 10
-5.874
 20
0.5305
 30
10.2348
 70
192
 0
VERTEX
 8
GRIFF_11
 10
-5.874
 20
0.5305
 30
10.2348
 70
192
 0
VERTEX
 8
GRIFF_11
 10
-6.64
 20
0.5305
 30
10.8776
 70
192
 0
VERTEX
 8
GRIFF_11
 10
-6.64
 20
0.5305
 30
10.8776
 70
192
 0
VERTEX
 8
GRIFF_11
 10
-6.1921
 20
0.7356
 30
9.8556
 70
192
 0
VERTEX
 8
GRIFF_11
 10
-6.1921
 20
0.7356
 30
9.8556
 70
192
 0
VERTEX
 8
GRIFF_11
 10
-6.9582
 20
0.7356
 30
10.4984
 70
192
 0
VERTEX
 8
GRIFF_11
 10
-6.9582
 20
0.7356
 30
10.4984
 70
192
 0
VERTEX
 8
GRIFF_11
 10
-6.5103
 20
0.5305
 30
9.4764
 70
192
 0
VERTEX
 8
GRIFF_11
 10
-6.5103
 20
0.5305
 30
9.4764
 70
192
 0
VERTEX
 8
GRIFF_11
 10
-7.2763
 20
0.5305
 30
10.1192
 70
192
 0
VERTEX
 8
GRIFF_11
 10
-7.2763
 20
0.5305
 30
10.1192
 70
192
 0
VERTEX
 8
GRIFF_11
 10
-6.6421
 20
0.0356
 30
9.3194
 70
192
 0
VERTEX
 8
GRIFF_11
 10
-6.6421
 20
0.0356
 30
9.3194
 70
192
 0
VERTEX
 8
GRIFF_11
 10
-7.4081
 20
0.0356
 30
9.9622
 70
192
 0
VERTEX
 8
GRIFF_11
 10
-7.4081
 20
0.0356
 30
9.9622
 70
192
 0
VERTEX
 8
GRIFF_11
 10
-6.5103
 20
-0.4594
 30
9.4764
 70
192
 0
VERTEX
 8
GRIFF_11
 10
-6.5103
 20
-0.4594
 30
9.4764
 70
192
 0
VERTEX
 8
GRIFF_11
 10
-7.2763
 20
-0.4594
 30
10.1192
 70
192
 0
VERTEX
 8
GRIFF_11
 10
-7.2763
 20
-0.4594
 30
10.1192
 70
192
 0
VERTEX
 8
GRIFF_11
 10
-6.1921
 20
-0.6644
 30
9.8556
 70
192
 0
VERTEX
 8
GRIFF_11
 10
-6.1921
 20
-0.6644
 30
9.8556
 70
192
 0
VERTEX
 8
GRIFF_11
 10
-6.9582
 20
-0.6644
 30
10.4984
 70
192
 0
VERTEX
 8
GRIFF_11
 10
-6.9582
 20
-0.6644
 30
10.4984
 70
192
 0
VERTEX
 8
GRIFF_11
 10
0
 20
0
 30
0
 70
128
 71
1
 72
3
 73
7
 74
7
 0
VERTEX
 8
GRIFF_11
 10
0
 20
0
 30
0
 70
128
 71
4
 72
5
 73
9
 74
8
 0
VERTEX
 8
GRIFF_11
 10
0
 20
0
 30
0
 70
128
 71
6
 72
2
 73
10
 74
10
 0
VERTEX
 8
GRIFF_11
 10
0
 20
0
 30
0
 70
128
 71
1
 72
7
 73
11
 74
11
 0
VERTEX
 8
GRIFF_11
 10
0
 20
0
 30
0
 70
128
 71
8
 72
9
 73
13
 74
12
 0
VERTEX
 8
GRIFF_11
 10
0
 20
0
 30
0
 70
128
 71
10
 72
2
 73
14
 74
14
 0
VERTEX
 8
GRIFF_11
 10
0
 20
0
 30
0
 70
128
 71
1
 72
11
 73
15
 74
15
 0
VERTEX
 8
GRIFF_11
 10
0
 20
0
 30
0
 70
128
 71
12
 72
13
 73
17
 74
16
 0
VERTEX
 8
GRIFF_11
 10
0
 20
0
 30
0
 70
128
 71
14
 72
2
 73
18
 74
18
 0
VERTEX
 8
GRIFF_11
 10
0
 20
0
 30
0
 70
128
 71
1
 72
15
 73
19
 74
19
 0
VERTEX
 8
GRIFF_11
 10
0
 20
0
 30
0
 70
128
 71
16
 72
17
 73
21
 74
20
 0
VERTEX
 8
GRIFF_11
 10
0
 20
0
 30
0
 70
128
 71
18
 72
2
 73
22
 74
22
 0
VERTEX
 8
GRIFF_11
 10
0
 20
0
 30
0
 70
128
 71
1
 72
19
 73
23
 74
23
 0
VERTEX
 8
GRIFF_11
 10
0
 20
0
 30
0
 70
128
 71
20
 72
21
 73
25
 74
24
 0
VERTEX
 8
GRIFF_11
 10
0
 20
0
 30
0
 70
128
 71
22
 72
2
 73
26
 74
26
 0
VERTEX
 8
GRIFF_11
 10
0
 20
0
 30
0
 70
128
 71
1
 72
23
 73
27
 74
27
 0
VERTEX
 8
GRIFF_11
 10
0
 20
0
 30
0
 70
128
 71
24
 72
25
 73
29
 74
28
 0
VERTEX
 8
GRIFF_11
 10
0
 20
0
 30
0
 70
128
 71
26
 72
2
 73
30
 74
30
 0
VERTEX
 8
GRIFF_11
 10
0
 20
0
 30
0
 70
128
 71
1
 72
27
 73
31
 74
31
 0
VERTEX
 8
GRIFF_11
 10
0
 20
0
 30
0
 70
128
 71
28
 72
29
 73
33
 74
32
 0
VERTEX
 8
GRIFF_11
 10
0
 20
0
 30
0
 70
128
 71
30
 72
2
 73
34
 74
34
 0
VERTEX
 8
GRIFF_11
 10
0
 20
0
 30
0
 70
128
 71
1
 72
31
 73
3
 74
3
 0
VERTEX
 8
GRIFF_11
 10
0
 20
0
 30
0
 70
128
 71
32
 72
33
 73
5
 74
4
 0
VERTEX
 8
GRIFF_11
 10
0
 20
0
 30
0
 70
128
 71
34
 72
2
 73
6
 74
6
 0
SEQEND
 0
POLYLINE
 8
GRIFF_9
 66
1
 10
0.0
 20
0.0
 30
0.0
 70
64
 71
12
 72
6
 0
VERTEX
 8
GRIFF_9
 10
4.726
 20
-0.4644
 30
8.664
 70
192
 0
VERTEX
 8
GRIFF_9
 10
6.2581
 20
-0.4644
 30
9.9495
 70
192
 0
VERTEX
 8
GRIFF_9
 10
5.0043
 20
-0.2144
 30
8.3323
 70
192
 0
VERTEX
 8
GRIFF_9
 10
6.5364
 20
-0.2144
 30
9.6178
 70
192
 0
VERTEX
 8
GRIFF_9
 10
5.0043
 20
0.2856
 30
8.3323
 70
192
 0
VERTEX
 8
GRIFF_9
 10
6.5364
 20
0.2856
 30
9.6178
 70
192
 0
VERTEX
 8
GRIFF_9
 10
4.726
 20
0.5356
 30
8.664
 70
192
 0
VERTEX
 8
GRIFF_9
 10
6.2581
 20
0.5356
 30
9.9495
 70
192
 0
VERTEX
 8
GRIFF_9
 10
4.4477
 20
0.2856
 30
8.9957
 70
192
 0
VERTEX
 8
GRIFF_9
 10
5.9798
 20
0.2856
 30
10.2813
 70
192
 0
VERTEX
 8
GRIFF_9
 10
4.4477
 20
-0.2144
 30
8.9957
 70
192
 0
VERTEX
 8
GRIFF_9
 10
5.9798
 20
-0.2144
 30
10.2813
 70
192
 0
VERTEX
 8
GRIFF_9
 10
0
 20
0
 30
0
 70
128
 71
1
 72
2
 73
4
 74
3
 0
VERTEX
 8
GRIFF_9
 10
0
 20
0
 30
0
 70
128
 71
3
 72
4
 73
6
 74
5
 0
VERTEX
 8
GRIFF_9
 10
0
 20
0
 30
0
 70
128
 71
5
 72
6
 73
8
 74
7
 0
VERTEX
 8
GRIFF_9
 10
0
 20
0
 30
0
 70
128
 71
7
 72
8
 73
10
 74
9
 0
VERTEX
 8
GRIFF_9
 10
0
 20
0
 30
0
 70
128
 71
9
 72
10
 73
12
 74
11
 0
VERTEX
 8
GRIFF_9
 10
0
 20
0
 30
0
 70
128
 71
11
 72
12
 73
2
 74
1
 0
SEQEND
 0
POLYLINE
 8
GRIFF_8
 66
1
 10
0.0
 20
0.0
 30
0.0
 70
64
 71
12
 72
6
 0
VERTEX
 8
GRIFF_8
 10
6.604
 20
0.3313
 30
10.6258
 70
192
 0
VERTEX
 8
GRIFF_8
 10
6.0586
 20
1.1798
 30
11.2758
 70
192
 0
VERTEX
 8
GRIFF_8
 10
6.6077
 20
0.5456
 30
10.3492
 70
192
 0
VERTEX
 8
GRIFF_8
 10
6.0623
 20
1.3941
 30
10.9992
 70
192
 0
VERTEX
 8
GRIFF_8
 10
6.3396
 20
0.5456
 30
10.1242
 70
192
 0
VERTEX
 8
GRIFF_8
 10
5.7942
 20
1.3941
 30
10.7742
 70
192
 0
VERTEX
 8
GRIFF_8
 10
6.0678
 20
0.3313
 30
10.1759
 70
192
 0
VERTEX
 8
GRIFF_8
 10
5.5224
 20
1.1798
 30
10.8259
 70
192
 0
VERTEX
 8
GRIFF_8
 10
6.0641
 20
0.1169
 30
10.4526
 70
192
 0
VERTEX
 8
GRIFF_8
 10
5.5186
 20
0.9655
 30
11.1026
 70
192
 0
VERTEX
 8
GRIFF_8
 10
6.3322
 20
0.1169
 30
10.6775
 70
192
 0
VERTEX
 8
GRIFF_8
 10
5.7868
 20
0.9655
 30
11.3275
 70
192
 0
VERTEX
 8
GRIFF_8
 10
0
 20
0
 30
0
 70
128
 71
1
 72
2
 73
4
 74
3
 0
VERTEX
 8
GRIFF_8
 10
0
 20
0
 30
0
 70
128
 71
3
 72
4
 73
6
 74
5
 0
VERTEX
 8
GRIFF_8
 10
0
 20
0
 30
0
 70
128
 71
5
 72
6
 73
8
 74
7
 0
VERTEX
 8
GRIFF_8
 10
0
 20
0
 30
0
 70
128
 71
7
 72
8
 73
10
 74
9
 0
VERTEX
 8
GRIFF_8
 10
0
 20
0
 30
0
 70
128
 71
9
 72
10
 73
12
 74
11
 0
VERTEX
 8
GRIFF_8
 10
0
 20
0
 30
0
 70
128
 71
11
 72
12
 73
2
 74
1
 0
SEQEND
 0
POLYLINE
 8
GRIFF_7
 66
1
 10
0.0
 20
0.0
 30
0.0
 70
64
 71
34
 72
24
 0
VERTEX
 8
GRIFF_7
 10
6.083
 20
0.7272
 30
10.7055
 70
192
 0
VERTEX
 8
GRIFF_7
 10
5.174
 20
2.1414
 30
11.7889
 70
192
 0
VERTEX
 8
GRIFF_7
 10
6.4661
 20
0.7272
 30
11.0269
 70
192
 0
VERTEX
 8
GRIFF_7
 10
6.4661
 20
0.7272
 30
11.0269
 70
192
 0
VERTEX
 8
GRIFF_7
 10
5.557
 20
2.1414
 30
12.1102
 70
192
 0
VERTEX
 8
GRIFF_7
 10
5.557
 20
2.1414
 30
12.1102
 70
192
 0
VERTEX
 8
GRIFF_7
 10
6.5146
 20
0.9772
 30
10.7412
 70
192
 0
VERTEX
 8
GRIFF_7
 10
6.5146
 20
0.9772
 30
10.7412
 70
192
 0
VERTEX
 8
GRIFF_7
 10
5.6055
 20
2.3914
 30
11.8246
 70
192
 0
VERTEX
 8
GRIFF_7
 10
5.6055
 20
2.3914
 30
11.8246
 70
192
 0
VERTEX
 8
GRIFF_7
 10
6.3103
 20
1.0807
 30
10.4347
 70
192
 0
VERTEX
 8
GRIFF_7
 10
6.3103
 20
1.0807
 30
10.4347
 70
192
 0
VERTEX
 8
GRIFF_7
 10
5.4013
 20
2.4949
 30
11.518
 70
192
 0
VERTEX
 8
GRIFF_7
 10
5.4013
 20
2.4949
 30
11.518
 70
192
 0
VERTEX
 8
GRIFF_7
 10
5.9729
 20
0.9772
 30
10.2867
 70
192
 0
VERTEX
 8
GRIFF_7
 10
5.9729
 20
0.9772
 30
10.2867
 70
192
 0
VERTEX
 8
GRIFF_7
 10
5.0639
 20
2.3914
 30
11.3701
 70
192
 0
VERTEX
 8
GRIFF_7
 10
5.0639
 20
2.3914
 30
11.3701
 70
192
 0
VERTEX
 8
GRIFF_7
 10
5.7
 20
0.7272
 30
10.3841
 70
192
 0
VERTEX
 8
GRIFF_7
 10
5.7
 20
0.7272
 30
10.3841
 70
192
 0
VERTEX
 8
GRIFF_7
 10
4.791
 20
2.1414
 30
11.4675
 70
192
 0
VERTEX
 8
GRIFF_7
 10
4.791
 20
2.1414
 30
11.4675
 70
192
 0
VERTEX
 8
GRIFF_7
 10
5.6515
 20
0.4772
 30
10.6698
 70
192
 0
VERTEX
 8
GRIFF_7
 10
5.6515
 20
0.4772
 30
10.6698
 70
192
 0
VERTEX
 8
GRIFF_7
 10
4.7425
 20
1.8914
 30
11.7531
 70
192
 0
VERTEX
 8
GRIFF_7
 10
4.7425
 20
1.8914
 30
11.7531
 70
192
 0
VERTEX
 8
GRIFF_7
 10
5.8558
 20
0.3736
 30
10.9763
 70
192
 0
VERTEX
 8
GRIFF_7
 10
5.8558
 20
0.3736
 30
10.9763
 70
192
 0
VERTEX
 8
GRIFF_7
 10
4.9467
 20
1.7878
 30
12.0597
 70
192
 0
VERTEX
 8
GRIFF_7
 10
4.9467
 20
1.7878
 30
12.0597
 70
192
 0
VERTEX
 8
GRIFF_7
 10
6.1932
 20
0.4772
 30
11.1243
 70
192
 0
VERTEX
 8
GRIFF_7
 10
6.1932
 20
0.4772
 30
11.1243
 70
192
 0
VERTEX
 8
GRIFF_7
 10
5.2841
 20
1.8914
 30
12.2076
 70
192
 0
VERTEX
 8
GRIFF_7
 10
5.2841
 20
1.8914
 30
12.2076
 70
192
 0
VERTEX
 8
GRIFF_7
 10
0
 20
0
 30
0
 70
128
 71
1
 72
3
 73
7
 74
7
 0
VERTEX
 8
GRIFF_7
 10
0
 20
0
 30
0
 70
128
 71
4
 72
5
 73
9
 74
8
 0
VERTEX
 8
GRIFF_7
 10
0
 20
0
 30
0
 70
128
 71
6
 72
2
 73
10
 74
10
 0
VERTEX
 8
GRIFF_7
 10
0
 20
0
 30
0
 70
128
 71
1
 72
7
 73
11
 74
11
 0
VERTEX
 8
GRIFF_7
 10
0
 20
0
 30
0
 70
128
 71
8
 72
9
 73
13
 74
12
 0
VERTEX
 8
GRIFF_7
 10
0
 20
0
 30
0
 70
128
 71
10
 72
2
 73
14
 74
14
 0
VERTEX
 8
GRIFF_7
 10
0
 20
0
 30
0
 70
128
 71
1
 72
11
 73
15
 74
15
 0
VERTEX
 8
GRIFF_7
 10
0
 20
0
 30
0
 70
128
 71
12
 72
13
 73
17
 74
16
 0
VERTEX
 8
GRIFF_7
 10
0
 20
0
 30
0
 70
128
 71
14
 72
2
 73
18
 74
18
 0
VERTEX
 8
GRIFF_7
 10
0
 20
0
 30
0
 70
128
 71
1
 72
15
 73
19
 74
19
 0
VERTEX
 8
GRIFF_7
 10
0
 20
0
 30
0
 70
128
 71
16
 72
17
 73
21
 74
20
 0
VERTEX
 8
GRIFF_7
 10
0
 20
0
 30
0
 70
128
 71
18
 72
2
 73
22
 74
22
 0
VERTEX
 8
GRIFF_7
 10
0
 20
0
 30
0
 70
128
 71
1
 72
19
 73
23
 74
23
 0
VERTEX
 8
GRIFF_7
 10
0
 20
0
 30
0
 70
128
 71
20
 72
21
 73
25
 74
24
 0
VERTEX
 8
GRIFF_7
 10
0
 20
0
 30
0
 70
128
 71
22
 72
2
 73
26
 74
26
 0
VERTEX
 8
GRIFF_7
 10
0
 20
0
 30
0
 70
128
 71
1
 72
23
 73
27
 74
27
 0
VERTEX
 8
GRIFF_7
 10
0
 20
0
 30
0
 70
128
 71
24
 72
25
 73
29
 74
28
 0
VERTEX
 8
GRIFF_7
 10
0
 20
0
 30
0
 70
128
 71
26
 72
2
 73
30
 74
30
 0
VERTEX
 8
GRIFF_7
 10
0
 20
0
 30
0
 70
128
 71
1
 72
27
 73
31
 74
31
 0
VERTEX
 8
GRIFF_7
 10
0
 20
0
 30
0
 70
128
 71
28
 72
29
 73
33
 74
32
 0
VERTEX
 8
GRIFF_7
 10
0
 20
0
 30
0
 70
128
 71
30
 72
2
 73
34
 74
34
 0
VERTEX
 8
GRIFF_7
 10
0
 20
0
 30
0
 70
128
 71
1
 72
31
 73
3
 74
3
 0
VERTEX
 8
GRIFF_7
 10
0
 20
0
 30
0
 70
128
 71
32
 72
33
 73
5
 74
4
 0
VERTEX
 8
GRIFF_7
 10
0
 20
0
 30
0
 70
128
 71
34
 72
2
 73
6
 74
6
 0
SEQEND
 0
POLYLINE
 8
GRIFF_6
 66
1
 10
0.0
 20
0.0
 30
0.0
 70
64
 71
12
 72
6
 0
VERTEX
 8
GRIFF_6
 10
7
 20
-0.2848
 30
10.1539
 70
192
 0
VERTEX
 8
GRIFF_6
 10
7.5454
 20
-1.1333
 30
9.5039
 70
192
 0
VERTEX
 8
GRIFF_6
 10
6.7282
 20
-0.4991
 30
10.2056
 70
192
 0
VERTEX
 8
GRIFF_6
 10
7.2736
 20
-1.3476
 30
9.5556
 70
192
 0
VERTEX
 8
GRIFF_6
 10
6.4601
 20
-0.4991
 30
9.9806
 70
192
 0
VERTEX
 8
GRIFF_6
 10
7.0055
 20
-1.3476
 30
9.3306
 70
192
 0
VERTEX
 8
GRIFF_6
 10
6.4638
 20
-0.2848
 30
9.704
 70
192
 0
VERTEX
 8
GRIFF_6
 10
7.0092
 20
-1.1333
 30
9.0539
 70
192
 0
VERTEX
 8
GRIFF_6
 10
6.7356
 20
-0.0705
 30
9.6523
 70
192
 0
VERTEX
 8
GRIFF_6
 10
7.281
 20
-0.919
 30
9.0022
 70
192
 0
VERTEX
 8
GRIFF_6
 10
7.0037
 20
-0.0705
 30
9.8772
 70
192
 0
VERTEX
 8
GRIFF_6
 10
7.5491
 20
-0.919
 30
9.2272
 70
192
 0
VERTEX
 8
GRIFF_6
 10
0
 20
0
 30
0
 70
128
 71
1
 72
2
 73
4
 74
3
 0
VERTEX
 8
GRIFF_6
 10
0
 20
0
 30
0
 70
128
 71
3
 72
4
 73
6
 74
5
 0
VERTEX
 8
GRIFF_6
 10
0
 20
0
 30
0
 70
128
 71
5
 72
6
 73
8
 74
7
 0
VERTEX
 8
GRIFF_6
 10
0
 20
0
 30
0
 70
128
 71
7
 72
8
 73
10
 74
9
 0
VERTEX
 8
GRIFF_6
 10
0
 20
0
 30
0
 70
128
 71
9
 72
10
 73
12
 74
11
 0
VERTEX
 8
GRIFF_6
 10
0
 20
0
 30
0
 70
128
 71
11
 72
12
 73
2
 74
1
 0
SEQEND
 0
POLYLINE
 8
GRIFF_5
 66
1
 10
0.0
 20
0.0
 30
0.0
 70
64
 71
34
 72
24
 0
VERTEX
 8
GRIFF_5
 10
6.9797
 20
-0.6678
 30
9.6369
 70
192
 0
VERTEX
 8
GRIFF_5
 10
7.8887
 20
-2.082
 30
8.5536
 70
192
 0
VERTEX
 8
GRIFF_5
 10
7.3627
 20
-0.6678
 30
9.9583
 70
192
 0
VERTEX
 8
GRIFF_5
 10
7.3627
 20
-0.6678
 30
9.9583
 70
192
 0
VERTEX
 8
GRIFF_5
 10
8.2717
 20
-2.082
 30
8.875
 70
192
 0
VERTEX
 8
GRIFF_5
 10
8.2717
 20
-2.082
 30
8.875
 70
192
 0
VERTEX
 8
GRIFF_5
 10
7.0898
 20
-0.9178
 30
10.0557
 70
192
 0
VERTEX
 8
GRIFF_5
 10
7.0898
 20
-0.9178
 30
10.0557
 70
192
 0
VERTEX
 8
GRIFF_5
 10
7.9989
 20
-2.332
 30
8.9723
 70
192
 0
VERTEX
 8
GRIFF_5
 10
7.9989
 20
-2.332
 30
8.9723
 70
192
 0
VERTEX
 8
GRIFF_5
 10
6.7524
 20
-1.0213
 30
9.9077
 70
192
 0
VERTEX
 8
GRIFF_5
 10
6.7524
 20
-1.0213
 30
9.9077
 70
192
 0
VERTEX
 8
GRIFF_5
 10
7.6615
 20
-2.4355
 30
8.8244
 70
192
 0
VERTEX
 8
GRIFF_5
 10
7.6615
 20
-2.4355
 30
8.8244
 70
192
 0
VERTEX
 8
GRIFF_5
 10
6.5482
 20
-0.9178
 30
9.6012
 70
192
 0
VERTEX
 8
GRIFF_5
 10
6.5482
 20
-0.9178
 30
9.6012
 70
192
 0
VERTEX
 8
GRIFF_5
 10
7.4572
 20
-2.332
 30
8.5178
 70
192
 0
VERTEX
 8
GRIFF_5
 10
7.4572
 20
-2.332
 30
8.5178
 70
192
 0
VERTEX
 8
GRIFF_5
 10
6.5967
 20
-0.6678
 30
9.3155
 70
192
 0
VERTEX
 8
GRIFF_5
 10
6.5967
 20
-0.6678
 30
9.3155
 70
192
 0
VERTEX
 8
GRIFF_5
 10
7.5057
 20
-2.082
 30
8.2322
 70
192
 0
VERTEX
 8
GRIFF_5
 10
7.5057
 20
-2.082
 30
8.2322
 70
192
 0
VERTEX
 8
GRIFF_5
 10
6.8695
 20
-0.4178
 30
9.2181
 70
192
 0
VERTEX
 8
GRIFF_5
 10
6.8695
 20
-0.4178
 30
9.2181
 70
192
 0
VERTEX
 8
GRIFF_5
 10
7.7786
 20
-1.832
 30
8.1348
 70
192
 0
VERTEX
 8
GRIFF_5
 10
7.7786
 20
-1.832
 30
8.1348
 70
192
 0
VERTEX
 8
GRIFF_5
 10
7.2069
 20
-0.3142
 30
9.3661
 70
192
 0
VERTEX
 8
GRIFF_5
 10
7.2069
 20
-0.3142
 30
9.3661
 70
192
 0
VERTEX
 8
GRIFF_5
 10
8.116
 20
-1.7284
 30
8.2827
 70
192
 0
VERTEX
 8
GRIFF_5
 10
8.116
 20
-1.7284
 30
8.2827
 70
192
 0
VERTEX
 8
GRIFF_5
 10
7.4112
 20
-0.4178
 30
9.6727
 70
192
 0
VERTEX
 8
GRIFF_5
 10
7.4112
 20
-0.4178
 30
9.6727
 70
192
 0
VERTEX
 8
GRIFF_5
 10
8.3203
 20
-1.832
 30
8.5893
 70
192
 0
VERTEX
 8
GRIFF_5
 10
8.3203
 20
-1.832
 30
8.5893
 70
192
 0
VERTEX
 8
GRIFF_5
 10
0
 20
0
 30
0
 70
128
 71
1
 72
3
 73
7
 74
7
 0
VERTEX
 8
GRIFF_5
 10
0
 20
0
 30
0
 70
128
 71
4
 72
5
 73
9
 74
8
 0
VERTEX
 8
GRIFF_5
 10
0
 20
0
 30
0
 70
128
 71
6
 72
2
 73
10
 74
10
 0
VERTEX
 8
GRIFF_5
 10
0
 20
0
 30
0
 70
128
 71
1
 72
7
 73
11
 74
11
 0
VERTEX
 8
GRIFF_5
 10
0
 20
0
 30
0
 70
128
 71
8
 72
9
 73
13
 74
12
 0
VERTEX
 8
GRIFF_5
 10
0
 20
0
 30
0
 70
128
 71
10
 72
2
 73
14
 74
14
 0
VERTEX
 8
GRIFF_5
 10
0
 20
0
 30
0
 70
128
 71
1
 72
11
 73
15
 74
15
 0
VERTEX
 8
GRIFF_5
 10
0
 20
0
 30
0
 70
128
 71
12
 72
13
 73
17
 74
16
 0
VERTEX
 8
GRIFF_5
 10
0
 20
0
 30
0
 70
128
 71
14
 72
2
 73
18
 74
18
 0
VERTEX
 8
GRIFF_5
 10
0
 20
0
 30
0
 70
128
 71
1
 72
15
 73
19
 74
19
 0
VERTEX
 8
GRIFF_5
 10
0
 20
0
 30
0
 70
128
 71
16
 72
17
 73
21
 74
20
 0
VERTEX
 8
GRIFF_5
 10
0
 20
0
 30
0
 70
128
 71
18
 72
2
 73
22
 74
22
 0
VERTEX
 8
GRIFF_5
 10
0
 20
0
 30
0
 70
128
 71
1
 72
19
 73
23
 74
23
 0
VERTEX
 8
GRIFF_5
 10
0
 20
0
 30
0
 70
128
 71
20
 72
21
 73
25
 74
24
 0
VERTEX
 8
GRIFF_5
 10
0
 20
0
 30
0
 70
128
 71
22
 72
2
 73
26
 74
26
 0
VERTEX
 8
GRIFF_5
 10
0
 20
0
 30
0
 70
128
 71
1
 72
23
 73
27
 74
27
 0
VERTEX
 8
GRIFF_5
 10
0
 20
0
 30
0
 70
128
 71
24
 72
25
 73
29
 74
28
 0
VERTEX
 8
GRIFF_5
 10
0
 20
0
 30
0
 70
128
 71
26
 72
2
 73
30
 74
30
 0
VERTEX
 8
GRIFF_5
 10
0
 20
0
 30
0
 70
128
 71
1
 72
27
 73
31
 74
31
 0
VERTEX
 8
GRIFF_5
 10
0
 20
0
 30
0
 70
128
 71
28
 72
29
 73
33
 74
32
 0
VERTEX
 8
GRIFF_5
 10
0
 20
0
 30
0
 70
128
 71
30
 72
2
 73
34
 74
34
 0
VERTEX
 8
GRIFF_5
 10
0
 20
0
 30
0
 70
128
 71
1
 72
31
 73
3
 74
3
 0
VERTEX
 8
GRIFF_5
 10
0
 20
0
 30
0
 70
128
 71
32
 72
33
 73
5
 74
4
 0
VERTEX
 8
GRIFF_5
 10
0
 20
0
 30
0
 70
128
 71
34
 72
2
 73
6
 74
6
 0
SEQEND
 0
POLYLINE
 8
GRIFF_4
 66
1
 10
0.0
 20
0.0
 30
0.0
 70
64
 71
12
 72
6
 0
VERTEX
 8
GRIFF_4
 10
6.5511
 20
-0.3159
 30
10.6888
 70
192
 0
VERTEX
 8
GRIFF_4
 10
6.0057
 20
-1.1644
 30
11.3388
 70
192
 0
VERTEX
 8
GRIFF_4
 10
6.2793
 20
-0.1015
 30
10.7405
 70
192
 0
VERTEX
 8
GRIFF_4
 10
5.7339
 20
-0.9501
 30
11.3905
 70
192
 0
VERTEX
 8
GRIFF_4
 10
6.0112
 20
-0.1015
 30
10.5155
 70
192
 0
VERTEX
 8
GRIFF_4
 10
5.4658
 20
-0.9501
 30
11.1656
 70
192
 0
VERTEX
 8
GRIFF_4
 10
6.0149
 20
-0.3159
 30
10.2389
 70
192
 0
VERTEX
 8
GRIFF_4
 10
5.4695
 20
-1.1644
 30
10.8889
 70
192
 0
VERTEX
 8
GRIFF_4
 10
6.2867
 20
-0.5302
 30
10.1872
 70
192
 0
VERTEX
 8
GRIFF_4
 10
5.7413
 20
-1.3787
 30
10.8372
 70
192
 0
VERTEX
 8
GRIFF_4
 10
6.5549
 20
-0.5302
 30
10.4122
 70
192
 0
VERTEX
 8
GRIFF_4
 10
6.0094
 20
-1.3787
 30
11.0622
 70
192
 0
VERTEX
 8
GRIFF_4
 10
0
 20
0
 30
0
 70
128
 71
1
 72
2
 73
4
 74
3
 0
VERTEX
 8
GRIFF_4
 10
0
 20
0
 30
0
 70
128
 71
3
 72
4
 73
6
 74
5
 0
VERTEX
 8
GRIFF_4
 10
0
 20
0
 30
0
 70
128
 71
5
 72
6
 73
8
 74
7
 0
VERTEX
 8
GRIFF_4
 10
0
 20
0
 30
0
 70
128
 71
7
 72
8
 73
10
 74
9
 0
VERTEX
 8
GRIFF_4
 10
0
 20
0
 30
0
 70
128
 71
9
 72
10
 73
12
 74
11
 0
VERTEX
 8
GRIFF_4
 10
0
 20
0
 30
0
 70
128
 71
11
 72
12
 73
2
 74
1
 0
SEQEND
 0
POLYLINE
 8
GRIFF_3
 66
1
 10
0.0
 20
0.0
 30
0.0
 70
64
 71
34
 72
24
 0
VERTEX
 8
GRIFF_3
 10
6.0385
 20
-0.6989
 30
10.7586
 70
192
 0
VERTEX
 8
GRIFF_3
 10
5.1294
 20
-2.1131
 30
11.842
 70
192
 0
VERTEX
 8
GRIFF_3
 10
6.4215
 20
-0.6989
 30
11.08
 70
192
 0
VERTEX
 8
GRIFF_3
 10
6.4215
 20
-0.6989
 30
11.08
 70
192
 0
VERTEX
 8
GRIFF_3
 10
5.5125
 20
-2.1131
 30
12.1633
 70
192
 0
VERTEX
 8
GRIFF_3
 10
5.5125
 20
-2.1131
 30
12.1633
 70
192
 0
VERTEX
 8
GRIFF_3
 10
6.1486
 20
-0.4489
 30
11.1774
 70
192
 0
VERTEX
 8
GRIFF_3
 10
6.1486
 20
-0.4489
 30
11.1774
 70
192
 0
VERTEX
 8
GRIFF_3
 10
5.2396
 20
-1.8631
 30
12.2607
 70
192
 0
VERTEX
 8
GRIFF_3
 10
5.2396
 20
-1.8631
 30
12.2607
 70
192
 0
VERTEX
 8
GRIFF_3
 10
5.8112
 20
-0.3453
 30
11.0294
 70
192
 0
VERTEX
 8
GRIFF_3
 10
5.8112
 20
-0.3453
 30
11.0294
 70
192
 0
VERTEX
 8
GRIFF_3
 10
4.9022
 20
-1.7595
 30
12.1128
 70
192
 0
VERTEX
 8
GRIFF_3
 10
4.9022
 20
-1.7595
 30
12.1128
 70
192
 0
VERTEX
 8
GRIFF_3
 10
5.6069
 20
-0.4489
 30
10.7229
 70
192
 0
VERTEX
 8
GRIFF_3
 10
5.6069
 20
-0.4489
 30
10.7229
 70
192
 0
VERTEX
 8
GRIFF_3
 10
4.6979
 20
-1.8631
 30
11.8062
 70
192
 0
VERTEX
 8
GRIFF_3
 10
4.6979
 20
-1.8631
 30
11.8062
 70
192
 0
VERTEX
 8
GRIFF_3
 10
5.6555
 20
-0.6989
 30
10.4372
 70
192
 0
VERTEX
 8
GRIFF_3
 10
5.6555
 20
-0.6989
 30
10.4372
 70
192
 0
VERTEX
 8
GRIFF_3
 10
4.7464
 20
-2.1131
 30
11.5206
 70
192
 0
VERTEX
 8
GRIFF_3
 10
4.7464
 20
-2.1131
 30
11.5206
 70
192
 0
VERTEX
 8
GRIFF_3
 10
5.9283
 20
-0.9489
 30
10.3398
 70
192
 0
VERTEX
 8
GRIFF_3
 10
5.9283
 20
-0.9489
 30
10.3398
 70
192
 0
VERTEX
 8
GRIFF_3
 10
5.0193
 20
-2.3631
 30
11.4232
 70
192
 0
VERTEX
 8
GRIFF_3
 10
5.0193
 20
-2.3631
 30
11.4232
 70
192
 0
VERTEX
 8
GRIFF_3
 10
6.2657
 20
-1.0524
 30
10.4878
 70
192
 0
VERTEX
 8
GRIFF_3
 10
6.2657
 20
-1.0524
 30
10.4878
 70
192
 0
VERTEX
 8
GRIFF_3
 10
5.3567
 20
-2.4666
 30
11.5711
 70
192
 0
VERTEX
 8
GRIFF_3
 10
5.3567
 20
-2.4666
 30
11.5711
 70
192
 0
VERTEX
 8
GRIFF_3
 10
6.47
 20
-0.9489
 30
10.7943
 70
192
 0
VERTEX
 8
GRIFF_3
 10
6.47
 20
-0.9489
 30
10.7943
 70
192
 0
VERTEX
 8
GRIFF_3
 10
5.561
 20
-2.3631
 30
11.8777
 70
192
 0
VERTEX
 8
GRIFF_3
 10
5.561
 20
-2.3631
 30
11.8777
 70
192
 0
VERTEX
 8
GRIFF_3
 10
0
 20
0
 30
0
 70
128
 71
1
 72
3
 73
7
 74
7
 0
VERTEX
 8
GRIFF_3
 10
0
 20
0
 30
0
 70
128
 71
4
 72
5
 73
9
 74
8
 0
VERTEX
 8
GRIFF_3
 10
0
 20
0
 30
0
 70
128
 71
6
 72
2
 73
10
 74
10
 0
VERTEX
 8
GRIFF_3
 10
0
 20
0
 30
0
 70
128
 71
1
 72
7
 73
11
 74
11
 0
VERTEX
 8
GRIFF_3
 10
0
 20
0
 30
0
 70
128
 71
8
 72
9
 73
13
 74
12
 0
VERTEX
 8
GRIFF_3
 10
0
 20
0
 30
0
 70
128
 71
10
 72
2
 73
14
 74
14
 0
VERTEX
 8
GRIFF_3
 10
0
 20
0
 30
0
 70
128
 71
1
 72
11
 73
15
 74
15
 0
VERTEX
 8
GRIFF_3
 10
0
 20
0
 30
0
 70
128
 71
12
 72
13
 73
17
 74
16
 0
VERTEX
 8
GRIFF_3
 10
0
 20
0
 30
0
 70
128
 71
14
 72
2
 73
18
 74
18
 0
VERTEX
 8
GRIFF_3
 10
0
 20
0
 30
0
 70
128
 71
1
 72
15
 73
19
 74
19
 0
VERTEX
 8
GRIFF_3
 10
0
 20
0
 30
0
 70
128
 71
16
 72
17
 73
21
 74
20
 0
VERTEX
 8
GRIFF_3
 10
0
 20
0
 30
0
 70
128
 71
18
 72
2
 73
22
 74
22
 0
VERTEX
 8
GRIFF_3
 10
0
 20
0
 30
0
 70
128
 71
1
 72
19
 73
23
 74
23
 0
VERTEX
 8
GRIFF_3
 10
0
 20
0
 30
0
 70
128
 71
20
 72
21
 73
25
 74
24
 0
VERTEX
 8
GRIFF_3
 10
0
 20
0
 30
0
 70
128
 71
22
 72
2
 73
26
 74
26
 0
VERTEX
 8
GRIFF_3
 10
0
 20
0
 30
0
 70
128
 71
1
 72
23
 73
27
 74
27
 0
VERTEX
 8
GRIFF_3
 10
0
 20
0
 30
0
 70
128
 71
24
 72
25
 73
29
 74
28
 0
VERTEX
 8
GRIFF_3
 10
0
 20
0
 30
0
 70
128
 71
26
 72
2
 73
30
 74
30
 0
VERTEX
 8
GRIFF_3
 10
0
 20
0
 30
0
 70
128
 71
1
 72
27
 73
31
 74
31
 0
VERTEX
 8
GRIFF_3
 10
0
 20
0
 30
0
 70
128
 71
28
 72
29
 73
33
 74
32
 0
VERTEX
 8
GRIFF_3
 10
0
 20
0
 30
0
 70
128
 71
30
 72
2
 73
34
 74
34
 0
VERTEX
 8
GRIFF_3
 10
0
 20
0
 30
0
 70
128
 71
1
 72
31
 73
3
 74
3
 0
VERTEX
 8
GRIFF_3
 10
0
 20
0
 30
0
 70
128
 71
32
 72
33
 73
5
 74
4
 0
VERTEX
 8
GRIFF_3
 10
0
 20
0
 30
0
 70
128
 71
34
 72
2
 73
6
 74
6
 0
SEQEND
 0
POLYLINE
 8
GRIFF_2
 66
1
 10
0.0
 20
0.0
 30
0.0
 70
64
 71
12
 72
6
 0
VERTEX
 8
GRIFF_2
 10
7.0033
 20
0.3876
 30
10.15
 70
192
 0
VERTEX
 8
GRIFF_2
 10
7.5487
 20
1.2361
 30
9.5
 70
192
 0
VERTEX
 8
GRIFF_2
 10
7.007
 20
0.1732
 30
9.8733
 70
192
 0
VERTEX
 8
GRIFF_2
 10
7.5524
 20
1.0218
 30
9.2233
 70
192
 0
VERTEX
 8
GRIFF_2
 10
6.7389
 20
0.1732
 30
9.6483
 70
192
 0
VERTEX
 8
GRIFF_2
 10
7.2843
 20
1.0218
 30
8.9983
 70
192
 0
VERTEX
 8
GRIFF_2
 10
6.4671
 20
0.3876
 30
9.7
 70
192
 0
VERTEX
 8
GRIFF_2
 10
7.0125
 20
1.2361
 30
9.05
 70
192
 0
VERTEX
 8
GRIFF_2
 10
6.4634
 20
0.6019
 30
9.9767
 70
192
 0
VERTEX
 8
GRIFF_2
 10
7.0088
 20
1.4504
 30
9.3267
 70
192
 0
VERTEX
 8
GRIFF_2
 10
6.7315
 20
0.6019
 30
10.2017
 70
192
 0
VERTEX
 8
GRIFF_2
 10
7.2769
 20
1.4504
 30
9.5517
 70
192
 0
VERTEX
 8
GRIFF_2
 10
0
 20
0
 30
0
 70
128
 71
1
 72
2
 73
4
 74
3
 0
VERTEX
 8
GRIFF_2
 10
0
 20
0
 30
0
 70
128
 71
3
 72
4
 73
6
 74
5
 0
VERTEX
 8
GRIFF_2
 10
0
 20
0
 30
0
 70
128
 71
5
 72
6
 73
8
 74
7
 0
VERTEX
 8
GRIFF_2
 10
0
 20
0
 30
0
 70
128
 71
7
 72
8
 73
10
 74
9
 0
VERTEX
 8
GRIFF_2
 10
0
 20
0
 30
0
 70
128
 71
9
 72
10
 73
12
 74
11
 0
VERTEX
 8
GRIFF_2
 10
0
 20
0
 30
0
 70
128
 71
11
 72
12
 73
2
 74
1
 0
SEQEND
 0
POLYLINE
 8
GRIFF_1
 66
1
 10
0.0
 20
0.0
 30
0.0
 70
64
 71
34
 72
24
 0
VERTEX
 8
GRIFF_1
 10
6.983
 20
0.7706
 30
9.633
 70
192
 0
VERTEX
 8
GRIFF_1
 10
7.892
 20
2.1848
 30
8.5496
 70
192
 0
VERTEX
 8
GRIFF_1
 10
7.366
 20
0.7706
 30
9.9544
 70
192
 0
VERTEX
 8
GRIFF_1
 10
7.366
 20
0.7706
 30
9.9544
 70
192
 0
VERTEX
 8
GRIFF_1
 10
8.2751
 20
2.1848
 30
8.871
 70
192
 0
VERTEX
 8
GRIFF_1
 10
8.2751
 20
2.1848
 30
8.871
 70
192
 0
VERTEX
 8
GRIFF_1
 10
7.4145
 20
0.5206
 30
9.6687
 70
192
 0
VERTEX
 8
GRIFF_1
 10
7.4145
 20
0.5206
 30
9.6687
 70
192
 0
VERTEX
 8
GRIFF_1
 10
8.3236
 20
1.9348
 30
8.5854
 70
192
 0
VERTEX
 8
GRIFF_1
 10
8.3236
 20
1.9348
 30
8.5854
 70
192
 0
VERTEX
 8
GRIFF_1
 10
7.2103
 20
0.417
 30
9.3621
 70
192
 0
VERTEX
 8
GRIFF_1
 10
7.2103
 20
0.417
 30
9.3621
 70
192
 0
VERTEX
 8
GRIFF_1
 10
8.1193
 20
1.8312
 30
8.2788
 70
192
 0
VERTEX
 8
GRIFF_1
 10
8.1193
 20
1.8312
 30
8.2788
 70
192
 0
VERTEX
 8
GRIFF_1
 10
6.8729
 20
0.5206
 30
9.2142
 70
192
 0
VERTEX
 8
GRIFF_1
 10
6.8729
 20
0.5206
 30
9.2142
 70
192
 0
VERTEX
 8
GRIFF_1
 10
7.7819
 20
1.9348
 30
8.1309
 70
192
 0
VERTEX
 8
GRIFF_1
 10
7.7819
 20
1.9348
 30
8.1309
 70
192
 0
VERTEX
 8
GRIFF_1
 10
6.6
 20
0.7706
 30
9.3116
 70
192
 0
VERTEX
 8
GRIFF_1
 10
6.6
 20
0.7706
 30
9.3116
 70
192
 0
VERTEX
 8
GRIFF_1
 10
7.509
 20
2.1848
 30
8.2282
 70
192
 0
VERTEX
 8
GRIFF_1
 10
7.509
 20
2.1848
 30
8.2282
 70
192
 0
VERTEX
 8
GRIFF_1
 10
6.5515
 20
1.0206
 30
9.5972
 70
192
 0
VERTEX
 8
GRIFF_1
 10
6.5515
 20
1.0206
 30
9.5972
 70
192
 0
VERTEX
 8
GRIFF_1
 10
7.4605
 20
2.4348
 30
8.5139
 70
192
 0
VERTEX
 8
GRIFF_1
 10
7.4605
 20
2.4348
 30
8.5139
 70
192
 0
VERTEX
 8
GRIFF_1
 10
6.7557
 20
1.1241
 30
9.9038
 70
192
 0
VERTEX
 8
GRIFF_1
 10
6.7557
 20
1.1241
 30
9.9038
 70
192
 0
VERTEX
 8
GRIFF_1
 10
7.6648
 20
2.5383
 30
8.8205
 70
192
 0
VERTEX
 8
GRIFF_1
 10
7.6648
 20
2.5383
 30
8.8205
 70
192
 0
VERTEX
 8
GRIFF_1
 10
7.0931
 20
1.0206
 30
10.0517
 70
192
 0
VERTEX
 8
GRIFF_1
 10
7.0931
 20
1.0206
 30
10.0517
 70
192
 0
VERTEX
 8
GRIFF_1
 10
8.0022
 20
2.4348
 30
8.9684
 70
192
 0
VERTEX
 8
GRIFF_1
 10
8.0022
 20
2.4348
 30
8.9684
 70
192
 0
VERTEX
 8
GRIFF_1
 10
0
 20
0
 30
0
 70
128
 71
1
 72
3
 73
7
 74
7
 0
VERTEX
 8
GRIFF_1
 10
0
 20
0
 30
0
 70
128
 71
4
 72
5
 73
9
 74
8
 0
VERTEX
 8
GRIFF_1
 10
0
 20
0
 30
0
 70
128
 71
6
 72
2
 73
10
 74
10
 0
VERTEX
 8
GRIFF_1
 10
0
 20
0
 30
0
 70
128
 71
1
 72
7
 73
11
 74
11
 0
VERTEX
 8
GRIFF_1
 10
0
 20
0
 30
0
 70
128
 71
8
 72
9
 73
13
 74
12
 0
VERTEX
 8
GRIFF_1
 10
0
 20
0
 30
0
 70
128
 71
10
 72
2
 73
14
 74
14
 0
VERTEX
 8
GRIFF_1
 10
0
 20
0
 30
0
 70
128
 71
1
 72
11
 73
15
 74
15
 0
VERTEX
 8
GRIFF_1
 10
0
 20
0
 30
0
 70
128
 71
12
 72
13
 73
17
 74
16
 0
VERTEX
 8
GRIFF_1
 10
0
 20
0
 30
0
 70
128
 71
14
 72
2
 73
18
 74
18
 0
VERTEX
 8
GRIFF_1
 10
0
 20
0
 30
0
 70
128
 71
1
 72
15
 73
19
 74
19
 0
VERTEX
 8
GRIFF_1
 10
0
 20
0
 30
0
 70
128
 71
16
 72
17
 73
21
 74
20
 0
VERTEX
 8
GRIFF_1
 10
0
 20
0
 30
0
 70
128
 71
18
 72
2
 73
22
 74
22
 0
VERTEX
 8
GRIFF_1
 10
0
 20
0
 30
0
 70
128
 71
1
 72
19
 73
23
 74
23
 0
VERTEX
 8
GRIFF_1
 10
0
 20
0
 30
0
 70
128
 71
20
 72
21
 73
25
 74
24
 0
VERTEX
 8
GRIFF_1
 10
0
 20
0
 30
0
 70
128
 71
22
 72
2
 73
26
 74
26
 0
VERTEX
 8
GRIFF_1
 10
0
 20
0
 30
0
 70
128
 71
1
 72
23
 73
27
 74
27
 0
VERTEX
 8
GRIFF_1
 10
0
 20
0
 30
0
 70
128
 71
24
 72
25
 73
29
 74
28
 0
VERTEX
 8
GRIFF_1
 10
0
 20
0
 30
0
 70
128
 71
26
 72
2
 73
30
 74
30
 0
VERTEX
 8
GRIFF_1
 10
0
 20
0
 30
0
 70
128
 71
1
 72
27
 73
31
 74
31
 0
VERTEX
 8
GRIFF_1
 10
0
 20
0
 30
0
 70
128
 71
28
 72
29
 73
33
 74
32
 0
VERTEX
 8
GRIFF_1
 10
0
 20
0
 30
0
 70
128
 71
30
 72
2
 73
34
 74
34
 0
VERTEX
 8
GRIFF_1
 10
0
 20
0
 30
0
 70
128
 71
1
 72
31
 73
3
 74
3
 0
VERTEX
 8
GRIFF_1
 10
0
 20
0
 30
0
 70
128
 71
32
 72
33
 73
5
 74
4
 0
VERTEX
 8
GRIFF_1
 10
0
 20
0
 30
0
 70
128
 71
34
 72
2
 73
6
 74
6
 0
SEQEND
 0
POLYLINE
 8
GRIFF
 66
1
 10
0.0
 20
0.0
 30
0.0
 70
64
 71
34
 72
24
 0
VERTEX
 8
GRIFF
 10
6.151
 20
0.0356
 30
9.8597
 70
192
 0
VERTEX
 8
GRIFF
 10
6.9171
 20
0.0356
 30
10.5025
 70
192
 0
VERTEX
 8
GRIFF
 10
6.4692
 20
-0.4594
 30
9.4805
 70
192
 0
VERTEX
 8
GRIFF
 10
6.4692
 20
-0.4594
 30
9.4805
 70
192
 0
VERTEX
 8
GRIFF
 10
7.2352
 20
-0.4594
 30
10.1233
 70
192
 0
VERTEX
 8
GRIFF
 10
7.2352
 20
-0.4594
 30
10.1233
 70
192
 0
VERTEX
 8
GRIFF
 10
6.601
 20
0.0356
 30
9.3235
 70
192
 0
VERTEX
 8
GRIFF
 10
6.601
 20
0.0356
 30
9.3235
 70
192
 0
VERTEX
 8
GRIFF
 10
7.367
 20
0.0356
 30
9.9663
 70
192
 0
VERTEX
 8
GRIFF
 10
7.367
 20
0.0356
 30
9.9663
 70
192
 0
VERTEX
 8
GRIFF
 10
6.4692
 20
0.5305
 30
9.4805
 70
192
 0
VERTEX
 8
GRIFF
 10
6.4692
 20
0.5305
 30
9.4805
 70
192
 0
VERTEX
 8
GRIFF
 10
7.2352
 20
0.5305
 30
10.1233
 70
192
 0
VERTEX
 8
GRIFF
 10
7.2352
 20
0.5305
 30
10.1233
 70
192
 0
VERTEX
 8
GRIFF
 10
6.151
 20
0.7356
 30
9.8597
 70
192
 0
VERTEX
 8
GRIFF
 10
6.151
 20
0.7356
 30
9.8597
 70
192
 0
VERTEX
 8
GRIFF
 10
6.9171
 20
0.7356
 30
10.5025
 70
192
 0
VERTEX
 8
GRIFF
 10
6.9171
 20
0.7356
 30
10.5025
 70
192
 0
VERTEX
 8
GRIFF
 10
5.8329
 20
0.5305
 30
10.2389
 70
192
 0
VERTEX
 8
GRIFF
 10
5.8329
 20
0.5305
 30
10.2389
 70
192
 0
VERTEX
 8
GRIFF
 10
6.5989
 20
0.5305
 30
10.8817
 70
192
 0
VERTEX
 8
GRIFF
 10
6.5989
 20
0.5305
 30
10.8817
 70
192
 0
VERTEX
 8
GRIFF
 10
5.7011
 20
0.0356
 30
10.3959
 70
192
 0
VERTEX
 8
GRIFF
 10
5.7011
 20
0.0356
 30
10.3959
 70
192
 0
VERTEX
 8
GRIFF
 10
6.4671
 20
0.0356
 30
11.0387
 70
192
 0
VERTEX
 8
GRIFF
 10
6.4671
 20
0.0356
 30
11.0387
 70
192
 0
VERTEX
 8
GRIFF
 10
5.8329
 20
-0.4594
 30
10.2389
 70
192
 0
VERTEX
 8
GRIFF
 10
5.8329
 20
-0.4594
 30
10.2389
 70
192
 0
VERTEX
 8
GRIFF
 10
6.5989
 20
-0.4594
 30
10.8817
 70
192
 0
VERTEX
 8
GRIFF
 10
6.5989
 20
-0.4594
 30
10.8817
 70
192
 0
VERTEX
 8
GRIFF
 10
6.151
 20
-0.6644
 30
9.8597
 70
192
 0
VERTEX
 8
GRIFF
 10
6.151
 20
-0.6644
 30
9.8597
 70
192
 0
VERTEX
 8
GRIFF
 10
6.9171
 20
-0.6644
 30
10.5025
 70
192
 0
VERTEX
 8
GRIFF
 10
6.9171
 20
-0.6644
 30
10.5025
 70
192
 0
VERTEX
 8
GRIFF
 10
0
 20
0
 30
0
 70
128
 71
1
 72
3
 73
7
 74
7
 0
VERTEX
 8
GRIFF
 10
0
 20
0
 30
0
 70
128
 71
4
 72
5
 73
9
 74
8
 0
VERTEX
 8
GRIFF
 10
0
 20
0
 30
0
 70
128
 71
6
 72
2
 73
10
 74
10
 0
VERTEX
 8
GRIFF
 10
0
 20
0
 30
0
 70
128
 71
1
 72
7
 73
11
 74
11
 0
VERTEX
 8
GRIFF
 10
0
 20
0
 30
0
 70
128
 71
8
 72
9
 73
13
 74
12
 0
VERTEX
 8
GRIFF
 10
0
 20
0
 30
0
 70
128
 71
10
 72
2
 73
14
 74
14
 0
VERTEX
 8
GRIFF
 10
0
 20
0
 30
0
 70
128
 71
1
 72
11
 73
15
 74
15
 0
VERTEX
 8
GRIFF
 10
0
 20
0
 30
0
 70
128
 71
12
 72
13
 73
17
 74
16
 0
VERTEX
 8
GRIFF
 10
0
 20
0
 30
0
 70
128
 71
14
 72
2
 73
18
 74
18
 0
VERTEX
 8
GRIFF
 10
0
 20
0
 30
0
 70
128
 71
1
 72
15
 73
19
 74
19
 0
VERTEX
 8
GRIFF
 10
0
 20
0
 30
0
 70
128
 71
16
 72
17
 73
21
 74
20
 0
VERTEX
 8
GRIFF
 10
0
 20
0
 30
0
 70
128
 71
18
 72
2
 73
22
 74
22
 0
VERTEX
 8
GRIFF
 10
0
 20
0
 30
0
 70
128
 71
1
 72
19
 73
23
 74
23
 0
VERTEX
 8
GRIFF
 10
0
 20
0
 30
0
 70
128
 71
20
 72
21
 73
25
 74
24
 0
VERTEX
 8
GRIFF
 10
0
 20
0
 30
0
 70
128
 71
22
 72
2
 73
26
 74
26
 0
VERTEX
 8
GRIFF
 10
0
 20
0
 30
0
 70
128
 71
1
 72
23
 73
27
 74
27
 0
VERTEX
 8
GRIFF
 10
0
 20
0
 30
0
 70
128
 71
24
 72
25
 73
29
 74
28
 0
VERTEX
 8
GRIFF
 10
0
 20
0
 30
0
 70
128
 71
26
 72
2
 73
30
 74
30
 0
VERTEX
 8
GRIFF
 10
0
 20
0
 30
0
 70
128
 71
1
 72
27
 73
31
 74
31
 0
VERTEX
 8
GRIFF
 10
0
 20
0
 30
0
 70
128
 71
28
 72
29
 73
33
 74
32
 0
VERTEX
 8
GRIFF
 10
0
 20
0
 30
0
 70
128
 71
30
 72
2
 73
34
 74
34
 0
VERTEX
 8
GRIFF
 10
0
 20
0
 30
0
 70
128
 71
1
 72
31
 73
3
 74
3
 0
VERTEX
 8
GRIFF
 10
0
 20
0
 30
0
 70
128
 71
32
 72
33
 73
5
 74
4
 0
VERTEX
 8
GRIFF
 10
0
 20
0
 30
0
 70
128
 71
34
 72
2
 73
6
 74
6
 0
SEQEND
 0
ENDSEC
 0
EOF
