 0
SECTION
 2
HEADER
 9
$ACADVER
 1
AC1009
 0
ENDSEC
 0
SECTION
 2
TABLES
 0
TABLE
 2
LTYPE
 70
1
 0
LTYPE
 2
CONTINUOUS
 70
64
 3
solid line
 72
65
 73
0
 40
0.0
 0
ENDTAB
 0
TABLE
 2
LAYER
 70
6
 0
LAYER
 2
0
 70
0
 62
7
 6
CONTINUOUS
 0
LAYER
 2
250_1916_M
 70
64
 62
7
 6
CONTINUOUS
 0
LAYER
 2
GRIFF_21
 70
64
 62
250
 6
CONTINUOUS
 0
LAYER
 2
GRIFF_20
 70
64
 62
250
 6
CONTINUOUS
 0
LAYER
 2
GRIFF_19
 70
64
 62
250
 6
CONTINUOUS
 0
LAYER
 2
GRIFF_18
 70
64
 62
250
 6
CONTINUOUS
 0
LAYER
 2
GRIFF_17
 70
64
 62
250
 6
CONTINUOUS
 0
LAYER
 2
GRIFF_16
 70
64
 62
250
 6
CONTINUOUS
 0
LAYER
 2
GRIFF_15
 70
64
 62
250
 6
CONTINUOUS
 0
LAYER
 2
GRIFF_14
 70
64
 62
250
 6
CONTINUOUS
 0
LAYER
 2
GRIFF_13
 70
64
 62
250
 6
CONTINUOUS
 0
LAYER
 2
GRIFF_12
 70
64
 62
250
 6
CONTINUOUS
 0
LAYER
 2
ROSETTE_2
 70
64
 62
250
 6
CONTINUOUS
 0
LAYER
 2
K_RPER_2
 70
64
 62
250
 6
CONTINUOUS
 0
LAYER
 2
GRIFF_10
 70
64
 62
250
 6
CONTINUOUS
 0
LAYER
 2
GRIFF_9
 70
64
 62
250
 6
CONTINUOUS
 0
LAYER
 2
GRIFF_8
 70
64
 62
250
 6
CONTINUOUS
 0
LAYER
 2
GRIFF_7
 70
64
 62
250
 6
CONTINUOUS
 0
LAYER
 2
GRIFF_6
 70
64
 62
250
 6
CONTINUOUS
 0
LAYER
 2
GRIFF_5
 70
64
 62
250
 6
CONTINUOUS
 0
LAYER
 2
GRIFF_4
 70
64
 62
250
 6
CONTINUOUS
 0
LAYER
 2
GRIFF_3
 70
64
 62
250
 6
CONTINUOUS
 0
LAYER
 2
GRIFF_2
 70
64
 62
250
 6
CONTINUOUS
 0
LAYER
 2
GRIFF_1
 70
64
 62
250
 6
CONTINUOUS
 0
LAYER
 2
ROSETTE_1
 70
64
 62
250
 6
CONTINUOUS
 0
LAYER
 2
K_RPER_1
 70
64
 62
250
 6
CONTINUOUS
 0
LAYER
 2
AUSLAUF-MIN
 70
64
 62
250
 6
CONTINUOUS
 0
LAYER
 2
R_HRE
 70
64
 62
253
 6
CONTINUOUS
 0
LAYER
 2
ROSETTE
 70
64
 62
250
 6
CONTINUOUS
 0
ENDTAB
 0
ENDSEC
 0
SECTION
 2
BLOCKS
 0
ENDSEC
 0
SECTION
 2
ENTITIES
 0
POLYLINE
 8
GRIFF_21
 66
1
 10
0.0
 20
0.0
 30
0.0
 70
64
 71
12
 72
6
 0
VERTEX
 8
GRIFF_21
 10
-12.9847
 20
4.2271
 30
18.5531
 70
192
 0
VERTEX
 8
GRIFF_21
 10
-12.9847
 20
2.2271
 30
18.5531
 70
192
 0
VERTEX
 8
GRIFF_21
 10
-12.5517
 20
4.2271
 30
18.8031
 70
192
 0
VERTEX
 8
GRIFF_21
 10
-12.5517
 20
2.2271
 30
18.8031
 70
192
 0
VERTEX
 8
GRIFF_21
 10
-12.5517
 20
4.2271
 30
19.3031
 70
192
 0
VERTEX
 8
GRIFF_21
 10
-12.5517
 20
2.2271
 30
19.3031
 70
192
 0
VERTEX
 8
GRIFF_21
 10
-12.9847
 20
4.2271
 30
19.5531
 70
192
 0
VERTEX
 8
GRIFF_21
 10
-12.9847
 20
2.2271
 30
19.5531
 70
192
 0
VERTEX
 8
GRIFF_21
 10
-13.4177
 20
4.2271
 30
19.3031
 70
192
 0
VERTEX
 8
GRIFF_21
 10
-13.4177
 20
2.2271
 30
19.3031
 70
192
 0
VERTEX
 8
GRIFF_21
 10
-13.4177
 20
4.2271
 30
18.8031
 70
192
 0
VERTEX
 8
GRIFF_21
 10
-13.4177
 20
2.2271
 30
18.8031
 70
192
 0
VERTEX
 8
GRIFF_21
 10
0
 20
0
 30
0
 70
128
 71
1
 72
2
 73
4
 74
3
 0
VERTEX
 8
GRIFF_21
 10
0
 20
0
 30
0
 70
128
 71
3
 72
4
 73
6
 74
5
 0
VERTEX
 8
GRIFF_21
 10
0
 20
0
 30
0
 70
128
 71
5
 72
6
 73
8
 74
7
 0
VERTEX
 8
GRIFF_21
 10
0
 20
0
 30
0
 70
128
 71
7
 72
8
 73
10
 74
9
 0
VERTEX
 8
GRIFF_21
 10
0
 20
0
 30
0
 70
128
 71
9
 72
10
 73
12
 74
11
 0
VERTEX
 8
GRIFF_21
 10
0
 20
0
 30
0
 70
128
 71
11
 72
12
 73
2
 74
1
 0
SEQEND
 0
POLYLINE
 8
GRIFF_20
 66
1
 10
0.0
 20
0.0
 30
0.0
 70
64
 71
12
 72
6
 0
VERTEX
 8
GRIFF_20
 10
-13.2804
 20
1.5274
 30
19.3488
 70
192
 0
VERTEX
 8
GRIFF_20
 10
-14.1289
 20
1.5274
 30
20.1973
 70
192
 0
VERTEX
 8
GRIFF_20
 10
-13.0661
 20
1.7024
 30
19.5631
 70
192
 0
VERTEX
 8
GRIFF_20
 10
-13.9146
 20
1.7024
 30
20.4117
 70
192
 0
VERTEX
 8
GRIFF_20
 10
-13.0661
 20
2.0524
 30
19.5631
 70
192
 0
VERTEX
 8
GRIFF_20
 10
-13.9146
 20
2.0524
 30
20.4117
 70
192
 0
VERTEX
 8
GRIFF_20
 10
-13.2804
 20
2.2274
 30
19.3488
 70
192
 0
VERTEX
 8
GRIFF_20
 10
-14.1289
 20
2.2274
 30
20.1973
 70
192
 0
VERTEX
 8
GRIFF_20
 10
-13.4947
 20
2.0524
 30
19.1345
 70
192
 0
VERTEX
 8
GRIFF_20
 10
-14.3433
 20
2.0524
 30
19.983
 70
192
 0
VERTEX
 8
GRIFF_20
 10
-13.4947
 20
1.7024
 30
19.1345
 70
192
 0
VERTEX
 8
GRIFF_20
 10
-14.3433
 20
1.7024
 30
19.983
 70
192
 0
VERTEX
 8
GRIFF_20
 10
0
 20
0
 30
0
 70
128
 71
1
 72
2
 73
4
 74
3
 0
VERTEX
 8
GRIFF_20
 10
0
 20
0
 30
0
 70
128
 71
3
 72
4
 73
6
 74
5
 0
VERTEX
 8
GRIFF_20
 10
0
 20
0
 30
0
 70
128
 71
5
 72
6
 73
8
 74
7
 0
VERTEX
 8
GRIFF_20
 10
0
 20
0
 30
0
 70
128
 71
7
 72
8
 73
10
 74
9
 0
VERTEX
 8
GRIFF_20
 10
0
 20
0
 30
0
 70
128
 71
9
 72
10
 73
12
 74
11
 0
VERTEX
 8
GRIFF_20
 10
0
 20
0
 30
0
 70
128
 71
11
 72
12
 73
2
 74
1
 0
SEQEND
 0
POLYLINE
 8
GRIFF_19
 66
1
 10
0.0
 20
0.0
 30
0.0
 70
64
 71
34
 72
24
 0
VERTEX
 8
GRIFF_19
 10
-13.6763
 20
1.8753
 30
19.7447
 70
192
 0
VERTEX
 8
GRIFF_19
 10
-15.0905
 20
1.8753
 30
21.1589
 70
192
 0
VERTEX
 8
GRIFF_19
 10
-13.6763
 20
1.3753
 30
19.7447
 70
192
 0
VERTEX
 8
GRIFF_19
 10
-13.6763
 20
1.3753
 30
19.7447
 70
192
 0
VERTEX
 8
GRIFF_19
 10
-15.0905
 20
1.3753
 30
21.1589
 70
192
 0
VERTEX
 8
GRIFF_19
 10
-15.0905
 20
1.3753
 30
21.1589
 70
192
 0
VERTEX
 8
GRIFF_19
 10
-13.4263
 20
1.5218
 30
19.9947
 70
192
 0
VERTEX
 8
GRIFF_19
 10
-13.4263
 20
1.5218
 30
19.9947
 70
192
 0
VERTEX
 8
GRIFF_19
 10
-14.8405
 20
1.5217
 30
21.4089
 70
192
 0
VERTEX
 8
GRIFF_19
 10
-14.8405
 20
1.5217
 30
21.4089
 70
192
 0
VERTEX
 8
GRIFF_19
 10
-13.3228
 20
1.8753
 30
20.0983
 70
192
 0
VERTEX
 8
GRIFF_19
 10
-13.3228
 20
1.8753
 30
20.0983
 70
192
 0
VERTEX
 8
GRIFF_19
 10
-14.737
 20
1.8753
 30
21.5125
 70
192
 0
VERTEX
 8
GRIFF_19
 10
-14.737
 20
1.8753
 30
21.5125
 70
192
 0
VERTEX
 8
GRIFF_19
 10
-13.4263
 20
2.2289
 30
19.9947
 70
192
 0
VERTEX
 8
GRIFF_19
 10
-13.4263
 20
2.2289
 30
19.9947
 70
192
 0
VERTEX
 8
GRIFF_19
 10
-14.8405
 20
2.2289
 30
21.4089
 70
192
 0
VERTEX
 8
GRIFF_19
 10
-14.8405
 20
2.2289
 30
21.4089
 70
192
 0
VERTEX
 8
GRIFF_19
 10
-13.6763
 20
2.3753
 30
19.7447
 70
192
 0
VERTEX
 8
GRIFF_19
 10
-13.6763
 20
2.3753
 30
19.7447
 70
192
 0
VERTEX
 8
GRIFF_19
 10
-15.0905
 20
2.3753
 30
21.1589
 70
192
 0
VERTEX
 8
GRIFF_19
 10
-15.0905
 20
2.3753
 30
21.1589
 70
192
 0
VERTEX
 8
GRIFF_19
 10
-13.9263
 20
2.2289
 30
19.4947
 70
192
 0
VERTEX
 8
GRIFF_19
 10
-13.9263
 20
2.2289
 30
19.4947
 70
192
 0
VERTEX
 8
GRIFF_19
 10
-15.3405
 20
2.2289
 30
20.9089
 70
192
 0
VERTEX
 8
GRIFF_19
 10
-15.3405
 20
2.2289
 30
20.9089
 70
192
 0
VERTEX
 8
GRIFF_19
 10
-14.0299
 20
1.8753
 30
19.3912
 70
192
 0
VERTEX
 8
GRIFF_19
 10
-14.0299
 20
1.8753
 30
19.3912
 70
192
 0
VERTEX
 8
GRIFF_19
 10
-15.4441
 20
1.8753
 30
20.8054
 70
192
 0
VERTEX
 8
GRIFF_19
 10
-15.4441
 20
1.8753
 30
20.8054
 70
192
 0
VERTEX
 8
GRIFF_19
 10
-13.9263
 20
1.5218
 30
19.4947
 70
192
 0
VERTEX
 8
GRIFF_19
 10
-13.9263
 20
1.5218
 30
19.4947
 70
192
 0
VERTEX
 8
GRIFF_19
 10
-15.3405
 20
1.5217
 30
20.9089
 70
192
 0
VERTEX
 8
GRIFF_19
 10
-15.3405
 20
1.5217
 30
20.9089
 70
192
 0
VERTEX
 8
GRIFF_19
 10
0
 20
0
 30
0
 70
128
 71
1
 72
3
 73
7
 74
7
 0
VERTEX
 8
GRIFF_19
 10
0
 20
0
 30
0
 70
128
 71
4
 72
5
 73
9
 74
8
 0
VERTEX
 8
GRIFF_19
 10
0
 20
0
 30
0
 70
128
 71
6
 72
2
 73
10
 74
10
 0
VERTEX
 8
GRIFF_19
 10
0
 20
0
 30
0
 70
128
 71
1
 72
7
 73
11
 74
11
 0
VERTEX
 8
GRIFF_19
 10
0
 20
0
 30
0
 70
128
 71
8
 72
9
 73
13
 74
12
 0
VERTEX
 8
GRIFF_19
 10
0
 20
0
 30
0
 70
128
 71
10
 72
2
 73
14
 74
14
 0
VERTEX
 8
GRIFF_19
 10
0
 20
0
 30
0
 70
128
 71
1
 72
11
 73
15
 74
15
 0
VERTEX
 8
GRIFF_19
 10
0
 20
0
 30
0
 70
128
 71
12
 72
13
 73
17
 74
16
 0
VERTEX
 8
GRIFF_19
 10
0
 20
0
 30
0
 70
128
 71
14
 72
2
 73
18
 74
18
 0
VERTEX
 8
GRIFF_19
 10
0
 20
0
 30
0
 70
128
 71
1
 72
15
 73
19
 74
19
 0
VERTEX
 8
GRIFF_19
 10
0
 20
0
 30
0
 70
128
 71
16
 72
17
 73
21
 74
20
 0
VERTEX
 8
GRIFF_19
 10
0
 20
0
 30
0
 70
128
 71
18
 72
2
 73
22
 74
22
 0
VERTEX
 8
GRIFF_19
 10
0
 20
0
 30
0
 70
128
 71
1
 72
19
 73
23
 74
23
 0
VERTEX
 8
GRIFF_19
 10
0
 20
0
 30
0
 70
128
 71
20
 72
21
 73
25
 74
24
 0
VERTEX
 8
GRIFF_19
 10
0
 20
0
 30
0
 70
128
 71
22
 72
2
 73
26
 74
26
 0
VERTEX
 8
GRIFF_19
 10
0
 20
0
 30
0
 70
128
 71
1
 72
23
 73
27
 74
27
 0
VERTEX
 8
GRIFF_19
 10
0
 20
0
 30
0
 70
128
 71
24
 72
25
 73
29
 74
28
 0
VERTEX
 8
GRIFF_19
 10
0
 20
0
 30
0
 70
128
 71
26
 72
2
 73
30
 74
30
 0
VERTEX
 8
GRIFF_19
 10
0
 20
0
 30
0
 70
128
 71
1
 72
27
 73
31
 74
31
 0
VERTEX
 8
GRIFF_19
 10
0
 20
0
 30
0
 70
128
 71
28
 72
29
 73
33
 74
32
 0
VERTEX
 8
GRIFF_19
 10
0
 20
0
 30
0
 70
128
 71
30
 72
2
 73
34
 74
34
 0
VERTEX
 8
GRIFF_19
 10
0
 20
0
 30
0
 70
128
 71
1
 72
31
 73
3
 74
3
 0
VERTEX
 8
GRIFF_19
 10
0
 20
0
 30
0
 70
128
 71
32
 72
33
 73
5
 74
4
 0
VERTEX
 8
GRIFF_19
 10
0
 20
0
 30
0
 70
128
 71
34
 72
2
 73
6
 74
6
 0
SEQEND
 0
POLYLINE
 8
GRIFF_18
 66
1
 10
0.0
 20
0.0
 30
0.0
 70
64
 71
12
 72
6
 0
VERTEX
 8
GRIFF_18
 10
-12.6644
 20
1.5274
 30
18.7328
 70
192
 0
VERTEX
 8
GRIFF_18
 10
-11.8158
 20
1.5274
 30
17.8842
 70
192
 0
VERTEX
 8
GRIFF_18
 10
-12.8787
 20
1.7024
 30
18.5184
 70
192
 0
VERTEX
 8
GRIFF_18
 10
-12.0302
 20
1.7024
 30
17.6699
 70
192
 0
VERTEX
 8
GRIFF_18
 10
-12.8787
 20
2.0524
 30
18.5184
 70
192
 0
VERTEX
 8
GRIFF_18
 10
-12.0302
 20
2.0524
 30
17.6699
 70
192
 0
VERTEX
 8
GRIFF_18
 10
-12.6644
 20
2.2274
 30
18.7328
 70
192
 0
VERTEX
 8
GRIFF_18
 10
-11.8158
 20
2.2274
 30
17.8842
 70
192
 0
VERTEX
 8
GRIFF_18
 10
-12.45
 20
2.0524
 30
18.9471
 70
192
 0
VERTEX
 8
GRIFF_18
 10
-11.6015
 20
2.0524
 30
18.0986
 70
192
 0
VERTEX
 8
GRIFF_18
 10
-12.45
 20
1.7024
 30
18.9471
 70
192
 0
VERTEX
 8
GRIFF_18
 10
-11.6015
 20
1.7024
 30
18.0986
 70
192
 0
VERTEX
 8
GRIFF_18
 10
0
 20
0
 30
0
 70
128
 71
1
 72
2
 73
4
 74
3
 0
VERTEX
 8
GRIFF_18
 10
0
 20
0
 30
0
 70
128
 71
3
 72
4
 73
6
 74
5
 0
VERTEX
 8
GRIFF_18
 10
0
 20
0
 30
0
 70
128
 71
5
 72
6
 73
8
 74
7
 0
VERTEX
 8
GRIFF_18
 10
0
 20
0
 30
0
 70
128
 71
7
 72
8
 73
10
 74
9
 0
VERTEX
 8
GRIFF_18
 10
0
 20
0
 30
0
 70
128
 71
9
 72
10
 73
12
 74
11
 0
VERTEX
 8
GRIFF_18
 10
0
 20
0
 30
0
 70
128
 71
11
 72
12
 73
2
 74
1
 0
SEQEND
 0
POLYLINE
 8
GRIFF_17
 66
1
 10
0.0
 20
0.0
 30
0.0
 70
64
 71
34
 72
24
 0
VERTEX
 8
GRIFF_17
 10
-12.2814
 20
1.8753
 30
18.3498
 70
192
 0
VERTEX
 8
GRIFF_17
 10
-10.8672
 20
1.8753
 30
16.9356
 70
192
 0
VERTEX
 8
GRIFF_17
 10
-12.2814
 20
1.3753
 30
18.3498
 70
192
 0
VERTEX
 8
GRIFF_17
 10
-12.2814
 20
1.3753
 30
18.3498
 70
192
 0
VERTEX
 8
GRIFF_17
 10
-10.8672
 20
1.3753
 30
16.9356
 70
192
 0
VERTEX
 8
GRIFF_17
 10
-10.8672
 20
1.3753
 30
16.9356
 70
192
 0
VERTEX
 8
GRIFF_17
 10
-12.5314
 20
1.5218
 30
18.0998
 70
192
 0
VERTEX
 8
GRIFF_17
 10
-12.5314
 20
1.5218
 30
18.0998
 70
192
 0
VERTEX
 8
GRIFF_17
 10
-11.1172
 20
1.5218
 30
16.6856
 70
192
 0
VERTEX
 8
GRIFF_17
 10
-11.1172
 20
1.5218
 30
16.6856
 70
192
 0
VERTEX
 8
GRIFF_17
 10
-12.6349
 20
1.8753
 30
17.9962
 70
192
 0
VERTEX
 8
GRIFF_17
 10
-12.6349
 20
1.8753
 30
17.9962
 70
192
 0
VERTEX
 8
GRIFF_17
 10
-11.2207
 20
1.8753
 30
16.582
 70
192
 0
VERTEX
 8
GRIFF_17
 10
-11.2207
 20
1.8753
 30
16.582
 70
192
 0
VERTEX
 8
GRIFF_17
 10
-12.5314
 20
2.2289
 30
18.0998
 70
192
 0
VERTEX
 8
GRIFF_17
 10
-12.5314
 20
2.2289
 30
18.0998
 70
192
 0
VERTEX
 8
GRIFF_17
 10
-11.1172
 20
2.2289
 30
16.6856
 70
192
 0
VERTEX
 8
GRIFF_17
 10
-11.1172
 20
2.2289
 30
16.6856
 70
192
 0
VERTEX
 8
GRIFF_17
 10
-12.2814
 20
2.3753
 30
18.3498
 70
192
 0
VERTEX
 8
GRIFF_17
 10
-12.2814
 20
2.3753
 30
18.3498
 70
192
 0
VERTEX
 8
GRIFF_17
 10
-10.8672
 20
2.3753
 30
16.9356
 70
192
 0
VERTEX
 8
GRIFF_17
 10
-10.8672
 20
2.3753
 30
16.9356
 70
192
 0
VERTEX
 8
GRIFF_17
 10
-12.0314
 20
2.2289
 30
18.5998
 70
192
 0
VERTEX
 8
GRIFF_17
 10
-12.0314
 20
2.2289
 30
18.5998
 70
192
 0
VERTEX
 8
GRIFF_17
 10
-10.6172
 20
2.2289
 30
17.1856
 70
192
 0
VERTEX
 8
GRIFF_17
 10
-10.6172
 20
2.2289
 30
17.1856
 70
192
 0
VERTEX
 8
GRIFF_17
 10
-11.9278
 20
1.8753
 30
18.7033
 70
192
 0
VERTEX
 8
GRIFF_17
 10
-11.9278
 20
1.8753
 30
18.7033
 70
192
 0
VERTEX
 8
GRIFF_17
 10
-10.5136
 20
1.8753
 30
17.2891
 70
192
 0
VERTEX
 8
GRIFF_17
 10
-10.5136
 20
1.8753
 30
17.2891
 70
192
 0
VERTEX
 8
GRIFF_17
 10
-12.0314
 20
1.5218
 30
18.5998
 70
192
 0
VERTEX
 8
GRIFF_17
 10
-12.0314
 20
1.5218
 30
18.5998
 70
192
 0
VERTEX
 8
GRIFF_17
 10
-10.6172
 20
1.5218
 30
17.1856
 70
192
 0
VERTEX
 8
GRIFF_17
 10
-10.6172
 20
1.5218
 30
17.1856
 70
192
 0
VERTEX
 8
GRIFF_17
 10
0
 20
0
 30
0
 70
128
 71
1
 72
3
 73
7
 74
7
 0
VERTEX
 8
GRIFF_17
 10
0
 20
0
 30
0
 70
128
 71
4
 72
5
 73
9
 74
8
 0
VERTEX
 8
GRIFF_17
 10
0
 20
0
 30
0
 70
128
 71
6
 72
2
 73
10
 74
10
 0
VERTEX
 8
GRIFF_17
 10
0
 20
0
 30
0
 70
128
 71
1
 72
7
 73
11
 74
11
 0
VERTEX
 8
GRIFF_17
 10
0
 20
0
 30
0
 70
128
 71
8
 72
9
 73
13
 74
12
 0
VERTEX
 8
GRIFF_17
 10
0
 20
0
 30
0
 70
128
 71
10
 72
2
 73
14
 74
14
 0
VERTEX
 8
GRIFF_17
 10
0
 20
0
 30
0
 70
128
 71
1
 72
11
 73
15
 74
15
 0
VERTEX
 8
GRIFF_17
 10
0
 20
0
 30
0
 70
128
 71
12
 72
13
 73
17
 74
16
 0
VERTEX
 8
GRIFF_17
 10
0
 20
0
 30
0
 70
128
 71
14
 72
2
 73
18
 74
18
 0
VERTEX
 8
GRIFF_17
 10
0
 20
0
 30
0
 70
128
 71
1
 72
15
 73
19
 74
19
 0
VERTEX
 8
GRIFF_17
 10
0
 20
0
 30
0
 70
128
 71
16
 72
17
 73
21
 74
20
 0
VERTEX
 8
GRIFF_17
 10
0
 20
0
 30
0
 70
128
 71
18
 72
2
 73
22
 74
22
 0
VERTEX
 8
GRIFF_17
 10
0
 20
0
 30
0
 70
128
 71
1
 72
19
 73
23
 74
23
 0
VERTEX
 8
GRIFF_17
 10
0
 20
0
 30
0
 70
128
 71
20
 72
21
 73
25
 74
24
 0
VERTEX
 8
GRIFF_17
 10
0
 20
0
 30
0
 70
128
 71
22
 72
2
 73
26
 74
26
 0
VERTEX
 8
GRIFF_17
 10
0
 20
0
 30
0
 70
128
 71
1
 72
23
 73
27
 74
27
 0
VERTEX
 8
GRIFF_17
 10
0
 20
0
 30
0
 70
128
 71
24
 72
25
 73
29
 74
28
 0
VERTEX
 8
GRIFF_17
 10
0
 20
0
 30
0
 70
128
 71
26
 72
2
 73
30
 74
30
 0
VERTEX
 8
GRIFF_17
 10
0
 20
0
 30
0
 70
128
 71
1
 72
27
 73
31
 74
31
 0
VERTEX
 8
GRIFF_17
 10
0
 20
0
 30
0
 70
128
 71
28
 72
29
 73
33
 74
32
 0
VERTEX
 8
GRIFF_17
 10
0
 20
0
 30
0
 70
128
 71
30
 72
2
 73
34
 74
34
 0
VERTEX
 8
GRIFF_17
 10
0
 20
0
 30
0
 70
128
 71
1
 72
31
 73
3
 74
3
 0
VERTEX
 8
GRIFF_17
 10
0
 20
0
 30
0
 70
128
 71
32
 72
33
 73
5
 74
4
 0
VERTEX
 8
GRIFF_17
 10
0
 20
0
 30
0
 70
128
 71
34
 72
2
 73
6
 74
6
 0
SEQEND
 0
POLYLINE
 8
GRIFF_16
 66
1
 10
0.0
 20
0.0
 30
0.0
 70
64
 71
12
 72
6
 0
VERTEX
 8
GRIFF_16
 10
-13.3626
 20
1.5274
 30
18.7017
 70
192
 0
VERTEX
 8
GRIFF_16
 10
-14.2112
 20
1.5274
 30
17.8531
 70
192
 0
VERTEX
 8
GRIFF_16
 10
-13.577
 20
1.7024
 30
18.916
 70
192
 0
VERTEX
 8
GRIFF_16
 10
-14.4255
 20
1.7024
 30
18.0675
 70
192
 0
VERTEX
 8
GRIFF_16
 10
-13.577
 20
2.0524
 30
18.916
 70
192
 0
VERTEX
 8
GRIFF_16
 10
-14.4255
 20
2.0524
 30
18.0675
 70
192
 0
VERTEX
 8
GRIFF_16
 10
-13.3626
 20
2.2274
 30
18.7017
 70
192
 0
VERTEX
 8
GRIFF_16
 10
-14.2112
 20
2.2274
 30
17.8531
 70
192
 0
VERTEX
 8
GRIFF_16
 10
-13.1483
 20
2.0524
 30
18.4873
 70
192
 0
VERTEX
 8
GRIFF_16
 10
-13.9968
 20
2.0524
 30
17.6388
 70
192
 0
VERTEX
 8
GRIFF_16
 10
-13.1483
 20
1.7024
 30
18.4873
 70
192
 0
VERTEX
 8
GRIFF_16
 10
-13.9968
 20
1.7024
 30
17.6388
 70
192
 0
VERTEX
 8
GRIFF_16
 10
0
 20
0
 30
0
 70
128
 71
1
 72
2
 73
4
 74
3
 0
VERTEX
 8
GRIFF_16
 10
0
 20
0
 30
0
 70
128
 71
3
 72
4
 73
6
 74
5
 0
VERTEX
 8
GRIFF_16
 10
0
 20
0
 30
0
 70
128
 71
5
 72
6
 73
8
 74
7
 0
VERTEX
 8
GRIFF_16
 10
0
 20
0
 30
0
 70
128
 71
7
 72
8
 73
10
 74
9
 0
VERTEX
 8
GRIFF_16
 10
0
 20
0
 30
0
 70
128
 71
9
 72
10
 73
12
 74
11
 0
VERTEX
 8
GRIFF_16
 10
0
 20
0
 30
0
 70
128
 71
11
 72
12
 73
2
 74
1
 0
SEQEND
 0
POLYLINE
 8
GRIFF_15
 66
1
 10
0.0
 20
0.0
 30
0.0
 70
64
 71
34
 72
24
 0
VERTEX
 8
GRIFF_15
 10
-13.7456
 20
1.8753
 30
18.3187
 70
192
 0
VERTEX
 8
GRIFF_15
 10
-15.1598
 20
1.8753
 30
16.9045
 70
192
 0
VERTEX
 8
GRIFF_15
 10
-13.7456
 20
1.3753
 30
18.3187
 70
192
 0
VERTEX
 8
GRIFF_15
 10
-13.7456
 20
1.3753
 30
18.3187
 70
192
 0
VERTEX
 8
GRIFF_15
 10
-15.1598
 20
1.3753
 30
16.9045
 70
192
 0
VERTEX
 8
GRIFF_15
 10
-15.1598
 20
1.3753
 30
16.9045
 70
192
 0
VERTEX
 8
GRIFF_15
 10
-13.9956
 20
1.5218
 30
18.5687
 70
192
 0
VERTEX
 8
GRIFF_15
 10
-13.9956
 20
1.5218
 30
18.5687
 70
192
 0
VERTEX
 8
GRIFF_15
 10
-15.4098
 20
1.5217
 30
17.1545
 70
192
 0
VERTEX
 8
GRIFF_15
 10
-15.4098
 20
1.5217
 30
17.1545
 70
192
 0
VERTEX
 8
GRIFF_15
 10
-14.0992
 20
1.8753
 30
18.6722
 70
192
 0
VERTEX
 8
GRIFF_15
 10
-14.0992
 20
1.8753
 30
18.6722
 70
192
 0
VERTEX
 8
GRIFF_15
 10
-15.5134
 20
1.8753
 30
17.258
 70
192
 0
VERTEX
 8
GRIFF_15
 10
-15.5134
 20
1.8753
 30
17.258
 70
192
 0
VERTEX
 8
GRIFF_15
 10
-13.9956
 20
2.2289
 30
18.5687
 70
192
 0
VERTEX
 8
GRIFF_15
 10
-13.9956
 20
2.2289
 30
18.5687
 70
192
 0
VERTEX
 8
GRIFF_15
 10
-15.4098
 20
2.2289
 30
17.1545
 70
192
 0
VERTEX
 8
GRIFF_15
 10
-15.4098
 20
2.2289
 30
17.1545
 70
192
 0
VERTEX
 8
GRIFF_15
 10
-13.7456
 20
2.3753
 30
18.3187
 70
192
 0
VERTEX
 8
GRIFF_15
 10
-13.7456
 20
2.3753
 30
18.3187
 70
192
 0
VERTEX
 8
GRIFF_15
 10
-15.1598
 20
2.3753
 30
16.9045
 70
192
 0
VERTEX
 8
GRIFF_15
 10
-15.1598
 20
2.3753
 30
16.9045
 70
192
 0
VERTEX
 8
GRIFF_15
 10
-13.4956
 20
2.2289
 30
18.0687
 70
192
 0
VERTEX
 8
GRIFF_15
 10
-13.4956
 20
2.2289
 30
18.0687
 70
192
 0
VERTEX
 8
GRIFF_15
 10
-14.9098
 20
2.2289
 30
16.6545
 70
192
 0
VERTEX
 8
GRIFF_15
 10
-14.9098
 20
2.2289
 30
16.6545
 70
192
 0
VERTEX
 8
GRIFF_15
 10
-13.3921
 20
1.8753
 30
17.9651
 70
192
 0
VERTEX
 8
GRIFF_15
 10
-13.3921
 20
1.8753
 30
17.9651
 70
192
 0
VERTEX
 8
GRIFF_15
 10
-14.8063
 20
1.8753
 30
16.5509
 70
192
 0
VERTEX
 8
GRIFF_15
 10
-14.8063
 20
1.8753
 30
16.5509
 70
192
 0
VERTEX
 8
GRIFF_15
 10
-13.4956
 20
1.5218
 30
18.0687
 70
192
 0
VERTEX
 8
GRIFF_15
 10
-13.4956
 20
1.5218
 30
18.0687
 70
192
 0
VERTEX
 8
GRIFF_15
 10
-14.9098
 20
1.5217
 30
16.6545
 70
192
 0
VERTEX
 8
GRIFF_15
 10
-14.9098
 20
1.5217
 30
16.6545
 70
192
 0
VERTEX
 8
GRIFF_15
 10
0
 20
0
 30
0
 70
128
 71
1
 72
3
 73
7
 74
7
 0
VERTEX
 8
GRIFF_15
 10
0
 20
0
 30
0
 70
128
 71
4
 72
5
 73
9
 74
8
 0
VERTEX
 8
GRIFF_15
 10
0
 20
0
 30
0
 70
128
 71
6
 72
2
 73
10
 74
10
 0
VERTEX
 8
GRIFF_15
 10
0
 20
0
 30
0
 70
128
 71
1
 72
7
 73
11
 74
11
 0
VERTEX
 8
GRIFF_15
 10
0
 20
0
 30
0
 70
128
 71
8
 72
9
 73
13
 74
12
 0
VERTEX
 8
GRIFF_15
 10
0
 20
0
 30
0
 70
128
 71
10
 72
2
 73
14
 74
14
 0
VERTEX
 8
GRIFF_15
 10
0
 20
0
 30
0
 70
128
 71
1
 72
11
 73
15
 74
15
 0
VERTEX
 8
GRIFF_15
 10
0
 20
0
 30
0
 70
128
 71
12
 72
13
 73
17
 74
16
 0
VERTEX
 8
GRIFF_15
 10
0
 20
0
 30
0
 70
128
 71
14
 72
2
 73
18
 74
18
 0
VERTEX
 8
GRIFF_15
 10
0
 20
0
 30
0
 70
128
 71
1
 72
15
 73
19
 74
19
 0
VERTEX
 8
GRIFF_15
 10
0
 20
0
 30
0
 70
128
 71
16
 72
17
 73
21
 74
20
 0
VERTEX
 8
GRIFF_15
 10
0
 20
0
 30
0
 70
128
 71
18
 72
2
 73
22
 74
22
 0
VERTEX
 8
GRIFF_15
 10
0
 20
0
 30
0
 70
128
 71
1
 72
19
 73
23
 74
23
 0
VERTEX
 8
GRIFF_15
 10
0
 20
0
 30
0
 70
128
 71
20
 72
21
 73
25
 74
24
 0
VERTEX
 8
GRIFF_15
 10
0
 20
0
 30
0
 70
128
 71
22
 72
2
 73
26
 74
26
 0
VERTEX
 8
GRIFF_15
 10
0
 20
0
 30
0
 70
128
 71
1
 72
23
 73
27
 74
27
 0
VERTEX
 8
GRIFF_15
 10
0
 20
0
 30
0
 70
128
 71
24
 72
25
 73
29
 74
28
 0
VERTEX
 8
GRIFF_15
 10
0
 20
0
 30
0
 70
128
 71
26
 72
2
 73
30
 74
30
 0
VERTEX
 8
GRIFF_15
 10
0
 20
0
 30
0
 70
128
 71
1
 72
27
 73
31
 74
31
 0
VERTEX
 8
GRIFF_15
 10
0
 20
0
 30
0
 70
128
 71
28
 72
29
 73
33
 74
32
 0
VERTEX
 8
GRIFF_15
 10
0
 20
0
 30
0
 70
128
 71
30
 72
2
 73
34
 74
34
 0
VERTEX
 8
GRIFF_15
 10
0
 20
0
 30
0
 70
128
 71
1
 72
31
 73
3
 74
3
 0
VERTEX
 8
GRIFF_15
 10
0
 20
0
 30
0
 70
128
 71
32
 72
33
 73
5
 74
4
 0
VERTEX
 8
GRIFF_15
 10
0
 20
0
 30
0
 70
128
 71
34
 72
2
 73
6
 74
6
 0
SEQEND
 0
POLYLINE
 8
GRIFF_14
 66
1
 10
0.0
 20
0.0
 30
0.0
 70
64
 71
12
 72
6
 0
VERTEX
 8
GRIFF_14
 10
-12.6592
 20
1.5274
 30
19.4051
 70
192
 0
VERTEX
 8
GRIFF_14
 10
-11.8107
 20
1.5274
 30
20.2536
 70
192
 0
VERTEX
 8
GRIFF_14
 10
-12.4449
 20
1.7024
 30
19.1908
 70
192
 0
VERTEX
 8
GRIFF_14
 10
-11.5964
 20
1.7024
 30
20.0393
 70
192
 0
VERTEX
 8
GRIFF_14
 10
-12.4449
 20
2.0524
 30
19.1908
 70
192
 0
VERTEX
 8
GRIFF_14
 10
-11.5964
 20
2.0524
 30
20.0393
 70
192
 0
VERTEX
 8
GRIFF_14
 10
-12.6592
 20
2.2274
 30
19.4051
 70
192
 0
VERTEX
 8
GRIFF_14
 10
-11.8107
 20
2.2274
 30
20.2536
 70
192
 0
VERTEX
 8
GRIFF_14
 10
-12.8735
 20
2.0524
 30
19.6194
 70
192
 0
VERTEX
 8
GRIFF_14
 10
-12.025
 20
2.0524
 30
20.468
 70
192
 0
VERTEX
 8
GRIFF_14
 10
-12.8735
 20
1.7024
 30
19.6194
 70
192
 0
VERTEX
 8
GRIFF_14
 10
-12.025
 20
1.7024
 30
20.468
 70
192
 0
VERTEX
 8
GRIFF_14
 10
0
 20
0
 30
0
 70
128
 71
1
 72
2
 73
4
 74
3
 0
VERTEX
 8
GRIFF_14
 10
0
 20
0
 30
0
 70
128
 71
3
 72
4
 73
6
 74
5
 0
VERTEX
 8
GRIFF_14
 10
0
 20
0
 30
0
 70
128
 71
5
 72
6
 73
8
 74
7
 0
VERTEX
 8
GRIFF_14
 10
0
 20
0
 30
0
 70
128
 71
7
 72
8
 73
10
 74
9
 0
VERTEX
 8
GRIFF_14
 10
0
 20
0
 30
0
 70
128
 71
9
 72
10
 73
12
 74
11
 0
VERTEX
 8
GRIFF_14
 10
0
 20
0
 30
0
 70
128
 71
11
 72
12
 73
2
 74
1
 0
SEQEND
 0
POLYLINE
 8
GRIFF_13
 66
1
 10
0.0
 20
0.0
 30
0.0
 70
64
 71
34
 72
24
 0
VERTEX
 8
GRIFF_13
 10
-12.2762
 20
1.8753
 30
19.7881
 70
192
 0
VERTEX
 8
GRIFF_13
 10
-10.862
 20
1.8753
 30
21.2023
 70
192
 0
VERTEX
 8
GRIFF_13
 10
-12.2762
 20
1.3753
 30
19.7881
 70
192
 0
VERTEX
 8
GRIFF_13
 10
-12.2762
 20
1.3753
 30
19.7881
 70
192
 0
VERTEX
 8
GRIFF_13
 10
-10.862
 20
1.3753
 30
21.2023
 70
192
 0
VERTEX
 8
GRIFF_13
 10
-10.862
 20
1.3753
 30
21.2023
 70
192
 0
VERTEX
 8
GRIFF_13
 10
-12.0262
 20
1.5217
 30
19.5381
 70
192
 0
VERTEX
 8
GRIFF_13
 10
-12.0262
 20
1.5217
 30
19.5381
 70
192
 0
VERTEX
 8
GRIFF_13
 10
-10.612
 20
1.5217
 30
20.9523
 70
192
 0
VERTEX
 8
GRIFF_13
 10
-10.612
 20
1.5217
 30
20.9523
 70
192
 0
VERTEX
 8
GRIFF_13
 10
-11.9227
 20
1.8753
 30
19.4345
 70
192
 0
VERTEX
 8
GRIFF_13
 10
-11.9227
 20
1.8753
 30
19.4345
 70
192
 0
VERTEX
 8
GRIFF_13
 10
-10.5085
 20
1.8753
 30
20.8488
 70
192
 0
VERTEX
 8
GRIFF_13
 10
-10.5085
 20
1.8753
 30
20.8488
 70
192
 0
VERTEX
 8
GRIFF_13
 10
-12.0262
 20
2.2289
 30
19.5381
 70
192
 0
VERTEX
 8
GRIFF_13
 10
-12.0262
 20
2.2289
 30
19.5381
 70
192
 0
VERTEX
 8
GRIFF_13
 10
-10.612
 20
2.2289
 30
20.9523
 70
192
 0
VERTEX
 8
GRIFF_13
 10
-10.612
 20
2.2289
 30
20.9523
 70
192
 0
VERTEX
 8
GRIFF_13
 10
-12.2762
 20
2.3753
 30
19.7881
 70
192
 0
VERTEX
 8
GRIFF_13
 10
-12.2762
 20
2.3753
 30
19.7881
 70
192
 0
VERTEX
 8
GRIFF_13
 10
-10.862
 20
2.3753
 30
21.2023
 70
192
 0
VERTEX
 8
GRIFF_13
 10
-10.862
 20
2.3753
 30
21.2023
 70
192
 0
VERTEX
 8
GRIFF_13
 10
-12.5262
 20
2.2289
 30
20.0381
 70
192
 0
VERTEX
 8
GRIFF_13
 10
-12.5262
 20
2.2289
 30
20.0381
 70
192
 0
VERTEX
 8
GRIFF_13
 10
-11.112
 20
2.2289
 30
21.4523
 70
192
 0
VERTEX
 8
GRIFF_13
 10
-11.112
 20
2.2289
 30
21.4523
 70
192
 0
VERTEX
 8
GRIFF_13
 10
-12.6298
 20
1.8753
 30
20.1416
 70
192
 0
VERTEX
 8
GRIFF_13
 10
-12.6298
 20
1.8753
 30
20.1416
 70
192
 0
VERTEX
 8
GRIFF_13
 10
-11.2156
 20
1.8753
 30
21.5559
 70
192
 0
VERTEX
 8
GRIFF_13
 10
-11.2156
 20
1.8753
 30
21.5559
 70
192
 0
VERTEX
 8
GRIFF_13
 10
-12.5262
 20
1.5217
 30
20.0381
 70
192
 0
VERTEX
 8
GRIFF_13
 10
-12.5262
 20
1.5217
 30
20.0381
 70
192
 0
VERTEX
 8
GRIFF_13
 10
-11.112
 20
1.5217
 30
21.4523
 70
192
 0
VERTEX
 8
GRIFF_13
 10
-11.112
 20
1.5217
 30
21.4523
 70
192
 0
VERTEX
 8
GRIFF_13
 10
0
 20
0
 30
0
 70
128
 71
1
 72
3
 73
7
 74
7
 0
VERTEX
 8
GRIFF_13
 10
0
 20
0
 30
0
 70
128
 71
4
 72
5
 73
9
 74
8
 0
VERTEX
 8
GRIFF_13
 10
0
 20
0
 30
0
 70
128
 71
6
 72
2
 73
10
 74
10
 0
VERTEX
 8
GRIFF_13
 10
0
 20
0
 30
0
 70
128
 71
1
 72
7
 73
11
 74
11
 0
VERTEX
 8
GRIFF_13
 10
0
 20
0
 30
0
 70
128
 71
8
 72
9
 73
13
 74
12
 0
VERTEX
 8
GRIFF_13
 10
0
 20
0
 30
0
 70
128
 71
10
 72
2
 73
14
 74
14
 0
VERTEX
 8
GRIFF_13
 10
0
 20
0
 30
0
 70
128
 71
1
 72
11
 73
15
 74
15
 0
VERTEX
 8
GRIFF_13
 10
0
 20
0
 30
0
 70
128
 71
12
 72
13
 73
17
 74
16
 0
VERTEX
 8
GRIFF_13
 10
0
 20
0
 30
0
 70
128
 71
14
 72
2
 73
18
 74
18
 0
VERTEX
 8
GRIFF_13
 10
0
 20
0
 30
0
 70
128
 71
1
 72
15
 73
19
 74
19
 0
VERTEX
 8
GRIFF_13
 10
0
 20
0
 30
0
 70
128
 71
16
 72
17
 73
21
 74
20
 0
VERTEX
 8
GRIFF_13
 10
0
 20
0
 30
0
 70
128
 71
18
 72
2
 73
22
 74
22
 0
VERTEX
 8
GRIFF_13
 10
0
 20
0
 30
0
 70
128
 71
1
 72
19
 73
23
 74
23
 0
VERTEX
 8
GRIFF_13
 10
0
 20
0
 30
0
 70
128
 71
20
 72
21
 73
25
 74
24
 0
VERTEX
 8
GRIFF_13
 10
0
 20
0
 30
0
 70
128
 71
22
 72
2
 73
26
 74
26
 0
VERTEX
 8
GRIFF_13
 10
0
 20
0
 30
0
 70
128
 71
1
 72
23
 73
27
 74
27
 0
VERTEX
 8
GRIFF_13
 10
0
 20
0
 30
0
 70
128
 71
24
 72
25
 73
29
 74
28
 0
VERTEX
 8
GRIFF_13
 10
0
 20
0
 30
0
 70
128
 71
26
 72
2
 73
30
 74
30
 0
VERTEX
 8
GRIFF_13
 10
0
 20
0
 30
0
 70
128
 71
1
 72
27
 73
31
 74
31
 0
VERTEX
 8
GRIFF_13
 10
0
 20
0
 30
0
 70
128
 71
28
 72
29
 73
33
 74
32
 0
VERTEX
 8
GRIFF_13
 10
0
 20
0
 30
0
 70
128
 71
30
 72
2
 73
34
 74
34
 0
VERTEX
 8
GRIFF_13
 10
0
 20
0
 30
0
 70
128
 71
1
 72
31
 73
3
 74
3
 0
VERTEX
 8
GRIFF_13
 10
0
 20
0
 30
0
 70
128
 71
32
 72
33
 73
5
 74
4
 0
VERTEX
 8
GRIFF_13
 10
0
 20
0
 30
0
 70
128
 71
34
 72
2
 73
6
 74
6
 0
SEQEND
 0
POLYLINE
 8
GRIFF_12
 66
1
 10
0.0
 20
0.0
 30
0.0
 70
64
 71
34
 72
24
 0
VERTEX
 8
GRIFF_12
 10
-12.9847
 20
2.3669
 30
19.0531
 70
192
 0
VERTEX
 8
GRIFF_12
 10
-12.9847
 20
1.3669
 30
19.0531
 70
192
 0
VERTEX
 8
GRIFF_12
 10
-12.4897
 20
2.3669
 30
18.5581
 70
192
 0
VERTEX
 8
GRIFF_12
 10
-12.4897
 20
2.3669
 30
18.5581
 70
192
 0
VERTEX
 8
GRIFF_12
 10
-12.4897
 20
1.3669
 30
18.5581
 70
192
 0
VERTEX
 8
GRIFF_12
 10
-12.4897
 20
1.3669
 30
18.5581
 70
192
 0
VERTEX
 8
GRIFF_12
 10
-12.2847
 20
2.3669
 30
19.0531
 70
192
 0
VERTEX
 8
GRIFF_12
 10
-12.2847
 20
2.3669
 30
19.0531
 70
192
 0
VERTEX
 8
GRIFF_12
 10
-12.2847
 20
1.3669
 30
19.0531
 70
192
 0
VERTEX
 8
GRIFF_12
 10
-12.2847
 20
1.3669
 30
19.0531
 70
192
 0
VERTEX
 8
GRIFF_12
 10
-12.4897
 20
2.3669
 30
19.5481
 70
192
 0
VERTEX
 8
GRIFF_12
 10
-12.4897
 20
2.3669
 30
19.5481
 70
192
 0
VERTEX
 8
GRIFF_12
 10
-12.4897
 20
1.3669
 30
19.5481
 70
192
 0
VERTEX
 8
GRIFF_12
 10
-12.4897
 20
1.3669
 30
19.5481
 70
192
 0
VERTEX
 8
GRIFF_12
 10
-12.9847
 20
2.3669
 30
19.7531
 70
192
 0
VERTEX
 8
GRIFF_12
 10
-12.9847
 20
2.3669
 30
19.7531
 70
192
 0
VERTEX
 8
GRIFF_12
 10
-12.9847
 20
1.3669
 30
19.7531
 70
192
 0
VERTEX
 8
GRIFF_12
 10
-12.9847
 20
1.3669
 30
19.7531
 70
192
 0
VERTEX
 8
GRIFF_12
 10
-13.4797
 20
2.3669
 30
19.5481
 70
192
 0
VERTEX
 8
GRIFF_12
 10
-13.4797
 20
2.3669
 30
19.5481
 70
192
 0
VERTEX
 8
GRIFF_12
 10
-13.4797
 20
1.3669
 30
19.5481
 70
192
 0
VERTEX
 8
GRIFF_12
 10
-13.4797
 20
1.3669
 30
19.5481
 70
192
 0
VERTEX
 8
GRIFF_12
 10
-13.6847
 20
2.3669
 30
19.0531
 70
192
 0
VERTEX
 8
GRIFF_12
 10
-13.6847
 20
2.3669
 30
19.0531
 70
192
 0
VERTEX
 8
GRIFF_12
 10
-13.6847
 20
1.3669
 30
19.0531
 70
192
 0
VERTEX
 8
GRIFF_12
 10
-13.6847
 20
1.3669
 30
19.0531
 70
192
 0
VERTEX
 8
GRIFF_12
 10
-13.4797
 20
2.3669
 30
18.5581
 70
192
 0
VERTEX
 8
GRIFF_12
 10
-13.4797
 20
2.3669
 30
18.5581
 70
192
 0
VERTEX
 8
GRIFF_12
 10
-13.4797
 20
1.3669
 30
18.5581
 70
192
 0
VERTEX
 8
GRIFF_12
 10
-13.4797
 20
1.3669
 30
18.5581
 70
192
 0
VERTEX
 8
GRIFF_12
 10
-12.9847
 20
2.3669
 30
18.3531
 70
192
 0
VERTEX
 8
GRIFF_12
 10
-12.9847
 20
2.3669
 30
18.3531
 70
192
 0
VERTEX
 8
GRIFF_12
 10
-12.9847
 20
1.3669
 30
18.3531
 70
192
 0
VERTEX
 8
GRIFF_12
 10
-12.9847
 20
1.3669
 30
18.3531
 70
192
 0
VERTEX
 8
GRIFF_12
 10
0
 20
0
 30
0
 70
128
 71
1
 72
3
 73
7
 74
7
 0
VERTEX
 8
GRIFF_12
 10
0
 20
0
 30
0
 70
128
 71
4
 72
5
 73
9
 74
8
 0
VERTEX
 8
GRIFF_12
 10
0
 20
0
 30
0
 70
128
 71
6
 72
2
 73
10
 74
10
 0
VERTEX
 8
GRIFF_12
 10
0
 20
0
 30
0
 70
128
 71
1
 72
7
 73
11
 74
11
 0
VERTEX
 8
GRIFF_12
 10
0
 20
0
 30
0
 70
128
 71
8
 72
9
 73
13
 74
12
 0
VERTEX
 8
GRIFF_12
 10
0
 20
0
 30
0
 70
128
 71
10
 72
2
 73
14
 74
14
 0
VERTEX
 8
GRIFF_12
 10
0
 20
0
 30
0
 70
128
 71
1
 72
11
 73
15
 74
15
 0
VERTEX
 8
GRIFF_12
 10
0
 20
0
 30
0
 70
128
 71
12
 72
13
 73
17
 74
16
 0
VERTEX
 8
GRIFF_12
 10
0
 20
0
 30
0
 70
128
 71
14
 72
2
 73
18
 74
18
 0
VERTEX
 8
GRIFF_12
 10
0
 20
0
 30
0
 70
128
 71
1
 72
15
 73
19
 74
19
 0
VERTEX
 8
GRIFF_12
 10
0
 20
0
 30
0
 70
128
 71
16
 72
17
 73
21
 74
20
 0
VERTEX
 8
GRIFF_12
 10
0
 20
0
 30
0
 70
128
 71
18
 72
2
 73
22
 74
22
 0
VERTEX
 8
GRIFF_12
 10
0
 20
0
 30
0
 70
128
 71
1
 72
19
 73
23
 74
23
 0
VERTEX
 8
GRIFF_12
 10
0
 20
0
 30
0
 70
128
 71
20
 72
21
 73
25
 74
24
 0
VERTEX
 8
GRIFF_12
 10
0
 20
0
 30
0
 70
128
 71
22
 72
2
 73
26
 74
26
 0
VERTEX
 8
GRIFF_12
 10
0
 20
0
 30
0
 70
128
 71
1
 72
23
 73
27
 74
27
 0
VERTEX
 8
GRIFF_12
 10
0
 20
0
 30
0
 70
128
 71
24
 72
25
 73
29
 74
28
 0
VERTEX
 8
GRIFF_12
 10
0
 20
0
 30
0
 70
128
 71
26
 72
2
 73
30
 74
30
 0
VERTEX
 8
GRIFF_12
 10
0
 20
0
 30
0
 70
128
 71
1
 72
27
 73
31
 74
31
 0
VERTEX
 8
GRIFF_12
 10
0
 20
0
 30
0
 70
128
 71
28
 72
29
 73
33
 74
32
 0
VERTEX
 8
GRIFF_12
 10
0
 20
0
 30
0
 70
128
 71
30
 72
2
 73
34
 74
34
 0
VERTEX
 8
GRIFF_12
 10
0
 20
0
 30
0
 70
128
 71
1
 72
31
 73
3
 74
3
 0
VERTEX
 8
GRIFF_12
 10
0
 20
0
 30
0
 70
128
 71
32
 72
33
 73
5
 74
4
 0
VERTEX
 8
GRIFF_12
 10
0
 20
0
 30
0
 70
128
 71
34
 72
2
 73
6
 74
6
 0
SEQEND
 0
POLYLINE
 8
ROSETTE_2
 66
1
 10
0.0
 20
0.0
 30
0.0
 70
64
 71
120
 72
45
 0
VERTEX
 8
ROSETTE_2
 10
-12.9843
 20
7.1193
 30
19.055
 70
192
 0
VERTEX
 8
ROSETTE_2
 10
-12.9843
 20
7.1193
 30
15.055
 70
192
 0
VERTEX
 8
ROSETTE_2
 10
-12.9843
 20
7.1193
 30
15.055
 70
192
 0
VERTEX
 8
ROSETTE_2
 10
-12.9843
 20
6.6193
 30
15.055
 70
192
 0
VERTEX
 8
ROSETTE_2
 10
-12.9843
 20
6.6193
 30
15.055
 70
192
 0
VERTEX
 8
ROSETTE_2
 10
-12.9843
 20
6.6193
 30
19.055
 70
192
 0
VERTEX
 8
ROSETTE_2
 10
-12.9843
 20
6.6193
 30
19.055
 70
192
 0
VERTEX
 8
ROSETTE_2
 10
-12.9843
 20
7.1193
 30
19.055
 70
192
 0
VERTEX
 8
ROSETTE_2
 10
-12.9843
 20
7.1193
 30
19.055
 70
192
 0
VERTEX
 8
ROSETTE_2
 10
-11.3574
 20
7.1193
 30
15.4008
 70
192
 0
VERTEX
 8
ROSETTE_2
 10
-11.3574
 20
7.1193
 30
15.4008
 70
192
 0
VERTEX
 8
ROSETTE_2
 10
-11.3574
 20
6.6193
 30
15.4008
 70
192
 0
VERTEX
 8
ROSETTE_2
 10
-11.3574
 20
6.6193
 30
15.4008
 70
192
 0
VERTEX
 8
ROSETTE_2
 10
-12.9843
 20
6.6193
 30
19.055
 70
192
 0
VERTEX
 8
ROSETTE_2
 10
-12.9843
 20
6.6193
 30
19.055
 70
192
 0
VERTEX
 8
ROSETTE_2
 10
-12.9843
 20
7.1193
 30
19.055
 70
192
 0
VERTEX
 8
ROSETTE_2
 10
-12.9843
 20
7.1193
 30
19.055
 70
192
 0
VERTEX
 8
ROSETTE_2
 10
-10.0117
 20
7.1193
 30
16.3784
 70
192
 0
VERTEX
 8
ROSETTE_2
 10
-10.0117
 20
7.1193
 30
16.3784
 70
192
 0
VERTEX
 8
ROSETTE_2
 10
-10.0117
 20
6.6193
 30
16.3784
 70
192
 0
VERTEX
 8
ROSETTE_2
 10
-10.0117
 20
6.6193
 30
16.3784
 70
192
 0
VERTEX
 8
ROSETTE_2
 10
-12.9843
 20
6.6193
 30
19.055
 70
192
 0
VERTEX
 8
ROSETTE_2
 10
-12.9843
 20
6.6193
 30
19.055
 70
192
 0
VERTEX
 8
ROSETTE_2
 10
-12.9843
 20
7.1193
 30
19.055
 70
192
 0
VERTEX
 8
ROSETTE_2
 10
-12.9843
 20
7.1193
 30
19.055
 70
192
 0
VERTEX
 8
ROSETTE_2
 10
-9.1801
 20
7.1193
 30
17.8189
 70
192
 0
VERTEX
 8
ROSETTE_2
 10
-9.1801
 20
7.1193
 30
17.8189
 70
192
 0
VERTEX
 8
ROSETTE_2
 10
-9.1801
 20
6.6193
 30
17.8189
 70
192
 0
VERTEX
 8
ROSETTE_2
 10
-9.1801
 20
6.6193
 30
17.8189
 70
192
 0
VERTEX
 8
ROSETTE_2
 10
-12.9843
 20
6.6193
 30
19.055
 70
192
 0
VERTEX
 8
ROSETTE_2
 10
-12.9843
 20
6.6193
 30
19.055
 70
192
 0
VERTEX
 8
ROSETTE_2
 10
-12.9843
 20
7.1193
 30
19.055
 70
192
 0
VERTEX
 8
ROSETTE_2
 10
-12.9843
 20
7.1193
 30
19.055
 70
192
 0
VERTEX
 8
ROSETTE_2
 10
-9.0062
 20
7.1193
 30
19.4731
 70
192
 0
VERTEX
 8
ROSETTE_2
 10
-9.0062
 20
7.1193
 30
19.4731
 70
192
 0
VERTEX
 8
ROSETTE_2
 10
-9.0062
 20
6.6193
 30
19.4731
 70
192
 0
VERTEX
 8
ROSETTE_2
 10
-9.0062
 20
6.6193
 30
19.4731
 70
192
 0
VERTEX
 8
ROSETTE_2
 10
-12.9843
 20
6.6193
 30
19.055
 70
192
 0
VERTEX
 8
ROSETTE_2
 10
-12.9843
 20
6.6193
 30
19.055
 70
192
 0
VERTEX
 8
ROSETTE_2
 10
-12.9843
 20
7.1193
 30
19.055
 70
192
 0
VERTEX
 8
ROSETTE_2
 10
-12.9843
 20
7.1193
 30
19.055
 70
192
 0
VERTEX
 8
ROSETTE_2
 10
-9.5202
 20
7.1193
 30
21.055
 70
192
 0
VERTEX
 8
ROSETTE_2
 10
-9.5202
 20
7.1193
 30
21.055
 70
192
 0
VERTEX
 8
ROSETTE_2
 10
-9.5202
 20
6.6193
 30
21.055
 70
192
 0
VERTEX
 8
ROSETTE_2
 10
-9.5202
 20
6.6193
 30
21.055
 70
192
 0
VERTEX
 8
ROSETTE_2
 10
-12.9843
 20
6.6193
 30
19.055
 70
192
 0
VERTEX
 8
ROSETTE_2
 10
-12.9843
 20
6.6193
 30
19.055
 70
192
 0
VERTEX
 8
ROSETTE_2
 10
-12.9843
 20
7.1193
 30
19.055
 70
192
 0
VERTEX
 8
ROSETTE_2
 10
-12.9843
 20
7.1193
 30
19.055
 70
192
 0
VERTEX
 8
ROSETTE_2
 10
-10.6332
 20
7.1193
 30
22.291
 70
192
 0
VERTEX
 8
ROSETTE_2
 10
-10.6332
 20
7.1193
 30
22.291
 70
192
 0
VERTEX
 8
ROSETTE_2
 10
-10.6332
 20
6.6193
 30
22.291
 70
192
 0
VERTEX
 8
ROSETTE_2
 10
-10.6332
 20
6.6193
 30
22.291
 70
192
 0
VERTEX
 8
ROSETTE_2
 10
-12.9843
 20
6.6193
 30
19.055
 70
192
 0
VERTEX
 8
ROSETTE_2
 10
-12.9843
 20
6.6193
 30
19.055
 70
192
 0
VERTEX
 8
ROSETTE_2
 10
-12.9843
 20
7.1193
 30
19.055
 70
192
 0
VERTEX
 8
ROSETTE_2
 10
-12.9843
 20
7.1193
 30
19.055
 70
192
 0
VERTEX
 8
ROSETTE_2
 10
-12.1527
 20
7.1193
 30
22.9676
 70
192
 0
VERTEX
 8
ROSETTE_2
 10
-12.1527
 20
7.1193
 30
22.9676
 70
192
 0
VERTEX
 8
ROSETTE_2
 10
-12.1527
 20
6.6193
 30
22.9676
 70
192
 0
VERTEX
 8
ROSETTE_2
 10
-12.1527
 20
6.6193
 30
22.9676
 70
192
 0
VERTEX
 8
ROSETTE_2
 10
-12.9843
 20
6.6193
 30
19.055
 70
192
 0
VERTEX
 8
ROSETTE_2
 10
-12.9843
 20
6.6193
 30
19.055
 70
192
 0
VERTEX
 8
ROSETTE_2
 10
-12.9843
 20
7.1193
 30
19.055
 70
192
 0
VERTEX
 8
ROSETTE_2
 10
-12.9843
 20
7.1193
 30
19.055
 70
192
 0
VERTEX
 8
ROSETTE_2
 10
-13.8159
 20
7.1193
 30
22.9676
 70
192
 0
VERTEX
 8
ROSETTE_2
 10
-13.8159
 20
7.1193
 30
22.9676
 70
192
 0
VERTEX
 8
ROSETTE_2
 10
-13.8159
 20
6.6193
 30
22.9676
 70
192
 0
VERTEX
 8
ROSETTE_2
 10
-13.8159
 20
6.6193
 30
22.9676
 70
192
 0
VERTEX
 8
ROSETTE_2
 10
-12.9843
 20
6.6193
 30
19.055
 70
192
 0
VERTEX
 8
ROSETTE_2
 10
-12.9843
 20
6.6193
 30
19.055
 70
192
 0
VERTEX
 8
ROSETTE_2
 10
-12.9843
 20
7.1193
 30
19.055
 70
192
 0
VERTEX
 8
ROSETTE_2
 10
-12.9843
 20
7.1193
 30
19.055
 70
192
 0
VERTEX
 8
ROSETTE_2
 10
-15.3354
 20
7.1193
 30
22.291
 70
192
 0
VERTEX
 8
ROSETTE_2
 10
-15.3354
 20
7.1193
 30
22.291
 70
192
 0
VERTEX
 8
ROSETTE_2
 10
-15.3354
 20
6.6193
 30
22.291
 70
192
 0
VERTEX
 8
ROSETTE_2
 10
-15.3354
 20
6.6193
 30
22.291
 70
192
 0
VERTEX
 8
ROSETTE_2
 10
-12.9843
 20
6.6193
 30
19.055
 70
192
 0
VERTEX
 8
ROSETTE_2
 10
-12.9843
 20
6.6193
 30
19.055
 70
192
 0
VERTEX
 8
ROSETTE_2
 10
-12.9843
 20
7.1193
 30
19.055
 70
192
 0
VERTEX
 8
ROSETTE_2
 10
-12.9843
 20
7.1193
 30
19.055
 70
192
 0
VERTEX
 8
ROSETTE_2
 10
-16.4484
 20
7.1193
 30
21.055
 70
192
 0
VERTEX
 8
ROSETTE_2
 10
-16.4484
 20
7.1193
 30
21.055
 70
192
 0
VERTEX
 8
ROSETTE_2
 10
-16.4484
 20
6.6193
 30
21.055
 70
192
 0
VERTEX
 8
ROSETTE_2
 10
-16.4484
 20
6.6193
 30
21.055
 70
192
 0
VERTEX
 8
ROSETTE_2
 10
-12.9843
 20
6.6193
 30
19.055
 70
192
 0
VERTEX
 8
ROSETTE_2
 10
-12.9843
 20
6.6193
 30
19.055
 70
192
 0
VERTEX
 8
ROSETTE_2
 10
-12.9843
 20
7.1193
 30
19.055
 70
192
 0
VERTEX
 8
ROSETTE_2
 10
-12.9843
 20
7.1193
 30
19.055
 70
192
 0
VERTEX
 8
ROSETTE_2
 10
-16.9624
 20
7.1193
 30
19.4731
 70
192
 0
VERTEX
 8
ROSETTE_2
 10
-16.9624
 20
7.1193
 30
19.4731
 70
192
 0
VERTEX
 8
ROSETTE_2
 10
-16.9624
 20
6.6193
 30
19.4731
 70
192
 0
VERTEX
 8
ROSETTE_2
 10
-16.9624
 20
6.6193
 30
19.4731
 70
192
 0
VERTEX
 8
ROSETTE_2
 10
-12.9843
 20
6.6193
 30
19.055
 70
192
 0
VERTEX
 8
ROSETTE_2
 10
-12.9843
 20
6.6193
 30
19.055
 70
192
 0
VERTEX
 8
ROSETTE_2
 10
-12.9843
 20
7.1193
 30
19.055
 70
192
 0
VERTEX
 8
ROSETTE_2
 10
-12.9843
 20
7.1193
 30
19.055
 70
192
 0
VERTEX
 8
ROSETTE_2
 10
-16.7885
 20
7.1193
 30
17.8189
 70
192
 0
VERTEX
 8
ROSETTE_2
 10
-16.7885
 20
7.1193
 30
17.8189
 70
192
 0
VERTEX
 8
ROSETTE_2
 10
-16.7885
 20
6.6193
 30
17.8189
 70
192
 0
VERTEX
 8
ROSETTE_2
 10
-16.7885
 20
6.6193
 30
17.8189
 70
192
 0
VERTEX
 8
ROSETTE_2
 10
-12.9843
 20
6.6193
 30
19.055
 70
192
 0
VERTEX
 8
ROSETTE_2
 10
-12.9843
 20
6.6193
 30
19.055
 70
192
 0
VERTEX
 8
ROSETTE_2
 10
-12.9843
 20
7.1193
 30
19.055
 70
192
 0
VERTEX
 8
ROSETTE_2
 10
-12.9843
 20
7.1193
 30
19.055
 70
192
 0
VERTEX
 8
ROSETTE_2
 10
-15.9569
 20
7.1193
 30
16.3784
 70
192
 0
VERTEX
 8
ROSETTE_2
 10
-15.9569
 20
7.1193
 30
16.3784
 70
192
 0
VERTEX
 8
ROSETTE_2
 10
-15.9569
 20
6.6193
 30
16.3784
 70
192
 0
VERTEX
 8
ROSETTE_2
 10
-15.9569
 20
6.6193
 30
16.3784
 70
192
 0
VERTEX
 8
ROSETTE_2
 10
-12.9843
 20
6.6193
 30
19.055
 70
192
 0
VERTEX
 8
ROSETTE_2
 10
-12.9843
 20
6.6193
 30
19.055
 70
192
 0
VERTEX
 8
ROSETTE_2
 10
-12.9843
 20
7.1193
 30
19.055
 70
192
 0
VERTEX
 8
ROSETTE_2
 10
-12.9843
 20
7.1193
 30
19.055
 70
192
 0
VERTEX
 8
ROSETTE_2
 10
-14.6112
 20
7.1193
 30
15.4008
 70
192
 0
VERTEX
 8
ROSETTE_2
 10
-14.6112
 20
7.1193
 30
15.4008
 70
192
 0
VERTEX
 8
ROSETTE_2
 10
-14.6112
 20
6.6193
 30
15.4008
 70
192
 0
VERTEX
 8
ROSETTE_2
 10
-14.6112
 20
6.6193
 30
15.4008
 70
192
 0
VERTEX
 8
ROSETTE_2
 10
-12.9843
 20
6.6193
 30
19.055
 70
192
 0
VERTEX
 8
ROSETTE_2
 10
-12.9843
 20
6.6193
 30
19.055
 70
192
 0
VERTEX
 8
ROSETTE_2
 10
-12.9843
 20
7.1193
 30
19.055
 70
192
 0
VERTEX
 8
ROSETTE_2
 10
0
 20
0
 30
0
 70
128
 71
1
 72
2
 73
10
 74
10
 0
VERTEX
 8
ROSETTE_2
 10
0
 20
0
 30
0
 70
128
 71
3
 72
4
 73
12
 74
11
 0
VERTEX
 8
ROSETTE_2
 10
0
 20
0
 30
0
 70
128
 71
5
 72
14
 73
13
 74
13
 0
VERTEX
 8
ROSETTE_2
 10
0
 20
0
 30
0
 70
128
 71
9
 72
10
 73
18
 74
18
 0
VERTEX
 8
ROSETTE_2
 10
0
 20
0
 30
0
 70
128
 71
11
 72
12
 73
20
 74
19
 0
VERTEX
 8
ROSETTE_2
 10
0
 20
0
 30
0
 70
128
 71
13
 72
22
 73
21
 74
21
 0
VERTEX
 8
ROSETTE_2
 10
0
 20
0
 30
0
 70
128
 71
17
 72
18
 73
26
 74
26
 0
VERTEX
 8
ROSETTE_2
 10
0
 20
0
 30
0
 70
128
 71
19
 72
20
 73
28
 74
27
 0
VERTEX
 8
ROSETTE_2
 10
0
 20
0
 30
0
 70
128
 71
21
 72
30
 73
29
 74
29
 0
VERTEX
 8
ROSETTE_2
 10
0
 20
0
 30
0
 70
128
 71
25
 72
26
 73
34
 74
34
 0
VERTEX
 8
ROSETTE_2
 10
0
 20
0
 30
0
 70
128
 71
27
 72
28
 73
36
 74
35
 0
VERTEX
 8
ROSETTE_2
 10
0
 20
0
 30
0
 70
128
 71
29
 72
38
 73
37
 74
37
 0
VERTEX
 8
ROSETTE_2
 10
0
 20
0
 30
0
 70
128
 71
33
 72
34
 73
42
 74
42
 0
VERTEX
 8
ROSETTE_2
 10
0
 20
0
 30
0
 70
128
 71
35
 72
36
 73
44
 74
43
 0
VERTEX
 8
ROSETTE_2
 10
0
 20
0
 30
0
 70
128
 71
37
 72
46
 73
45
 74
45
 0
VERTEX
 8
ROSETTE_2
 10
0
 20
0
 30
0
 70
128
 71
41
 72
42
 73
50
 74
50
 0
VERTEX
 8
ROSETTE_2
 10
0
 20
0
 30
0
 70
128
 71
43
 72
44
 73
52
 74
51
 0
VERTEX
 8
ROSETTE_2
 10
0
 20
0
 30
0
 70
128
 71
45
 72
54
 73
53
 74
53
 0
VERTEX
 8
ROSETTE_2
 10
0
 20
0
 30
0
 70
128
 71
49
 72
50
 73
58
 74
58
 0
VERTEX
 8
ROSETTE_2
 10
0
 20
0
 30
0
 70
128
 71
51
 72
52
 73
60
 74
59
 0
VERTEX
 8
ROSETTE_2
 10
0
 20
0
 30
0
 70
128
 71
53
 72
62
 73
61
 74
61
 0
VERTEX
 8
ROSETTE_2
 10
0
 20
0
 30
0
 70
128
 71
57
 72
58
 73
66
 74
66
 0
VERTEX
 8
ROSETTE_2
 10
0
 20
0
 30
0
 70
128
 71
59
 72
60
 73
68
 74
67
 0
VERTEX
 8
ROSETTE_2
 10
0
 20
0
 30
0
 70
128
 71
61
 72
70
 73
69
 74
69
 0
VERTEX
 8
ROSETTE_2
 10
0
 20
0
 30
0
 70
128
 71
65
 72
66
 73
74
 74
74
 0
VERTEX
 8
ROSETTE_2
 10
0
 20
0
 30
0
 70
128
 71
67
 72
68
 73
76
 74
75
 0
VERTEX
 8
ROSETTE_2
 10
0
 20
0
 30
0
 70
128
 71
69
 72
78
 73
77
 74
77
 0
VERTEX
 8
ROSETTE_2
 10
0
 20
0
 30
0
 70
128
 71
73
 72
74
 73
82
 74
82
 0
VERTEX
 8
ROSETTE_2
 10
0
 20
0
 30
0
 70
128
 71
75
 72
76
 73
84
 74
83
 0
VERTEX
 8
ROSETTE_2
 10
0
 20
0
 30
0
 70
128
 71
77
 72
86
 73
85
 74
85
 0
VERTEX
 8
ROSETTE_2
 10
0
 20
0
 30
0
 70
128
 71
81
 72
82
 73
90
 74
90
 0
VERTEX
 8
ROSETTE_2
 10
0
 20
0
 30
0
 70
128
 71
83
 72
84
 73
92
 74
91
 0
VERTEX
 8
ROSETTE_2
 10
0
 20
0
 30
0
 70
128
 71
85
 72
94
 73
93
 74
93
 0
VERTEX
 8
ROSETTE_2
 10
0
 20
0
 30
0
 70
128
 71
89
 72
90
 73
98
 74
98
 0
VERTEX
 8
ROSETTE_2
 10
0
 20
0
 30
0
 70
128
 71
91
 72
92
 73
100
 74
99
 0
VERTEX
 8
ROSETTE_2
 10
0
 20
0
 30
0
 70
128
 71
93
 72
102
 73
101
 74
101
 0
VERTEX
 8
ROSETTE_2
 10
0
 20
0
 30
0
 70
128
 71
97
 72
98
 73
106
 74
106
 0
VERTEX
 8
ROSETTE_2
 10
0
 20
0
 30
0
 70
128
 71
99
 72
100
 73
108
 74
107
 0
VERTEX
 8
ROSETTE_2
 10
0
 20
0
 30
0
 70
128
 71
101
 72
110
 73
109
 74
109
 0
VERTEX
 8
ROSETTE_2
 10
0
 20
0
 30
0
 70
128
 71
105
 72
106
 73
114
 74
114
 0
VERTEX
 8
ROSETTE_2
 10
0
 20
0
 30
0
 70
128
 71
107
 72
108
 73
116
 74
115
 0
VERTEX
 8
ROSETTE_2
 10
0
 20
0
 30
0
 70
128
 71
109
 72
118
 73
117
 74
117
 0
VERTEX
 8
ROSETTE_2
 10
0
 20
0
 30
0
 70
128
 71
113
 72
114
 73
2
 74
2
 0
VERTEX
 8
ROSETTE_2
 10
0
 20
0
 30
0
 70
128
 71
115
 72
116
 73
4
 74
3
 0
VERTEX
 8
ROSETTE_2
 10
0
 20
0
 30
0
 70
128
 71
117
 72
6
 73
5
 74
5
 0
SEQEND
 0
POLYLINE
 8
K_RPER_2
 66
1
 10
0.0
 20
0.0
 30
0.0
 70
64
 71
90
 72
30
 0
VERTEX
 8
K_RPER_2
 10
-14.9733
 20
7.1252
 30
19.264
 70
192
 0
VERTEX
 8
K_RPER_2
 10
-12.9843
 20
7.1252
 30
17.055
 70
192
 0
VERTEX
 8
K_RPER_2
 10
-12.9843
 20
7.1252
 30
17.055
 70
192
 0
VERTEX
 8
K_RPER_2
 10
-12.9843
 20
3.6252
 30
17.055
 70
192
 0
VERTEX
 8
K_RPER_2
 10
-12.9843
 20
3.6252
 30
17.055
 70
192
 0
VERTEX
 8
K_RPER_2
 10
-12.9843
 20
3.6252
 30
19.055
 70
192
 0
VERTEX
 8
K_RPER_2
 10
-12.9843
 20
3.6252
 30
19.055
 70
192
 0
VERTEX
 8
K_RPER_2
 10
-14.9733
 20
3.6252
 30
19.264
 70
192
 0
VERTEX
 8
K_RPER_2
 10
-14.9733
 20
3.6252
 30
19.264
 70
192
 0
VERTEX
 8
K_RPER_2
 10
-12.1708
 20
7.1252
 30
17.2279
 70
192
 0
VERTEX
 8
K_RPER_2
 10
-12.1708
 20
7.1252
 30
17.2279
 70
192
 0
VERTEX
 8
K_RPER_2
 10
-12.1708
 20
3.6252
 30
17.2279
 70
192
 0
VERTEX
 8
K_RPER_2
 10
-12.1708
 20
3.6252
 30
17.2279
 70
192
 0
VERTEX
 8
K_RPER_2
 10
-12.9843
 20
3.6252
 30
19.055
 70
192
 0
VERTEX
 8
K_RPER_2
 10
-12.9843
 20
3.6252
 30
19.055
 70
192
 0
VERTEX
 8
K_RPER_2
 10
-12.9843
 20
3.6252
 30
19.055
 70
192
 0
VERTEX
 8
K_RPER_2
 10
-12.9843
 20
3.6252
 30
19.055
 70
192
 0
VERTEX
 8
K_RPER_2
 10
-11.498
 20
7.1252
 30
17.7167
 70
192
 0
VERTEX
 8
K_RPER_2
 10
-11.498
 20
7.1252
 30
17.7167
 70
192
 0
VERTEX
 8
K_RPER_2
 10
-11.498
 20
3.6252
 30
17.7167
 70
192
 0
VERTEX
 8
K_RPER_2
 10
-11.498
 20
3.6252
 30
17.7167
 70
192
 0
VERTEX
 8
K_RPER_2
 10
-12.9843
 20
3.6252
 30
19.055
 70
192
 0
VERTEX
 8
K_RPER_2
 10
-12.9843
 20
3.6252
 30
19.055
 70
192
 0
VERTEX
 8
K_RPER_2
 10
-14.8864
 20
7.1252
 30
18.4369
 70
192
 0
VERTEX
 8
K_RPER_2
 10
-14.8864
 20
7.1252
 30
18.4369
 70
192
 0
VERTEX
 8
K_RPER_2
 10
-11.0822
 20
7.1252
 30
18.4369
 70
192
 0
VERTEX
 8
K_RPER_2
 10
-11.0822
 20
7.1252
 30
18.4369
 70
192
 0
VERTEX
 8
K_RPER_2
 10
-11.0822
 20
3.6252
 30
18.4369
 70
192
 0
VERTEX
 8
K_RPER_2
 10
-11.0822
 20
3.6252
 30
18.4369
 70
192
 0
VERTEX
 8
K_RPER_2
 10
-12.9843
 20
3.6252
 30
19.055
 70
192
 0
VERTEX
 8
K_RPER_2
 10
-12.9843
 20
3.6252
 30
19.055
 70
192
 0
VERTEX
 8
K_RPER_2
 10
-14.8864
 20
3.6252
 30
18.4369
 70
192
 0
VERTEX
 8
K_RPER_2
 10
-14.8864
 20
3.6252
 30
18.4369
 70
192
 0
VERTEX
 8
K_RPER_2
 10
-10.9953
 20
7.1252
 30
19.264
 70
192
 0
VERTEX
 8
K_RPER_2
 10
-10.9953
 20
7.1252
 30
19.264
 70
192
 0
VERTEX
 8
K_RPER_2
 10
-10.9953
 20
3.6252
 30
19.264
 70
192
 0
VERTEX
 8
K_RPER_2
 10
-10.9953
 20
3.6252
 30
19.264
 70
192
 0
VERTEX
 8
K_RPER_2
 10
-12.9843
 20
3.6252
 30
19.055
 70
192
 0
VERTEX
 8
K_RPER_2
 10
-12.9843
 20
3.6252
 30
19.055
 70
192
 0
VERTEX
 8
K_RPER_2
 10
-12.9843
 20
3.6252
 30
19.055
 70
192
 0
VERTEX
 8
K_RPER_2
 10
-12.9843
 20
3.6252
 30
19.055
 70
192
 0
VERTEX
 8
K_RPER_2
 10
-11.2522
 20
7.1252
 30
20.055
 70
192
 0
VERTEX
 8
K_RPER_2
 10
-11.2522
 20
7.1252
 30
20.055
 70
192
 0
VERTEX
 8
K_RPER_2
 10
-11.2522
 20
3.6252
 30
20.055
 70
192
 0
VERTEX
 8
K_RPER_2
 10
-11.2522
 20
3.6252
 30
20.055
 70
192
 0
VERTEX
 8
K_RPER_2
 10
-12.9843
 20
3.6252
 30
19.055
 70
192
 0
VERTEX
 8
K_RPER_2
 10
-12.9843
 20
3.6252
 30
19.055
 70
192
 0
VERTEX
 8
K_RPER_2
 10
-14.4706
 20
7.1252
 30
17.7167
 70
192
 0
VERTEX
 8
K_RPER_2
 10
-14.4706
 20
7.1252
 30
17.7167
 70
192
 0
VERTEX
 8
K_RPER_2
 10
-11.8087
 20
7.1252
 30
20.673
 70
192
 0
VERTEX
 8
K_RPER_2
 10
-11.8087
 20
7.1252
 30
20.673
 70
192
 0
VERTEX
 8
K_RPER_2
 10
-11.8087
 20
3.6252
 30
20.673
 70
192
 0
VERTEX
 8
K_RPER_2
 10
-11.8087
 20
3.6252
 30
20.673
 70
192
 0
VERTEX
 8
K_RPER_2
 10
-12.9843
 20
3.6252
 30
19.055
 70
192
 0
VERTEX
 8
K_RPER_2
 10
-12.9843
 20
3.6252
 30
19.055
 70
192
 0
VERTEX
 8
K_RPER_2
 10
-14.4706
 20
3.6252
 30
17.7167
 70
192
 0
VERTEX
 8
K_RPER_2
 10
-14.4706
 20
3.6252
 30
17.7167
 70
192
 0
VERTEX
 8
K_RPER_2
 10
-12.5685
 20
7.1252
 30
21.0113
 70
192
 0
VERTEX
 8
K_RPER_2
 10
-12.5685
 20
7.1252
 30
21.0113
 70
192
 0
VERTEX
 8
K_RPER_2
 10
-12.5685
 20
3.6252
 30
21.0113
 70
192
 0
VERTEX
 8
K_RPER_2
 10
-12.5685
 20
3.6252
 30
21.0113
 70
192
 0
VERTEX
 8
K_RPER_2
 10
-12.9843
 20
3.6252
 30
19.055
 70
192
 0
VERTEX
 8
K_RPER_2
 10
-12.9843
 20
3.6252
 30
19.055
 70
192
 0
VERTEX
 8
K_RPER_2
 10
-12.9843
 20
3.6252
 30
19.055
 70
192
 0
VERTEX
 8
K_RPER_2
 10
-12.9843
 20
3.6252
 30
19.055
 70
192
 0
VERTEX
 8
K_RPER_2
 10
-13.4001
 20
7.1252
 30
21.0113
 70
192
 0
VERTEX
 8
K_RPER_2
 10
-13.4001
 20
7.1252
 30
21.0113
 70
192
 0
VERTEX
 8
K_RPER_2
 10
-13.4001
 20
3.6252
 30
21.0113
 70
192
 0
VERTEX
 8
K_RPER_2
 10
-13.4001
 20
3.6252
 30
21.0113
 70
192
 0
VERTEX
 8
K_RPER_2
 10
-12.9843
 20
3.6252
 30
19.055
 70
192
 0
VERTEX
 8
K_RPER_2
 10
-12.9843
 20
3.6252
 30
19.055
 70
192
 0
VERTEX
 8
K_RPER_2
 10
-13.7978
 20
7.1252
 30
17.2279
 70
192
 0
VERTEX
 8
K_RPER_2
 10
-13.7978
 20
7.1252
 30
17.2279
 70
192
 0
VERTEX
 8
K_RPER_2
 10
-14.1599
 20
7.1252
 30
20.673
 70
192
 0
VERTEX
 8
K_RPER_2
 10
-14.1599
 20
7.1252
 30
20.673
 70
192
 0
VERTEX
 8
K_RPER_2
 10
-14.1599
 20
3.6252
 30
20.673
 70
192
 0
VERTEX
 8
K_RPER_2
 10
-14.1599
 20
3.6252
 30
20.673
 70
192
 0
VERTEX
 8
K_RPER_2
 10
-12.9843
 20
3.6252
 30
19.055
 70
192
 0
VERTEX
 8
K_RPER_2
 10
-12.9843
 20
3.6252
 30
19.055
 70
192
 0
VERTEX
 8
K_RPER_2
 10
-13.7978
 20
3.6252
 30
17.2279
 70
192
 0
VERTEX
 8
K_RPER_2
 10
-13.7978
 20
3.6252
 30
17.2279
 70
192
 0
VERTEX
 8
K_RPER_2
 10
-14.7164
 20
7.1252
 30
20.055
 70
192
 0
VERTEX
 8
K_RPER_2
 10
-14.7164
 20
7.1252
 30
20.055
 70
192
 0
VERTEX
 8
K_RPER_2
 10
-14.7164
 20
3.6252
 30
20.055
 70
192
 0
VERTEX
 8
K_RPER_2
 10
-14.7164
 20
3.6252
 30
20.055
 70
192
 0
VERTEX
 8
K_RPER_2
 10
-12.9843
 20
3.6252
 30
19.055
 70
192
 0
VERTEX
 8
K_RPER_2
 10
-12.9843
 20
3.6252
 30
19.055
 70
192
 0
VERTEX
 8
K_RPER_2
 10
-12.9843
 20
3.6252
 30
19.055
 70
192
 0
VERTEX
 8
K_RPER_2
 10
-12.9843
 20
3.6252
 30
19.055
 70
192
 0
VERTEX
 8
K_RPER_2
 10
-14.9733
 20
7.1252
 30
19.264
 70
192
 0
VERTEX
 8
K_RPER_2
 10
0
 20
0
 30
0
 70
128
 71
83
 72
84
 73
8
 74
1
 0
VERTEX
 8
K_RPER_2
 10
0
 20
0
 30
0
 70
128
 71
3
 72
4
 73
12
 74
11
 0
VERTEX
 8
K_RPER_2
 10
0
 20
0
 30
0
 70
128
 71
5
 72
14
 73
13
 74
13
 0
VERTEX
 8
K_RPER_2
 10
0
 20
0
 30
0
 70
128
 71
85
 72
16
 73
9
 74
9
 0
VERTEX
 8
K_RPER_2
 10
0
 20
0
 30
0
 70
128
 71
11
 72
12
 73
20
 74
19
 0
VERTEX
 8
K_RPER_2
 10
0
 20
0
 30
0
 70
128
 71
13
 72
22
 73
21
 74
21
 0
VERTEX
 8
K_RPER_2
 10
0
 20
0
 30
0
 70
128
 71
1
 72
8
 73
32
 74
25
 0
VERTEX
 8
K_RPER_2
 10
0
 20
0
 30
0
 70
128
 71
19
 72
20
 73
28
 74
27
 0
VERTEX
 8
K_RPER_2
 10
0
 20
0
 30
0
 70
128
 71
21
 72
30
 73
29
 74
29
 0
VERTEX
 8
K_RPER_2
 10
0
 20
0
 30
0
 70
128
 71
9
 72
40
 73
33
 74
33
 0
VERTEX
 8
K_RPER_2
 10
0
 20
0
 30
0
 70
128
 71
27
 72
28
 73
36
 74
35
 0
VERTEX
 8
K_RPER_2
 10
0
 20
0
 30
0
 70
128
 71
29
 72
38
 73
37
 74
37
 0
VERTEX
 8
K_RPER_2
 10
0
 20
0
 30
0
 70
128
 71
25
 72
32
 73
56
 74
49
 0
VERTEX
 8
K_RPER_2
 10
0
 20
0
 30
0
 70
128
 71
35
 72
36
 73
44
 74
43
 0
VERTEX
 8
K_RPER_2
 10
0
 20
0
 30
0
 70
128
 71
37
 72
46
 73
45
 74
45
 0
VERTEX
 8
K_RPER_2
 10
0
 20
0
 30
0
 70
128
 71
33
 72
64
 73
57
 74
57
 0
VERTEX
 8
K_RPER_2
 10
0
 20
0
 30
0
 70
128
 71
43
 72
44
 73
52
 74
51
 0
VERTEX
 8
K_RPER_2
 10
0
 20
0
 30
0
 70
128
 71
45
 72
54
 73
53
 74
53
 0
VERTEX
 8
K_RPER_2
 10
0
 20
0
 30
0
 70
128
 71
49
 72
56
 73
80
 74
73
 0
VERTEX
 8
K_RPER_2
 10
0
 20
0
 30
0
 70
128
 71
51
 72
52
 73
60
 74
59
 0
VERTEX
 8
K_RPER_2
 10
0
 20
0
 30
0
 70
128
 71
53
 72
62
 73
61
 74
61
 0
VERTEX
 8
K_RPER_2
 10
0
 20
0
 30
0
 70
128
 71
57
 72
88
 73
81
 74
81
 0
VERTEX
 8
K_RPER_2
 10
0
 20
0
 30
0
 70
128
 71
59
 72
60
 73
68
 74
67
 0
VERTEX
 8
K_RPER_2
 10
0
 20
0
 30
0
 70
128
 71
61
 72
70
 73
69
 74
69
 0
VERTEX
 8
K_RPER_2
 10
0
 20
0
 30
0
 70
128
 71
73
 72
80
 73
4
 74
3
 0
VERTEX
 8
K_RPER_2
 10
0
 20
0
 30
0
 70
128
 71
67
 72
68
 73
76
 74
75
 0
VERTEX
 8
K_RPER_2
 10
0
 20
0
 30
0
 70
128
 71
69
 72
78
 73
77
 74
77
 0
VERTEX
 8
K_RPER_2
 10
0
 20
0
 30
0
 70
128
 71
81
 72
6
 73
5
 74
5
 0
VERTEX
 8
K_RPER_2
 10
0
 20
0
 30
0
 70
128
 71
75
 72
76
 73
84
 74
83
 0
VERTEX
 8
K_RPER_2
 10
0
 20
0
 30
0
 70
128
 71
77
 72
86
 73
85
 74
85
 0
SEQEND
 0
POLYLINE
 8
GRIFF_10
 66
1
 10
0.0
 20
0.0
 30
0.0
 70
64
 71
12
 72
6
 0
VERTEX
 8
GRIFF_10
 10
13.0125
 20
4.2271
 30
18.5531
 70
192
 0
VERTEX
 8
GRIFF_10
 10
13.0125
 20
2.2271
 30
18.5531
 70
192
 0
VERTEX
 8
GRIFF_10
 10
13.4455
 20
4.2271
 30
18.8031
 70
192
 0
VERTEX
 8
GRIFF_10
 10
13.4455
 20
2.2271
 30
18.8031
 70
192
 0
VERTEX
 8
GRIFF_10
 10
13.4455
 20
4.2271
 30
19.3031
 70
192
 0
VERTEX
 8
GRIFF_10
 10
13.4455
 20
2.2271
 30
19.3031
 70
192
 0
VERTEX
 8
GRIFF_10
 10
13.0125
 20
4.2271
 30
19.5531
 70
192
 0
VERTEX
 8
GRIFF_10
 10
13.0125
 20
2.2271
 30
19.5531
 70
192
 0
VERTEX
 8
GRIFF_10
 10
12.5795
 20
4.2271
 30
19.3031
 70
192
 0
VERTEX
 8
GRIFF_10
 10
12.5795
 20
2.2271
 30
19.3031
 70
192
 0
VERTEX
 8
GRIFF_10
 10
12.5795
 20
4.2271
 30
18.8031
 70
192
 0
VERTEX
 8
GRIFF_10
 10
12.5795
 20
2.2271
 30
18.8031
 70
192
 0
VERTEX
 8
GRIFF_10
 10
0
 20
0
 30
0
 70
128
 71
1
 72
2
 73
4
 74
3
 0
VERTEX
 8
GRIFF_10
 10
0
 20
0
 30
0
 70
128
 71
3
 72
4
 73
6
 74
5
 0
VERTEX
 8
GRIFF_10
 10
0
 20
0
 30
0
 70
128
 71
5
 72
6
 73
8
 74
7
 0
VERTEX
 8
GRIFF_10
 10
0
 20
0
 30
0
 70
128
 71
7
 72
8
 73
10
 74
9
 0
VERTEX
 8
GRIFF_10
 10
0
 20
0
 30
0
 70
128
 71
9
 72
10
 73
12
 74
11
 0
VERTEX
 8
GRIFF_10
 10
0
 20
0
 30
0
 70
128
 71
11
 72
12
 73
2
 74
1
 0
SEQEND
 0
POLYLINE
 8
GRIFF_9
 66
1
 10
0.0
 20
0.0
 30
0.0
 70
64
 71
12
 72
6
 0
VERTEX
 8
GRIFF_9
 10
12.7168
 20
1.5274
 30
19.3488
 70
192
 0
VERTEX
 8
GRIFF_9
 10
11.8682
 20
1.5274
 30
20.1973
 70
192
 0
VERTEX
 8
GRIFF_9
 10
12.9311
 20
1.7024
 30
19.5631
 70
192
 0
VERTEX
 8
GRIFF_9
 10
12.0826
 20
1.7024
 30
20.4117
 70
192
 0
VERTEX
 8
GRIFF_9
 10
12.9311
 20
2.0524
 30
19.5631
 70
192
 0
VERTEX
 8
GRIFF_9
 10
12.0826
 20
2.0524
 30
20.4117
 70
192
 0
VERTEX
 8
GRIFF_9
 10
12.7168
 20
2.2274
 30
19.3488
 70
192
 0
VERTEX
 8
GRIFF_9
 10
11.8682
 20
2.2274
 30
20.1973
 70
192
 0
VERTEX
 8
GRIFF_9
 10
12.5024
 20
2.0524
 30
19.1345
 70
192
 0
VERTEX
 8
GRIFF_9
 10
11.6539
 20
2.0524
 30
19.983
 70
192
 0
VERTEX
 8
GRIFF_9
 10
12.5024
 20
1.7024
 30
19.1345
 70
192
 0
VERTEX
 8
GRIFF_9
 10
11.6539
 20
1.7024
 30
19.983
 70
192
 0
VERTEX
 8
GRIFF_9
 10
0
 20
0
 30
0
 70
128
 71
1
 72
2
 73
4
 74
3
 0
VERTEX
 8
GRIFF_9
 10
0
 20
0
 30
0
 70
128
 71
3
 72
4
 73
6
 74
5
 0
VERTEX
 8
GRIFF_9
 10
0
 20
0
 30
0
 70
128
 71
5
 72
6
 73
8
 74
7
 0
VERTEX
 8
GRIFF_9
 10
0
 20
0
 30
0
 70
128
 71
7
 72
8
 73
10
 74
9
 0
VERTEX
 8
GRIFF_9
 10
0
 20
0
 30
0
 70
128
 71
9
 72
10
 73
12
 74
11
 0
VERTEX
 8
GRIFF_9
 10
0
 20
0
 30
0
 70
128
 71
11
 72
12
 73
2
 74
1
 0
SEQEND
 0
POLYLINE
 8
GRIFF_8
 66
1
 10
0.0
 20
0.0
 30
0.0
 70
64
 71
34
 72
24
 0
VERTEX
 8
GRIFF_8
 10
12.3209
 20
1.8753
 30
19.7447
 70
192
 0
VERTEX
 8
GRIFF_8
 10
10.9067
 20
1.8753
 30
21.1589
 70
192
 0
VERTEX
 8
GRIFF_8
 10
12.3209
 20
1.3753
 30
19.7447
 70
192
 0
VERTEX
 8
GRIFF_8
 10
12.3209
 20
1.3753
 30
19.7447
 70
192
 0
VERTEX
 8
GRIFF_8
 10
10.9067
 20
1.3753
 30
21.1589
 70
192
 0
VERTEX
 8
GRIFF_8
 10
10.9067
 20
1.3753
 30
21.1589
 70
192
 0
VERTEX
 8
GRIFF_8
 10
12.5709
 20
1.5218
 30
19.9947
 70
192
 0
VERTEX
 8
GRIFF_8
 10
12.5709
 20
1.5218
 30
19.9947
 70
192
 0
VERTEX
 8
GRIFF_8
 10
11.1567
 20
1.5217
 30
21.4089
 70
192
 0
VERTEX
 8
GRIFF_8
 10
11.1567
 20
1.5217
 30
21.4089
 70
192
 0
VERTEX
 8
GRIFF_8
 10
12.6744
 20
1.8753
 30
20.0983
 70
192
 0
VERTEX
 8
GRIFF_8
 10
12.6744
 20
1.8753
 30
20.0983
 70
192
 0
VERTEX
 8
GRIFF_8
 10
11.2602
 20
1.8753
 30
21.5125
 70
192
 0
VERTEX
 8
GRIFF_8
 10
11.2602
 20
1.8753
 30
21.5125
 70
192
 0
VERTEX
 8
GRIFF_8
 10
12.5709
 20
2.2289
 30
19.9947
 70
192
 0
VERTEX
 8
GRIFF_8
 10
12.5709
 20
2.2289
 30
19.9947
 70
192
 0
VERTEX
 8
GRIFF_8
 10
11.1567
 20
2.2289
 30
21.4089
 70
192
 0
VERTEX
 8
GRIFF_8
 10
11.1567
 20
2.2289
 30
21.4089
 70
192
 0
VERTEX
 8
GRIFF_8
 10
12.3209
 20
2.3753
 30
19.7447
 70
192
 0
VERTEX
 8
GRIFF_8
 10
12.3209
 20
2.3753
 30
19.7447
 70
192
 0
VERTEX
 8
GRIFF_8
 10
10.9067
 20
2.3753
 30
21.1589
 70
192
 0
VERTEX
 8
GRIFF_8
 10
10.9067
 20
2.3753
 30
21.1589
 70
192
 0
VERTEX
 8
GRIFF_8
 10
12.0709
 20
2.2289
 30
19.4947
 70
192
 0
VERTEX
 8
GRIFF_8
 10
12.0709
 20
2.2289
 30
19.4947
 70
192
 0
VERTEX
 8
GRIFF_8
 10
10.6567
 20
2.2289
 30
20.9089
 70
192
 0
VERTEX
 8
GRIFF_8
 10
10.6567
 20
2.2289
 30
20.9089
 70
192
 0
VERTEX
 8
GRIFF_8
 10
11.9673
 20
1.8753
 30
19.3912
 70
192
 0
VERTEX
 8
GRIFF_8
 10
11.9673
 20
1.8753
 30
19.3912
 70
192
 0
VERTEX
 8
GRIFF_8
 10
10.5531
 20
1.8753
 30
20.8054
 70
192
 0
VERTEX
 8
GRIFF_8
 10
10.5531
 20
1.8753
 30
20.8054
 70
192
 0
VERTEX
 8
GRIFF_8
 10
12.0709
 20
1.5218
 30
19.4947
 70
192
 0
VERTEX
 8
GRIFF_8
 10
12.0709
 20
1.5218
 30
19.4947
 70
192
 0
VERTEX
 8
GRIFF_8
 10
10.6567
 20
1.5217
 30
20.9089
 70
192
 0
VERTEX
 8
GRIFF_8
 10
10.6567
 20
1.5217
 30
20.9089
 70
192
 0
VERTEX
 8
GRIFF_8
 10
0
 20
0
 30
0
 70
128
 71
1
 72
3
 73
7
 74
7
 0
VERTEX
 8
GRIFF_8
 10
0
 20
0
 30
0
 70
128
 71
4
 72
5
 73
9
 74
8
 0
VERTEX
 8
GRIFF_8
 10
0
 20
0
 30
0
 70
128
 71
6
 72
2
 73
10
 74
10
 0
VERTEX
 8
GRIFF_8
 10
0
 20
0
 30
0
 70
128
 71
1
 72
7
 73
11
 74
11
 0
VERTEX
 8
GRIFF_8
 10
0
 20
0
 30
0
 70
128
 71
8
 72
9
 73
13
 74
12
 0
VERTEX
 8
GRIFF_8
 10
0
 20
0
 30
0
 70
128
 71
10
 72
2
 73
14
 74
14
 0
VERTEX
 8
GRIFF_8
 10
0
 20
0
 30
0
 70
128
 71
1
 72
11
 73
15
 74
15
 0
VERTEX
 8
GRIFF_8
 10
0
 20
0
 30
0
 70
128
 71
12
 72
13
 73
17
 74
16
 0
VERTEX
 8
GRIFF_8
 10
0
 20
0
 30
0
 70
128
 71
14
 72
2
 73
18
 74
18
 0
VERTEX
 8
GRIFF_8
 10
0
 20
0
 30
0
 70
128
 71
1
 72
15
 73
19
 74
19
 0
VERTEX
 8
GRIFF_8
 10
0
 20
0
 30
0
 70
128
 71
16
 72
17
 73
21
 74
20
 0
VERTEX
 8
GRIFF_8
 10
0
 20
0
 30
0
 70
128
 71
18
 72
2
 73
22
 74
22
 0
VERTEX
 8
GRIFF_8
 10
0
 20
0
 30
0
 70
128
 71
1
 72
19
 73
23
 74
23
 0
VERTEX
 8
GRIFF_8
 10
0
 20
0
 30
0
 70
128
 71
20
 72
21
 73
25
 74
24
 0
VERTEX
 8
GRIFF_8
 10
0
 20
0
 30
0
 70
128
 71
22
 72
2
 73
26
 74
26
 0
VERTEX
 8
GRIFF_8
 10
0
 20
0
 30
0
 70
128
 71
1
 72
23
 73
27
 74
27
 0
VERTEX
 8
GRIFF_8
 10
0
 20
0
 30
0
 70
128
 71
24
 72
25
 73
29
 74
28
 0
VERTEX
 8
GRIFF_8
 10
0
 20
0
 30
0
 70
128
 71
26
 72
2
 73
30
 74
30
 0
VERTEX
 8
GRIFF_8
 10
0
 20
0
 30
0
 70
128
 71
1
 72
27
 73
31
 74
31
 0
VERTEX
 8
GRIFF_8
 10
0
 20
0
 30
0
 70
128
 71
28
 72
29
 73
33
 74
32
 0
VERTEX
 8
GRIFF_8
 10
0
 20
0
 30
0
 70
128
 71
30
 72
2
 73
34
 74
34
 0
VERTEX
 8
GRIFF_8
 10
0
 20
0
 30
0
 70
128
 71
1
 72
31
 73
3
 74
3
 0
VERTEX
 8
GRIFF_8
 10
0
 20
0
 30
0
 70
128
 71
32
 72
33
 73
5
 74
4
 0
VERTEX
 8
GRIFF_8
 10
0
 20
0
 30
0
 70
128
 71
34
 72
2
 73
6
 74
6
 0
SEQEND
 0
POLYLINE
 8
GRIFF_7
 66
1
 10
0.0
 20
0.0
 30
0.0
 70
64
 71
12
 72
6
 0
VERTEX
 8
GRIFF_7
 10
13.3328
 20
1.5274
 30
18.7328
 70
192
 0
VERTEX
 8
GRIFF_7
 10
14.1813
 20
1.5274
 30
17.8842
 70
192
 0
VERTEX
 8
GRIFF_7
 10
13.1185
 20
1.7024
 30
18.5184
 70
192
 0
VERTEX
 8
GRIFF_7
 10
13.967
 20
1.7024
 30
17.6699
 70
192
 0
VERTEX
 8
GRIFF_7
 10
13.1185
 20
2.0524
 30
18.5184
 70
192
 0
VERTEX
 8
GRIFF_7
 10
13.967
 20
2.0524
 30
17.6699
 70
192
 0
VERTEX
 8
GRIFF_7
 10
13.3328
 20
2.2274
 30
18.7328
 70
192
 0
VERTEX
 8
GRIFF_7
 10
14.1813
 20
2.2274
 30
17.8842
 70
192
 0
VERTEX
 8
GRIFF_7
 10
13.5471
 20
2.0524
 30
18.9471
 70
192
 0
VERTEX
 8
GRIFF_7
 10
14.3957
 20
2.0524
 30
18.0986
 70
192
 0
VERTEX
 8
GRIFF_7
 10
13.5471
 20
1.7024
 30
18.9471
 70
192
 0
VERTEX
 8
GRIFF_7
 10
14.3957
 20
1.7024
 30
18.0986
 70
192
 0
VERTEX
 8
GRIFF_7
 10
0
 20
0
 30
0
 70
128
 71
1
 72
2
 73
4
 74
3
 0
VERTEX
 8
GRIFF_7
 10
0
 20
0
 30
0
 70
128
 71
3
 72
4
 73
6
 74
5
 0
VERTEX
 8
GRIFF_7
 10
0
 20
0
 30
0
 70
128
 71
5
 72
6
 73
8
 74
7
 0
VERTEX
 8
GRIFF_7
 10
0
 20
0
 30
0
 70
128
 71
7
 72
8
 73
10
 74
9
 0
VERTEX
 8
GRIFF_7
 10
0
 20
0
 30
0
 70
128
 71
9
 72
10
 73
12
 74
11
 0
VERTEX
 8
GRIFF_7
 10
0
 20
0
 30
0
 70
128
 71
11
 72
12
 73
2
 74
1
 0
SEQEND
 0
POLYLINE
 8
GRIFF_6
 66
1
 10
0.0
 20
0.0
 30
0.0
 70
64
 71
34
 72
24
 0
VERTEX
 8
GRIFF_6
 10
13.7158
 20
1.8753
 30
18.3498
 70
192
 0
VERTEX
 8
GRIFF_6
 10
15.13
 20
1.8753
 30
16.9356
 70
192
 0
VERTEX
 8
GRIFF_6
 10
13.7158
 20
1.3753
 30
18.3498
 70
192
 0
VERTEX
 8
GRIFF_6
 10
13.7158
 20
1.3753
 30
18.3498
 70
192
 0
VERTEX
 8
GRIFF_6
 10
15.13
 20
1.3753
 30
16.9356
 70
192
 0
VERTEX
 8
GRIFF_6
 10
15.13
 20
1.3753
 30
16.9356
 70
192
 0
VERTEX
 8
GRIFF_6
 10
13.4658
 20
1.5218
 30
18.0998
 70
192
 0
VERTEX
 8
GRIFF_6
 10
13.4658
 20
1.5218
 30
18.0998
 70
192
 0
VERTEX
 8
GRIFF_6
 10
14.88
 20
1.5218
 30
16.6856
 70
192
 0
VERTEX
 8
GRIFF_6
 10
14.88
 20
1.5218
 30
16.6856
 70
192
 0
VERTEX
 8
GRIFF_6
 10
13.3623
 20
1.8753
 30
17.9962
 70
192
 0
VERTEX
 8
GRIFF_6
 10
13.3623
 20
1.8753
 30
17.9962
 70
192
 0
VERTEX
 8
GRIFF_6
 10
14.7765
 20
1.8753
 30
16.582
 70
192
 0
VERTEX
 8
GRIFF_6
 10
14.7765
 20
1.8753
 30
16.582
 70
192
 0
VERTEX
 8
GRIFF_6
 10
13.4658
 20
2.2289
 30
18.0998
 70
192
 0
VERTEX
 8
GRIFF_6
 10
13.4658
 20
2.2289
 30
18.0998
 70
192
 0
VERTEX
 8
GRIFF_6
 10
14.88
 20
2.2289
 30
16.6856
 70
192
 0
VERTEX
 8
GRIFF_6
 10
14.88
 20
2.2289
 30
16.6856
 70
192
 0
VERTEX
 8
GRIFF_6
 10
13.7158
 20
2.3753
 30
18.3498
 70
192
 0
VERTEX
 8
GRIFF_6
 10
13.7158
 20
2.3753
 30
18.3498
 70
192
 0
VERTEX
 8
GRIFF_6
 10
15.13
 20
2.3753
 30
16.9356
 70
192
 0
VERTEX
 8
GRIFF_6
 10
15.13
 20
2.3753
 30
16.9356
 70
192
 0
VERTEX
 8
GRIFF_6
 10
13.9658
 20
2.2289
 30
18.5998
 70
192
 0
VERTEX
 8
GRIFF_6
 10
13.9658
 20
2.2289
 30
18.5998
 70
192
 0
VERTEX
 8
GRIFF_6
 10
15.38
 20
2.2289
 30
17.1856
 70
192
 0
VERTEX
 8
GRIFF_6
 10
15.38
 20
2.2289
 30
17.1856
 70
192
 0
VERTEX
 8
GRIFF_6
 10
14.0694
 20
1.8753
 30
18.7033
 70
192
 0
VERTEX
 8
GRIFF_6
 10
14.0694
 20
1.8753
 30
18.7033
 70
192
 0
VERTEX
 8
GRIFF_6
 10
15.4836
 20
1.8753
 30
17.2891
 70
192
 0
VERTEX
 8
GRIFF_6
 10
15.4836
 20
1.8753
 30
17.2891
 70
192
 0
VERTEX
 8
GRIFF_6
 10
13.9658
 20
1.5218
 30
18.5998
 70
192
 0
VERTEX
 8
GRIFF_6
 10
13.9658
 20
1.5218
 30
18.5998
 70
192
 0
VERTEX
 8
GRIFF_6
 10
15.38
 20
1.5218
 30
17.1856
 70
192
 0
VERTEX
 8
GRIFF_6
 10
15.38
 20
1.5218
 30
17.1856
 70
192
 0
VERTEX
 8
GRIFF_6
 10
0
 20
0
 30
0
 70
128
 71
1
 72
3
 73
7
 74
7
 0
VERTEX
 8
GRIFF_6
 10
0
 20
0
 30
0
 70
128
 71
4
 72
5
 73
9
 74
8
 0
VERTEX
 8
GRIFF_6
 10
0
 20
0
 30
0
 70
128
 71
6
 72
2
 73
10
 74
10
 0
VERTEX
 8
GRIFF_6
 10
0
 20
0
 30
0
 70
128
 71
1
 72
7
 73
11
 74
11
 0
VERTEX
 8
GRIFF_6
 10
0
 20
0
 30
0
 70
128
 71
8
 72
9
 73
13
 74
12
 0
VERTEX
 8
GRIFF_6
 10
0
 20
0
 30
0
 70
128
 71
10
 72
2
 73
14
 74
14
 0
VERTEX
 8
GRIFF_6
 10
0
 20
0
 30
0
 70
128
 71
1
 72
11
 73
15
 74
15
 0
VERTEX
 8
GRIFF_6
 10
0
 20
0
 30
0
 70
128
 71
12
 72
13
 73
17
 74
16
 0
VERTEX
 8
GRIFF_6
 10
0
 20
0
 30
0
 70
128
 71
14
 72
2
 73
18
 74
18
 0
VERTEX
 8
GRIFF_6
 10
0
 20
0
 30
0
 70
128
 71
1
 72
15
 73
19
 74
19
 0
VERTEX
 8
GRIFF_6
 10
0
 20
0
 30
0
 70
128
 71
16
 72
17
 73
21
 74
20
 0
VERTEX
 8
GRIFF_6
 10
0
 20
0
 30
0
 70
128
 71
18
 72
2
 73
22
 74
22
 0
VERTEX
 8
GRIFF_6
 10
0
 20
0
 30
0
 70
128
 71
1
 72
19
 73
23
 74
23
 0
VERTEX
 8
GRIFF_6
 10
0
 20
0
 30
0
 70
128
 71
20
 72
21
 73
25
 74
24
 0
VERTEX
 8
GRIFF_6
 10
0
 20
0
 30
0
 70
128
 71
22
 72
2
 73
26
 74
26
 0
VERTEX
 8
GRIFF_6
 10
0
 20
0
 30
0
 70
128
 71
1
 72
23
 73
27
 74
27
 0
VERTEX
 8
GRIFF_6
 10
0
 20
0
 30
0
 70
128
 71
24
 72
25
 73
29
 74
28
 0
VERTEX
 8
GRIFF_6
 10
0
 20
0
 30
0
 70
128
 71
26
 72
2
 73
30
 74
30
 0
VERTEX
 8
GRIFF_6
 10
0
 20
0
 30
0
 70
128
 71
1
 72
27
 73
31
 74
31
 0
VERTEX
 8
GRIFF_6
 10
0
 20
0
 30
0
 70
128
 71
28
 72
29
 73
33
 74
32
 0
VERTEX
 8
GRIFF_6
 10
0
 20
0
 30
0
 70
128
 71
30
 72
2
 73
34
 74
34
 0
VERTEX
 8
GRIFF_6
 10
0
 20
0
 30
0
 70
128
 71
1
 72
31
 73
3
 74
3
 0
VERTEX
 8
GRIFF_6
 10
0
 20
0
 30
0
 70
128
 71
32
 72
33
 73
5
 74
4
 0
VERTEX
 8
GRIFF_6
 10
0
 20
0
 30
0
 70
128
 71
34
 72
2
 73
6
 74
6
 0
SEQEND
 0
POLYLINE
 8
GRIFF_5
 66
1
 10
0.0
 20
0.0
 30
0.0
 70
64
 71
12
 72
6
 0
VERTEX
 8
GRIFF_5
 10
12.6345
 20
1.5274
 30
18.7017
 70
192
 0
VERTEX
 8
GRIFF_5
 10
11.786
 20
1.5274
 30
17.8531
 70
192
 0
VERTEX
 8
GRIFF_5
 10
12.4202
 20
1.7024
 30
18.916
 70
192
 0
VERTEX
 8
GRIFF_5
 10
11.5717
 20
1.7024
 30
18.0675
 70
192
 0
VERTEX
 8
GRIFF_5
 10
12.4202
 20
2.0524
 30
18.916
 70
192
 0
VERTEX
 8
GRIFF_5
 10
11.5717
 20
2.0524
 30
18.0675
 70
192
 0
VERTEX
 8
GRIFF_5
 10
12.6345
 20
2.2274
 30
18.7017
 70
192
 0
VERTEX
 8
GRIFF_5
 10
11.786
 20
2.2274
 30
17.8531
 70
192
 0
VERTEX
 8
GRIFF_5
 10
12.8489
 20
2.0524
 30
18.4873
 70
192
 0
VERTEX
 8
GRIFF_5
 10
12.0003
 20
2.0524
 30
17.6388
 70
192
 0
VERTEX
 8
GRIFF_5
 10
12.8489
 20
1.7024
 30
18.4873
 70
192
 0
VERTEX
 8
GRIFF_5
 10
12.0003
 20
1.7024
 30
17.6388
 70
192
 0
VERTEX
 8
GRIFF_5
 10
0
 20
0
 30
0
 70
128
 71
1
 72
2
 73
4
 74
3
 0
VERTEX
 8
GRIFF_5
 10
0
 20
0
 30
0
 70
128
 71
3
 72
4
 73
6
 74
5
 0
VERTEX
 8
GRIFF_5
 10
0
 20
0
 30
0
 70
128
 71
5
 72
6
 73
8
 74
7
 0
VERTEX
 8
GRIFF_5
 10
0
 20
0
 30
0
 70
128
 71
7
 72
8
 73
10
 74
9
 0
VERTEX
 8
GRIFF_5
 10
0
 20
0
 30
0
 70
128
 71
9
 72
10
 73
12
 74
11
 0
VERTEX
 8
GRIFF_5
 10
0
 20
0
 30
0
 70
128
 71
11
 72
12
 73
2
 74
1
 0
SEQEND
 0
POLYLINE
 8
GRIFF_4
 66
1
 10
0.0
 20
0.0
 30
0.0
 70
64
 71
34
 72
24
 0
VERTEX
 8
GRIFF_4
 10
12.2515
 20
1.8753
 30
18.3187
 70
192
 0
VERTEX
 8
GRIFF_4
 10
10.8373
 20
1.8753
 30
16.9045
 70
192
 0
VERTEX
 8
GRIFF_4
 10
12.2515
 20
1.3753
 30
18.3187
 70
192
 0
VERTEX
 8
GRIFF_4
 10
12.2515
 20
1.3753
 30
18.3187
 70
192
 0
VERTEX
 8
GRIFF_4
 10
10.8373
 20
1.3753
 30
16.9045
 70
192
 0
VERTEX
 8
GRIFF_4
 10
10.8373
 20
1.3753
 30
16.9045
 70
192
 0
VERTEX
 8
GRIFF_4
 10
12.0015
 20
1.5218
 30
18.5687
 70
192
 0
VERTEX
 8
GRIFF_4
 10
12.0015
 20
1.5218
 30
18.5687
 70
192
 0
VERTEX
 8
GRIFF_4
 10
10.5873
 20
1.5217
 30
17.1545
 70
192
 0
VERTEX
 8
GRIFF_4
 10
10.5873
 20
1.5217
 30
17.1545
 70
192
 0
VERTEX
 8
GRIFF_4
 10
11.898
 20
1.8753
 30
18.6722
 70
192
 0
VERTEX
 8
GRIFF_4
 10
11.898
 20
1.8753
 30
18.6722
 70
192
 0
VERTEX
 8
GRIFF_4
 10
10.4838
 20
1.8753
 30
17.258
 70
192
 0
VERTEX
 8
GRIFF_4
 10
10.4838
 20
1.8753
 30
17.258
 70
192
 0
VERTEX
 8
GRIFF_4
 10
12.0015
 20
2.2289
 30
18.5687
 70
192
 0
VERTEX
 8
GRIFF_4
 10
12.0015
 20
2.2289
 30
18.5687
 70
192
 0
VERTEX
 8
GRIFF_4
 10
10.5873
 20
2.2289
 30
17.1545
 70
192
 0
VERTEX
 8
GRIFF_4
 10
10.5873
 20
2.2289
 30
17.1545
 70
192
 0
VERTEX
 8
GRIFF_4
 10
12.2515
 20
2.3753
 30
18.3187
 70
192
 0
VERTEX
 8
GRIFF_4
 10
12.2515
 20
2.3753
 30
18.3187
 70
192
 0
VERTEX
 8
GRIFF_4
 10
10.8373
 20
2.3753
 30
16.9045
 70
192
 0
VERTEX
 8
GRIFF_4
 10
10.8373
 20
2.3753
 30
16.9045
 70
192
 0
VERTEX
 8
GRIFF_4
 10
12.5015
 20
2.2289
 30
18.0687
 70
192
 0
VERTEX
 8
GRIFF_4
 10
12.5015
 20
2.2289
 30
18.0687
 70
192
 0
VERTEX
 8
GRIFF_4
 10
11.0873
 20
2.2289
 30
16.6545
 70
192
 0
VERTEX
 8
GRIFF_4
 10
11.0873
 20
2.2289
 30
16.6545
 70
192
 0
VERTEX
 8
GRIFF_4
 10
12.6051
 20
1.8753
 30
17.9651
 70
192
 0
VERTEX
 8
GRIFF_4
 10
12.6051
 20
1.8753
 30
17.9651
 70
192
 0
VERTEX
 8
GRIFF_4
 10
11.1909
 20
1.8753
 30
16.5509
 70
192
 0
VERTEX
 8
GRIFF_4
 10
11.1909
 20
1.8753
 30
16.5509
 70
192
 0
VERTEX
 8
GRIFF_4
 10
12.5015
 20
1.5218
 30
18.0687
 70
192
 0
VERTEX
 8
GRIFF_4
 10
12.5015
 20
1.5218
 30
18.0687
 70
192
 0
VERTEX
 8
GRIFF_4
 10
11.0873
 20
1.5217
 30
16.6545
 70
192
 0
VERTEX
 8
GRIFF_4
 10
11.0873
 20
1.5217
 30
16.6545
 70
192
 0
VERTEX
 8
GRIFF_4
 10
0
 20
0
 30
0
 70
128
 71
1
 72
3
 73
7
 74
7
 0
VERTEX
 8
GRIFF_4
 10
0
 20
0
 30
0
 70
128
 71
4
 72
5
 73
9
 74
8
 0
VERTEX
 8
GRIFF_4
 10
0
 20
0
 30
0
 70
128
 71
6
 72
2
 73
10
 74
10
 0
VERTEX
 8
GRIFF_4
 10
0
 20
0
 30
0
 70
128
 71
1
 72
7
 73
11
 74
11
 0
VERTEX
 8
GRIFF_4
 10
0
 20
0
 30
0
 70
128
 71
8
 72
9
 73
13
 74
12
 0
VERTEX
 8
GRIFF_4
 10
0
 20
0
 30
0
 70
128
 71
10
 72
2
 73
14
 74
14
 0
VERTEX
 8
GRIFF_4
 10
0
 20
0
 30
0
 70
128
 71
1
 72
11
 73
15
 74
15
 0
VERTEX
 8
GRIFF_4
 10
0
 20
0
 30
0
 70
128
 71
12
 72
13
 73
17
 74
16
 0
VERTEX
 8
GRIFF_4
 10
0
 20
0
 30
0
 70
128
 71
14
 72
2
 73
18
 74
18
 0
VERTEX
 8
GRIFF_4
 10
0
 20
0
 30
0
 70
128
 71
1
 72
15
 73
19
 74
19
 0
VERTEX
 8
GRIFF_4
 10
0
 20
0
 30
0
 70
128
 71
16
 72
17
 73
21
 74
20
 0
VERTEX
 8
GRIFF_4
 10
0
 20
0
 30
0
 70
128
 71
18
 72
2
 73
22
 74
22
 0
VERTEX
 8
GRIFF_4
 10
0
 20
0
 30
0
 70
128
 71
1
 72
19
 73
23
 74
23
 0
VERTEX
 8
GRIFF_4
 10
0
 20
0
 30
0
 70
128
 71
20
 72
21
 73
25
 74
24
 0
VERTEX
 8
GRIFF_4
 10
0
 20
0
 30
0
 70
128
 71
22
 72
2
 73
26
 74
26
 0
VERTEX
 8
GRIFF_4
 10
0
 20
0
 30
0
 70
128
 71
1
 72
23
 73
27
 74
27
 0
VERTEX
 8
GRIFF_4
 10
0
 20
0
 30
0
 70
128
 71
24
 72
25
 73
29
 74
28
 0
VERTEX
 8
GRIFF_4
 10
0
 20
0
 30
0
 70
128
 71
26
 72
2
 73
30
 74
30
 0
VERTEX
 8
GRIFF_4
 10
0
 20
0
 30
0
 70
128
 71
1
 72
27
 73
31
 74
31
 0
VERTEX
 8
GRIFF_4
 10
0
 20
0
 30
0
 70
128
 71
28
 72
29
 73
33
 74
32
 0
VERTEX
 8
GRIFF_4
 10
0
 20
0
 30
0
 70
128
 71
30
 72
2
 73
34
 74
34
 0
VERTEX
 8
GRIFF_4
 10
0
 20
0
 30
0
 70
128
 71
1
 72
31
 73
3
 74
3
 0
VERTEX
 8
GRIFF_4
 10
0
 20
0
 30
0
 70
128
 71
32
 72
33
 73
5
 74
4
 0
VERTEX
 8
GRIFF_4
 10
0
 20
0
 30
0
 70
128
 71
34
 72
2
 73
6
 74
6
 0
SEQEND
 0
POLYLINE
 8
GRIFF_3
 66
1
 10
0.0
 20
0.0
 30
0.0
 70
64
 71
12
 72
6
 0
VERTEX
 8
GRIFF_3
 10
13.338
 20
1.5274
 30
19.4051
 70
192
 0
VERTEX
 8
GRIFF_3
 10
14.1865
 20
1.5274
 30
20.2536
 70
192
 0
VERTEX
 8
GRIFF_3
 10
13.5523
 20
1.7024
 30
19.1908
 70
192
 0
VERTEX
 8
GRIFF_3
 10
14.4008
 20
1.7024
 30
20.0393
 70
192
 0
VERTEX
 8
GRIFF_3
 10
13.5523
 20
2.0524
 30
19.1908
 70
192
 0
VERTEX
 8
GRIFF_3
 10
14.4008
 20
2.0524
 30
20.0393
 70
192
 0
VERTEX
 8
GRIFF_3
 10
13.338
 20
2.2274
 30
19.4051
 70
192
 0
VERTEX
 8
GRIFF_3
 10
14.1865
 20
2.2274
 30
20.2536
 70
192
 0
VERTEX
 8
GRIFF_3
 10
13.1236
 20
2.0524
 30
19.6194
 70
192
 0
VERTEX
 8
GRIFF_3
 10
13.9722
 20
2.0524
 30
20.468
 70
192
 0
VERTEX
 8
GRIFF_3
 10
13.1236
 20
1.7024
 30
19.6194
 70
192
 0
VERTEX
 8
GRIFF_3
 10
13.9722
 20
1.7024
 30
20.468
 70
192
 0
VERTEX
 8
GRIFF_3
 10
0
 20
0
 30
0
 70
128
 71
1
 72
2
 73
4
 74
3
 0
VERTEX
 8
GRIFF_3
 10
0
 20
0
 30
0
 70
128
 71
3
 72
4
 73
6
 74
5
 0
VERTEX
 8
GRIFF_3
 10
0
 20
0
 30
0
 70
128
 71
5
 72
6
 73
8
 74
7
 0
VERTEX
 8
GRIFF_3
 10
0
 20
0
 30
0
 70
128
 71
7
 72
8
 73
10
 74
9
 0
VERTEX
 8
GRIFF_3
 10
0
 20
0
 30
0
 70
128
 71
9
 72
10
 73
12
 74
11
 0
VERTEX
 8
GRIFF_3
 10
0
 20
0
 30
0
 70
128
 71
11
 72
12
 73
2
 74
1
 0
SEQEND
 0
POLYLINE
 8
GRIFF_2
 66
1
 10
0.0
 20
0.0
 30
0.0
 70
64
 71
34
 72
24
 0
VERTEX
 8
GRIFF_2
 10
13.721
 20
1.8753
 30
19.7881
 70
192
 0
VERTEX
 8
GRIFF_2
 10
15.1352
 20
1.8753
 30
21.2023
 70
192
 0
VERTEX
 8
GRIFF_2
 10
13.721
 20
1.3753
 30
19.7881
 70
192
 0
VERTEX
 8
GRIFF_2
 10
13.721
 20
1.3753
 30
19.7881
 70
192
 0
VERTEX
 8
GRIFF_2
 10
15.1352
 20
1.3753
 30
21.2023
 70
192
 0
VERTEX
 8
GRIFF_2
 10
15.1352
 20
1.3753
 30
21.2023
 70
192
 0
VERTEX
 8
GRIFF_2
 10
13.971
 20
1.5217
 30
19.5381
 70
192
 0
VERTEX
 8
GRIFF_2
 10
13.971
 20
1.5217
 30
19.5381
 70
192
 0
VERTEX
 8
GRIFF_2
 10
15.3852
 20
1.5217
 30
20.9523
 70
192
 0
VERTEX
 8
GRIFF_2
 10
15.3852
 20
1.5217
 30
20.9523
 70
192
 0
VERTEX
 8
GRIFF_2
 10
14.0745
 20
1.8753
 30
19.4345
 70
192
 0
VERTEX
 8
GRIFF_2
 10
14.0745
 20
1.8753
 30
19.4345
 70
192
 0
VERTEX
 8
GRIFF_2
 10
15.4887
 20
1.8753
 30
20.8488
 70
192
 0
VERTEX
 8
GRIFF_2
 10
15.4887
 20
1.8753
 30
20.8488
 70
192
 0
VERTEX
 8
GRIFF_2
 10
13.971
 20
2.2289
 30
19.5381
 70
192
 0
VERTEX
 8
GRIFF_2
 10
13.971
 20
2.2289
 30
19.5381
 70
192
 0
VERTEX
 8
GRIFF_2
 10
15.3852
 20
2.2289
 30
20.9523
 70
192
 0
VERTEX
 8
GRIFF_2
 10
15.3852
 20
2.2289
 30
20.9523
 70
192
 0
VERTEX
 8
GRIFF_2
 10
13.721
 20
2.3753
 30
19.7881
 70
192
 0
VERTEX
 8
GRIFF_2
 10
13.721
 20
2.3753
 30
19.7881
 70
192
 0
VERTEX
 8
GRIFF_2
 10
15.1352
 20
2.3753
 30
21.2023
 70
192
 0
VERTEX
 8
GRIFF_2
 10
15.1352
 20
2.3753
 30
21.2023
 70
192
 0
VERTEX
 8
GRIFF_2
 10
13.471
 20
2.2289
 30
20.0381
 70
192
 0
VERTEX
 8
GRIFF_2
 10
13.471
 20
2.2289
 30
20.0381
 70
192
 0
VERTEX
 8
GRIFF_2
 10
14.8852
 20
2.2289
 30
21.4523
 70
192
 0
VERTEX
 8
GRIFF_2
 10
14.8852
 20
2.2289
 30
21.4523
 70
192
 0
VERTEX
 8
GRIFF_2
 10
13.3674
 20
1.8753
 30
20.1416
 70
192
 0
VERTEX
 8
GRIFF_2
 10
13.3674
 20
1.8753
 30
20.1416
 70
192
 0
VERTEX
 8
GRIFF_2
 10
14.7816
 20
1.8753
 30
21.5559
 70
192
 0
VERTEX
 8
GRIFF_2
 10
14.7816
 20
1.8753
 30
21.5559
 70
192
 0
VERTEX
 8
GRIFF_2
 10
13.471
 20
1.5217
 30
20.0381
 70
192
 0
VERTEX
 8
GRIFF_2
 10
13.471
 20
1.5217
 30
20.0381
 70
192
 0
VERTEX
 8
GRIFF_2
 10
14.8852
 20
1.5217
 30
21.4523
 70
192
 0
VERTEX
 8
GRIFF_2
 10
14.8852
 20
1.5217
 30
21.4523
 70
192
 0
VERTEX
 8
GRIFF_2
 10
0
 20
0
 30
0
 70
128
 71
1
 72
3
 73
7
 74
7
 0
VERTEX
 8
GRIFF_2
 10
0
 20
0
 30
0
 70
128
 71
4
 72
5
 73
9
 74
8
 0
VERTEX
 8
GRIFF_2
 10
0
 20
0
 30
0
 70
128
 71
6
 72
2
 73
10
 74
10
 0
VERTEX
 8
GRIFF_2
 10
0
 20
0
 30
0
 70
128
 71
1
 72
7
 73
11
 74
11
 0
VERTEX
 8
GRIFF_2
 10
0
 20
0
 30
0
 70
128
 71
8
 72
9
 73
13
 74
12
 0
VERTEX
 8
GRIFF_2
 10
0
 20
0
 30
0
 70
128
 71
10
 72
2
 73
14
 74
14
 0
VERTEX
 8
GRIFF_2
 10
0
 20
0
 30
0
 70
128
 71
1
 72
11
 73
15
 74
15
 0
VERTEX
 8
GRIFF_2
 10
0
 20
0
 30
0
 70
128
 71
12
 72
13
 73
17
 74
16
 0
VERTEX
 8
GRIFF_2
 10
0
 20
0
 30
0
 70
128
 71
14
 72
2
 73
18
 74
18
 0
VERTEX
 8
GRIFF_2
 10
0
 20
0
 30
0
 70
128
 71
1
 72
15
 73
19
 74
19
 0
VERTEX
 8
GRIFF_2
 10
0
 20
0
 30
0
 70
128
 71
16
 72
17
 73
21
 74
20
 0
VERTEX
 8
GRIFF_2
 10
0
 20
0
 30
0
 70
128
 71
18
 72
2
 73
22
 74
22
 0
VERTEX
 8
GRIFF_2
 10
0
 20
0
 30
0
 70
128
 71
1
 72
19
 73
23
 74
23
 0
VERTEX
 8
GRIFF_2
 10
0
 20
0
 30
0
 70
128
 71
20
 72
21
 73
25
 74
24
 0
VERTEX
 8
GRIFF_2
 10
0
 20
0
 30
0
 70
128
 71
22
 72
2
 73
26
 74
26
 0
VERTEX
 8
GRIFF_2
 10
0
 20
0
 30
0
 70
128
 71
1
 72
23
 73
27
 74
27
 0
VERTEX
 8
GRIFF_2
 10
0
 20
0
 30
0
 70
128
 71
24
 72
25
 73
29
 74
28
 0
VERTEX
 8
GRIFF_2
 10
0
 20
0
 30
0
 70
128
 71
26
 72
2
 73
30
 74
30
 0
VERTEX
 8
GRIFF_2
 10
0
 20
0
 30
0
 70
128
 71
1
 72
27
 73
31
 74
31
 0
VERTEX
 8
GRIFF_2
 10
0
 20
0
 30
0
 70
128
 71
28
 72
29
 73
33
 74
32
 0
VERTEX
 8
GRIFF_2
 10
0
 20
0
 30
0
 70
128
 71
30
 72
2
 73
34
 74
34
 0
VERTEX
 8
GRIFF_2
 10
0
 20
0
 30
0
 70
128
 71
1
 72
31
 73
3
 74
3
 0
VERTEX
 8
GRIFF_2
 10
0
 20
0
 30
0
 70
128
 71
32
 72
33
 73
5
 74
4
 0
VERTEX
 8
GRIFF_2
 10
0
 20
0
 30
0
 70
128
 71
34
 72
2
 73
6
 74
6
 0
SEQEND
 0
POLYLINE
 8
GRIFF_1
 66
1
 10
0.0
 20
0.0
 30
0.0
 70
64
 71
34
 72
24
 0
VERTEX
 8
GRIFF_1
 10
13.0125
 20
2.3669
 30
19.0531
 70
192
 0
VERTEX
 8
GRIFF_1
 10
13.0125
 20
1.3669
 30
19.0531
 70
192
 0
VERTEX
 8
GRIFF_1
 10
13.5075
 20
2.3669
 30
18.5581
 70
192
 0
VERTEX
 8
GRIFF_1
 10
13.5075
 20
2.3669
 30
18.5581
 70
192
 0
VERTEX
 8
GRIFF_1
 10
13.5075
 20
1.3669
 30
18.5581
 70
192
 0
VERTEX
 8
GRIFF_1
 10
13.5075
 20
1.3669
 30
18.5581
 70
192
 0
VERTEX
 8
GRIFF_1
 10
13.7125
 20
2.3669
 30
19.0531
 70
192
 0
VERTEX
 8
GRIFF_1
 10
13.7125
 20
2.3669
 30
19.0531
 70
192
 0
VERTEX
 8
GRIFF_1
 10
13.7125
 20
1.3669
 30
19.0531
 70
192
 0
VERTEX
 8
GRIFF_1
 10
13.7125
 20
1.3669
 30
19.0531
 70
192
 0
VERTEX
 8
GRIFF_1
 10
13.5075
 20
2.3669
 30
19.5481
 70
192
 0
VERTEX
 8
GRIFF_1
 10
13.5075
 20
2.3669
 30
19.5481
 70
192
 0
VERTEX
 8
GRIFF_1
 10
13.5075
 20
1.3669
 30
19.5481
 70
192
 0
VERTEX
 8
GRIFF_1
 10
13.5075
 20
1.3669
 30
19.5481
 70
192
 0
VERTEX
 8
GRIFF_1
 10
13.0125
 20
2.3669
 30
19.7531
 70
192
 0
VERTEX
 8
GRIFF_1
 10
13.0125
 20
2.3669
 30
19.7531
 70
192
 0
VERTEX
 8
GRIFF_1
 10
13.0125
 20
1.3669
 30
19.7531
 70
192
 0
VERTEX
 8
GRIFF_1
 10
13.0125
 20
1.3669
 30
19.7531
 70
192
 0
VERTEX
 8
GRIFF_1
 10
12.5175
 20
2.3669
 30
19.5481
 70
192
 0
VERTEX
 8
GRIFF_1
 10
12.5175
 20
2.3669
 30
19.5481
 70
192
 0
VERTEX
 8
GRIFF_1
 10
12.5175
 20
1.3669
 30
19.5481
 70
192
 0
VERTEX
 8
GRIFF_1
 10
12.5175
 20
1.3669
 30
19.5481
 70
192
 0
VERTEX
 8
GRIFF_1
 10
12.3125
 20
2.3669
 30
19.0531
 70
192
 0
VERTEX
 8
GRIFF_1
 10
12.3125
 20
2.3669
 30
19.0531
 70
192
 0
VERTEX
 8
GRIFF_1
 10
12.3125
 20
1.3669
 30
19.0531
 70
192
 0
VERTEX
 8
GRIFF_1
 10
12.3125
 20
1.3669
 30
19.0531
 70
192
 0
VERTEX
 8
GRIFF_1
 10
12.5175
 20
2.3669
 30
18.5581
 70
192
 0
VERTEX
 8
GRIFF_1
 10
12.5175
 20
2.3669
 30
18.5581
 70
192
 0
VERTEX
 8
GRIFF_1
 10
12.5175
 20
1.3669
 30
18.5581
 70
192
 0
VERTEX
 8
GRIFF_1
 10
12.5175
 20
1.3669
 30
18.5581
 70
192
 0
VERTEX
 8
GRIFF_1
 10
13.0125
 20
2.3669
 30
18.3531
 70
192
 0
VERTEX
 8
GRIFF_1
 10
13.0125
 20
2.3669
 30
18.3531
 70
192
 0
VERTEX
 8
GRIFF_1
 10
13.0125
 20
1.3669
 30
18.3531
 70
192
 0
VERTEX
 8
GRIFF_1
 10
13.0125
 20
1.3669
 30
18.3531
 70
192
 0
VERTEX
 8
GRIFF_1
 10
0
 20
0
 30
0
 70
128
 71
1
 72
3
 73
7
 74
7
 0
VERTEX
 8
GRIFF_1
 10
0
 20
0
 30
0
 70
128
 71
4
 72
5
 73
9
 74
8
 0
VERTEX
 8
GRIFF_1
 10
0
 20
0
 30
0
 70
128
 71
6
 72
2
 73
10
 74
10
 0
VERTEX
 8
GRIFF_1
 10
0
 20
0
 30
0
 70
128
 71
1
 72
7
 73
11
 74
11
 0
VERTEX
 8
GRIFF_1
 10
0
 20
0
 30
0
 70
128
 71
8
 72
9
 73
13
 74
12
 0
VERTEX
 8
GRIFF_1
 10
0
 20
0
 30
0
 70
128
 71
10
 72
2
 73
14
 74
14
 0
VERTEX
 8
GRIFF_1
 10
0
 20
0
 30
0
 70
128
 71
1
 72
11
 73
15
 74
15
 0
VERTEX
 8
GRIFF_1
 10
0
 20
0
 30
0
 70
128
 71
12
 72
13
 73
17
 74
16
 0
VERTEX
 8
GRIFF_1
 10
0
 20
0
 30
0
 70
128
 71
14
 72
2
 73
18
 74
18
 0
VERTEX
 8
GRIFF_1
 10
0
 20
0
 30
0
 70
128
 71
1
 72
15
 73
19
 74
19
 0
VERTEX
 8
GRIFF_1
 10
0
 20
0
 30
0
 70
128
 71
16
 72
17
 73
21
 74
20
 0
VERTEX
 8
GRIFF_1
 10
0
 20
0
 30
0
 70
128
 71
18
 72
2
 73
22
 74
22
 0
VERTEX
 8
GRIFF_1
 10
0
 20
0
 30
0
 70
128
 71
1
 72
19
 73
23
 74
23
 0
VERTEX
 8
GRIFF_1
 10
0
 20
0
 30
0
 70
128
 71
20
 72
21
 73
25
 74
24
 0
VERTEX
 8
GRIFF_1
 10
0
 20
0
 30
0
 70
128
 71
22
 72
2
 73
26
 74
26
 0
VERTEX
 8
GRIFF_1
 10
0
 20
0
 30
0
 70
128
 71
1
 72
23
 73
27
 74
27
 0
VERTEX
 8
GRIFF_1
 10
0
 20
0
 30
0
 70
128
 71
24
 72
25
 73
29
 74
28
 0
VERTEX
 8
GRIFF_1
 10
0
 20
0
 30
0
 70
128
 71
26
 72
2
 73
30
 74
30
 0
VERTEX
 8
GRIFF_1
 10
0
 20
0
 30
0
 70
128
 71
1
 72
27
 73
31
 74
31
 0
VERTEX
 8
GRIFF_1
 10
0
 20
0
 30
0
 70
128
 71
28
 72
29
 73
33
 74
32
 0
VERTEX
 8
GRIFF_1
 10
0
 20
0
 30
0
 70
128
 71
30
 72
2
 73
34
 74
34
 0
VERTEX
 8
GRIFF_1
 10
0
 20
0
 30
0
 70
128
 71
1
 72
31
 73
3
 74
3
 0
VERTEX
 8
GRIFF_1
 10
0
 20
0
 30
0
 70
128
 71
32
 72
33
 73
5
 74
4
 0
VERTEX
 8
GRIFF_1
 10
0
 20
0
 30
0
 70
128
 71
34
 72
2
 73
6
 74
6
 0
SEQEND
 0
POLYLINE
 8
ROSETTE_1
 66
1
 10
0.0
 20
0.0
 30
0.0
 70
64
 71
120
 72
45
 0
VERTEX
 8
ROSETTE_1
 10
13.0129
 20
7.1193
 30
19.055
 70
192
 0
VERTEX
 8
ROSETTE_1
 10
13.0129
 20
7.1193
 30
15.055
 70
192
 0
VERTEX
 8
ROSETTE_1
 10
13.0129
 20
7.1193
 30
15.055
 70
192
 0
VERTEX
 8
ROSETTE_1
 10
13.0129
 20
6.6193
 30
15.055
 70
192
 0
VERTEX
 8
ROSETTE_1
 10
13.0129
 20
6.6193
 30
15.055
 70
192
 0
VERTEX
 8
ROSETTE_1
 10
13.0129
 20
6.6193
 30
19.055
 70
192
 0
VERTEX
 8
ROSETTE_1
 10
13.0129
 20
6.6193
 30
19.055
 70
192
 0
VERTEX
 8
ROSETTE_1
 10
13.0129
 20
7.1193
 30
19.055
 70
192
 0
VERTEX
 8
ROSETTE_1
 10
13.0129
 20
7.1193
 30
19.055
 70
192
 0
VERTEX
 8
ROSETTE_1
 10
14.6398
 20
7.1193
 30
15.4008
 70
192
 0
VERTEX
 8
ROSETTE_1
 10
14.6398
 20
7.1193
 30
15.4008
 70
192
 0
VERTEX
 8
ROSETTE_1
 10
14.6398
 20
6.6193
 30
15.4008
 70
192
 0
VERTEX
 8
ROSETTE_1
 10
14.6398
 20
6.6193
 30
15.4008
 70
192
 0
VERTEX
 8
ROSETTE_1
 10
13.0129
 20
6.6193
 30
19.055
 70
192
 0
VERTEX
 8
ROSETTE_1
 10
13.0129
 20
6.6193
 30
19.055
 70
192
 0
VERTEX
 8
ROSETTE_1
 10
13.0129
 20
7.1193
 30
19.055
 70
192
 0
VERTEX
 8
ROSETTE_1
 10
13.0129
 20
7.1193
 30
19.055
 70
192
 0
VERTEX
 8
ROSETTE_1
 10
15.9855
 20
7.1193
 30
16.3784
 70
192
 0
VERTEX
 8
ROSETTE_1
 10
15.9855
 20
7.1193
 30
16.3784
 70
192
 0
VERTEX
 8
ROSETTE_1
 10
15.9855
 20
6.6193
 30
16.3784
 70
192
 0
VERTEX
 8
ROSETTE_1
 10
15.9855
 20
6.6193
 30
16.3784
 70
192
 0
VERTEX
 8
ROSETTE_1
 10
13.0129
 20
6.6193
 30
19.055
 70
192
 0
VERTEX
 8
ROSETTE_1
 10
13.0129
 20
6.6193
 30
19.055
 70
192
 0
VERTEX
 8
ROSETTE_1
 10
13.0129
 20
7.1193
 30
19.055
 70
192
 0
VERTEX
 8
ROSETTE_1
 10
13.0129
 20
7.1193
 30
19.055
 70
192
 0
VERTEX
 8
ROSETTE_1
 10
16.8171
 20
7.1193
 30
17.8189
 70
192
 0
VERTEX
 8
ROSETTE_1
 10
16.8171
 20
7.1193
 30
17.8189
 70
192
 0
VERTEX
 8
ROSETTE_1
 10
16.8171
 20
6.6193
 30
17.8189
 70
192
 0
VERTEX
 8
ROSETTE_1
 10
16.8171
 20
6.6193
 30
17.8189
 70
192
 0
VERTEX
 8
ROSETTE_1
 10
13.0129
 20
6.6193
 30
19.055
 70
192
 0
VERTEX
 8
ROSETTE_1
 10
13.0129
 20
6.6193
 30
19.055
 70
192
 0
VERTEX
 8
ROSETTE_1
 10
13.0129
 20
7.1193
 30
19.055
 70
192
 0
VERTEX
 8
ROSETTE_1
 10
13.0129
 20
7.1193
 30
19.055
 70
192
 0
VERTEX
 8
ROSETTE_1
 10
16.991
 20
7.1193
 30
19.4731
 70
192
 0
VERTEX
 8
ROSETTE_1
 10
16.991
 20
7.1193
 30
19.4731
 70
192
 0
VERTEX
 8
ROSETTE_1
 10
16.991
 20
6.6193
 30
19.4731
 70
192
 0
VERTEX
 8
ROSETTE_1
 10
16.991
 20
6.6193
 30
19.4731
 70
192
 0
VERTEX
 8
ROSETTE_1
 10
13.0129
 20
6.6193
 30
19.055
 70
192
 0
VERTEX
 8
ROSETTE_1
 10
13.0129
 20
6.6193
 30
19.055
 70
192
 0
VERTEX
 8
ROSETTE_1
 10
13.0129
 20
7.1193
 30
19.055
 70
192
 0
VERTEX
 8
ROSETTE_1
 10
13.0129
 20
7.1193
 30
19.055
 70
192
 0
VERTEX
 8
ROSETTE_1
 10
16.477
 20
7.1193
 30
21.055
 70
192
 0
VERTEX
 8
ROSETTE_1
 10
16.477
 20
7.1193
 30
21.055
 70
192
 0
VERTEX
 8
ROSETTE_1
 10
16.477
 20
6.6193
 30
21.055
 70
192
 0
VERTEX
 8
ROSETTE_1
 10
16.477
 20
6.6193
 30
21.055
 70
192
 0
VERTEX
 8
ROSETTE_1
 10
13.0129
 20
6.6193
 30
19.055
 70
192
 0
VERTEX
 8
ROSETTE_1
 10
13.0129
 20
6.6193
 30
19.055
 70
192
 0
VERTEX
 8
ROSETTE_1
 10
13.0129
 20
7.1193
 30
19.055
 70
192
 0
VERTEX
 8
ROSETTE_1
 10
13.0129
 20
7.1193
 30
19.055
 70
192
 0
VERTEX
 8
ROSETTE_1
 10
15.364
 20
7.1193
 30
22.291
 70
192
 0
VERTEX
 8
ROSETTE_1
 10
15.364
 20
7.1193
 30
22.291
 70
192
 0
VERTEX
 8
ROSETTE_1
 10
15.364
 20
6.6193
 30
22.291
 70
192
 0
VERTEX
 8
ROSETTE_1
 10
15.364
 20
6.6193
 30
22.291
 70
192
 0
VERTEX
 8
ROSETTE_1
 10
13.0129
 20
6.6193
 30
19.055
 70
192
 0
VERTEX
 8
ROSETTE_1
 10
13.0129
 20
6.6193
 30
19.055
 70
192
 0
VERTEX
 8
ROSETTE_1
 10
13.0129
 20
7.1193
 30
19.055
 70
192
 0
VERTEX
 8
ROSETTE_1
 10
13.0129
 20
7.1193
 30
19.055
 70
192
 0
VERTEX
 8
ROSETTE_1
 10
13.8445
 20
7.1193
 30
22.9676
 70
192
 0
VERTEX
 8
ROSETTE_1
 10
13.8445
 20
7.1193
 30
22.9676
 70
192
 0
VERTEX
 8
ROSETTE_1
 10
13.8445
 20
6.6193
 30
22.9676
 70
192
 0
VERTEX
 8
ROSETTE_1
 10
13.8445
 20
6.6193
 30
22.9676
 70
192
 0
VERTEX
 8
ROSETTE_1
 10
13.0129
 20
6.6193
 30
19.055
 70
192
 0
VERTEX
 8
ROSETTE_1
 10
13.0129
 20
6.6193
 30
19.055
 70
192
 0
VERTEX
 8
ROSETTE_1
 10
13.0129
 20
7.1193
 30
19.055
 70
192
 0
VERTEX
 8
ROSETTE_1
 10
13.0129
 20
7.1193
 30
19.055
 70
192
 0
VERTEX
 8
ROSETTE_1
 10
12.1812
 20
7.1193
 30
22.9676
 70
192
 0
VERTEX
 8
ROSETTE_1
 10
12.1812
 20
7.1193
 30
22.9676
 70
192
 0
VERTEX
 8
ROSETTE_1
 10
12.1812
 20
6.6193
 30
22.9676
 70
192
 0
VERTEX
 8
ROSETTE_1
 10
12.1812
 20
6.6193
 30
22.9676
 70
192
 0
VERTEX
 8
ROSETTE_1
 10
13.0129
 20
6.6193
 30
19.055
 70
192
 0
VERTEX
 8
ROSETTE_1
 10
13.0129
 20
6.6193
 30
19.055
 70
192
 0
VERTEX
 8
ROSETTE_1
 10
13.0129
 20
7.1193
 30
19.055
 70
192
 0
VERTEX
 8
ROSETTE_1
 10
13.0129
 20
7.1193
 30
19.055
 70
192
 0
VERTEX
 8
ROSETTE_1
 10
10.6617
 20
7.1193
 30
22.291
 70
192
 0
VERTEX
 8
ROSETTE_1
 10
10.6617
 20
7.1193
 30
22.291
 70
192
 0
VERTEX
 8
ROSETTE_1
 10
10.6617
 20
6.6193
 30
22.291
 70
192
 0
VERTEX
 8
ROSETTE_1
 10
10.6617
 20
6.6193
 30
22.291
 70
192
 0
VERTEX
 8
ROSETTE_1
 10
13.0129
 20
6.6193
 30
19.055
 70
192
 0
VERTEX
 8
ROSETTE_1
 10
13.0129
 20
6.6193
 30
19.055
 70
192
 0
VERTEX
 8
ROSETTE_1
 10
13.0129
 20
7.1193
 30
19.055
 70
192
 0
VERTEX
 8
ROSETTE_1
 10
13.0129
 20
7.1193
 30
19.055
 70
192
 0
VERTEX
 8
ROSETTE_1
 10
9.5488
 20
7.1193
 30
21.055
 70
192
 0
VERTEX
 8
ROSETTE_1
 10
9.5488
 20
7.1193
 30
21.055
 70
192
 0
VERTEX
 8
ROSETTE_1
 10
9.5488
 20
6.6193
 30
21.055
 70
192
 0
VERTEX
 8
ROSETTE_1
 10
9.5488
 20
6.6193
 30
21.055
 70
192
 0
VERTEX
 8
ROSETTE_1
 10
13.0129
 20
6.6193
 30
19.055
 70
192
 0
VERTEX
 8
ROSETTE_1
 10
13.0129
 20
6.6193
 30
19.055
 70
192
 0
VERTEX
 8
ROSETTE_1
 10
13.0129
 20
7.1193
 30
19.055
 70
192
 0
VERTEX
 8
ROSETTE_1
 10
13.0129
 20
7.1193
 30
19.055
 70
192
 0
VERTEX
 8
ROSETTE_1
 10
9.0348
 20
7.1193
 30
19.4731
 70
192
 0
VERTEX
 8
ROSETTE_1
 10
9.0348
 20
7.1193
 30
19.4731
 70
192
 0
VERTEX
 8
ROSETTE_1
 10
9.0348
 20
6.6193
 30
19.4731
 70
192
 0
VERTEX
 8
ROSETTE_1
 10
9.0348
 20
6.6193
 30
19.4731
 70
192
 0
VERTEX
 8
ROSETTE_1
 10
13.0129
 20
6.6193
 30
19.055
 70
192
 0
VERTEX
 8
ROSETTE_1
 10
13.0129
 20
6.6193
 30
19.055
 70
192
 0
VERTEX
 8
ROSETTE_1
 10
13.0129
 20
7.1193
 30
19.055
 70
192
 0
VERTEX
 8
ROSETTE_1
 10
13.0129
 20
7.1193
 30
19.055
 70
192
 0
VERTEX
 8
ROSETTE_1
 10
9.2087
 20
7.1193
 30
17.8189
 70
192
 0
VERTEX
 8
ROSETTE_1
 10
9.2087
 20
7.1193
 30
17.8189
 70
192
 0
VERTEX
 8
ROSETTE_1
 10
9.2087
 20
6.6193
 30
17.8189
 70
192
 0
VERTEX
 8
ROSETTE_1
 10
9.2087
 20
6.6193
 30
17.8189
 70
192
 0
VERTEX
 8
ROSETTE_1
 10
13.0129
 20
6.6193
 30
19.055
 70
192
 0
VERTEX
 8
ROSETTE_1
 10
13.0129
 20
6.6193
 30
19.055
 70
192
 0
VERTEX
 8
ROSETTE_1
 10
13.0129
 20
7.1193
 30
19.055
 70
192
 0
VERTEX
 8
ROSETTE_1
 10
13.0129
 20
7.1193
 30
19.055
 70
192
 0
VERTEX
 8
ROSETTE_1
 10
10.0403
 20
7.1193
 30
16.3784
 70
192
 0
VERTEX
 8
ROSETTE_1
 10
10.0403
 20
7.1193
 30
16.3784
 70
192
 0
VERTEX
 8
ROSETTE_1
 10
10.0403
 20
6.6193
 30
16.3784
 70
192
 0
VERTEX
 8
ROSETTE_1
 10
10.0403
 20
6.6193
 30
16.3784
 70
192
 0
VERTEX
 8
ROSETTE_1
 10
13.0129
 20
6.6193
 30
19.055
 70
192
 0
VERTEX
 8
ROSETTE_1
 10
13.0129
 20
6.6193
 30
19.055
 70
192
 0
VERTEX
 8
ROSETTE_1
 10
13.0129
 20
7.1193
 30
19.055
 70
192
 0
VERTEX
 8
ROSETTE_1
 10
13.0129
 20
7.1193
 30
19.055
 70
192
 0
VERTEX
 8
ROSETTE_1
 10
11.3859
 20
7.1193
 30
15.4008
 70
192
 0
VERTEX
 8
ROSETTE_1
 10
11.3859
 20
7.1193
 30
15.4008
 70
192
 0
VERTEX
 8
ROSETTE_1
 10
11.3859
 20
6.6193
 30
15.4008
 70
192
 0
VERTEX
 8
ROSETTE_1
 10
11.3859
 20
6.6193
 30
15.4008
 70
192
 0
VERTEX
 8
ROSETTE_1
 10
13.0129
 20
6.6193
 30
19.055
 70
192
 0
VERTEX
 8
ROSETTE_1
 10
13.0129
 20
6.6193
 30
19.055
 70
192
 0
VERTEX
 8
ROSETTE_1
 10
13.0129
 20
7.1193
 30
19.055
 70
192
 0
VERTEX
 8
ROSETTE_1
 10
0
 20
0
 30
0
 70
128
 71
1
 72
2
 73
10
 74
10
 0
VERTEX
 8
ROSETTE_1
 10
0
 20
0
 30
0
 70
128
 71
3
 72
4
 73
12
 74
11
 0
VERTEX
 8
ROSETTE_1
 10
0
 20
0
 30
0
 70
128
 71
5
 72
14
 73
13
 74
13
 0
VERTEX
 8
ROSETTE_1
 10
0
 20
0
 30
0
 70
128
 71
9
 72
10
 73
18
 74
18
 0
VERTEX
 8
ROSETTE_1
 10
0
 20
0
 30
0
 70
128
 71
11
 72
12
 73
20
 74
19
 0
VERTEX
 8
ROSETTE_1
 10
0
 20
0
 30
0
 70
128
 71
13
 72
22
 73
21
 74
21
 0
VERTEX
 8
ROSETTE_1
 10
0
 20
0
 30
0
 70
128
 71
17
 72
18
 73
26
 74
26
 0
VERTEX
 8
ROSETTE_1
 10
0
 20
0
 30
0
 70
128
 71
19
 72
20
 73
28
 74
27
 0
VERTEX
 8
ROSETTE_1
 10
0
 20
0
 30
0
 70
128
 71
21
 72
30
 73
29
 74
29
 0
VERTEX
 8
ROSETTE_1
 10
0
 20
0
 30
0
 70
128
 71
25
 72
26
 73
34
 74
34
 0
VERTEX
 8
ROSETTE_1
 10
0
 20
0
 30
0
 70
128
 71
27
 72
28
 73
36
 74
35
 0
VERTEX
 8
ROSETTE_1
 10
0
 20
0
 30
0
 70
128
 71
29
 72
38
 73
37
 74
37
 0
VERTEX
 8
ROSETTE_1
 10
0
 20
0
 30
0
 70
128
 71
33
 72
34
 73
42
 74
42
 0
VERTEX
 8
ROSETTE_1
 10
0
 20
0
 30
0
 70
128
 71
35
 72
36
 73
44
 74
43
 0
VERTEX
 8
ROSETTE_1
 10
0
 20
0
 30
0
 70
128
 71
37
 72
46
 73
45
 74
45
 0
VERTEX
 8
ROSETTE_1
 10
0
 20
0
 30
0
 70
128
 71
41
 72
42
 73
50
 74
50
 0
VERTEX
 8
ROSETTE_1
 10
0
 20
0
 30
0
 70
128
 71
43
 72
44
 73
52
 74
51
 0
VERTEX
 8
ROSETTE_1
 10
0
 20
0
 30
0
 70
128
 71
45
 72
54
 73
53
 74
53
 0
VERTEX
 8
ROSETTE_1
 10
0
 20
0
 30
0
 70
128
 71
49
 72
50
 73
58
 74
58
 0
VERTEX
 8
ROSETTE_1
 10
0
 20
0
 30
0
 70
128
 71
51
 72
52
 73
60
 74
59
 0
VERTEX
 8
ROSETTE_1
 10
0
 20
0
 30
0
 70
128
 71
53
 72
62
 73
61
 74
61
 0
VERTEX
 8
ROSETTE_1
 10
0
 20
0
 30
0
 70
128
 71
57
 72
58
 73
66
 74
66
 0
VERTEX
 8
ROSETTE_1
 10
0
 20
0
 30
0
 70
128
 71
59
 72
60
 73
68
 74
67
 0
VERTEX
 8
ROSETTE_1
 10
0
 20
0
 30
0
 70
128
 71
61
 72
70
 73
69
 74
69
 0
VERTEX
 8
ROSETTE_1
 10
0
 20
0
 30
0
 70
128
 71
65
 72
66
 73
74
 74
74
 0
VERTEX
 8
ROSETTE_1
 10
0
 20
0
 30
0
 70
128
 71
67
 72
68
 73
76
 74
75
 0
VERTEX
 8
ROSETTE_1
 10
0
 20
0
 30
0
 70
128
 71
69
 72
78
 73
77
 74
77
 0
VERTEX
 8
ROSETTE_1
 10
0
 20
0
 30
0
 70
128
 71
73
 72
74
 73
82
 74
82
 0
VERTEX
 8
ROSETTE_1
 10
0
 20
0
 30
0
 70
128
 71
75
 72
76
 73
84
 74
83
 0
VERTEX
 8
ROSETTE_1
 10
0
 20
0
 30
0
 70
128
 71
77
 72
86
 73
85
 74
85
 0
VERTEX
 8
ROSETTE_1
 10
0
 20
0
 30
0
 70
128
 71
81
 72
82
 73
90
 74
90
 0
VERTEX
 8
ROSETTE_1
 10
0
 20
0
 30
0
 70
128
 71
83
 72
84
 73
92
 74
91
 0
VERTEX
 8
ROSETTE_1
 10
0
 20
0
 30
0
 70
128
 71
85
 72
94
 73
93
 74
93
 0
VERTEX
 8
ROSETTE_1
 10
0
 20
0
 30
0
 70
128
 71
89
 72
90
 73
98
 74
98
 0
VERTEX
 8
ROSETTE_1
 10
0
 20
0
 30
0
 70
128
 71
91
 72
92
 73
100
 74
99
 0
VERTEX
 8
ROSETTE_1
 10
0
 20
0
 30
0
 70
128
 71
93
 72
102
 73
101
 74
101
 0
VERTEX
 8
ROSETTE_1
 10
0
 20
0
 30
0
 70
128
 71
97
 72
98
 73
106
 74
106
 0
VERTEX
 8
ROSETTE_1
 10
0
 20
0
 30
0
 70
128
 71
99
 72
100
 73
108
 74
107
 0
VERTEX
 8
ROSETTE_1
 10
0
 20
0
 30
0
 70
128
 71
101
 72
110
 73
109
 74
109
 0
VERTEX
 8
ROSETTE_1
 10
0
 20
0
 30
0
 70
128
 71
105
 72
106
 73
114
 74
114
 0
VERTEX
 8
ROSETTE_1
 10
0
 20
0
 30
0
 70
128
 71
107
 72
108
 73
116
 74
115
 0
VERTEX
 8
ROSETTE_1
 10
0
 20
0
 30
0
 70
128
 71
109
 72
118
 73
117
 74
117
 0
VERTEX
 8
ROSETTE_1
 10
0
 20
0
 30
0
 70
128
 71
113
 72
114
 73
2
 74
2
 0
VERTEX
 8
ROSETTE_1
 10
0
 20
0
 30
0
 70
128
 71
115
 72
116
 73
4
 74
3
 0
VERTEX
 8
ROSETTE_1
 10
0
 20
0
 30
0
 70
128
 71
117
 72
6
 73
5
 74
5
 0
SEQEND
 0
POLYLINE
 8
K_RPER_1
 66
1
 10
0.0
 20
0.0
 30
0.0
 70
64
 71
90
 72
30
 0
VERTEX
 8
K_RPER_1
 10
11.0238
 20
7.1252
 30
19.264
 70
192
 0
VERTEX
 8
K_RPER_1
 10
13.0129
 20
7.1252
 30
17.055
 70
192
 0
VERTEX
 8
K_RPER_1
 10
13.0129
 20
7.1252
 30
17.055
 70
192
 0
VERTEX
 8
K_RPER_1
 10
13.0129
 20
3.6252
 30
17.055
 70
192
 0
VERTEX
 8
K_RPER_1
 10
13.0129
 20
3.6252
 30
17.055
 70
192
 0
VERTEX
 8
K_RPER_1
 10
13.0129
 20
3.6252
 30
19.055
 70
192
 0
VERTEX
 8
K_RPER_1
 10
13.0129
 20
3.6252
 30
19.055
 70
192
 0
VERTEX
 8
K_RPER_1
 10
11.0238
 20
3.6252
 30
19.264
 70
192
 0
VERTEX
 8
K_RPER_1
 10
11.0238
 20
3.6252
 30
19.264
 70
192
 0
VERTEX
 8
K_RPER_1
 10
13.8264
 20
7.1252
 30
17.2279
 70
192
 0
VERTEX
 8
K_RPER_1
 10
13.8264
 20
7.1252
 30
17.2279
 70
192
 0
VERTEX
 8
K_RPER_1
 10
13.8264
 20
3.6252
 30
17.2279
 70
192
 0
VERTEX
 8
K_RPER_1
 10
13.8264
 20
3.6252
 30
17.2279
 70
192
 0
VERTEX
 8
K_RPER_1
 10
13.0129
 20
3.6252
 30
19.055
 70
192
 0
VERTEX
 8
K_RPER_1
 10
13.0129
 20
3.6252
 30
19.055
 70
192
 0
VERTEX
 8
K_RPER_1
 10
13.0129
 20
3.6252
 30
19.055
 70
192
 0
VERTEX
 8
K_RPER_1
 10
13.0129
 20
3.6252
 30
19.055
 70
192
 0
VERTEX
 8
K_RPER_1
 10
14.4992
 20
7.1252
 30
17.7167
 70
192
 0
VERTEX
 8
K_RPER_1
 10
14.4992
 20
7.1252
 30
17.7167
 70
192
 0
VERTEX
 8
K_RPER_1
 10
14.4992
 20
3.6252
 30
17.7167
 70
192
 0
VERTEX
 8
K_RPER_1
 10
14.4992
 20
3.6252
 30
17.7167
 70
192
 0
VERTEX
 8
K_RPER_1
 10
13.0129
 20
3.6252
 30
19.055
 70
192
 0
VERTEX
 8
K_RPER_1
 10
13.0129
 20
3.6252
 30
19.055
 70
192
 0
VERTEX
 8
K_RPER_1
 10
11.1108
 20
7.1252
 30
18.4369
 70
192
 0
VERTEX
 8
K_RPER_1
 10
11.1108
 20
7.1252
 30
18.4369
 70
192
 0
VERTEX
 8
K_RPER_1
 10
14.915
 20
7.1252
 30
18.4369
 70
192
 0
VERTEX
 8
K_RPER_1
 10
14.915
 20
7.1252
 30
18.4369
 70
192
 0
VERTEX
 8
K_RPER_1
 10
14.915
 20
3.6252
 30
18.4369
 70
192
 0
VERTEX
 8
K_RPER_1
 10
14.915
 20
3.6252
 30
18.4369
 70
192
 0
VERTEX
 8
K_RPER_1
 10
13.0129
 20
3.6252
 30
19.055
 70
192
 0
VERTEX
 8
K_RPER_1
 10
13.0129
 20
3.6252
 30
19.055
 70
192
 0
VERTEX
 8
K_RPER_1
 10
11.1108
 20
3.6252
 30
18.4369
 70
192
 0
VERTEX
 8
K_RPER_1
 10
11.1108
 20
3.6252
 30
18.4369
 70
192
 0
VERTEX
 8
K_RPER_1
 10
15.0019
 20
7.1252
 30
19.264
 70
192
 0
VERTEX
 8
K_RPER_1
 10
15.0019
 20
7.1252
 30
19.264
 70
192
 0
VERTEX
 8
K_RPER_1
 10
15.0019
 20
3.6252
 30
19.264
 70
192
 0
VERTEX
 8
K_RPER_1
 10
15.0019
 20
3.6252
 30
19.264
 70
192
 0
VERTEX
 8
K_RPER_1
 10
13.0129
 20
3.6252
 30
19.055
 70
192
 0
VERTEX
 8
K_RPER_1
 10
13.0129
 20
3.6252
 30
19.055
 70
192
 0
VERTEX
 8
K_RPER_1
 10
13.0129
 20
3.6252
 30
19.055
 70
192
 0
VERTEX
 8
K_RPER_1
 10
13.0129
 20
3.6252
 30
19.055
 70
192
 0
VERTEX
 8
K_RPER_1
 10
14.7449
 20
7.1252
 30
20.055
 70
192
 0
VERTEX
 8
K_RPER_1
 10
14.7449
 20
7.1252
 30
20.055
 70
192
 0
VERTEX
 8
K_RPER_1
 10
14.7449
 20
3.6252
 30
20.055
 70
192
 0
VERTEX
 8
K_RPER_1
 10
14.7449
 20
3.6252
 30
20.055
 70
192
 0
VERTEX
 8
K_RPER_1
 10
13.0129
 20
3.6252
 30
19.055
 70
192
 0
VERTEX
 8
K_RPER_1
 10
13.0129
 20
3.6252
 30
19.055
 70
192
 0
VERTEX
 8
K_RPER_1
 10
11.5266
 20
7.1252
 30
17.7167
 70
192
 0
VERTEX
 8
K_RPER_1
 10
11.5266
 20
7.1252
 30
17.7167
 70
192
 0
VERTEX
 8
K_RPER_1
 10
14.1884
 20
7.1252
 30
20.673
 70
192
 0
VERTEX
 8
K_RPER_1
 10
14.1884
 20
7.1252
 30
20.673
 70
192
 0
VERTEX
 8
K_RPER_1
 10
14.1884
 20
3.6252
 30
20.673
 70
192
 0
VERTEX
 8
K_RPER_1
 10
14.1884
 20
3.6252
 30
20.673
 70
192
 0
VERTEX
 8
K_RPER_1
 10
13.0129
 20
3.6252
 30
19.055
 70
192
 0
VERTEX
 8
K_RPER_1
 10
13.0129
 20
3.6252
 30
19.055
 70
192
 0
VERTEX
 8
K_RPER_1
 10
11.5266
 20
3.6252
 30
17.7167
 70
192
 0
VERTEX
 8
K_RPER_1
 10
11.5266
 20
3.6252
 30
17.7167
 70
192
 0
VERTEX
 8
K_RPER_1
 10
13.4287
 20
7.1252
 30
21.0113
 70
192
 0
VERTEX
 8
K_RPER_1
 10
13.4287
 20
7.1252
 30
21.0113
 70
192
 0
VERTEX
 8
K_RPER_1
 10
13.4287
 20
3.6252
 30
21.0113
 70
192
 0
VERTEX
 8
K_RPER_1
 10
13.4287
 20
3.6252
 30
21.0113
 70
192
 0
VERTEX
 8
K_RPER_1
 10
13.0129
 20
3.6252
 30
19.055
 70
192
 0
VERTEX
 8
K_RPER_1
 10
13.0129
 20
3.6252
 30
19.055
 70
192
 0
VERTEX
 8
K_RPER_1
 10
13.0129
 20
3.6252
 30
19.055
 70
192
 0
VERTEX
 8
K_RPER_1
 10
13.0129
 20
3.6252
 30
19.055
 70
192
 0
VERTEX
 8
K_RPER_1
 10
12.5971
 20
7.1252
 30
21.0113
 70
192
 0
VERTEX
 8
K_RPER_1
 10
12.5971
 20
7.1252
 30
21.0113
 70
192
 0
VERTEX
 8
K_RPER_1
 10
12.5971
 20
3.6252
 30
21.0113
 70
192
 0
VERTEX
 8
K_RPER_1
 10
12.5971
 20
3.6252
 30
21.0113
 70
192
 0
VERTEX
 8
K_RPER_1
 10
13.0129
 20
3.6252
 30
19.055
 70
192
 0
VERTEX
 8
K_RPER_1
 10
13.0129
 20
3.6252
 30
19.055
 70
192
 0
VERTEX
 8
K_RPER_1
 10
12.1994
 20
7.1252
 30
17.2279
 70
192
 0
VERTEX
 8
K_RPER_1
 10
12.1994
 20
7.1252
 30
17.2279
 70
192
 0
VERTEX
 8
K_RPER_1
 10
11.8373
 20
7.1252
 30
20.673
 70
192
 0
VERTEX
 8
K_RPER_1
 10
11.8373
 20
7.1252
 30
20.673
 70
192
 0
VERTEX
 8
K_RPER_1
 10
11.8373
 20
3.6252
 30
20.673
 70
192
 0
VERTEX
 8
K_RPER_1
 10
11.8373
 20
3.6252
 30
20.673
 70
192
 0
VERTEX
 8
K_RPER_1
 10
13.0129
 20
3.6252
 30
19.055
 70
192
 0
VERTEX
 8
K_RPER_1
 10
13.0129
 20
3.6252
 30
19.055
 70
192
 0
VERTEX
 8
K_RPER_1
 10
12.1994
 20
3.6252
 30
17.2279
 70
192
 0
VERTEX
 8
K_RPER_1
 10
12.1994
 20
3.6252
 30
17.2279
 70
192
 0
VERTEX
 8
K_RPER_1
 10
11.2808
 20
7.1252
 30
20.055
 70
192
 0
VERTEX
 8
K_RPER_1
 10
11.2808
 20
7.1252
 30
20.055
 70
192
 0
VERTEX
 8
K_RPER_1
 10
11.2808
 20
3.6252
 30
20.055
 70
192
 0
VERTEX
 8
K_RPER_1
 10
11.2808
 20
3.6252
 30
20.055
 70
192
 0
VERTEX
 8
K_RPER_1
 10
13.0129
 20
3.6252
 30
19.055
 70
192
 0
VERTEX
 8
K_RPER_1
 10
13.0129
 20
3.6252
 30
19.055
 70
192
 0
VERTEX
 8
K_RPER_1
 10
13.0129
 20
3.6252
 30
19.055
 70
192
 0
VERTEX
 8
K_RPER_1
 10
13.0129
 20
3.6252
 30
19.055
 70
192
 0
VERTEX
 8
K_RPER_1
 10
11.0238
 20
7.1252
 30
19.264
 70
192
 0
VERTEX
 8
K_RPER_1
 10
0
 20
0
 30
0
 70
128
 71
83
 72
84
 73
8
 74
1
 0
VERTEX
 8
K_RPER_1
 10
0
 20
0
 30
0
 70
128
 71
3
 72
4
 73
12
 74
11
 0
VERTEX
 8
K_RPER_1
 10
0
 20
0
 30
0
 70
128
 71
5
 72
14
 73
13
 74
13
 0
VERTEX
 8
K_RPER_1
 10
0
 20
0
 30
0
 70
128
 71
85
 72
16
 73
9
 74
9
 0
VERTEX
 8
K_RPER_1
 10
0
 20
0
 30
0
 70
128
 71
11
 72
12
 73
20
 74
19
 0
VERTEX
 8
K_RPER_1
 10
0
 20
0
 30
0
 70
128
 71
13
 72
22
 73
21
 74
21
 0
VERTEX
 8
K_RPER_1
 10
0
 20
0
 30
0
 70
128
 71
1
 72
8
 73
32
 74
25
 0
VERTEX
 8
K_RPER_1
 10
0
 20
0
 30
0
 70
128
 71
19
 72
20
 73
28
 74
27
 0
VERTEX
 8
K_RPER_1
 10
0
 20
0
 30
0
 70
128
 71
21
 72
30
 73
29
 74
29
 0
VERTEX
 8
K_RPER_1
 10
0
 20
0
 30
0
 70
128
 71
9
 72
40
 73
33
 74
33
 0
VERTEX
 8
K_RPER_1
 10
0
 20
0
 30
0
 70
128
 71
27
 72
28
 73
36
 74
35
 0
VERTEX
 8
K_RPER_1
 10
0
 20
0
 30
0
 70
128
 71
29
 72
38
 73
37
 74
37
 0
VERTEX
 8
K_RPER_1
 10
0
 20
0
 30
0
 70
128
 71
25
 72
32
 73
56
 74
49
 0
VERTEX
 8
K_RPER_1
 10
0
 20
0
 30
0
 70
128
 71
35
 72
36
 73
44
 74
43
 0
VERTEX
 8
K_RPER_1
 10
0
 20
0
 30
0
 70
128
 71
37
 72
46
 73
45
 74
45
 0
VERTEX
 8
K_RPER_1
 10
0
 20
0
 30
0
 70
128
 71
33
 72
64
 73
57
 74
57
 0
VERTEX
 8
K_RPER_1
 10
0
 20
0
 30
0
 70
128
 71
43
 72
44
 73
52
 74
51
 0
VERTEX
 8
K_RPER_1
 10
0
 20
0
 30
0
 70
128
 71
45
 72
54
 73
53
 74
53
 0
VERTEX
 8
K_RPER_1
 10
0
 20
0
 30
0
 70
128
 71
49
 72
56
 73
80
 74
73
 0
VERTEX
 8
K_RPER_1
 10
0
 20
0
 30
0
 70
128
 71
51
 72
52
 73
60
 74
59
 0
VERTEX
 8
K_RPER_1
 10
0
 20
0
 30
0
 70
128
 71
53
 72
62
 73
61
 74
61
 0
VERTEX
 8
K_RPER_1
 10
0
 20
0
 30
0
 70
128
 71
57
 72
88
 73
81
 74
81
 0
VERTEX
 8
K_RPER_1
 10
0
 20
0
 30
0
 70
128
 71
59
 72
60
 73
68
 74
67
 0
VERTEX
 8
K_RPER_1
 10
0
 20
0
 30
0
 70
128
 71
61
 72
70
 73
69
 74
69
 0
VERTEX
 8
K_RPER_1
 10
0
 20
0
 30
0
 70
128
 71
73
 72
80
 73
4
 74
3
 0
VERTEX
 8
K_RPER_1
 10
0
 20
0
 30
0
 70
128
 71
67
 72
68
 73
76
 74
75
 0
VERTEX
 8
K_RPER_1
 10
0
 20
0
 30
0
 70
128
 71
69
 72
78
 73
77
 74
77
 0
VERTEX
 8
K_RPER_1
 10
0
 20
0
 30
0
 70
128
 71
81
 72
6
 73
5
 74
5
 0
VERTEX
 8
K_RPER_1
 10
0
 20
0
 30
0
 70
128
 71
75
 72
76
 73
84
 74
83
 0
VERTEX
 8
K_RPER_1
 10
0
 20
0
 30
0
 70
128
 71
77
 72
86
 73
85
 74
85
 0
SEQEND
 0
POLYLINE
 8
AUSLAUF-MIN
 66
1
 10
0.0
 20
0.0
 30
0.0
 70
64
 71
97
 72
96
 0
VERTEX
 8
AUSLAUF-MIN
 10
-1.0683
 20
6.9491
 30
19.7155
 70
192
 0
VERTEX
 8
AUSLAUF-MIN
 10
-1.0683
 20
-9.3411
 30
19.7133
 70
192
 0
VERTEX
 8
AUSLAUF-MIN
 10
-1.0683
 20
-11.4047
 30
19.3422
 70
192
 0
VERTEX
 8
AUSLAUF-MIN
 10
-1.0683
 20
-13.2619
 30
18.3693
 70
192
 0
VERTEX
 8
AUSLAUF-MIN
 10
-1.0683
 20
-14.7418
 30
16.884
 70
192
 0
VERTEX
 8
AUSLAUF-MIN
 10
-1.0683
 20
-15.7081
 30
15.0233
 70
192
 0
VERTEX
 8
AUSLAUF-MIN
 10
-1.2358
 20
6.9491
 30
19.0905
 70
192
 0
VERTEX
 8
AUSLAUF-MIN
 10
0.0142
 20
6.9491
 30
17.8405
 70
192
 0
VERTEX
 8
AUSLAUF-MIN
 10
0.0142
 20
-9.2931
 30
17.8389
 70
192
 0
VERTEX
 8
AUSLAUF-MIN
 10
0.0142
 20
-10.7967
 30
17.5685
 70
192
 0
VERTEX
 8
AUSLAUF-MIN
 10
0.0142
 20
-12.1499
 30
16.8596
 70
192
 0
VERTEX
 8
AUSLAUF-MIN
 10
0.0142
 20
-13.2282
 30
15.7775
 70
192
 0
VERTEX
 8
AUSLAUF-MIN
 10
0.0142
 20
-13.9322
 30
14.4217
 70
192
 0
VERTEX
 8
AUSLAUF-MIN
 10
-1.2358
 20
-9.3251
 30
19.0885
 70
192
 0
VERTEX
 8
AUSLAUF-MIN
 10
-1.2358
 20
-11.202
 30
18.751
 70
192
 0
VERTEX
 8
AUSLAUF-MIN
 10
-1.2358
 20
-12.8913
 30
17.866
 70
192
 0
VERTEX
 8
AUSLAUF-MIN
 10
-1.2358
 20
-14.2373
 30
16.5152
 70
192
 0
VERTEX
 8
AUSLAUF-MIN
 10
-1.2358
 20
-15.1161
 30
14.8228
 70
192
 0
VERTEX
 8
AUSLAUF-MIN
 10
-1.0683
 20
6.9491
 30
18.4655
 70
192
 0
VERTEX
 8
AUSLAUF-MIN
 10
0.6392
 20
6.9491
 30
18.008
 70
192
 0
VERTEX
 8
AUSLAUF-MIN
 10
0.6392
 20
-9.2974
 30
18.0063
 70
192
 0
VERTEX
 8
AUSLAUF-MIN
 10
0.6392
 20
-10.851
 30
17.7269
 70
192
 0
VERTEX
 8
AUSLAUF-MIN
 10
0.6392
 20
-12.2492
 30
16.9945
 70
192
 0
VERTEX
 8
AUSLAUF-MIN
 10
0.6392
 20
-13.3634
 30
15.8763
 70
192
 0
VERTEX
 8
AUSLAUF-MIN
 10
0.6392
 20
-14.0908
 30
14.4754
 70
192
 0
VERTEX
 8
AUSLAUF-MIN
 10
-1.0683
 20
-9.3091
 30
18.4637
 70
192
 0
VERTEX
 8
AUSLAUF-MIN
 10
-1.0683
 20
-10.9994
 30
18.1598
 70
192
 0
VERTEX
 8
AUSLAUF-MIN
 10
-1.0683
 20
-12.5206
 30
17.3628
 70
192
 0
VERTEX
 8
AUSLAUF-MIN
 10
-1.0683
 20
-13.7327
 30
16.1463
 70
192
 0
VERTEX
 8
AUSLAUF-MIN
 10
-1.0683
 20
-14.5242
 30
14.6222
 70
192
 0
VERTEX
 8
AUSLAUF-MIN
 10
-0.6108
 20
6.9491
 30
18.008
 70
192
 0
VERTEX
 8
AUSLAUF-MIN
 10
1.0968
 20
6.9491
 30
18.4655
 70
192
 0
VERTEX
 8
AUSLAUF-MIN
 10
1.0968
 20
-9.3091
 30
18.4637
 70
192
 0
VERTEX
 8
AUSLAUF-MIN
 10
1.0968
 20
-10.9994
 30
18.1598
 70
192
 0
VERTEX
 8
AUSLAUF-MIN
 10
1.0968
 20
-12.5206
 30
17.3628
 70
192
 0
VERTEX
 8
AUSLAUF-MIN
 10
1.0968
 20
-13.7327
 30
16.1463
 70
192
 0
VERTEX
 8
AUSLAUF-MIN
 10
1.0968
 20
-14.5242
 30
14.6222
 70
192
 0
VERTEX
 8
AUSLAUF-MIN
 10
-0.6108
 20
-9.2974
 30
18.0063
 70
192
 0
VERTEX
 8
AUSLAUF-MIN
 10
-0.6108
 20
-10.851
 30
17.7269
 70
192
 0
VERTEX
 8
AUSLAUF-MIN
 10
-0.6108
 20
-12.2492
 30
16.9945
 70
192
 0
VERTEX
 8
AUSLAUF-MIN
 10
-0.6108
 20
-13.3634
 30
15.8763
 70
192
 0
VERTEX
 8
AUSLAUF-MIN
 10
-0.6108
 20
-14.0908
 30
14.4754
 70
192
 0
VERTEX
 8
AUSLAUF-MIN
 10
0.0142
 20
-14.2589
 30
14.5324
 70
192
 0
VERTEX
 8
AUSLAUF-MIN
 10
1.2642
 20
6.9491
 30
19.0905
 70
192
 0
VERTEX
 8
AUSLAUF-MIN
 10
1.2642
 20
-9.3251
 30
19.0885
 70
192
 0
VERTEX
 8
AUSLAUF-MIN
 10
1.2642
 20
-11.202
 30
18.751
 70
192
 0
VERTEX
 8
AUSLAUF-MIN
 10
1.2642
 20
-12.8913
 30
17.866
 70
192
 0
VERTEX
 8
AUSLAUF-MIN
 10
1.2642
 20
-14.2373
 30
16.5152
 70
192
 0
VERTEX
 8
AUSLAUF-MIN
 10
1.2642
 20
-15.1161
 30
14.8228
 70
192
 0
VERTEX
 8
AUSLAUF-MIN
 10
-0.8909
 20
-15.1161
 30
14.8228
 70
192
 0
VERTEX
 8
AUSLAUF-MIN
 10
0.9193
 20
-15.1161
 30
14.8228
 70
192
 0
VERTEX
 8
AUSLAUF-MIN
 10
-0.7696
 20
-14.6875
 30
14.6776
 70
192
 0
VERTEX
 8
AUSLAUF-MIN
 10
0.0142
 20
-14.6069
 30
15.9477
 70
192
 0
VERTEX
 8
AUSLAUF-MIN
 10
0.0142
 20
-13.823
 30
15.4953
 70
192
 0
VERTEX
 8
AUSLAUF-MIN
 10
0.4668
 20
-13.928
 30
15.5559
 70
192
 0
VERTEX
 8
AUSLAUF-MIN
 10
1.0968
 20
6.9491
 30
19.7155
 70
192
 0
VERTEX
 8
AUSLAUF-MIN
 10
1.0968
 20
-9.3411
 30
19.7133
 70
192
 0
VERTEX
 8
AUSLAUF-MIN
 10
1.0968
 20
-11.4047
 30
19.3422
 70
192
 0
VERTEX
 8
AUSLAUF-MIN
 10
1.0968
 20
-13.2619
 30
18.3693
 70
192
 0
VERTEX
 8
AUSLAUF-MIN
 10
1.0968
 20
-14.7418
 30
16.884
 70
192
 0
VERTEX
 8
AUSLAUF-MIN
 10
1.0968
 20
-15.7081
 30
15.0233
 70
192
 0
VERTEX
 8
AUSLAUF-MIN
 10
0.7981
 20
-14.215
 30
15.7215
 70
192
 0
VERTEX
 8
AUSLAUF-MIN
 10
0.9193
 20
-14.6069
 30
15.9477
 70
192
 0
VERTEX
 8
AUSLAUF-MIN
 10
0.7981
 20
-14.9989
 30
16.174
 70
192
 0
VERTEX
 8
AUSLAUF-MIN
 10
0.4668
 20
-15.2858
 30
16.3396
 70
192
 0
VERTEX
 8
AUSLAUF-MIN
 10
0.0142
 20
-15.3908
 30
16.4002
 70
192
 0
VERTEX
 8
AUSLAUF-MIN
 10
-0.4383
 20
-15.2858
 30
16.3396
 70
192
 0
VERTEX
 8
AUSLAUF-MIN
 10
0.6392
 20
6.9491
 30
20.1731
 70
192
 0
VERTEX
 8
AUSLAUF-MIN
 10
0.6392
 20
-9.3528
 30
20.1707
 70
192
 0
VERTEX
 8
AUSLAUF-MIN
 10
0.6392
 20
-11.553
 30
19.775
 70
192
 0
VERTEX
 8
AUSLAUF-MIN
 10
0.6392
 20
-13.5333
 30
18.7376
 70
192
 0
VERTEX
 8
AUSLAUF-MIN
 10
0.6392
 20
-15.1112
 30
17.1541
 70
192
 0
VERTEX
 8
AUSLAUF-MIN
 10
0.6392
 20
-16.1414
 30
15.1701
 70
192
 0
VERTEX
 8
AUSLAUF-MIN
 10
-0.7696
 20
-14.9989
 30
16.174
 70
192
 0
VERTEX
 8
AUSLAUF-MIN
 10
-0.8909
 20
-14.6069
 30
15.9477
 70
192
 0
VERTEX
 8
AUSLAUF-MIN
 10
-0.7696
 20
-14.215
 30
15.7215
 70
192
 0
VERTEX
 8
AUSLAUF-MIN
 10
-0.4383
 20
-13.928
 30
15.5559
 70
192
 0
VERTEX
 8
AUSLAUF-MIN
 10
0.4668
 20
-14.3737
 30
14.5713
 70
192
 0
VERTEX
 8
AUSLAUF-MIN
 10
0.7981
 20
-15.5448
 30
14.968
 70
192
 0
VERTEX
 8
AUSLAUF-MIN
 10
0.0142
 20
6.9491
 30
20.3405
 70
192
 0
VERTEX
 8
AUSLAUF-MIN
 10
0.0142
 20
-9.3571
 30
20.3381
 70
192
 0
VERTEX
 8
AUSLAUF-MIN
 10
0.0142
 20
-11.6074
 30
19.9334
 70
192
 0
VERTEX
 8
AUSLAUF-MIN
 10
0.0142
 20
-13.6326
 30
18.8725
 70
192
 0
VERTEX
 8
AUSLAUF-MIN
 10
0.0142
 20
-15.2464
 30
17.2529
 70
192
 0
VERTEX
 8
AUSLAUF-MIN
 10
0.0142
 20
-16.3
 30
15.2239
 70
192
 0
VERTEX
 8
AUSLAUF-MIN
 10
0.7981
 20
-14.6875
 30
14.6776
 70
192
 0
VERTEX
 8
AUSLAUF-MIN
 10
-0.7696
 20
-15.5448
 30
14.968
 70
192
 0
VERTEX
 8
AUSLAUF-MIN
 10
0.4668
 20
-15.8585
 30
15.0743
 70
192
 0
VERTEX
 8
AUSLAUF-MIN
 10
-0.4383
 20
-15.8585
 30
15.0743
 70
192
 0
VERTEX
 8
AUSLAUF-MIN
 10
0.0142
 20
-15.9734
 30
15.1132
 70
192
 0
VERTEX
 8
AUSLAUF-MIN
 10
-0.4383
 20
-14.3737
 30
14.5713
 70
192
 0
VERTEX
 8
AUSLAUF-MIN
 10
-0.6108
 20
6.9491
 30
20.1731
 70
192
 0
VERTEX
 8
AUSLAUF-MIN
 10
-0.6108
 20
-9.3528
 30
20.1707
 70
192
 0
VERTEX
 8
AUSLAUF-MIN
 10
-0.6108
 20
-11.553
 30
19.775
 70
192
 0
VERTEX
 8
AUSLAUF-MIN
 10
-0.6108
 20
-13.5333
 30
18.7376
 70
192
 0
VERTEX
 8
AUSLAUF-MIN
 10
-0.6108
 20
-15.1112
 30
17.1541
 70
192
 0
VERTEX
 8
AUSLAUF-MIN
 10
-0.6108
 20
-16.1414
 30
15.1701
 70
192
 0
VERTEX
 8
AUSLAUF-MIN
 10
0
 20
0
 30
0
 70
128
 71
92
 72
93
 73
2
 74
1
 0
VERTEX
 8
AUSLAUF-MIN
 10
0
 20
0
 30
0
 70
128
 71
93
 72
94
 73
3
 74
2
 0
VERTEX
 8
AUSLAUF-MIN
 10
0
 20
0
 30
0
 70
128
 71
94
 72
95
 73
4
 74
3
 0
VERTEX
 8
AUSLAUF-MIN
 10
0
 20
0
 30
0
 70
128
 71
95
 72
96
 73
5
 74
4
 0
VERTEX
 8
AUSLAUF-MIN
 10
0
 20
0
 30
0
 70
128
 71
96
 72
97
 73
6
 74
5
 0
VERTEX
 8
AUSLAUF-MIN
 10
0
 20
0
 30
0
 70
128
 71
89
 72
87
 73
6
 74
97
 0
VERTEX
 8
AUSLAUF-MIN
 10
0
 20
0
 30
0
 70
128
 71
1
 72
2
 73
14
 74
7
 0
VERTEX
 8
AUSLAUF-MIN
 10
0
 20
0
 30
0
 70
128
 71
8
 72
9
 73
21
 74
20
 0
VERTEX
 8
AUSLAUF-MIN
 10
0
 20
0
 30
0
 70
128
 71
9
 72
10
 73
22
 74
21
 0
VERTEX
 8
AUSLAUF-MIN
 10
0
 20
0
 30
0
 70
128
 71
10
 72
11
 73
23
 74
22
 0
VERTEX
 8
AUSLAUF-MIN
 10
0
 20
0
 30
0
 70
128
 71
11
 72
12
 73
24
 74
23
 0
VERTEX
 8
AUSLAUF-MIN
 10
0
 20
0
 30
0
 70
128
 71
12
 72
13
 73
25
 74
24
 0
VERTEX
 8
AUSLAUF-MIN
 10
0
 20
0
 30
0
 70
128
 71
13
 72
43
 73
78
 74
25
 0
VERTEX
 8
AUSLAUF-MIN
 10
0
 20
0
 30
0
 70
128
 71
2
 72
3
 73
15
 74
14
 0
VERTEX
 8
AUSLAUF-MIN
 10
0
 20
0
 30
0
 70
128
 71
3
 72
4
 73
16
 74
15
 0
VERTEX
 8
AUSLAUF-MIN
 10
0
 20
0
 30
0
 70
128
 71
4
 72
5
 73
17
 74
16
 0
VERTEX
 8
AUSLAUF-MIN
 10
0
 20
0
 30
0
 70
128
 71
5
 72
6
 73
18
 74
17
 0
VERTEX
 8
AUSLAUF-MIN
 10
0
 20
0
 30
0
 70
128
 71
87
 72
50
 73
18
 74
6
 0
VERTEX
 8
AUSLAUF-MIN
 10
0
 20
0
 30
0
 70
128
 71
7
 72
14
 73
26
 74
19
 0
VERTEX
 8
AUSLAUF-MIN
 10
0
 20
0
 30
0
 70
128
 71
14
 72
15
 73
27
 74
26
 0
VERTEX
 8
AUSLAUF-MIN
 10
0
 20
0
 30
0
 70
128
 71
20
 72
21
 73
33
 74
32
 0
VERTEX
 8
AUSLAUF-MIN
 10
0
 20
0
 30
0
 70
128
 71
21
 72
22
 73
34
 74
33
 0
VERTEX
 8
AUSLAUF-MIN
 10
0
 20
0
 30
0
 70
128
 71
22
 72
23
 73
35
 74
34
 0
VERTEX
 8
AUSLAUF-MIN
 10
0
 20
0
 30
0
 70
128
 71
23
 72
24
 73
36
 74
35
 0
VERTEX
 8
AUSLAUF-MIN
 10
0
 20
0
 30
0
 70
128
 71
24
 72
25
 73
37
 74
36
 0
VERTEX
 8
AUSLAUF-MIN
 10
0
 20
0
 30
0
 70
128
 71
25
 72
78
 73
86
 74
37
 0
VERTEX
 8
AUSLAUF-MIN
 10
0
 20
0
 30
0
 70
128
 71
15
 72
16
 73
28
 74
27
 0
VERTEX
 8
AUSLAUF-MIN
 10
0
 20
0
 30
0
 70
128
 71
16
 72
17
 73
29
 74
28
 0
VERTEX
 8
AUSLAUF-MIN
 10
0
 20
0
 30
0
 70
128
 71
17
 72
18
 73
30
 74
29
 0
VERTEX
 8
AUSLAUF-MIN
 10
0
 20
0
 30
0
 70
128
 71
50
 72
52
 73
30
 74
18
 0
VERTEX
 8
AUSLAUF-MIN
 10
0
 20
0
 30
0
 70
128
 71
19
 72
26
 73
38
 74
31
 0
VERTEX
 8
AUSLAUF-MIN
 10
0
 20
0
 30
0
 70
128
 71
26
 72
27
 73
39
 74
38
 0
VERTEX
 8
AUSLAUF-MIN
 10
0
 20
0
 30
0
 70
128
 71
27
 72
28
 73
40
 74
39
 0
VERTEX
 8
AUSLAUF-MIN
 10
0
 20
0
 30
0
 70
128
 71
32
 72
33
 73
45
 74
44
 0
VERTEX
 8
AUSLAUF-MIN
 10
0
 20
0
 30
0
 70
128
 71
33
 72
34
 73
46
 74
45
 0
VERTEX
 8
AUSLAUF-MIN
 10
0
 20
0
 30
0
 70
128
 71
34
 72
35
 73
47
 74
46
 0
VERTEX
 8
AUSLAUF-MIN
 10
0
 20
0
 30
0
 70
128
 71
35
 72
36
 73
48
 74
47
 0
VERTEX
 8
AUSLAUF-MIN
 10
0
 20
0
 30
0
 70
128
 71
36
 72
37
 73
49
 74
48
 0
VERTEX
 8
AUSLAUF-MIN
 10
0
 20
0
 30
0
 70
128
 71
37
 72
86
 73
51
 74
49
 0
VERTEX
 8
AUSLAUF-MIN
 10
0
 20
0
 30
0
 70
128
 71
28
 72
29
 73
41
 74
40
 0
VERTEX
 8
AUSLAUF-MIN
 10
0
 20
0
 30
0
 70
128
 71
29
 72
30
 73
42
 74
41
 0
VERTEX
 8
AUSLAUF-MIN
 10
0
 20
0
 30
0
 70
128
 71
52
 72
91
 73
42
 74
30
 0
VERTEX
 8
AUSLAUF-MIN
 10
0
 20
0
 30
0
 70
128
 71
31
 72
38
 73
9
 74
8
 0
VERTEX
 8
AUSLAUF-MIN
 10
0
 20
0
 30
0
 70
128
 71
38
 72
39
 73
10
 74
9
 0
VERTEX
 8
AUSLAUF-MIN
 10
0
 20
0
 30
0
 70
128
 71
39
 72
40
 73
11
 74
10
 0
VERTEX
 8
AUSLAUF-MIN
 10
0
 20
0
 30
0
 70
128
 71
40
 72
41
 73
12
 74
11
 0
VERTEX
 8
AUSLAUF-MIN
 10
0
 20
0
 30
0
 70
128
 71
44
 72
45
 73
57
 74
56
 0
VERTEX
 8
AUSLAUF-MIN
 10
0
 20
0
 30
0
 70
128
 71
45
 72
46
 73
58
 74
57
 0
VERTEX
 8
AUSLAUF-MIN
 10
0
 20
0
 30
0
 70
128
 71
46
 72
47
 73
59
 74
58
 0
VERTEX
 8
AUSLAUF-MIN
 10
0
 20
0
 30
0
 70
128
 71
47
 72
48
 73
60
 74
59
 0
VERTEX
 8
AUSLAUF-MIN
 10
0
 20
0
 30
0
 70
128
 71
48
 72
49
 73
61
 74
60
 0
VERTEX
 8
AUSLAUF-MIN
 10
0
 20
0
 30
0
 70
128
 71
49
 72
51
 73
79
 74
61
 0
VERTEX
 8
AUSLAUF-MIN
 10
0
 20
0
 30
0
 70
128
 71
41
 72
42
 73
13
 74
12
 0
VERTEX
 8
AUSLAUF-MIN
 10
0
 20
0
 30
0
 70
128
 71
42
 72
91
 73
43
 74
13
 0
VERTEX
 8
AUSLAUF-MIN
 10
0
 20
0
 30
0
 70
128
 71
54
 72
53
 73
55
 74
55
 0
VERTEX
 8
AUSLAUF-MIN
 10
0
 20
0
 30
0
 70
128
 71
55
 72
78
 73
43
 74
54
 0
VERTEX
 8
AUSLAUF-MIN
 10
0
 20
0
 30
0
 70
128
 71
55
 72
53
 73
62
 74
62
 0
VERTEX
 8
AUSLAUF-MIN
 10
0
 20
0
 30
0
 70
128
 71
62
 72
86
 73
78
 74
55
 0
VERTEX
 8
AUSLAUF-MIN
 10
0
 20
0
 30
0
 70
128
 71
62
 72
53
 73
63
 74
63
 0
VERTEX
 8
AUSLAUF-MIN
 10
0
 20
0
 30
0
 70
128
 71
56
 72
57
 73
69
 74
68
 0
VERTEX
 8
AUSLAUF-MIN
 10
0
 20
0
 30
0
 70
128
 71
57
 72
58
 73
70
 74
69
 0
VERTEX
 8
AUSLAUF-MIN
 10
0
 20
0
 30
0
 70
128
 71
58
 72
59
 73
71
 74
70
 0
VERTEX
 8
AUSLAUF-MIN
 10
0
 20
0
 30
0
 70
128
 71
59
 72
60
 73
72
 74
71
 0
VERTEX
 8
AUSLAUF-MIN
 10
0
 20
0
 30
0
 70
128
 71
60
 72
61
 73
73
 74
72
 0
VERTEX
 8
AUSLAUF-MIN
 10
0
 20
0
 30
0
 70
128
 71
61
 72
79
 73
88
 74
73
 0
VERTEX
 8
AUSLAUF-MIN
 10
0
 20
0
 30
0
 70
128
 71
63
 72
51
 73
86
 74
62
 0
VERTEX
 8
AUSLAUF-MIN
 10
0
 20
0
 30
0
 70
128
 71
63
 72
53
 73
64
 74
64
 0
VERTEX
 8
AUSLAUF-MIN
 10
0
 20
0
 30
0
 70
128
 71
64
 72
79
 73
51
 74
63
 0
VERTEX
 8
AUSLAUF-MIN
 10
0
 20
0
 30
0
 70
128
 71
64
 72
53
 73
65
 74
65
 0
VERTEX
 8
AUSLAUF-MIN
 10
0
 20
0
 30
0
 70
128
 71
65
 72
88
 73
79
 74
64
 0
VERTEX
 8
AUSLAUF-MIN
 10
0
 20
0
 30
0
 70
128
 71
65
 72
53
 73
66
 74
66
 0
VERTEX
 8
AUSLAUF-MIN
 10
0
 20
0
 30
0
 70
128
 71
66
 72
90
 73
88
 74
65
 0
VERTEX
 8
AUSLAUF-MIN
 10
0
 20
0
 30
0
 70
128
 71
68
 72
69
 73
81
 74
80
 0
VERTEX
 8
AUSLAUF-MIN
 10
0
 20
0
 30
0
 70
128
 71
69
 72
70
 73
82
 74
81
 0
VERTEX
 8
AUSLAUF-MIN
 10
0
 20
0
 30
0
 70
128
 71
70
 72
71
 73
83
 74
82
 0
VERTEX
 8
AUSLAUF-MIN
 10
0
 20
0
 30
0
 70
128
 71
71
 72
72
 73
84
 74
83
 0
VERTEX
 8
AUSLAUF-MIN
 10
0
 20
0
 30
0
 70
128
 71
72
 72
73
 73
85
 74
84
 0
VERTEX
 8
AUSLAUF-MIN
 10
0
 20
0
 30
0
 70
128
 71
88
 72
90
 73
85
 74
73
 0
VERTEX
 8
AUSLAUF-MIN
 10
0
 20
0
 30
0
 70
128
 71
66
 72
53
 73
67
 74
67
 0
VERTEX
 8
AUSLAUF-MIN
 10
0
 20
0
 30
0
 70
128
 71
67
 72
89
 73
90
 74
66
 0
VERTEX
 8
AUSLAUF-MIN
 10
0
 20
0
 30
0
 70
128
 71
67
 72
53
 73
74
 74
74
 0
VERTEX
 8
AUSLAUF-MIN
 10
0
 20
0
 30
0
 70
128
 71
74
 72
87
 73
89
 74
67
 0
VERTEX
 8
AUSLAUF-MIN
 10
0
 20
0
 30
0
 70
128
 71
74
 72
53
 73
75
 74
75
 0
VERTEX
 8
AUSLAUF-MIN
 10
0
 20
0
 30
0
 70
128
 71
75
 72
50
 73
87
 74
74
 0
VERTEX
 8
AUSLAUF-MIN
 10
0
 20
0
 30
0
 70
128
 71
75
 72
53
 73
76
 74
76
 0
VERTEX
 8
AUSLAUF-MIN
 10
0
 20
0
 30
0
 70
128
 71
80
 72
81
 73
93
 74
92
 0
VERTEX
 8
AUSLAUF-MIN
 10
0
 20
0
 30
0
 70
128
 71
81
 72
82
 73
94
 74
93
 0
VERTEX
 8
AUSLAUF-MIN
 10
0
 20
0
 30
0
 70
128
 71
82
 72
83
 73
95
 74
94
 0
VERTEX
 8
AUSLAUF-MIN
 10
0
 20
0
 30
0
 70
128
 71
83
 72
84
 73
96
 74
95
 0
VERTEX
 8
AUSLAUF-MIN
 10
0
 20
0
 30
0
 70
128
 71
84
 72
85
 73
97
 74
96
 0
VERTEX
 8
AUSLAUF-MIN
 10
0
 20
0
 30
0
 70
128
 71
90
 72
89
 73
97
 74
85
 0
VERTEX
 8
AUSLAUF-MIN
 10
0
 20
0
 30
0
 70
128
 71
76
 72
52
 73
50
 74
75
 0
VERTEX
 8
AUSLAUF-MIN
 10
0
 20
0
 30
0
 70
128
 71
76
 72
53
 73
77
 74
77
 0
VERTEX
 8
AUSLAUF-MIN
 10
0
 20
0
 30
0
 70
128
 71
77
 72
91
 73
52
 74
76
 0
VERTEX
 8
AUSLAUF-MIN
 10
0
 20
0
 30
0
 70
128
 71
77
 72
53
 73
54
 74
54
 0
VERTEX
 8
AUSLAUF-MIN
 10
0
 20
0
 30
0
 70
128
 71
54
 72
43
 73
91
 74
77
 0
SEQEND
 0
POLYLINE
 8
R_HRE
 66
1
 10
0.0
 20
0.0
 30
0.0
 70
64
 71
24
 72
7
 0
VERTEX
 8
R_HRE
 10
0.9631
 20
-15.0361
 30
15.0228
 70
192
 0
VERTEX
 8
R_HRE
 10
0.9631
 20
-15.0361
 30
15.0228
 70
192
 0
VERTEX
 8
R_HRE
 10
-0.9369
 20
-15.0361
 30
15.0228
 70
192
 0
VERTEX
 8
R_HRE
 10
0.0131
 20
-14.1379
 30
14.7135
 70
192
 0
VERTEX
 8
R_HRE
 10
0.0131
 20
-14.1379
 30
14.7135
 70
192
 0
VERTEX
 8
R_HRE
 10
-0.9369
 20
-15.0361
 30
15.0228
 70
192
 0
VERTEX
 8
R_HRE
 10
0.0131
 20
-15.9344
 30
15.3321
 70
192
 0
VERTEX
 8
R_HRE
 10
0.0131
 20
-15.9344
 30
15.3321
 70
192
 0
VERTEX
 8
R_HRE
 10
0.8359
 20
-15.4853
 30
15.1774
 70
192
 0
VERTEX
 8
R_HRE
 10
0.8359
 20
-15.4853
 30
15.1774
 70
192
 0
VERTEX
 8
R_HRE
 10
-0.8096
 20
-14.587
 30
14.8681
 70
192
 0
VERTEX
 8
R_HRE
 10
0.4881
 20
-14.2582
 30
14.7549
 70
192
 0
VERTEX
 8
R_HRE
 10
0.4881
 20
-14.2582
 30
14.7549
 70
192
 0
VERTEX
 8
R_HRE
 10
-0.8096
 20
-14.587
 30
14.8681
 70
192
 0
VERTEX
 8
R_HRE
 10
-0.4619
 20
-15.814
 30
15.2906
 70
192
 0
VERTEX
 8
R_HRE
 10
-0.4619
 20
-15.814
 30
15.2906
 70
192
 0
VERTEX
 8
R_HRE
 10
0.4881
 20
-15.814
 30
15.2906
 70
192
 0
VERTEX
 8
R_HRE
 10
0.4881
 20
-15.814
 30
15.2906
 70
192
 0
VERTEX
 8
R_HRE
 10
-0.4619
 20
-14.2582
 30
14.7549
 70
192
 0
VERTEX
 8
R_HRE
 10
0.8359
 20
-14.587
 30
14.8681
 70
192
 0
VERTEX
 8
R_HRE
 10
0.8359
 20
-14.587
 30
14.8681
 70
192
 0
VERTEX
 8
R_HRE
 10
-0.4619
 20
-14.2582
 30
14.7549
 70
192
 0
VERTEX
 8
R_HRE
 10
-0.8096
 20
-15.4853
 30
15.1774
 70
192
 0
VERTEX
 8
R_HRE
 10
-0.8096
 20
-15.4853
 30
15.1774
 70
192
 0
VERTEX
 8
R_HRE
 10
0
 20
0
 30
0
 70
128
 71
7
 72
17
 73
9
 74
9
 0
VERTEX
 8
R_HRE
 10
0
 20
0
 30
0
 70
128
 71
7
 72
9
 73
1
 74
15
 0
VERTEX
 8
R_HRE
 10
0
 20
0
 30
0
 70
128
 71
1
 72
20
 73
12
 74
12
 0
VERTEX
 8
R_HRE
 10
0
 20
0
 30
0
 70
128
 71
15
 72
1
 73
12
 74
4
 0
VERTEX
 8
R_HRE
 10
0
 20
0
 30
0
 70
128
 71
4
 72
19
 73
11
 74
11
 0
VERTEX
 8
R_HRE
 10
0
 20
0
 30
0
 70
128
 71
4
 72
11
 73
3
 74
15
 0
VERTEX
 8
R_HRE
 10
0
 20
0
 30
0
 70
128
 71
3
 72
23
 73
15
 74
15
 0
SEQEND
 0
POLYLINE
 8
ROSETTE
 66
1
 10
0.0
 20
0.0
 30
0.0
 70
64
 71
120
 72
45
 0
VERTEX
 8
ROSETTE
 10
0.0151
 20
7.1024
 30
19.0842
 70
192
 0
VERTEX
 8
ROSETTE
 10
0.0151
 20
7.1024
 30
15.0842
 70
192
 0
VERTEX
 8
ROSETTE
 10
0.0151
 20
7.1024
 30
15.0842
 70
192
 0
VERTEX
 8
ROSETTE
 10
0.0151
 20
6.6024
 30
15.0842
 70
192
 0
VERTEX
 8
ROSETTE
 10
0.0151
 20
6.6024
 30
15.0842
 70
192
 0
VERTEX
 8
ROSETTE
 10
0.0151
 20
6.6024
 30
19.0842
 70
192
 0
VERTEX
 8
ROSETTE
 10
0.0151
 20
6.6024
 30
19.0842
 70
192
 0
VERTEX
 8
ROSETTE
 10
0.0151
 20
7.1024
 30
19.0842
 70
192
 0
VERTEX
 8
ROSETTE
 10
0.0151
 20
7.1024
 30
19.0842
 70
192
 0
VERTEX
 8
ROSETTE
 10
1.642
 20
7.1024
 30
15.43
 70
192
 0
VERTEX
 8
ROSETTE
 10
1.642
 20
7.1024
 30
15.43
 70
192
 0
VERTEX
 8
ROSETTE
 10
1.642
 20
6.6024
 30
15.43
 70
192
 0
VERTEX
 8
ROSETTE
 10
1.642
 20
6.6024
 30
15.43
 70
192
 0
VERTEX
 8
ROSETTE
 10
0.0151
 20
6.6024
 30
19.0842
 70
192
 0
VERTEX
 8
ROSETTE
 10
0.0151
 20
6.6024
 30
19.0842
 70
192
 0
VERTEX
 8
ROSETTE
 10
0.0151
 20
7.1024
 30
19.0842
 70
192
 0
VERTEX
 8
ROSETTE
 10
0.0151
 20
7.1024
 30
19.0842
 70
192
 0
VERTEX
 8
ROSETTE
 10
2.9876
 20
7.1024
 30
16.4077
 70
192
 0
VERTEX
 8
ROSETTE
 10
2.9876
 20
7.1024
 30
16.4077
 70
192
 0
VERTEX
 8
ROSETTE
 10
2.9876
 20
6.6024
 30
16.4077
 70
192
 0
VERTEX
 8
ROSETTE
 10
2.9876
 20
6.6024
 30
16.4077
 70
192
 0
VERTEX
 8
ROSETTE
 10
0.0151
 20
6.6024
 30
19.0842
 70
192
 0
VERTEX
 8
ROSETTE
 10
0.0151
 20
6.6024
 30
19.0842
 70
192
 0
VERTEX
 8
ROSETTE
 10
0.0151
 20
7.1024
 30
19.0842
 70
192
 0
VERTEX
 8
ROSETTE
 10
0.0151
 20
7.1024
 30
19.0842
 70
192
 0
VERTEX
 8
ROSETTE
 10
3.8193
 20
7.1024
 30
17.8481
 70
192
 0
VERTEX
 8
ROSETTE
 10
3.8193
 20
7.1024
 30
17.8481
 70
192
 0
VERTEX
 8
ROSETTE
 10
3.8193
 20
6.6024
 30
17.8481
 70
192
 0
VERTEX
 8
ROSETTE
 10
3.8193
 20
6.6024
 30
17.8481
 70
192
 0
VERTEX
 8
ROSETTE
 10
0.0151
 20
6.6024
 30
19.0842
 70
192
 0
VERTEX
 8
ROSETTE
 10
0.0151
 20
6.6024
 30
19.0842
 70
192
 0
VERTEX
 8
ROSETTE
 10
0.0151
 20
7.1024
 30
19.0842
 70
192
 0
VERTEX
 8
ROSETTE
 10
0.0151
 20
7.1024
 30
19.0842
 70
192
 0
VERTEX
 8
ROSETTE
 10
3.9932
 20
7.1024
 30
19.5023
 70
192
 0
VERTEX
 8
ROSETTE
 10
3.9932
 20
7.1024
 30
19.5023
 70
192
 0
VERTEX
 8
ROSETTE
 10
3.9932
 20
6.6024
 30
19.5023
 70
192
 0
VERTEX
 8
ROSETTE
 10
3.9932
 20
6.6024
 30
19.5023
 70
192
 0
VERTEX
 8
ROSETTE
 10
0.0151
 20
6.6024
 30
19.0842
 70
192
 0
VERTEX
 8
ROSETTE
 10
0.0151
 20
6.6024
 30
19.0842
 70
192
 0
VERTEX
 8
ROSETTE
 10
0.0151
 20
7.1024
 30
19.0842
 70
192
 0
VERTEX
 8
ROSETTE
 10
0.0151
 20
7.1024
 30
19.0842
 70
192
 0
VERTEX
 8
ROSETTE
 10
3.4792
 20
7.1024
 30
21.0842
 70
192
 0
VERTEX
 8
ROSETTE
 10
3.4792
 20
7.1024
 30
21.0842
 70
192
 0
VERTEX
 8
ROSETTE
 10
3.4792
 20
6.6024
 30
21.0842
 70
192
 0
VERTEX
 8
ROSETTE
 10
3.4792
 20
6.6024
 30
21.0842
 70
192
 0
VERTEX
 8
ROSETTE
 10
0.0151
 20
6.6024
 30
19.0842
 70
192
 0
VERTEX
 8
ROSETTE
 10
0.0151
 20
6.6024
 30
19.0842
 70
192
 0
VERTEX
 8
ROSETTE
 10
0.0151
 20
7.1024
 30
19.0842
 70
192
 0
VERTEX
 8
ROSETTE
 10
0.0151
 20
7.1024
 30
19.0842
 70
192
 0
VERTEX
 8
ROSETTE
 10
2.3662
 20
7.1024
 30
22.3203
 70
192
 0
VERTEX
 8
ROSETTE
 10
2.3662
 20
7.1024
 30
22.3203
 70
192
 0
VERTEX
 8
ROSETTE
 10
2.3662
 20
6.6024
 30
22.3203
 70
192
 0
VERTEX
 8
ROSETTE
 10
2.3662
 20
6.6024
 30
22.3203
 70
192
 0
VERTEX
 8
ROSETTE
 10
0.0151
 20
6.6024
 30
19.0842
 70
192
 0
VERTEX
 8
ROSETTE
 10
0.0151
 20
6.6024
 30
19.0842
 70
192
 0
VERTEX
 8
ROSETTE
 10
0.0151
 20
7.1024
 30
19.0842
 70
192
 0
VERTEX
 8
ROSETTE
 10
0.0151
 20
7.1024
 30
19.0842
 70
192
 0
VERTEX
 8
ROSETTE
 10
0.8467
 20
7.1024
 30
22.9968
 70
192
 0
VERTEX
 8
ROSETTE
 10
0.8467
 20
7.1024
 30
22.9968
 70
192
 0
VERTEX
 8
ROSETTE
 10
0.8467
 20
6.6024
 30
22.9968
 70
192
 0
VERTEX
 8
ROSETTE
 10
0.8467
 20
6.6024
 30
22.9968
 70
192
 0
VERTEX
 8
ROSETTE
 10
0.0151
 20
6.6024
 30
19.0842
 70
192
 0
VERTEX
 8
ROSETTE
 10
0.0151
 20
6.6024
 30
19.0842
 70
192
 0
VERTEX
 8
ROSETTE
 10
0.0151
 20
7.1024
 30
19.0842
 70
192
 0
VERTEX
 8
ROSETTE
 10
0.0151
 20
7.1024
 30
19.0842
 70
192
 0
VERTEX
 8
ROSETTE
 10
-0.8166
 20
7.1024
 30
22.9968
 70
192
 0
VERTEX
 8
ROSETTE
 10
-0.8166
 20
7.1024
 30
22.9968
 70
192
 0
VERTEX
 8
ROSETTE
 10
-0.8166
 20
6.6024
 30
22.9968
 70
192
 0
VERTEX
 8
ROSETTE
 10
-0.8166
 20
6.6024
 30
22.9968
 70
192
 0
VERTEX
 8
ROSETTE
 10
0.0151
 20
6.6024
 30
19.0842
 70
192
 0
VERTEX
 8
ROSETTE
 10
0.0151
 20
6.6024
 30
19.0842
 70
192
 0
VERTEX
 8
ROSETTE
 10
0.0151
 20
7.1024
 30
19.0842
 70
192
 0
VERTEX
 8
ROSETTE
 10
0.0151
 20
7.1024
 30
19.0842
 70
192
 0
VERTEX
 8
ROSETTE
 10
-2.3361
 20
7.1024
 30
22.3203
 70
192
 0
VERTEX
 8
ROSETTE
 10
-2.3361
 20
7.1024
 30
22.3203
 70
192
 0
VERTEX
 8
ROSETTE
 10
-2.3361
 20
6.6024
 30
22.3203
 70
192
 0
VERTEX
 8
ROSETTE
 10
-2.3361
 20
6.6024
 30
22.3203
 70
192
 0
VERTEX
 8
ROSETTE
 10
0.0151
 20
6.6024
 30
19.0842
 70
192
 0
VERTEX
 8
ROSETTE
 10
0.0151
 20
6.6024
 30
19.0842
 70
192
 0
VERTEX
 8
ROSETTE
 10
0.0151
 20
7.1024
 30
19.0842
 70
192
 0
VERTEX
 8
ROSETTE
 10
0.0151
 20
7.1024
 30
19.0842
 70
192
 0
VERTEX
 8
ROSETTE
 10
-3.449
 20
7.1024
 30
21.0842
 70
192
 0
VERTEX
 8
ROSETTE
 10
-3.449
 20
7.1024
 30
21.0842
 70
192
 0
VERTEX
 8
ROSETTE
 10
-3.449
 20
6.6024
 30
21.0842
 70
192
 0
VERTEX
 8
ROSETTE
 10
-3.449
 20
6.6024
 30
21.0842
 70
192
 0
VERTEX
 8
ROSETTE
 10
0.0151
 20
6.6024
 30
19.0842
 70
192
 0
VERTEX
 8
ROSETTE
 10
0.0151
 20
6.6024
 30
19.0842
 70
192
 0
VERTEX
 8
ROSETTE
 10
0.0151
 20
7.1024
 30
19.0842
 70
192
 0
VERTEX
 8
ROSETTE
 10
0.0151
 20
7.1024
 30
19.0842
 70
192
 0
VERTEX
 8
ROSETTE
 10
-3.963
 20
7.1024
 30
19.5023
 70
192
 0
VERTEX
 8
ROSETTE
 10
-3.963
 20
7.1024
 30
19.5023
 70
192
 0
VERTEX
 8
ROSETTE
 10
-3.963
 20
6.6024
 30
19.5023
 70
192
 0
VERTEX
 8
ROSETTE
 10
-3.963
 20
6.6024
 30
19.5023
 70
192
 0
VERTEX
 8
ROSETTE
 10
0.0151
 20
6.6024
 30
19.0842
 70
192
 0
VERTEX
 8
ROSETTE
 10
0.0151
 20
6.6024
 30
19.0842
 70
192
 0
VERTEX
 8
ROSETTE
 10
0.0151
 20
7.1024
 30
19.0842
 70
192
 0
VERTEX
 8
ROSETTE
 10
0.0151
 20
7.1024
 30
19.0842
 70
192
 0
VERTEX
 8
ROSETTE
 10
-3.7892
 20
7.1024
 30
17.8481
 70
192
 0
VERTEX
 8
ROSETTE
 10
-3.7892
 20
7.1024
 30
17.8481
 70
192
 0
VERTEX
 8
ROSETTE
 10
-3.7892
 20
6.6024
 30
17.8481
 70
192
 0
VERTEX
 8
ROSETTE
 10
-3.7892
 20
6.6024
 30
17.8481
 70
192
 0
VERTEX
 8
ROSETTE
 10
0.0151
 20
6.6024
 30
19.0842
 70
192
 0
VERTEX
 8
ROSETTE
 10
0.0151
 20
6.6024
 30
19.0842
 70
192
 0
VERTEX
 8
ROSETTE
 10
0.0151
 20
7.1024
 30
19.0842
 70
192
 0
VERTEX
 8
ROSETTE
 10
0.0151
 20
7.1024
 30
19.0842
 70
192
 0
VERTEX
 8
ROSETTE
 10
-2.9575
 20
7.1024
 30
16.4077
 70
192
 0
VERTEX
 8
ROSETTE
 10
-2.9575
 20
7.1024
 30
16.4077
 70
192
 0
VERTEX
 8
ROSETTE
 10
-2.9575
 20
6.6024
 30
16.4077
 70
192
 0
VERTEX
 8
ROSETTE
 10
-2.9575
 20
6.6024
 30
16.4077
 70
192
 0
VERTEX
 8
ROSETTE
 10
0.0151
 20
6.6024
 30
19.0842
 70
192
 0
VERTEX
 8
ROSETTE
 10
0.0151
 20
6.6024
 30
19.0842
 70
192
 0
VERTEX
 8
ROSETTE
 10
0.0151
 20
7.1024
 30
19.0842
 70
192
 0
VERTEX
 8
ROSETTE
 10
0.0151
 20
7.1024
 30
19.0842
 70
192
 0
VERTEX
 8
ROSETTE
 10
-1.6119
 20
7.1024
 30
15.43
 70
192
 0
VERTEX
 8
ROSETTE
 10
-1.6119
 20
7.1024
 30
15.43
 70
192
 0
VERTEX
 8
ROSETTE
 10
-1.6119
 20
6.6024
 30
15.43
 70
192
 0
VERTEX
 8
ROSETTE
 10
-1.6119
 20
6.6024
 30
15.43
 70
192
 0
VERTEX
 8
ROSETTE
 10
0.0151
 20
6.6024
 30
19.0842
 70
192
 0
VERTEX
 8
ROSETTE
 10
0.0151
 20
6.6024
 30
19.0842
 70
192
 0
VERTEX
 8
ROSETTE
 10
0.0151
 20
7.1024
 30
19.0842
 70
192
 0
VERTEX
 8
ROSETTE
 10
0
 20
0
 30
0
 70
128
 71
1
 72
2
 73
10
 74
10
 0
VERTEX
 8
ROSETTE
 10
0
 20
0
 30
0
 70
128
 71
3
 72
4
 73
12
 74
11
 0
VERTEX
 8
ROSETTE
 10
0
 20
0
 30
0
 70
128
 71
5
 72
14
 73
13
 74
13
 0
VERTEX
 8
ROSETTE
 10
0
 20
0
 30
0
 70
128
 71
9
 72
10
 73
18
 74
18
 0
VERTEX
 8
ROSETTE
 10
0
 20
0
 30
0
 70
128
 71
11
 72
12
 73
20
 74
19
 0
VERTEX
 8
ROSETTE
 10
0
 20
0
 30
0
 70
128
 71
13
 72
22
 73
21
 74
21
 0
VERTEX
 8
ROSETTE
 10
0
 20
0
 30
0
 70
128
 71
17
 72
18
 73
26
 74
26
 0
VERTEX
 8
ROSETTE
 10
0
 20
0
 30
0
 70
128
 71
19
 72
20
 73
28
 74
27
 0
VERTEX
 8
ROSETTE
 10
0
 20
0
 30
0
 70
128
 71
21
 72
30
 73
29
 74
29
 0
VERTEX
 8
ROSETTE
 10
0
 20
0
 30
0
 70
128
 71
25
 72
26
 73
34
 74
34
 0
VERTEX
 8
ROSETTE
 10
0
 20
0
 30
0
 70
128
 71
27
 72
28
 73
36
 74
35
 0
VERTEX
 8
ROSETTE
 10
0
 20
0
 30
0
 70
128
 71
29
 72
38
 73
37
 74
37
 0
VERTEX
 8
ROSETTE
 10
0
 20
0
 30
0
 70
128
 71
33
 72
34
 73
42
 74
42
 0
VERTEX
 8
ROSETTE
 10
0
 20
0
 30
0
 70
128
 71
35
 72
36
 73
44
 74
43
 0
VERTEX
 8
ROSETTE
 10
0
 20
0
 30
0
 70
128
 71
37
 72
46
 73
45
 74
45
 0
VERTEX
 8
ROSETTE
 10
0
 20
0
 30
0
 70
128
 71
41
 72
42
 73
50
 74
50
 0
VERTEX
 8
ROSETTE
 10
0
 20
0
 30
0
 70
128
 71
43
 72
44
 73
52
 74
51
 0
VERTEX
 8
ROSETTE
 10
0
 20
0
 30
0
 70
128
 71
45
 72
54
 73
53
 74
53
 0
VERTEX
 8
ROSETTE
 10
0
 20
0
 30
0
 70
128
 71
49
 72
50
 73
58
 74
58
 0
VERTEX
 8
ROSETTE
 10
0
 20
0
 30
0
 70
128
 71
51
 72
52
 73
60
 74
59
 0
VERTEX
 8
ROSETTE
 10
0
 20
0
 30
0
 70
128
 71
53
 72
62
 73
61
 74
61
 0
VERTEX
 8
ROSETTE
 10
0
 20
0
 30
0
 70
128
 71
57
 72
58
 73
66
 74
66
 0
VERTEX
 8
ROSETTE
 10
0
 20
0
 30
0
 70
128
 71
59
 72
60
 73
68
 74
67
 0
VERTEX
 8
ROSETTE
 10
0
 20
0
 30
0
 70
128
 71
61
 72
70
 73
69
 74
69
 0
VERTEX
 8
ROSETTE
 10
0
 20
0
 30
0
 70
128
 71
65
 72
66
 73
74
 74
74
 0
VERTEX
 8
ROSETTE
 10
0
 20
0
 30
0
 70
128
 71
67
 72
68
 73
76
 74
75
 0
VERTEX
 8
ROSETTE
 10
0
 20
0
 30
0
 70
128
 71
69
 72
78
 73
77
 74
77
 0
VERTEX
 8
ROSETTE
 10
0
 20
0
 30
0
 70
128
 71
73
 72
74
 73
82
 74
82
 0
VERTEX
 8
ROSETTE
 10
0
 20
0
 30
0
 70
128
 71
75
 72
76
 73
84
 74
83
 0
VERTEX
 8
ROSETTE
 10
0
 20
0
 30
0
 70
128
 71
77
 72
86
 73
85
 74
85
 0
VERTEX
 8
ROSETTE
 10
0
 20
0
 30
0
 70
128
 71
81
 72
82
 73
90
 74
90
 0
VERTEX
 8
ROSETTE
 10
0
 20
0
 30
0
 70
128
 71
83
 72
84
 73
92
 74
91
 0
VERTEX
 8
ROSETTE
 10
0
 20
0
 30
0
 70
128
 71
85
 72
94
 73
93
 74
93
 0
VERTEX
 8
ROSETTE
 10
0
 20
0
 30
0
 70
128
 71
89
 72
90
 73
98
 74
98
 0
VERTEX
 8
ROSETTE
 10
0
 20
0
 30
0
 70
128
 71
91
 72
92
 73
100
 74
99
 0
VERTEX
 8
ROSETTE
 10
0
 20
0
 30
0
 70
128
 71
93
 72
102
 73
101
 74
101
 0
VERTEX
 8
ROSETTE
 10
0
 20
0
 30
0
 70
128
 71
97
 72
98
 73
106
 74
106
 0
VERTEX
 8
ROSETTE
 10
0
 20
0
 30
0
 70
128
 71
99
 72
100
 73
108
 74
107
 0
VERTEX
 8
ROSETTE
 10
0
 20
0
 30
0
 70
128
 71
101
 72
110
 73
109
 74
109
 0
VERTEX
 8
ROSETTE
 10
0
 20
0
 30
0
 70
128
 71
105
 72
106
 73
114
 74
114
 0
VERTEX
 8
ROSETTE
 10
0
 20
0
 30
0
 70
128
 71
107
 72
108
 73
116
 74
115
 0
VERTEX
 8
ROSETTE
 10
0
 20
0
 30
0
 70
128
 71
109
 72
118
 73
117
 74
117
 0
VERTEX
 8
ROSETTE
 10
0
 20
0
 30
0
 70
128
 71
113
 72
114
 73
2
 74
2
 0
VERTEX
 8
ROSETTE
 10
0
 20
0
 30
0
 70
128
 71
115
 72
116
 73
4
 74
3
 0
VERTEX
 8
ROSETTE
 10
0
 20
0
 30
0
 70
128
 71
117
 72
6
 73
5
 74
5
 0
SEQEND
 0
ENDSEC
 0
EOF
