 0
SECTION
 2
HEADER
 9
$ACADVER
 1
AC1009
 0
ENDSEC
 0
SECTION
 2
TABLES
 0
TABLE
 2
LTYPE
 70
1
 0
LTYPE
 2
CONTINUOUS
 70
64
 3
solid line
 72
65
 73
0
 40
0.0
 0
ENDTAB
 0
TABLE
 2
LAYER
 70
6
 0
LAYER
 2
0
 70
0
 62
7
 6
CONTINUOUS
 0
LAYER
 2
250_2000_M
 70
64
 62
7
 6
CONTINUOUS
 0
LAYER
 2
ROSETTE_2
 70
64
 62
250
 6
CONTINUOUS
 0
LAYER
 2
GRIFF_25
 70
64
 62
250
 6
CONTINUOUS
 0
LAYER
 2
GRIFF_24
 70
64
 62
250
 6
CONTINUOUS
 0
LAYER
 2
GRIFF_23
 70
64
 62
250
 6
CONTINUOUS
 0
LAYER
 2
GRIFF_22
 70
64
 62
250
 6
CONTINUOUS
 0
LAYER
 2
GRIFF_21
 70
64
 62
250
 6
CONTINUOUS
 0
LAYER
 2
GRIFF_20
 70
64
 62
250
 6
CONTINUOUS
 0
LAYER
 2
GRIFF_19
 70
64
 62
250
 6
CONTINUOUS
 0
LAYER
 2
GRIFF_18
 70
64
 62
250
 6
CONTINUOUS
 0
LAYER
 2
GRIFF_17
 70
64
 62
250
 6
CONTINUOUS
 0
LAYER
 2
GRIFF_16
 70
64
 62
250
 6
CONTINUOUS
 0
LAYER
 2
GRIFF_15
 70
64
 62
250
 6
CONTINUOUS
 0
LAYER
 2
ROSETTE_1
 70
64
 62
250
 6
CONTINUOUS
 0
LAYER
 2
GRIFF_13
 70
64
 62
250
 6
CONTINUOUS
 0
LAYER
 2
GRIFF_12
 70
64
 62
250
 6
CONTINUOUS
 0
LAYER
 2
GRIFF_11
 70
64
 62
250
 6
CONTINUOUS
 0
LAYER
 2
GRIFF_10
 70
64
 62
250
 6
CONTINUOUS
 0
LAYER
 2
GRIFF_9
 70
64
 62
250
 6
CONTINUOUS
 0
LAYER
 2
GRIFF_8
 70
64
 62
250
 6
CONTINUOUS
 0
LAYER
 2
GRIFF_7
 70
64
 62
250
 6
CONTINUOUS
 0
LAYER
 2
GRIFF_6
 70
64
 62
250
 6
CONTINUOUS
 0
LAYER
 2
GRIFF_5
 70
64
 62
250
 6
CONTINUOUS
 0
LAYER
 2
GRIFF_4
 70
64
 62
250
 6
CONTINUOUS
 0
LAYER
 2
GRIFF_3
 70
64
 62
250
 6
CONTINUOUS
 0
LAYER
 2
ROSETTE
 70
64
 62
250
 6
CONTINUOUS
 0
LAYER
 2
EXENT1
 70
64
 62
250
 6
CONTINUOUS
 0
LAYER
 2
GRIFF
 70
64
 62
250
 6
CONTINUOUS
 0
LAYER
 2
EXENTER
 70
64
 62
250
 6
CONTINUOUS
 0
LAYER
 2
AUSLAUF_3
 70
64
 62
250
 6
CONTINUOUS
 0
LAYER
 2
AUSLAUF_2
 70
64
 62
250
 6
CONTINUOUS
 0
LAYER
 2
TUBE
 70
64
 62
253
 6
CONTINUOUS
 0
ENDTAB
 0
ENDSEC
 0
SECTION
 2
BLOCKS
 0
ENDSEC
 0
SECTION
 2
ENTITIES
 0
POLYLINE
 8
ROSETTE_2
 66
1
 10
0.0
 20
0.0
 30
0.0
 70
64
 71
120
 72
45
 0
VERTEX
 8
ROSETTE_2
 10
12.0118
 20
0.0061
 30
6.0632
 70
192
 0
VERTEX
 8
ROSETTE_2
 10
12.0118
 20
3.5061
 30
6.0632
 70
192
 0
VERTEX
 8
ROSETTE_2
 10
12.0118
 20
3.5061
 30
6.0632
 70
192
 0
VERTEX
 8
ROSETTE_2
 10
12.0118
 20
3.5061
 30
6.4632
 70
192
 0
VERTEX
 8
ROSETTE_2
 10
12.0118
 20
3.5061
 30
6.4632
 70
192
 0
VERTEX
 8
ROSETTE_2
 10
12.0118
 20
0.0061
 30
6.4632
 70
192
 0
VERTEX
 8
ROSETTE_2
 10
12.0118
 20
0.0061
 30
6.4632
 70
192
 0
VERTEX
 8
ROSETTE_2
 10
12.0118
 20
0.0061
 30
6.0632
 70
192
 0
VERTEX
 8
ROSETTE_2
 10
12.0118
 20
0.0061
 30
6.0632
 70
192
 0
VERTEX
 8
ROSETTE_2
 10
10.5882
 20
3.2035
 30
6.0632
 70
192
 0
VERTEX
 8
ROSETTE_2
 10
10.5882
 20
3.2035
 30
6.0632
 70
192
 0
VERTEX
 8
ROSETTE_2
 10
10.5882
 20
3.2035
 30
6.4632
 70
192
 0
VERTEX
 8
ROSETTE_2
 10
10.5882
 20
3.2035
 30
6.4632
 70
192
 0
VERTEX
 8
ROSETTE_2
 10
12.0118
 20
0.0061
 30
6.4632
 70
192
 0
VERTEX
 8
ROSETTE_2
 10
12.0118
 20
0.0061
 30
6.4632
 70
192
 0
VERTEX
 8
ROSETTE_2
 10
12.0118
 20
0.0061
 30
6.0632
 70
192
 0
VERTEX
 8
ROSETTE_2
 10
12.0118
 20
0.0061
 30
6.0632
 70
192
 0
VERTEX
 8
ROSETTE_2
 10
9.4108
 20
2.348
 30
6.0632
 70
192
 0
VERTEX
 8
ROSETTE_2
 10
9.4108
 20
2.348
 30
6.0632
 70
192
 0
VERTEX
 8
ROSETTE_2
 10
9.4108
 20
2.348
 30
6.4632
 70
192
 0
VERTEX
 8
ROSETTE_2
 10
9.4108
 20
2.348
 30
6.4632
 70
192
 0
VERTEX
 8
ROSETTE_2
 10
12.0118
 20
0.0061
 30
6.4632
 70
192
 0
VERTEX
 8
ROSETTE_2
 10
12.0118
 20
0.0061
 30
6.4632
 70
192
 0
VERTEX
 8
ROSETTE_2
 10
12.0118
 20
0.0061
 30
6.0632
 70
192
 0
VERTEX
 8
ROSETTE_2
 10
12.0118
 20
0.0061
 30
6.0632
 70
192
 0
VERTEX
 8
ROSETTE_2
 10
8.6831
 20
1.0876
 30
6.0632
 70
192
 0
VERTEX
 8
ROSETTE_2
 10
8.6831
 20
1.0876
 30
6.0632
 70
192
 0
VERTEX
 8
ROSETTE_2
 10
8.6831
 20
1.0876
 30
6.4632
 70
192
 0
VERTEX
 8
ROSETTE_2
 10
8.6831
 20
1.0876
 30
6.4632
 70
192
 0
VERTEX
 8
ROSETTE_2
 10
12.0118
 20
0.0061
 30
6.4632
 70
192
 0
VERTEX
 8
ROSETTE_2
 10
12.0118
 20
0.0061
 30
6.4632
 70
192
 0
VERTEX
 8
ROSETTE_2
 10
12.0118
 20
0.0061
 30
6.0632
 70
192
 0
VERTEX
 8
ROSETTE_2
 10
12.0118
 20
0.0061
 30
6.0632
 70
192
 0
VERTEX
 8
ROSETTE_2
 10
8.531
 20
-0.3598
 30
6.0632
 70
192
 0
VERTEX
 8
ROSETTE_2
 10
8.531
 20
-0.3598
 30
6.0632
 70
192
 0
VERTEX
 8
ROSETTE_2
 10
8.531
 20
-0.3598
 30
6.4632
 70
192
 0
VERTEX
 8
ROSETTE_2
 10
8.531
 20
-0.3598
 30
6.4632
 70
192
 0
VERTEX
 8
ROSETTE_2
 10
12.0118
 20
0.0061
 30
6.4632
 70
192
 0
VERTEX
 8
ROSETTE_2
 10
12.0118
 20
0.0061
 30
6.4632
 70
192
 0
VERTEX
 8
ROSETTE_2
 10
12.0118
 20
0.0061
 30
6.0632
 70
192
 0
VERTEX
 8
ROSETTE_2
 10
12.0118
 20
0.0061
 30
6.0632
 70
192
 0
VERTEX
 8
ROSETTE_2
 10
8.9807
 20
-1.7439
 30
6.0632
 70
192
 0
VERTEX
 8
ROSETTE_2
 10
8.9807
 20
-1.7439
 30
6.0632
 70
192
 0
VERTEX
 8
ROSETTE_2
 10
8.9807
 20
-1.7439
 30
6.4632
 70
192
 0
VERTEX
 8
ROSETTE_2
 10
8.9807
 20
-1.7439
 30
6.4632
 70
192
 0
VERTEX
 8
ROSETTE_2
 10
12.0118
 20
0.0061
 30
6.4632
 70
192
 0
VERTEX
 8
ROSETTE_2
 10
12.0118
 20
0.0061
 30
6.4632
 70
192
 0
VERTEX
 8
ROSETTE_2
 10
12.0118
 20
0.0061
 30
6.0632
 70
192
 0
VERTEX
 8
ROSETTE_2
 10
12.0118
 20
0.0061
 30
6.0632
 70
192
 0
VERTEX
 8
ROSETTE_2
 10
9.9545
 20
-2.8255
 30
6.0632
 70
192
 0
VERTEX
 8
ROSETTE_2
 10
9.9545
 20
-2.8255
 30
6.0632
 70
192
 0
VERTEX
 8
ROSETTE_2
 10
9.9545
 20
-2.8255
 30
6.4632
 70
192
 0
VERTEX
 8
ROSETTE_2
 10
9.9545
 20
-2.8255
 30
6.4632
 70
192
 0
VERTEX
 8
ROSETTE_2
 10
12.0118
 20
0.0061
 30
6.4632
 70
192
 0
VERTEX
 8
ROSETTE_2
 10
12.0118
 20
0.0061
 30
6.4632
 70
192
 0
VERTEX
 8
ROSETTE_2
 10
12.0118
 20
0.0061
 30
6.0632
 70
192
 0
VERTEX
 8
ROSETTE_2
 10
12.0118
 20
0.0061
 30
6.0632
 70
192
 0
VERTEX
 8
ROSETTE_2
 10
11.2841
 20
-3.4175
 30
6.0632
 70
192
 0
VERTEX
 8
ROSETTE_2
 10
11.2841
 20
-3.4175
 30
6.0632
 70
192
 0
VERTEX
 8
ROSETTE_2
 10
11.2841
 20
-3.4175
 30
6.4632
 70
192
 0
VERTEX
 8
ROSETTE_2
 10
11.2841
 20
-3.4175
 30
6.4632
 70
192
 0
VERTEX
 8
ROSETTE_2
 10
12.0118
 20
0.0061
 30
6.4632
 70
192
 0
VERTEX
 8
ROSETTE_2
 10
12.0118
 20
0.0061
 30
6.4632
 70
192
 0
VERTEX
 8
ROSETTE_2
 10
12.0118
 20
0.0061
 30
6.0632
 70
192
 0
VERTEX
 8
ROSETTE_2
 10
12.0118
 20
0.0061
 30
6.0632
 70
192
 0
VERTEX
 8
ROSETTE_2
 10
12.7395
 20
-3.4175
 30
6.0632
 70
192
 0
VERTEX
 8
ROSETTE_2
 10
12.7395
 20
-3.4175
 30
6.0632
 70
192
 0
VERTEX
 8
ROSETTE_2
 10
12.7395
 20
-3.4175
 30
6.4632
 70
192
 0
VERTEX
 8
ROSETTE_2
 10
12.7395
 20
-3.4175
 30
6.4632
 70
192
 0
VERTEX
 8
ROSETTE_2
 10
12.0118
 20
0.0061
 30
6.4632
 70
192
 0
VERTEX
 8
ROSETTE_2
 10
12.0118
 20
0.0061
 30
6.4632
 70
192
 0
VERTEX
 8
ROSETTE_2
 10
12.0118
 20
0.0061
 30
6.0632
 70
192
 0
VERTEX
 8
ROSETTE_2
 10
12.0118
 20
0.0061
 30
6.0632
 70
192
 0
VERTEX
 8
ROSETTE_2
 10
14.069
 20
-2.8255
 30
6.0632
 70
192
 0
VERTEX
 8
ROSETTE_2
 10
14.069
 20
-2.8255
 30
6.0632
 70
192
 0
VERTEX
 8
ROSETTE_2
 10
14.069
 20
-2.8255
 30
6.4632
 70
192
 0
VERTEX
 8
ROSETTE_2
 10
14.069
 20
-2.8255
 30
6.4632
 70
192
 0
VERTEX
 8
ROSETTE_2
 10
12.0118
 20
0.0061
 30
6.4632
 70
192
 0
VERTEX
 8
ROSETTE_2
 10
12.0118
 20
0.0061
 30
6.4632
 70
192
 0
VERTEX
 8
ROSETTE_2
 10
12.0118
 20
0.0061
 30
6.0632
 70
192
 0
VERTEX
 8
ROSETTE_2
 10
12.0118
 20
0.0061
 30
6.0632
 70
192
 0
VERTEX
 8
ROSETTE_2
 10
15.0429
 20
-1.7439
 30
6.0632
 70
192
 0
VERTEX
 8
ROSETTE_2
 10
15.0429
 20
-1.7439
 30
6.0632
 70
192
 0
VERTEX
 8
ROSETTE_2
 10
15.0429
 20
-1.7439
 30
6.4632
 70
192
 0
VERTEX
 8
ROSETTE_2
 10
15.0429
 20
-1.7439
 30
6.4632
 70
192
 0
VERTEX
 8
ROSETTE_2
 10
12.0118
 20
0.0061
 30
6.4632
 70
192
 0
VERTEX
 8
ROSETTE_2
 10
12.0118
 20
0.0061
 30
6.4632
 70
192
 0
VERTEX
 8
ROSETTE_2
 10
12.0118
 20
0.0061
 30
6.0632
 70
192
 0
VERTEX
 8
ROSETTE_2
 10
12.0118
 20
0.0061
 30
6.0632
 70
192
 0
VERTEX
 8
ROSETTE_2
 10
15.4926
 20
-0.3598
 30
6.0632
 70
192
 0
VERTEX
 8
ROSETTE_2
 10
15.4926
 20
-0.3598
 30
6.0632
 70
192
 0
VERTEX
 8
ROSETTE_2
 10
15.4926
 20
-0.3598
 30
6.4632
 70
192
 0
VERTEX
 8
ROSETTE_2
 10
15.4926
 20
-0.3598
 30
6.4632
 70
192
 0
VERTEX
 8
ROSETTE_2
 10
12.0118
 20
0.0061
 30
6.4632
 70
192
 0
VERTEX
 8
ROSETTE_2
 10
12.0118
 20
0.0061
 30
6.4632
 70
192
 0
VERTEX
 8
ROSETTE_2
 10
12.0118
 20
0.0061
 30
6.0632
 70
192
 0
VERTEX
 8
ROSETTE_2
 10
12.0118
 20
0.0061
 30
6.0632
 70
192
 0
VERTEX
 8
ROSETTE_2
 10
15.3405
 20
1.0876
 30
6.0632
 70
192
 0
VERTEX
 8
ROSETTE_2
 10
15.3405
 20
1.0876
 30
6.0632
 70
192
 0
VERTEX
 8
ROSETTE_2
 10
15.3405
 20
1.0876
 30
6.4632
 70
192
 0
VERTEX
 8
ROSETTE_2
 10
15.3405
 20
1.0876
 30
6.4632
 70
192
 0
VERTEX
 8
ROSETTE_2
 10
12.0118
 20
0.0061
 30
6.4632
 70
192
 0
VERTEX
 8
ROSETTE_2
 10
12.0118
 20
0.0061
 30
6.4632
 70
192
 0
VERTEX
 8
ROSETTE_2
 10
12.0118
 20
0.0061
 30
6.0632
 70
192
 0
VERTEX
 8
ROSETTE_2
 10
12.0118
 20
0.0061
 30
6.0632
 70
192
 0
VERTEX
 8
ROSETTE_2
 10
14.6128
 20
2.348
 30
6.0632
 70
192
 0
VERTEX
 8
ROSETTE_2
 10
14.6128
 20
2.348
 30
6.0632
 70
192
 0
VERTEX
 8
ROSETTE_2
 10
14.6128
 20
2.348
 30
6.4632
 70
192
 0
VERTEX
 8
ROSETTE_2
 10
14.6128
 20
2.348
 30
6.4632
 70
192
 0
VERTEX
 8
ROSETTE_2
 10
12.0118
 20
0.0061
 30
6.4632
 70
192
 0
VERTEX
 8
ROSETTE_2
 10
12.0118
 20
0.0061
 30
6.4632
 70
192
 0
VERTEX
 8
ROSETTE_2
 10
12.0118
 20
0.0061
 30
6.0632
 70
192
 0
VERTEX
 8
ROSETTE_2
 10
12.0118
 20
0.0061
 30
6.0632
 70
192
 0
VERTEX
 8
ROSETTE_2
 10
13.4354
 20
3.2035
 30
6.0632
 70
192
 0
VERTEX
 8
ROSETTE_2
 10
13.4354
 20
3.2035
 30
6.0632
 70
192
 0
VERTEX
 8
ROSETTE_2
 10
13.4354
 20
3.2035
 30
6.4632
 70
192
 0
VERTEX
 8
ROSETTE_2
 10
13.4354
 20
3.2035
 30
6.4632
 70
192
 0
VERTEX
 8
ROSETTE_2
 10
12.0118
 20
0.0061
 30
6.4632
 70
192
 0
VERTEX
 8
ROSETTE_2
 10
12.0118
 20
0.0061
 30
6.4632
 70
192
 0
VERTEX
 8
ROSETTE_2
 10
12.0118
 20
0.0061
 30
6.0632
 70
192
 0
VERTEX
 8
ROSETTE_2
 10
0
 20
0
 30
0
 70
128
 71
1
 72
2
 73
10
 74
10
 0
VERTEX
 8
ROSETTE_2
 10
0
 20
0
 30
0
 70
128
 71
3
 72
4
 73
12
 74
11
 0
VERTEX
 8
ROSETTE_2
 10
0
 20
0
 30
0
 70
128
 71
5
 72
14
 73
13
 74
13
 0
VERTEX
 8
ROSETTE_2
 10
0
 20
0
 30
0
 70
128
 71
9
 72
10
 73
18
 74
18
 0
VERTEX
 8
ROSETTE_2
 10
0
 20
0
 30
0
 70
128
 71
11
 72
12
 73
20
 74
19
 0
VERTEX
 8
ROSETTE_2
 10
0
 20
0
 30
0
 70
128
 71
13
 72
22
 73
21
 74
21
 0
VERTEX
 8
ROSETTE_2
 10
0
 20
0
 30
0
 70
128
 71
17
 72
18
 73
26
 74
26
 0
VERTEX
 8
ROSETTE_2
 10
0
 20
0
 30
0
 70
128
 71
19
 72
20
 73
28
 74
27
 0
VERTEX
 8
ROSETTE_2
 10
0
 20
0
 30
0
 70
128
 71
21
 72
30
 73
29
 74
29
 0
VERTEX
 8
ROSETTE_2
 10
0
 20
0
 30
0
 70
128
 71
25
 72
26
 73
34
 74
34
 0
VERTEX
 8
ROSETTE_2
 10
0
 20
0
 30
0
 70
128
 71
27
 72
28
 73
36
 74
35
 0
VERTEX
 8
ROSETTE_2
 10
0
 20
0
 30
0
 70
128
 71
29
 72
38
 73
37
 74
37
 0
VERTEX
 8
ROSETTE_2
 10
0
 20
0
 30
0
 70
128
 71
33
 72
34
 73
42
 74
42
 0
VERTEX
 8
ROSETTE_2
 10
0
 20
0
 30
0
 70
128
 71
35
 72
36
 73
44
 74
43
 0
VERTEX
 8
ROSETTE_2
 10
0
 20
0
 30
0
 70
128
 71
37
 72
46
 73
45
 74
45
 0
VERTEX
 8
ROSETTE_2
 10
0
 20
0
 30
0
 70
128
 71
41
 72
42
 73
50
 74
50
 0
VERTEX
 8
ROSETTE_2
 10
0
 20
0
 30
0
 70
128
 71
43
 72
44
 73
52
 74
51
 0
VERTEX
 8
ROSETTE_2
 10
0
 20
0
 30
0
 70
128
 71
45
 72
54
 73
53
 74
53
 0
VERTEX
 8
ROSETTE_2
 10
0
 20
0
 30
0
 70
128
 71
49
 72
50
 73
58
 74
58
 0
VERTEX
 8
ROSETTE_2
 10
0
 20
0
 30
0
 70
128
 71
51
 72
52
 73
60
 74
59
 0
VERTEX
 8
ROSETTE_2
 10
0
 20
0
 30
0
 70
128
 71
53
 72
62
 73
61
 74
61
 0
VERTEX
 8
ROSETTE_2
 10
0
 20
0
 30
0
 70
128
 71
57
 72
58
 73
66
 74
66
 0
VERTEX
 8
ROSETTE_2
 10
0
 20
0
 30
0
 70
128
 71
59
 72
60
 73
68
 74
67
 0
VERTEX
 8
ROSETTE_2
 10
0
 20
0
 30
0
 70
128
 71
61
 72
70
 73
69
 74
69
 0
VERTEX
 8
ROSETTE_2
 10
0
 20
0
 30
0
 70
128
 71
65
 72
66
 73
74
 74
74
 0
VERTEX
 8
ROSETTE_2
 10
0
 20
0
 30
0
 70
128
 71
67
 72
68
 73
76
 74
75
 0
VERTEX
 8
ROSETTE_2
 10
0
 20
0
 30
0
 70
128
 71
69
 72
78
 73
77
 74
77
 0
VERTEX
 8
ROSETTE_2
 10
0
 20
0
 30
0
 70
128
 71
73
 72
74
 73
82
 74
82
 0
VERTEX
 8
ROSETTE_2
 10
0
 20
0
 30
0
 70
128
 71
75
 72
76
 73
84
 74
83
 0
VERTEX
 8
ROSETTE_2
 10
0
 20
0
 30
0
 70
128
 71
77
 72
86
 73
85
 74
85
 0
VERTEX
 8
ROSETTE_2
 10
0
 20
0
 30
0
 70
128
 71
81
 72
82
 73
90
 74
90
 0
VERTEX
 8
ROSETTE_2
 10
0
 20
0
 30
0
 70
128
 71
83
 72
84
 73
92
 74
91
 0
VERTEX
 8
ROSETTE_2
 10
0
 20
0
 30
0
 70
128
 71
85
 72
94
 73
93
 74
93
 0
VERTEX
 8
ROSETTE_2
 10
0
 20
0
 30
0
 70
128
 71
89
 72
90
 73
98
 74
98
 0
VERTEX
 8
ROSETTE_2
 10
0
 20
0
 30
0
 70
128
 71
91
 72
92
 73
100
 74
99
 0
VERTEX
 8
ROSETTE_2
 10
0
 20
0
 30
0
 70
128
 71
93
 72
102
 73
101
 74
101
 0
VERTEX
 8
ROSETTE_2
 10
0
 20
0
 30
0
 70
128
 71
97
 72
98
 73
106
 74
106
 0
VERTEX
 8
ROSETTE_2
 10
0
 20
0
 30
0
 70
128
 71
99
 72
100
 73
108
 74
107
 0
VERTEX
 8
ROSETTE_2
 10
0
 20
0
 30
0
 70
128
 71
101
 72
110
 73
109
 74
109
 0
VERTEX
 8
ROSETTE_2
 10
0
 20
0
 30
0
 70
128
 71
105
 72
106
 73
114
 74
114
 0
VERTEX
 8
ROSETTE_2
 10
0
 20
0
 30
0
 70
128
 71
107
 72
108
 73
116
 74
115
 0
VERTEX
 8
ROSETTE_2
 10
0
 20
0
 30
0
 70
128
 71
109
 72
118
 73
117
 74
117
 0
VERTEX
 8
ROSETTE_2
 10
0
 20
0
 30
0
 70
128
 71
113
 72
114
 73
2
 74
2
 0
VERTEX
 8
ROSETTE_2
 10
0
 20
0
 30
0
 70
128
 71
115
 72
116
 73
4
 74
3
 0
VERTEX
 8
ROSETTE_2
 10
0
 20
0
 30
0
 70
128
 71
117
 72
6
 73
5
 74
5
 0
SEQEND
 0
POLYLINE
 8
GRIFF_25
 66
1
 10
0.0
 20
0.0
 30
0.0
 70
64
 71
90
 72
30
 0
VERTEX
 8
GRIFF_25
 10
14.1798
 20
-0.2218
 30
6.2329
 70
192
 0
VERTEX
 8
GRIFF_25
 10
12.0118
 20
2.1861
 30
6.2329
 70
192
 0
VERTEX
 8
GRIFF_25
 10
12.0118
 20
2.1861
 30
6.2329
 70
192
 0
VERTEX
 8
GRIFF_25
 10
12.0118
 20
2.1861
 30
11.2329
 70
192
 0
VERTEX
 8
GRIFF_25
 10
12.0118
 20
2.1861
 30
11.2329
 70
192
 0
VERTEX
 8
GRIFF_25
 10
12.0118
 20
0.0061
 30
11.2329
 70
192
 0
VERTEX
 8
GRIFF_25
 10
12.0118
 20
0.0061
 30
11.2329
 70
192
 0
VERTEX
 8
GRIFF_25
 10
14.1798
 20
-0.2218
 30
11.2329
 70
192
 0
VERTEX
 8
GRIFF_25
 10
14.1798
 20
-0.2218
 30
11.2329
 70
192
 0
VERTEX
 8
GRIFF_25
 10
11.1251
 20
1.9976
 30
6.2329
 70
192
 0
VERTEX
 8
GRIFF_25
 10
11.1251
 20
1.9976
 30
6.2329
 70
192
 0
VERTEX
 8
GRIFF_25
 10
11.1251
 20
1.9976
 30
11.2329
 70
192
 0
VERTEX
 8
GRIFF_25
 10
11.1251
 20
1.9976
 30
11.2329
 70
192
 0
VERTEX
 8
GRIFF_25
 10
12.0118
 20
0.0061
 30
11.2329
 70
192
 0
VERTEX
 8
GRIFF_25
 10
12.0118
 20
0.0061
 30
11.2329
 70
192
 0
VERTEX
 8
GRIFF_25
 10
12.0118
 20
0.0061
 30
11.2329
 70
192
 0
VERTEX
 8
GRIFF_25
 10
12.0118
 20
0.0061
 30
11.2329
 70
192
 0
VERTEX
 8
GRIFF_25
 10
10.3917
 20
1.4648
 30
6.2329
 70
192
 0
VERTEX
 8
GRIFF_25
 10
10.3917
 20
1.4648
 30
6.2329
 70
192
 0
VERTEX
 8
GRIFF_25
 10
10.3917
 20
1.4648
 30
11.2329
 70
192
 0
VERTEX
 8
GRIFF_25
 10
10.3917
 20
1.4648
 30
11.2329
 70
192
 0
VERTEX
 8
GRIFF_25
 10
12.0118
 20
0.0061
 30
11.2329
 70
192
 0
VERTEX
 8
GRIFF_25
 10
12.0118
 20
0.0061
 30
11.2329
 70
192
 0
VERTEX
 8
GRIFF_25
 10
14.0851
 20
0.6797
 30
6.2329
 70
192
 0
VERTEX
 8
GRIFF_25
 10
14.0851
 20
0.6797
 30
6.2329
 70
192
 0
VERTEX
 8
GRIFF_25
 10
9.9385
 20
0.6797
 30
6.2329
 70
192
 0
VERTEX
 8
GRIFF_25
 10
9.9385
 20
0.6797
 30
6.2329
 70
192
 0
VERTEX
 8
GRIFF_25
 10
9.9385
 20
0.6797
 30
11.2329
 70
192
 0
VERTEX
 8
GRIFF_25
 10
9.9385
 20
0.6797
 30
11.2329
 70
192
 0
VERTEX
 8
GRIFF_25
 10
12.0118
 20
0.0061
 30
11.2329
 70
192
 0
VERTEX
 8
GRIFF_25
 10
12.0118
 20
0.0061
 30
11.2329
 70
192
 0
VERTEX
 8
GRIFF_25
 10
14.0851
 20
0.6797
 30
11.2329
 70
192
 0
VERTEX
 8
GRIFF_25
 10
14.0851
 20
0.6797
 30
11.2329
 70
192
 0
VERTEX
 8
GRIFF_25
 10
9.8437
 20
-0.2218
 30
6.2329
 70
192
 0
VERTEX
 8
GRIFF_25
 10
9.8437
 20
-0.2218
 30
6.2329
 70
192
 0
VERTEX
 8
GRIFF_25
 10
9.8437
 20
-0.2218
 30
11.2329
 70
192
 0
VERTEX
 8
GRIFF_25
 10
9.8437
 20
-0.2218
 30
11.2329
 70
192
 0
VERTEX
 8
GRIFF_25
 10
12.0118
 20
0.0061
 30
11.2329
 70
192
 0
VERTEX
 8
GRIFF_25
 10
12.0118
 20
0.0061
 30
11.2329
 70
192
 0
VERTEX
 8
GRIFF_25
 10
12.0118
 20
0.0061
 30
11.2329
 70
192
 0
VERTEX
 8
GRIFF_25
 10
12.0118
 20
0.0061
 30
11.2329
 70
192
 0
VERTEX
 8
GRIFF_25
 10
10.1238
 20
-1.0839
 30
6.2329
 70
192
 0
VERTEX
 8
GRIFF_25
 10
10.1238
 20
-1.0839
 30
6.2329
 70
192
 0
VERTEX
 8
GRIFF_25
 10
10.1238
 20
-1.0839
 30
11.2329
 70
192
 0
VERTEX
 8
GRIFF_25
 10
10.1238
 20
-1.0839
 30
11.2329
 70
192
 0
VERTEX
 8
GRIFF_25
 10
12.0118
 20
0.0061
 30
11.2329
 70
192
 0
VERTEX
 8
GRIFF_25
 10
12.0118
 20
0.0061
 30
11.2329
 70
192
 0
VERTEX
 8
GRIFF_25
 10
13.6318
 20
1.4648
 30
6.2329
 70
192
 0
VERTEX
 8
GRIFF_25
 10
13.6318
 20
1.4648
 30
6.2329
 70
192
 0
VERTEX
 8
GRIFF_25
 10
10.7304
 20
-1.7576
 30
6.2329
 70
192
 0
VERTEX
 8
GRIFF_25
 10
10.7304
 20
-1.7576
 30
6.2329
 70
192
 0
VERTEX
 8
GRIFF_25
 10
10.7304
 20
-1.7576
 30
11.2329
 70
192
 0
VERTEX
 8
GRIFF_25
 10
10.7304
 20
-1.7576
 30
11.2329
 70
192
 0
VERTEX
 8
GRIFF_25
 10
12.0118
 20
0.0061
 30
11.2329
 70
192
 0
VERTEX
 8
GRIFF_25
 10
12.0118
 20
0.0061
 30
11.2329
 70
192
 0
VERTEX
 8
GRIFF_25
 10
13.6318
 20
1.4648
 30
11.2329
 70
192
 0
VERTEX
 8
GRIFF_25
 10
13.6318
 20
1.4648
 30
11.2329
 70
192
 0
VERTEX
 8
GRIFF_25
 10
11.5585
 20
-2.1263
 30
6.2329
 70
192
 0
VERTEX
 8
GRIFF_25
 10
11.5585
 20
-2.1263
 30
6.2329
 70
192
 0
VERTEX
 8
GRIFF_25
 10
11.5585
 20
-2.1263
 30
11.2329
 70
192
 0
VERTEX
 8
GRIFF_25
 10
11.5585
 20
-2.1263
 30
11.2329
 70
192
 0
VERTEX
 8
GRIFF_25
 10
12.0118
 20
0.0061
 30
11.2329
 70
192
 0
VERTEX
 8
GRIFF_25
 10
12.0118
 20
0.0061
 30
11.2329
 70
192
 0
VERTEX
 8
GRIFF_25
 10
12.0118
 20
0.0061
 30
11.2329
 70
192
 0
VERTEX
 8
GRIFF_25
 10
12.0118
 20
0.0061
 30
11.2329
 70
192
 0
VERTEX
 8
GRIFF_25
 10
12.465
 20
-2.1263
 30
6.2329
 70
192
 0
VERTEX
 8
GRIFF_25
 10
12.465
 20
-2.1263
 30
6.2329
 70
192
 0
VERTEX
 8
GRIFF_25
 10
12.465
 20
-2.1263
 30
11.2329
 70
192
 0
VERTEX
 8
GRIFF_25
 10
12.465
 20
-2.1263
 30
11.2329
 70
192
 0
VERTEX
 8
GRIFF_25
 10
12.0118
 20
0.0061
 30
11.2329
 70
192
 0
VERTEX
 8
GRIFF_25
 10
12.0118
 20
0.0061
 30
11.2329
 70
192
 0
VERTEX
 8
GRIFF_25
 10
12.8985
 20
1.9976
 30
6.2329
 70
192
 0
VERTEX
 8
GRIFF_25
 10
12.8985
 20
1.9976
 30
6.2329
 70
192
 0
VERTEX
 8
GRIFF_25
 10
13.2932
 20
-1.7576
 30
6.2329
 70
192
 0
VERTEX
 8
GRIFF_25
 10
13.2932
 20
-1.7576
 30
6.2329
 70
192
 0
VERTEX
 8
GRIFF_25
 10
13.2932
 20
-1.7576
 30
11.2329
 70
192
 0
VERTEX
 8
GRIFF_25
 10
13.2932
 20
-1.7576
 30
11.2329
 70
192
 0
VERTEX
 8
GRIFF_25
 10
12.0118
 20
0.0061
 30
11.2329
 70
192
 0
VERTEX
 8
GRIFF_25
 10
12.0118
 20
0.0061
 30
11.2329
 70
192
 0
VERTEX
 8
GRIFF_25
 10
12.8985
 20
1.9976
 30
11.2329
 70
192
 0
VERTEX
 8
GRIFF_25
 10
12.8985
 20
1.9976
 30
11.2329
 70
192
 0
VERTEX
 8
GRIFF_25
 10
13.8997
 20
-1.0839
 30
6.2329
 70
192
 0
VERTEX
 8
GRIFF_25
 10
13.8997
 20
-1.0839
 30
6.2329
 70
192
 0
VERTEX
 8
GRIFF_25
 10
13.8997
 20
-1.0839
 30
11.2329
 70
192
 0
VERTEX
 8
GRIFF_25
 10
13.8997
 20
-1.0839
 30
11.2329
 70
192
 0
VERTEX
 8
GRIFF_25
 10
12.0118
 20
0.0061
 30
11.2329
 70
192
 0
VERTEX
 8
GRIFF_25
 10
12.0118
 20
0.0061
 30
11.2329
 70
192
 0
VERTEX
 8
GRIFF_25
 10
12.0118
 20
0.0061
 30
11.2329
 70
192
 0
VERTEX
 8
GRIFF_25
 10
12.0118
 20
0.0061
 30
11.2329
 70
192
 0
VERTEX
 8
GRIFF_25
 10
14.1798
 20
-0.2218
 30
6.2329
 70
192
 0
VERTEX
 8
GRIFF_25
 10
0
 20
0
 30
0
 70
128
 71
83
 72
84
 73
8
 74
1
 0
VERTEX
 8
GRIFF_25
 10
0
 20
0
 30
0
 70
128
 71
3
 72
4
 73
12
 74
11
 0
VERTEX
 8
GRIFF_25
 10
0
 20
0
 30
0
 70
128
 71
5
 72
14
 73
13
 74
13
 0
VERTEX
 8
GRIFF_25
 10
0
 20
0
 30
0
 70
128
 71
85
 72
16
 73
9
 74
9
 0
VERTEX
 8
GRIFF_25
 10
0
 20
0
 30
0
 70
128
 71
11
 72
12
 73
20
 74
19
 0
VERTEX
 8
GRIFF_25
 10
0
 20
0
 30
0
 70
128
 71
13
 72
22
 73
21
 74
21
 0
VERTEX
 8
GRIFF_25
 10
0
 20
0
 30
0
 70
128
 71
1
 72
8
 73
32
 74
25
 0
VERTEX
 8
GRIFF_25
 10
0
 20
0
 30
0
 70
128
 71
19
 72
20
 73
28
 74
27
 0
VERTEX
 8
GRIFF_25
 10
0
 20
0
 30
0
 70
128
 71
21
 72
30
 73
29
 74
29
 0
VERTEX
 8
GRIFF_25
 10
0
 20
0
 30
0
 70
128
 71
9
 72
40
 73
33
 74
33
 0
VERTEX
 8
GRIFF_25
 10
0
 20
0
 30
0
 70
128
 71
27
 72
28
 73
36
 74
35
 0
VERTEX
 8
GRIFF_25
 10
0
 20
0
 30
0
 70
128
 71
29
 72
38
 73
37
 74
37
 0
VERTEX
 8
GRIFF_25
 10
0
 20
0
 30
0
 70
128
 71
25
 72
32
 73
56
 74
49
 0
VERTEX
 8
GRIFF_25
 10
0
 20
0
 30
0
 70
128
 71
35
 72
36
 73
44
 74
43
 0
VERTEX
 8
GRIFF_25
 10
0
 20
0
 30
0
 70
128
 71
37
 72
46
 73
45
 74
45
 0
VERTEX
 8
GRIFF_25
 10
0
 20
0
 30
0
 70
128
 71
33
 72
64
 73
57
 74
57
 0
VERTEX
 8
GRIFF_25
 10
0
 20
0
 30
0
 70
128
 71
43
 72
44
 73
52
 74
51
 0
VERTEX
 8
GRIFF_25
 10
0
 20
0
 30
0
 70
128
 71
45
 72
54
 73
53
 74
53
 0
VERTEX
 8
GRIFF_25
 10
0
 20
0
 30
0
 70
128
 71
49
 72
56
 73
80
 74
73
 0
VERTEX
 8
GRIFF_25
 10
0
 20
0
 30
0
 70
128
 71
51
 72
52
 73
60
 74
59
 0
VERTEX
 8
GRIFF_25
 10
0
 20
0
 30
0
 70
128
 71
53
 72
62
 73
61
 74
61
 0
VERTEX
 8
GRIFF_25
 10
0
 20
0
 30
0
 70
128
 71
57
 72
88
 73
81
 74
81
 0
VERTEX
 8
GRIFF_25
 10
0
 20
0
 30
0
 70
128
 71
59
 72
60
 73
68
 74
67
 0
VERTEX
 8
GRIFF_25
 10
0
 20
0
 30
0
 70
128
 71
61
 72
70
 73
69
 74
69
 0
VERTEX
 8
GRIFF_25
 10
0
 20
0
 30
0
 70
128
 71
73
 72
80
 73
4
 74
3
 0
VERTEX
 8
GRIFF_25
 10
0
 20
0
 30
0
 70
128
 71
67
 72
68
 73
76
 74
75
 0
VERTEX
 8
GRIFF_25
 10
0
 20
0
 30
0
 70
128
 71
69
 72
78
 73
77
 74
77
 0
VERTEX
 8
GRIFF_25
 10
0
 20
0
 30
0
 70
128
 71
81
 72
6
 73
5
 74
5
 0
VERTEX
 8
GRIFF_25
 10
0
 20
0
 30
0
 70
128
 71
75
 72
76
 73
84
 74
83
 0
VERTEX
 8
GRIFF_25
 10
0
 20
0
 30
0
 70
128
 71
77
 72
86
 73
85
 74
85
 0
SEQEND
 0
POLYLINE
 8
GRIFF_24
 66
1
 10
0.0
 20
0.0
 30
0.0
 70
64
 71
12
 72
6
 0
VERTEX
 8
GRIFF_24
 10
12.0238
 20
-0.4939
 30
10.8508
 70
192
 0
VERTEX
 8
GRIFF_24
 10
12.0238
 20
-0.4939
 30
12.8508
 70
192
 0
VERTEX
 8
GRIFF_24
 10
12.4568
 20
-0.2439
 30
10.8508
 70
192
 0
VERTEX
 8
GRIFF_24
 10
12.4568
 20
-0.2439
 30
12.8508
 70
192
 0
VERTEX
 8
GRIFF_24
 10
12.4568
 20
0.2561
 30
10.8508
 70
192
 0
VERTEX
 8
GRIFF_24
 10
12.4568
 20
0.2561
 30
12.8508
 70
192
 0
VERTEX
 8
GRIFF_24
 10
12.0238
 20
0.5061
 30
10.8508
 70
192
 0
VERTEX
 8
GRIFF_24
 10
12.0238
 20
0.5061
 30
12.8508
 70
192
 0
VERTEX
 8
GRIFF_24
 10
11.5908
 20
0.2561
 30
10.8508
 70
192
 0
VERTEX
 8
GRIFF_24
 10
11.5908
 20
0.2561
 30
12.8508
 70
192
 0
VERTEX
 8
GRIFF_24
 10
11.5908
 20
-0.2439
 30
10.8508
 70
192
 0
VERTEX
 8
GRIFF_24
 10
11.5908
 20
-0.2439
 30
12.8508
 70
192
 0
VERTEX
 8
GRIFF_24
 10
0
 20
0
 30
0
 70
128
 71
1
 72
2
 73
4
 74
3
 0
VERTEX
 8
GRIFF_24
 10
0
 20
0
 30
0
 70
128
 71
3
 72
4
 73
6
 74
5
 0
VERTEX
 8
GRIFF_24
 10
0
 20
0
 30
0
 70
128
 71
5
 72
6
 73
8
 74
7
 0
VERTEX
 8
GRIFF_24
 10
0
 20
0
 30
0
 70
128
 71
7
 72
8
 73
10
 74
9
 0
VERTEX
 8
GRIFF_24
 10
0
 20
0
 30
0
 70
128
 71
9
 72
10
 73
12
 74
11
 0
VERTEX
 8
GRIFF_24
 10
0
 20
0
 30
0
 70
128
 71
11
 72
12
 73
2
 74
1
 0
SEQEND
 0
POLYLINE
 8
GRIFF_23
 66
1
 10
0.0
 20
0.0
 30
0.0
 70
64
 71
12
 72
6
 0
VERTEX
 8
GRIFF_23
 10
11.7281
 20
0.3018
 30
13.5505
 70
192
 0
VERTEX
 8
GRIFF_23
 10
10.8796
 20
1.1503
 30
13.5505
 70
192
 0
VERTEX
 8
GRIFF_23
 10
11.9424
 20
0.5161
 30
13.3755
 70
192
 0
VERTEX
 8
GRIFF_23
 10
11.0939
 20
1.3646
 30
13.3755
 70
192
 0
VERTEX
 8
GRIFF_23
 10
11.9424
 20
0.5161
 30
13.0255
 70
192
 0
VERTEX
 8
GRIFF_23
 10
11.0939
 20
1.3646
 30
13.0255
 70
192
 0
VERTEX
 8
GRIFF_23
 10
11.7281
 20
0.3018
 30
12.8505
 70
192
 0
VERTEX
 8
GRIFF_23
 10
10.8796
 20
1.1503
 30
12.8505
 70
192
 0
VERTEX
 8
GRIFF_23
 10
11.5138
 20
0.0875
 30
13.0255
 70
192
 0
VERTEX
 8
GRIFF_23
 10
10.6653
 20
0.936
 30
13.0255
 70
192
 0
VERTEX
 8
GRIFF_23
 10
11.5138
 20
0.0875
 30
13.3755
 70
192
 0
VERTEX
 8
GRIFF_23
 10
10.6653
 20
0.936
 30
13.3755
 70
192
 0
VERTEX
 8
GRIFF_23
 10
0
 20
0
 30
0
 70
128
 71
1
 72
2
 73
4
 74
3
 0
VERTEX
 8
GRIFF_23
 10
0
 20
0
 30
0
 70
128
 71
3
 72
4
 73
6
 74
5
 0
VERTEX
 8
GRIFF_23
 10
0
 20
0
 30
0
 70
128
 71
5
 72
6
 73
8
 74
7
 0
VERTEX
 8
GRIFF_23
 10
0
 20
0
 30
0
 70
128
 71
7
 72
8
 73
10
 74
9
 0
VERTEX
 8
GRIFF_23
 10
0
 20
0
 30
0
 70
128
 71
9
 72
10
 73
12
 74
11
 0
VERTEX
 8
GRIFF_23
 10
0
 20
0
 30
0
 70
128
 71
11
 72
12
 73
2
 74
1
 0
SEQEND
 0
POLYLINE
 8
GRIFF_22
 66
1
 10
0.0
 20
0.0
 30
0.0
 70
64
 71
34
 72
24
 0
VERTEX
 8
GRIFF_22
 10
11.3322
 20
0.6977
 30
13.2026
 70
192
 0
VERTEX
 8
GRIFF_22
 10
9.918
 20
2.1119
 30
13.2026
 70
192
 0
VERTEX
 8
GRIFF_22
 10
11.3322
 20
0.6977
 30
13.7026
 70
192
 0
VERTEX
 8
GRIFF_22
 10
11.3322
 20
0.6977
 30
13.7026
 70
192
 0
VERTEX
 8
GRIFF_22
 10
9.918
 20
2.1119
 30
13.7026
 70
192
 0
VERTEX
 8
GRIFF_22
 10
9.918
 20
2.1119
 30
13.7026
 70
192
 0
VERTEX
 8
GRIFF_22
 10
11.5822
 20
0.9477
 30
13.5562
 70
192
 0
VERTEX
 8
GRIFF_22
 10
11.5822
 20
0.9477
 30
13.5562
 70
192
 0
VERTEX
 8
GRIFF_22
 10
10.168
 20
2.3619
 30
13.5562
 70
192
 0
VERTEX
 8
GRIFF_22
 10
10.168
 20
2.3619
 30
13.5562
 70
192
 0
VERTEX
 8
GRIFF_22
 10
11.6858
 20
1.0512
 30
13.2026
 70
192
 0
VERTEX
 8
GRIFF_22
 10
11.6858
 20
1.0512
 30
13.2026
 70
192
 0
VERTEX
 8
GRIFF_22
 10
10.2716
 20
2.4655
 30
13.2026
 70
192
 0
VERTEX
 8
GRIFF_22
 10
10.2716
 20
2.4655
 30
13.2026
 70
192
 0
VERTEX
 8
GRIFF_22
 10
11.5822
 20
0.9477
 30
12.849
 70
192
 0
VERTEX
 8
GRIFF_22
 10
11.5822
 20
0.9477
 30
12.849
 70
192
 0
VERTEX
 8
GRIFF_22
 10
10.168
 20
2.3619
 30
12.849
 70
192
 0
VERTEX
 8
GRIFF_22
 10
10.168
 20
2.3619
 30
12.849
 70
192
 0
VERTEX
 8
GRIFF_22
 10
11.3322
 20
0.6977
 30
12.7026
 70
192
 0
VERTEX
 8
GRIFF_22
 10
11.3322
 20
0.6977
 30
12.7026
 70
192
 0
VERTEX
 8
GRIFF_22
 10
9.918
 20
2.1119
 30
12.7026
 70
192
 0
VERTEX
 8
GRIFF_22
 10
9.918
 20
2.1119
 30
12.7026
 70
192
 0
VERTEX
 8
GRIFF_22
 10
11.0822
 20
0.4477
 30
12.849
 70
192
 0
VERTEX
 8
GRIFF_22
 10
11.0822
 20
0.4477
 30
12.849
 70
192
 0
VERTEX
 8
GRIFF_22
 10
9.668
 20
1.8619
 30
12.849
 70
192
 0
VERTEX
 8
GRIFF_22
 10
9.668
 20
1.8619
 30
12.849
 70
192
 0
VERTEX
 8
GRIFF_22
 10
10.9787
 20
0.3441
 30
13.2026
 70
192
 0
VERTEX
 8
GRIFF_22
 10
10.9787
 20
0.3441
 30
13.2026
 70
192
 0
VERTEX
 8
GRIFF_22
 10
9.5644
 20
1.7584
 30
13.2026
 70
192
 0
VERTEX
 8
GRIFF_22
 10
9.5644
 20
1.7584
 30
13.2026
 70
192
 0
VERTEX
 8
GRIFF_22
 10
11.0822
 20
0.4477
 30
13.5562
 70
192
 0
VERTEX
 8
GRIFF_22
 10
11.0822
 20
0.4477
 30
13.5562
 70
192
 0
VERTEX
 8
GRIFF_22
 10
9.668
 20
1.8619
 30
13.5562
 70
192
 0
VERTEX
 8
GRIFF_22
 10
9.668
 20
1.8619
 30
13.5562
 70
192
 0
VERTEX
 8
GRIFF_22
 10
0
 20
0
 30
0
 70
128
 71
1
 72
3
 73
7
 74
7
 0
VERTEX
 8
GRIFF_22
 10
0
 20
0
 30
0
 70
128
 71
4
 72
5
 73
9
 74
8
 0
VERTEX
 8
GRIFF_22
 10
0
 20
0
 30
0
 70
128
 71
6
 72
2
 73
10
 74
10
 0
VERTEX
 8
GRIFF_22
 10
0
 20
0
 30
0
 70
128
 71
1
 72
7
 73
11
 74
11
 0
VERTEX
 8
GRIFF_22
 10
0
 20
0
 30
0
 70
128
 71
8
 72
9
 73
13
 74
12
 0
VERTEX
 8
GRIFF_22
 10
0
 20
0
 30
0
 70
128
 71
10
 72
2
 73
14
 74
14
 0
VERTEX
 8
GRIFF_22
 10
0
 20
0
 30
0
 70
128
 71
1
 72
11
 73
15
 74
15
 0
VERTEX
 8
GRIFF_22
 10
0
 20
0
 30
0
 70
128
 71
12
 72
13
 73
17
 74
16
 0
VERTEX
 8
GRIFF_22
 10
0
 20
0
 30
0
 70
128
 71
14
 72
2
 73
18
 74
18
 0
VERTEX
 8
GRIFF_22
 10
0
 20
0
 30
0
 70
128
 71
1
 72
15
 73
19
 74
19
 0
VERTEX
 8
GRIFF_22
 10
0
 20
0
 30
0
 70
128
 71
16
 72
17
 73
21
 74
20
 0
VERTEX
 8
GRIFF_22
 10
0
 20
0
 30
0
 70
128
 71
18
 72
2
 73
22
 74
22
 0
VERTEX
 8
GRIFF_22
 10
0
 20
0
 30
0
 70
128
 71
1
 72
19
 73
23
 74
23
 0
VERTEX
 8
GRIFF_22
 10
0
 20
0
 30
0
 70
128
 71
20
 72
21
 73
25
 74
24
 0
VERTEX
 8
GRIFF_22
 10
0
 20
0
 30
0
 70
128
 71
22
 72
2
 73
26
 74
26
 0
VERTEX
 8
GRIFF_22
 10
0
 20
0
 30
0
 70
128
 71
1
 72
23
 73
27
 74
27
 0
VERTEX
 8
GRIFF_22
 10
0
 20
0
 30
0
 70
128
 71
24
 72
25
 73
29
 74
28
 0
VERTEX
 8
GRIFF_22
 10
0
 20
0
 30
0
 70
128
 71
26
 72
2
 73
30
 74
30
 0
VERTEX
 8
GRIFF_22
 10
0
 20
0
 30
0
 70
128
 71
1
 72
27
 73
31
 74
31
 0
VERTEX
 8
GRIFF_22
 10
0
 20
0
 30
0
 70
128
 71
28
 72
29
 73
33
 74
32
 0
VERTEX
 8
GRIFF_22
 10
0
 20
0
 30
0
 70
128
 71
30
 72
2
 73
34
 74
34
 0
VERTEX
 8
GRIFF_22
 10
0
 20
0
 30
0
 70
128
 71
1
 72
31
 73
3
 74
3
 0
VERTEX
 8
GRIFF_22
 10
0
 20
0
 30
0
 70
128
 71
32
 72
33
 73
5
 74
4
 0
VERTEX
 8
GRIFF_22
 10
0
 20
0
 30
0
 70
128
 71
34
 72
2
 73
6
 74
6
 0
SEQEND
 0
POLYLINE
 8
GRIFF_21
 66
1
 10
0.0
 20
0.0
 30
0.0
 70
64
 71
12
 72
6
 0
VERTEX
 8
GRIFF_21
 10
12.3442
 20
-0.3143
 30
13.5505
 70
192
 0
VERTEX
 8
GRIFF_21
 10
13.1927
 20
-1.1628
 30
13.5505
 70
192
 0
VERTEX
 8
GRIFF_21
 10
12.1298
 20
-0.5286
 30
13.3755
 70
192
 0
VERTEX
 8
GRIFF_21
 10
12.9784
 20
-1.3771
 30
13.3755
 70
192
 0
VERTEX
 8
GRIFF_21
 10
12.1298
 20
-0.5286
 30
13.0255
 70
192
 0
VERTEX
 8
GRIFF_21
 10
12.9784
 20
-1.3771
 30
13.0255
 70
192
 0
VERTEX
 8
GRIFF_21
 10
12.3442
 20
-0.3143
 30
12.8505
 70
192
 0
VERTEX
 8
GRIFF_21
 10
13.1927
 20
-1.1628
 30
12.8505
 70
192
 0
VERTEX
 8
GRIFF_21
 10
12.5585
 20
-0.0999
 30
13.0255
 70
192
 0
VERTEX
 8
GRIFF_21
 10
13.407
 20
-0.9485
 30
13.0255
 70
192
 0
VERTEX
 8
GRIFF_21
 10
12.5585
 20
-0.0999
 30
13.3755
 70
192
 0
VERTEX
 8
GRIFF_21
 10
13.407
 20
-0.9485
 30
13.3755
 70
192
 0
VERTEX
 8
GRIFF_21
 10
0
 20
0
 30
0
 70
128
 71
1
 72
2
 73
4
 74
3
 0
VERTEX
 8
GRIFF_21
 10
0
 20
0
 30
0
 70
128
 71
3
 72
4
 73
6
 74
5
 0
VERTEX
 8
GRIFF_21
 10
0
 20
0
 30
0
 70
128
 71
5
 72
6
 73
8
 74
7
 0
VERTEX
 8
GRIFF_21
 10
0
 20
0
 30
0
 70
128
 71
7
 72
8
 73
10
 74
9
 0
VERTEX
 8
GRIFF_21
 10
0
 20
0
 30
0
 70
128
 71
9
 72
10
 73
12
 74
11
 0
VERTEX
 8
GRIFF_21
 10
0
 20
0
 30
0
 70
128
 71
11
 72
12
 73
2
 74
1
 0
SEQEND
 0
POLYLINE
 8
GRIFF_20
 66
1
 10
0.0
 20
0.0
 30
0.0
 70
64
 71
34
 72
24
 0
VERTEX
 8
GRIFF_20
 10
12.7272
 20
-0.6972
 30
13.2026
 70
192
 0
VERTEX
 8
GRIFF_20
 10
14.1414
 20
-2.1115
 30
13.2026
 70
192
 0
VERTEX
 8
GRIFF_20
 10
12.7272
 20
-0.6972
 30
13.7026
 70
192
 0
VERTEX
 8
GRIFF_20
 10
12.7272
 20
-0.6972
 30
13.7026
 70
192
 0
VERTEX
 8
GRIFF_20
 10
14.1414
 20
-2.1115
 30
13.7026
 70
192
 0
VERTEX
 8
GRIFF_20
 10
14.1414
 20
-2.1115
 30
13.7026
 70
192
 0
VERTEX
 8
GRIFF_20
 10
12.4772
 20
-0.9472
 30
13.5562
 70
192
 0
VERTEX
 8
GRIFF_20
 10
12.4772
 20
-0.9472
 30
13.5562
 70
192
 0
VERTEX
 8
GRIFF_20
 10
13.8914
 20
-2.3615
 30
13.5562
 70
192
 0
VERTEX
 8
GRIFF_20
 10
13.8914
 20
-2.3615
 30
13.5562
 70
192
 0
VERTEX
 8
GRIFF_20
 10
12.3736
 20
-1.0508
 30
13.2026
 70
192
 0
VERTEX
 8
GRIFF_20
 10
12.3736
 20
-1.0508
 30
13.2026
 70
192
 0
VERTEX
 8
GRIFF_20
 10
13.7878
 20
-2.465
 30
13.2026
 70
192
 0
VERTEX
 8
GRIFF_20
 10
13.7878
 20
-2.465
 30
13.2026
 70
192
 0
VERTEX
 8
GRIFF_20
 10
12.4772
 20
-0.9472
 30
12.849
 70
192
 0
VERTEX
 8
GRIFF_20
 10
12.4772
 20
-0.9472
 30
12.849
 70
192
 0
VERTEX
 8
GRIFF_20
 10
13.8914
 20
-2.3615
 30
12.849
 70
192
 0
VERTEX
 8
GRIFF_20
 10
13.8914
 20
-2.3615
 30
12.849
 70
192
 0
VERTEX
 8
GRIFF_20
 10
12.7272
 20
-0.6972
 30
12.7026
 70
192
 0
VERTEX
 8
GRIFF_20
 10
12.7272
 20
-0.6972
 30
12.7026
 70
192
 0
VERTEX
 8
GRIFF_20
 10
14.1414
 20
-2.1115
 30
12.7026
 70
192
 0
VERTEX
 8
GRIFF_20
 10
14.1414
 20
-2.1115
 30
12.7026
 70
192
 0
VERTEX
 8
GRIFF_20
 10
12.9772
 20
-0.4472
 30
12.849
 70
192
 0
VERTEX
 8
GRIFF_20
 10
12.9772
 20
-0.4472
 30
12.849
 70
192
 0
VERTEX
 8
GRIFF_20
 10
14.3914
 20
-1.8615
 30
12.849
 70
192
 0
VERTEX
 8
GRIFF_20
 10
14.3914
 20
-1.8615
 30
12.849
 70
192
 0
VERTEX
 8
GRIFF_20
 10
13.0807
 20
-0.3437
 30
13.2026
 70
192
 0
VERTEX
 8
GRIFF_20
 10
13.0807
 20
-0.3437
 30
13.2026
 70
192
 0
VERTEX
 8
GRIFF_20
 10
14.4949
 20
-1.7579
 30
13.2026
 70
192
 0
VERTEX
 8
GRIFF_20
 10
14.4949
 20
-1.7579
 30
13.2026
 70
192
 0
VERTEX
 8
GRIFF_20
 10
12.9772
 20
-0.4472
 30
13.5562
 70
192
 0
VERTEX
 8
GRIFF_20
 10
12.9772
 20
-0.4472
 30
13.5562
 70
192
 0
VERTEX
 8
GRIFF_20
 10
14.3914
 20
-1.8615
 30
13.5562
 70
192
 0
VERTEX
 8
GRIFF_20
 10
14.3914
 20
-1.8615
 30
13.5562
 70
192
 0
VERTEX
 8
GRIFF_20
 10
0
 20
0
 30
0
 70
128
 71
1
 72
3
 73
7
 74
7
 0
VERTEX
 8
GRIFF_20
 10
0
 20
0
 30
0
 70
128
 71
4
 72
5
 73
9
 74
8
 0
VERTEX
 8
GRIFF_20
 10
0
 20
0
 30
0
 70
128
 71
6
 72
2
 73
10
 74
10
 0
VERTEX
 8
GRIFF_20
 10
0
 20
0
 30
0
 70
128
 71
1
 72
7
 73
11
 74
11
 0
VERTEX
 8
GRIFF_20
 10
0
 20
0
 30
0
 70
128
 71
8
 72
9
 73
13
 74
12
 0
VERTEX
 8
GRIFF_20
 10
0
 20
0
 30
0
 70
128
 71
10
 72
2
 73
14
 74
14
 0
VERTEX
 8
GRIFF_20
 10
0
 20
0
 30
0
 70
128
 71
1
 72
11
 73
15
 74
15
 0
VERTEX
 8
GRIFF_20
 10
0
 20
0
 30
0
 70
128
 71
12
 72
13
 73
17
 74
16
 0
VERTEX
 8
GRIFF_20
 10
0
 20
0
 30
0
 70
128
 71
14
 72
2
 73
18
 74
18
 0
VERTEX
 8
GRIFF_20
 10
0
 20
0
 30
0
 70
128
 71
1
 72
15
 73
19
 74
19
 0
VERTEX
 8
GRIFF_20
 10
0
 20
0
 30
0
 70
128
 71
16
 72
17
 73
21
 74
20
 0
VERTEX
 8
GRIFF_20
 10
0
 20
0
 30
0
 70
128
 71
18
 72
2
 73
22
 74
22
 0
VERTEX
 8
GRIFF_20
 10
0
 20
0
 30
0
 70
128
 71
1
 72
19
 73
23
 74
23
 0
VERTEX
 8
GRIFF_20
 10
0
 20
0
 30
0
 70
128
 71
20
 72
21
 73
25
 74
24
 0
VERTEX
 8
GRIFF_20
 10
0
 20
0
 30
0
 70
128
 71
22
 72
2
 73
26
 74
26
 0
VERTEX
 8
GRIFF_20
 10
0
 20
0
 30
0
 70
128
 71
1
 72
23
 73
27
 74
27
 0
VERTEX
 8
GRIFF_20
 10
0
 20
0
 30
0
 70
128
 71
24
 72
25
 73
29
 74
28
 0
VERTEX
 8
GRIFF_20
 10
0
 20
0
 30
0
 70
128
 71
26
 72
2
 73
30
 74
30
 0
VERTEX
 8
GRIFF_20
 10
0
 20
0
 30
0
 70
128
 71
1
 72
27
 73
31
 74
31
 0
VERTEX
 8
GRIFF_20
 10
0
 20
0
 30
0
 70
128
 71
28
 72
29
 73
33
 74
32
 0
VERTEX
 8
GRIFF_20
 10
0
 20
0
 30
0
 70
128
 71
30
 72
2
 73
34
 74
34
 0
VERTEX
 8
GRIFF_20
 10
0
 20
0
 30
0
 70
128
 71
1
 72
31
 73
3
 74
3
 0
VERTEX
 8
GRIFF_20
 10
0
 20
0
 30
0
 70
128
 71
32
 72
33
 73
5
 74
4
 0
VERTEX
 8
GRIFF_20
 10
0
 20
0
 30
0
 70
128
 71
34
 72
2
 73
6
 74
6
 0
SEQEND
 0
POLYLINE
 8
GRIFF_19
 66
1
 10
0.0
 20
0.0
 30
0.0
 70
64
 71
12
 72
6
 0
VERTEX
 8
GRIFF_19
 10
11.6459
 20
-0.3453
 30
13.5505
 70
192
 0
VERTEX
 8
GRIFF_19
 10
10.7974
 20
-1.1939
 30
13.5505
 70
192
 0
VERTEX
 8
GRIFF_19
 10
11.4316
 20
-0.131
 30
13.3755
 70
192
 0
VERTEX
 8
GRIFF_19
 10
10.583
 20
-0.9795
 30
13.3755
 70
192
 0
VERTEX
 8
GRIFF_19
 10
11.4316
 20
-0.131
 30
13.0255
 70
192
 0
VERTEX
 8
GRIFF_19
 10
10.583
 20
-0.9795
 30
13.0255
 70
192
 0
VERTEX
 8
GRIFF_19
 10
11.6459
 20
-0.3453
 30
12.8505
 70
192
 0
VERTEX
 8
GRIFF_19
 10
10.7974
 20
-1.1939
 30
12.8505
 70
192
 0
VERTEX
 8
GRIFF_19
 10
11.8602
 20
-0.5597
 30
13.0255
 70
192
 0
VERTEX
 8
GRIFF_19
 10
11.0117
 20
-1.4082
 30
13.0255
 70
192
 0
VERTEX
 8
GRIFF_19
 10
11.8602
 20
-0.5597
 30
13.3755
 70
192
 0
VERTEX
 8
GRIFF_19
 10
11.0117
 20
-1.4082
 30
13.3755
 70
192
 0
VERTEX
 8
GRIFF_19
 10
0
 20
0
 30
0
 70
128
 71
1
 72
2
 73
4
 74
3
 0
VERTEX
 8
GRIFF_19
 10
0
 20
0
 30
0
 70
128
 71
3
 72
4
 73
6
 74
5
 0
VERTEX
 8
GRIFF_19
 10
0
 20
0
 30
0
 70
128
 71
5
 72
6
 73
8
 74
7
 0
VERTEX
 8
GRIFF_19
 10
0
 20
0
 30
0
 70
128
 71
7
 72
8
 73
10
 74
9
 0
VERTEX
 8
GRIFF_19
 10
0
 20
0
 30
0
 70
128
 71
9
 72
10
 73
12
 74
11
 0
VERTEX
 8
GRIFF_19
 10
0
 20
0
 30
0
 70
128
 71
11
 72
12
 73
2
 74
1
 0
SEQEND
 0
POLYLINE
 8
GRIFF_18
 66
1
 10
0.0
 20
0.0
 30
0.0
 70
64
 71
34
 72
24
 0
VERTEX
 8
GRIFF_18
 10
11.2629
 20
-0.7283
 30
13.2026
 70
192
 0
VERTEX
 8
GRIFF_18
 10
9.8487
 20
-2.1425
 30
13.2026
 70
192
 0
VERTEX
 8
GRIFF_18
 10
11.2629
 20
-0.7283
 30
13.7026
 70
192
 0
VERTEX
 8
GRIFF_18
 10
11.2629
 20
-0.7283
 30
13.7026
 70
192
 0
VERTEX
 8
GRIFF_18
 10
9.8487
 20
-2.1425
 30
13.7026
 70
192
 0
VERTEX
 8
GRIFF_18
 10
9.8487
 20
-2.1425
 30
13.7026
 70
192
 0
VERTEX
 8
GRIFF_18
 10
11.0129
 20
-0.4783
 30
13.5562
 70
192
 0
VERTEX
 8
GRIFF_18
 10
11.0129
 20
-0.4783
 30
13.5562
 70
192
 0
VERTEX
 8
GRIFF_18
 10
9.5987
 20
-1.8925
 30
13.5562
 70
192
 0
VERTEX
 8
GRIFF_18
 10
9.5987
 20
-1.8925
 30
13.5562
 70
192
 0
VERTEX
 8
GRIFF_18
 10
10.9093
 20
-0.3748
 30
13.2026
 70
192
 0
VERTEX
 8
GRIFF_18
 10
10.9093
 20
-0.3748
 30
13.2026
 70
192
 0
VERTEX
 8
GRIFF_18
 10
9.4951
 20
-1.789
 30
13.2026
 70
192
 0
VERTEX
 8
GRIFF_18
 10
9.4951
 20
-1.789
 30
13.2026
 70
192
 0
VERTEX
 8
GRIFF_18
 10
11.0129
 20
-0.4783
 30
12.849
 70
192
 0
VERTEX
 8
GRIFF_18
 10
11.0129
 20
-0.4783
 30
12.849
 70
192
 0
VERTEX
 8
GRIFF_18
 10
9.5987
 20
-1.8925
 30
12.849
 70
192
 0
VERTEX
 8
GRIFF_18
 10
9.5987
 20
-1.8925
 30
12.849
 70
192
 0
VERTEX
 8
GRIFF_18
 10
11.2629
 20
-0.7283
 30
12.7026
 70
192
 0
VERTEX
 8
GRIFF_18
 10
11.2629
 20
-0.7283
 30
12.7026
 70
192
 0
VERTEX
 8
GRIFF_18
 10
9.8487
 20
-2.1425
 30
12.7026
 70
192
 0
VERTEX
 8
GRIFF_18
 10
9.8487
 20
-2.1425
 30
12.7026
 70
192
 0
VERTEX
 8
GRIFF_18
 10
11.5129
 20
-0.9783
 30
12.849
 70
192
 0
VERTEX
 8
GRIFF_18
 10
11.5129
 20
-0.9783
 30
12.849
 70
192
 0
VERTEX
 8
GRIFF_18
 10
10.0987
 20
-2.3925
 30
12.849
 70
192
 0
VERTEX
 8
GRIFF_18
 10
10.0987
 20
-2.3925
 30
12.849
 70
192
 0
VERTEX
 8
GRIFF_18
 10
11.6164
 20
-1.0819
 30
13.2026
 70
192
 0
VERTEX
 8
GRIFF_18
 10
11.6164
 20
-1.0819
 30
13.2026
 70
192
 0
VERTEX
 8
GRIFF_18
 10
10.2022
 20
-2.4961
 30
13.2026
 70
192
 0
VERTEX
 8
GRIFF_18
 10
10.2022
 20
-2.4961
 30
13.2026
 70
192
 0
VERTEX
 8
GRIFF_18
 10
11.5129
 20
-0.9783
 30
13.5562
 70
192
 0
VERTEX
 8
GRIFF_18
 10
11.5129
 20
-0.9783
 30
13.5562
 70
192
 0
VERTEX
 8
GRIFF_18
 10
10.0987
 20
-2.3925
 30
13.5562
 70
192
 0
VERTEX
 8
GRIFF_18
 10
10.0987
 20
-2.3925
 30
13.5562
 70
192
 0
VERTEX
 8
GRIFF_18
 10
0
 20
0
 30
0
 70
128
 71
1
 72
3
 73
7
 74
7
 0
VERTEX
 8
GRIFF_18
 10
0
 20
0
 30
0
 70
128
 71
4
 72
5
 73
9
 74
8
 0
VERTEX
 8
GRIFF_18
 10
0
 20
0
 30
0
 70
128
 71
6
 72
2
 73
10
 74
10
 0
VERTEX
 8
GRIFF_18
 10
0
 20
0
 30
0
 70
128
 71
1
 72
7
 73
11
 74
11
 0
VERTEX
 8
GRIFF_18
 10
0
 20
0
 30
0
 70
128
 71
8
 72
9
 73
13
 74
12
 0
VERTEX
 8
GRIFF_18
 10
0
 20
0
 30
0
 70
128
 71
10
 72
2
 73
14
 74
14
 0
VERTEX
 8
GRIFF_18
 10
0
 20
0
 30
0
 70
128
 71
1
 72
11
 73
15
 74
15
 0
VERTEX
 8
GRIFF_18
 10
0
 20
0
 30
0
 70
128
 71
12
 72
13
 73
17
 74
16
 0
VERTEX
 8
GRIFF_18
 10
0
 20
0
 30
0
 70
128
 71
14
 72
2
 73
18
 74
18
 0
VERTEX
 8
GRIFF_18
 10
0
 20
0
 30
0
 70
128
 71
1
 72
15
 73
19
 74
19
 0
VERTEX
 8
GRIFF_18
 10
0
 20
0
 30
0
 70
128
 71
16
 72
17
 73
21
 74
20
 0
VERTEX
 8
GRIFF_18
 10
0
 20
0
 30
0
 70
128
 71
18
 72
2
 73
22
 74
22
 0
VERTEX
 8
GRIFF_18
 10
0
 20
0
 30
0
 70
128
 71
1
 72
19
 73
23
 74
23
 0
VERTEX
 8
GRIFF_18
 10
0
 20
0
 30
0
 70
128
 71
20
 72
21
 73
25
 74
24
 0
VERTEX
 8
GRIFF_18
 10
0
 20
0
 30
0
 70
128
 71
22
 72
2
 73
26
 74
26
 0
VERTEX
 8
GRIFF_18
 10
0
 20
0
 30
0
 70
128
 71
1
 72
23
 73
27
 74
27
 0
VERTEX
 8
GRIFF_18
 10
0
 20
0
 30
0
 70
128
 71
24
 72
25
 73
29
 74
28
 0
VERTEX
 8
GRIFF_18
 10
0
 20
0
 30
0
 70
128
 71
26
 72
2
 73
30
 74
30
 0
VERTEX
 8
GRIFF_18
 10
0
 20
0
 30
0
 70
128
 71
1
 72
27
 73
31
 74
31
 0
VERTEX
 8
GRIFF_18
 10
0
 20
0
 30
0
 70
128
 71
28
 72
29
 73
33
 74
32
 0
VERTEX
 8
GRIFF_18
 10
0
 20
0
 30
0
 70
128
 71
30
 72
2
 73
34
 74
34
 0
VERTEX
 8
GRIFF_18
 10
0
 20
0
 30
0
 70
128
 71
1
 72
31
 73
3
 74
3
 0
VERTEX
 8
GRIFF_18
 10
0
 20
0
 30
0
 70
128
 71
32
 72
33
 73
5
 74
4
 0
VERTEX
 8
GRIFF_18
 10
0
 20
0
 30
0
 70
128
 71
34
 72
2
 73
6
 74
6
 0
SEQEND
 0
POLYLINE
 8
GRIFF_17
 66
1
 10
0.0
 20
0.0
 30
0.0
 70
64
 71
12
 72
6
 0
VERTEX
 8
GRIFF_17
 10
12.3493
 20
0.3581
 30
13.5505
 70
192
 0
VERTEX
 8
GRIFF_17
 10
13.1978
 20
1.2066
 30
13.5505
 70
192
 0
VERTEX
 8
GRIFF_17
 10
12.5636
 20
0.1438
 30
13.3755
 70
192
 0
VERTEX
 8
GRIFF_17
 10
13.4122
 20
0.9923
 30
13.3755
 70
192
 0
VERTEX
 8
GRIFF_17
 10
12.5636
 20
0.1438
 30
13.0255
 70
192
 0
VERTEX
 8
GRIFF_17
 10
13.4122
 20
0.9923
 30
13.0255
 70
192
 0
VERTEX
 8
GRIFF_17
 10
12.3493
 20
0.3581
 30
12.8505
 70
192
 0
VERTEX
 8
GRIFF_17
 10
13.1978
 20
1.2066
 30
12.8505
 70
192
 0
VERTEX
 8
GRIFF_17
 10
12.135
 20
0.5724
 30
13.0255
 70
192
 0
VERTEX
 8
GRIFF_17
 10
12.9835
 20
1.4209
 30
13.0255
 70
192
 0
VERTEX
 8
GRIFF_17
 10
12.135
 20
0.5724
 30
13.3755
 70
192
 0
VERTEX
 8
GRIFF_17
 10
12.9835
 20
1.4209
 30
13.3755
 70
192
 0
VERTEX
 8
GRIFF_17
 10
0
 20
0
 30
0
 70
128
 71
1
 72
2
 73
4
 74
3
 0
VERTEX
 8
GRIFF_17
 10
0
 20
0
 30
0
 70
128
 71
3
 72
4
 73
6
 74
5
 0
VERTEX
 8
GRIFF_17
 10
0
 20
0
 30
0
 70
128
 71
5
 72
6
 73
8
 74
7
 0
VERTEX
 8
GRIFF_17
 10
0
 20
0
 30
0
 70
128
 71
7
 72
8
 73
10
 74
9
 0
VERTEX
 8
GRIFF_17
 10
0
 20
0
 30
0
 70
128
 71
9
 72
10
 73
12
 74
11
 0
VERTEX
 8
GRIFF_17
 10
0
 20
0
 30
0
 70
128
 71
11
 72
12
 73
2
 74
1
 0
SEQEND
 0
POLYLINE
 8
GRIFF_16
 66
1
 10
0.0
 20
0.0
 30
0.0
 70
64
 71
34
 72
24
 0
VERTEX
 8
GRIFF_16
 10
12.7323
 20
0.7411
 30
13.2026
 70
192
 0
VERTEX
 8
GRIFF_16
 10
14.1465
 20
2.1553
 30
13.2026
 70
192
 0
VERTEX
 8
GRIFF_16
 10
12.7323
 20
0.7411
 30
13.7026
 70
192
 0
VERTEX
 8
GRIFF_16
 10
12.7323
 20
0.7411
 30
13.7026
 70
192
 0
VERTEX
 8
GRIFF_16
 10
14.1465
 20
2.1553
 30
13.7026
 70
192
 0
VERTEX
 8
GRIFF_16
 10
14.1465
 20
2.1553
 30
13.7026
 70
192
 0
VERTEX
 8
GRIFF_16
 10
12.9823
 20
0.4911
 30
13.5562
 70
192
 0
VERTEX
 8
GRIFF_16
 10
12.9823
 20
0.4911
 30
13.5562
 70
192
 0
VERTEX
 8
GRIFF_16
 10
14.3965
 20
1.9053
 30
13.5562
 70
192
 0
VERTEX
 8
GRIFF_16
 10
14.3965
 20
1.9053
 30
13.5562
 70
192
 0
VERTEX
 8
GRIFF_16
 10
13.0859
 20
0.3875
 30
13.2026
 70
192
 0
VERTEX
 8
GRIFF_16
 10
13.0859
 20
0.3875
 30
13.2026
 70
192
 0
VERTEX
 8
GRIFF_16
 10
14.5001
 20
1.8017
 30
13.2026
 70
192
 0
VERTEX
 8
GRIFF_16
 10
14.5001
 20
1.8017
 30
13.2026
 70
192
 0
VERTEX
 8
GRIFF_16
 10
12.9823
 20
0.4911
 30
12.849
 70
192
 0
VERTEX
 8
GRIFF_16
 10
12.9823
 20
0.4911
 30
12.849
 70
192
 0
VERTEX
 8
GRIFF_16
 10
14.3965
 20
1.9053
 30
12.849
 70
192
 0
VERTEX
 8
GRIFF_16
 10
14.3965
 20
1.9053
 30
12.849
 70
192
 0
VERTEX
 8
GRIFF_16
 10
12.7323
 20
0.7411
 30
12.7026
 70
192
 0
VERTEX
 8
GRIFF_16
 10
12.7323
 20
0.7411
 30
12.7026
 70
192
 0
VERTEX
 8
GRIFF_16
 10
14.1465
 20
2.1553
 30
12.7026
 70
192
 0
VERTEX
 8
GRIFF_16
 10
14.1465
 20
2.1553
 30
12.7026
 70
192
 0
VERTEX
 8
GRIFF_16
 10
12.4823
 20
0.9911
 30
12.849
 70
192
 0
VERTEX
 8
GRIFF_16
 10
12.4823
 20
0.9911
 30
12.849
 70
192
 0
VERTEX
 8
GRIFF_16
 10
13.8965
 20
2.4053
 30
12.849
 70
192
 0
VERTEX
 8
GRIFF_16
 10
13.8965
 20
2.4053
 30
12.849
 70
192
 0
VERTEX
 8
GRIFF_16
 10
12.3787
 20
1.0946
 30
13.2026
 70
192
 0
VERTEX
 8
GRIFF_16
 10
12.3787
 20
1.0946
 30
13.2026
 70
192
 0
VERTEX
 8
GRIFF_16
 10
13.793
 20
2.5088
 30
13.2026
 70
192
 0
VERTEX
 8
GRIFF_16
 10
13.793
 20
2.5088
 30
13.2026
 70
192
 0
VERTEX
 8
GRIFF_16
 10
12.4823
 20
0.9911
 30
13.5562
 70
192
 0
VERTEX
 8
GRIFF_16
 10
12.4823
 20
0.9911
 30
13.5562
 70
192
 0
VERTEX
 8
GRIFF_16
 10
13.8965
 20
2.4053
 30
13.5562
 70
192
 0
VERTEX
 8
GRIFF_16
 10
13.8965
 20
2.4053
 30
13.5562
 70
192
 0
VERTEX
 8
GRIFF_16
 10
0
 20
0
 30
0
 70
128
 71
1
 72
3
 73
7
 74
7
 0
VERTEX
 8
GRIFF_16
 10
0
 20
0
 30
0
 70
128
 71
4
 72
5
 73
9
 74
8
 0
VERTEX
 8
GRIFF_16
 10
0
 20
0
 30
0
 70
128
 71
6
 72
2
 73
10
 74
10
 0
VERTEX
 8
GRIFF_16
 10
0
 20
0
 30
0
 70
128
 71
1
 72
7
 73
11
 74
11
 0
VERTEX
 8
GRIFF_16
 10
0
 20
0
 30
0
 70
128
 71
8
 72
9
 73
13
 74
12
 0
VERTEX
 8
GRIFF_16
 10
0
 20
0
 30
0
 70
128
 71
10
 72
2
 73
14
 74
14
 0
VERTEX
 8
GRIFF_16
 10
0
 20
0
 30
0
 70
128
 71
1
 72
11
 73
15
 74
15
 0
VERTEX
 8
GRIFF_16
 10
0
 20
0
 30
0
 70
128
 71
12
 72
13
 73
17
 74
16
 0
VERTEX
 8
GRIFF_16
 10
0
 20
0
 30
0
 70
128
 71
14
 72
2
 73
18
 74
18
 0
VERTEX
 8
GRIFF_16
 10
0
 20
0
 30
0
 70
128
 71
1
 72
15
 73
19
 74
19
 0
VERTEX
 8
GRIFF_16
 10
0
 20
0
 30
0
 70
128
 71
16
 72
17
 73
21
 74
20
 0
VERTEX
 8
GRIFF_16
 10
0
 20
0
 30
0
 70
128
 71
18
 72
2
 73
22
 74
22
 0
VERTEX
 8
GRIFF_16
 10
0
 20
0
 30
0
 70
128
 71
1
 72
19
 73
23
 74
23
 0
VERTEX
 8
GRIFF_16
 10
0
 20
0
 30
0
 70
128
 71
20
 72
21
 73
25
 74
24
 0
VERTEX
 8
GRIFF_16
 10
0
 20
0
 30
0
 70
128
 71
22
 72
2
 73
26
 74
26
 0
VERTEX
 8
GRIFF_16
 10
0
 20
0
 30
0
 70
128
 71
1
 72
23
 73
27
 74
27
 0
VERTEX
 8
GRIFF_16
 10
0
 20
0
 30
0
 70
128
 71
24
 72
25
 73
29
 74
28
 0
VERTEX
 8
GRIFF_16
 10
0
 20
0
 30
0
 70
128
 71
26
 72
2
 73
30
 74
30
 0
VERTEX
 8
GRIFF_16
 10
0
 20
0
 30
0
 70
128
 71
1
 72
27
 73
31
 74
31
 0
VERTEX
 8
GRIFF_16
 10
0
 20
0
 30
0
 70
128
 71
28
 72
29
 73
33
 74
32
 0
VERTEX
 8
GRIFF_16
 10
0
 20
0
 30
0
 70
128
 71
30
 72
2
 73
34
 74
34
 0
VERTEX
 8
GRIFF_16
 10
0
 20
0
 30
0
 70
128
 71
1
 72
31
 73
3
 74
3
 0
VERTEX
 8
GRIFF_16
 10
0
 20
0
 30
0
 70
128
 71
32
 72
33
 73
5
 74
4
 0
VERTEX
 8
GRIFF_16
 10
0
 20
0
 30
0
 70
128
 71
34
 72
2
 73
6
 74
6
 0
SEQEND
 0
POLYLINE
 8
GRIFF_15
 66
1
 10
0.0
 20
0.0
 30
0.0
 70
64
 71
34
 72
24
 0
VERTEX
 8
GRIFF_15
 10
12.0238
 20
0.0061
 30
12.711
 70
192
 0
VERTEX
 8
GRIFF_15
 10
12.0238
 20
0.0061
 30
13.711
 70
192
 0
VERTEX
 8
GRIFF_15
 10
12.5188
 20
-0.4889
 30
12.711
 70
192
 0
VERTEX
 8
GRIFF_15
 10
12.5188
 20
-0.4889
 30
12.711
 70
192
 0
VERTEX
 8
GRIFF_15
 10
12.5188
 20
-0.4889
 30
13.711
 70
192
 0
VERTEX
 8
GRIFF_15
 10
12.5188
 20
-0.4889
 30
13.711
 70
192
 0
VERTEX
 8
GRIFF_15
 10
12.7238
 20
0.0061
 30
12.711
 70
192
 0
VERTEX
 8
GRIFF_15
 10
12.7238
 20
0.0061
 30
12.711
 70
192
 0
VERTEX
 8
GRIFF_15
 10
12.7238
 20
0.0061
 30
13.711
 70
192
 0
VERTEX
 8
GRIFF_15
 10
12.7238
 20
0.0061
 30
13.711
 70
192
 0
VERTEX
 8
GRIFF_15
 10
12.5188
 20
0.5011
 30
12.711
 70
192
 0
VERTEX
 8
GRIFF_15
 10
12.5188
 20
0.5011
 30
12.711
 70
192
 0
VERTEX
 8
GRIFF_15
 10
12.5188
 20
0.5011
 30
13.711
 70
192
 0
VERTEX
 8
GRIFF_15
 10
12.5188
 20
0.5011
 30
13.711
 70
192
 0
VERTEX
 8
GRIFF_15
 10
12.0238
 20
0.7061
 30
12.711
 70
192
 0
VERTEX
 8
GRIFF_15
 10
12.0238
 20
0.7061
 30
12.711
 70
192
 0
VERTEX
 8
GRIFF_15
 10
12.0238
 20
0.7061
 30
13.711
 70
192
 0
VERTEX
 8
GRIFF_15
 10
12.0238
 20
0.7061
 30
13.711
 70
192
 0
VERTEX
 8
GRIFF_15
 10
11.5289
 20
0.5011
 30
12.711
 70
192
 0
VERTEX
 8
GRIFF_15
 10
11.5289
 20
0.5011
 30
12.711
 70
192
 0
VERTEX
 8
GRIFF_15
 10
11.5289
 20
0.5011
 30
13.711
 70
192
 0
VERTEX
 8
GRIFF_15
 10
11.5289
 20
0.5011
 30
13.711
 70
192
 0
VERTEX
 8
GRIFF_15
 10
11.3238
 20
0.0061
 30
12.711
 70
192
 0
VERTEX
 8
GRIFF_15
 10
11.3238
 20
0.0061
 30
12.711
 70
192
 0
VERTEX
 8
GRIFF_15
 10
11.3238
 20
0.0061
 30
13.711
 70
192
 0
VERTEX
 8
GRIFF_15
 10
11.3238
 20
0.0061
 30
13.711
 70
192
 0
VERTEX
 8
GRIFF_15
 10
11.5289
 20
-0.4889
 30
12.711
 70
192
 0
VERTEX
 8
GRIFF_15
 10
11.5289
 20
-0.4889
 30
12.711
 70
192
 0
VERTEX
 8
GRIFF_15
 10
11.5289
 20
-0.4889
 30
13.711
 70
192
 0
VERTEX
 8
GRIFF_15
 10
11.5289
 20
-0.4889
 30
13.711
 70
192
 0
VERTEX
 8
GRIFF_15
 10
12.0238
 20
-0.6939
 30
12.711
 70
192
 0
VERTEX
 8
GRIFF_15
 10
12.0238
 20
-0.6939
 30
12.711
 70
192
 0
VERTEX
 8
GRIFF_15
 10
12.0238
 20
-0.6939
 30
13.711
 70
192
 0
VERTEX
 8
GRIFF_15
 10
12.0238
 20
-0.6939
 30
13.711
 70
192
 0
VERTEX
 8
GRIFF_15
 10
0
 20
0
 30
0
 70
128
 71
1
 72
3
 73
7
 74
7
 0
VERTEX
 8
GRIFF_15
 10
0
 20
0
 30
0
 70
128
 71
4
 72
5
 73
9
 74
8
 0
VERTEX
 8
GRIFF_15
 10
0
 20
0
 30
0
 70
128
 71
6
 72
2
 73
10
 74
10
 0
VERTEX
 8
GRIFF_15
 10
0
 20
0
 30
0
 70
128
 71
1
 72
7
 73
11
 74
11
 0
VERTEX
 8
GRIFF_15
 10
0
 20
0
 30
0
 70
128
 71
8
 72
9
 73
13
 74
12
 0
VERTEX
 8
GRIFF_15
 10
0
 20
0
 30
0
 70
128
 71
10
 72
2
 73
14
 74
14
 0
VERTEX
 8
GRIFF_15
 10
0
 20
0
 30
0
 70
128
 71
1
 72
11
 73
15
 74
15
 0
VERTEX
 8
GRIFF_15
 10
0
 20
0
 30
0
 70
128
 71
12
 72
13
 73
17
 74
16
 0
VERTEX
 8
GRIFF_15
 10
0
 20
0
 30
0
 70
128
 71
14
 72
2
 73
18
 74
18
 0
VERTEX
 8
GRIFF_15
 10
0
 20
0
 30
0
 70
128
 71
1
 72
15
 73
19
 74
19
 0
VERTEX
 8
GRIFF_15
 10
0
 20
0
 30
0
 70
128
 71
16
 72
17
 73
21
 74
20
 0
VERTEX
 8
GRIFF_15
 10
0
 20
0
 30
0
 70
128
 71
18
 72
2
 73
22
 74
22
 0
VERTEX
 8
GRIFF_15
 10
0
 20
0
 30
0
 70
128
 71
1
 72
19
 73
23
 74
23
 0
VERTEX
 8
GRIFF_15
 10
0
 20
0
 30
0
 70
128
 71
20
 72
21
 73
25
 74
24
 0
VERTEX
 8
GRIFF_15
 10
0
 20
0
 30
0
 70
128
 71
22
 72
2
 73
26
 74
26
 0
VERTEX
 8
GRIFF_15
 10
0
 20
0
 30
0
 70
128
 71
1
 72
23
 73
27
 74
27
 0
VERTEX
 8
GRIFF_15
 10
0
 20
0
 30
0
 70
128
 71
24
 72
25
 73
29
 74
28
 0
VERTEX
 8
GRIFF_15
 10
0
 20
0
 30
0
 70
128
 71
26
 72
2
 73
30
 74
30
 0
VERTEX
 8
GRIFF_15
 10
0
 20
0
 30
0
 70
128
 71
1
 72
27
 73
31
 74
31
 0
VERTEX
 8
GRIFF_15
 10
0
 20
0
 30
0
 70
128
 71
28
 72
29
 73
33
 74
32
 0
VERTEX
 8
GRIFF_15
 10
0
 20
0
 30
0
 70
128
 71
30
 72
2
 73
34
 74
34
 0
VERTEX
 8
GRIFF_15
 10
0
 20
0
 30
0
 70
128
 71
1
 72
31
 73
3
 74
3
 0
VERTEX
 8
GRIFF_15
 10
0
 20
0
 30
0
 70
128
 71
32
 72
33
 73
5
 74
4
 0
VERTEX
 8
GRIFF_15
 10
0
 20
0
 30
0
 70
128
 71
34
 72
2
 73
6
 74
6
 0
SEQEND
 0
POLYLINE
 8
ROSETTE_1
 66
1
 10
0.0
 20
0.0
 30
0.0
 70
64
 71
120
 72
45
 0
VERTEX
 8
ROSETTE_1
 10
-11.9209
 20
0.0061
 30
6.0632
 70
192
 0
VERTEX
 8
ROSETTE_1
 10
-11.9209
 20
3.5061
 30
6.0632
 70
192
 0
VERTEX
 8
ROSETTE_1
 10
-11.9209
 20
3.5061
 30
6.0632
 70
192
 0
VERTEX
 8
ROSETTE_1
 10
-11.9209
 20
3.5061
 30
6.4632
 70
192
 0
VERTEX
 8
ROSETTE_1
 10
-11.9209
 20
3.5061
 30
6.4632
 70
192
 0
VERTEX
 8
ROSETTE_1
 10
-11.9209
 20
0.0061
 30
6.4632
 70
192
 0
VERTEX
 8
ROSETTE_1
 10
-11.9209
 20
0.0061
 30
6.4632
 70
192
 0
VERTEX
 8
ROSETTE_1
 10
-11.9209
 20
0.0061
 30
6.0632
 70
192
 0
VERTEX
 8
ROSETTE_1
 10
-11.9209
 20
0.0061
 30
6.0632
 70
192
 0
VERTEX
 8
ROSETTE_1
 10
-13.3445
 20
3.2035
 30
6.0632
 70
192
 0
VERTEX
 8
ROSETTE_1
 10
-13.3445
 20
3.2035
 30
6.0632
 70
192
 0
VERTEX
 8
ROSETTE_1
 10
-13.3445
 20
3.2035
 30
6.4632
 70
192
 0
VERTEX
 8
ROSETTE_1
 10
-13.3445
 20
3.2035
 30
6.4632
 70
192
 0
VERTEX
 8
ROSETTE_1
 10
-11.9209
 20
0.0061
 30
6.4632
 70
192
 0
VERTEX
 8
ROSETTE_1
 10
-11.9209
 20
0.0061
 30
6.4632
 70
192
 0
VERTEX
 8
ROSETTE_1
 10
-11.9209
 20
0.0061
 30
6.0632
 70
192
 0
VERTEX
 8
ROSETTE_1
 10
-11.9209
 20
0.0061
 30
6.0632
 70
192
 0
VERTEX
 8
ROSETTE_1
 10
-14.5219
 20
2.348
 30
6.0632
 70
192
 0
VERTEX
 8
ROSETTE_1
 10
-14.5219
 20
2.348
 30
6.0632
 70
192
 0
VERTEX
 8
ROSETTE_1
 10
-14.5219
 20
2.348
 30
6.4632
 70
192
 0
VERTEX
 8
ROSETTE_1
 10
-14.5219
 20
2.348
 30
6.4632
 70
192
 0
VERTEX
 8
ROSETTE_1
 10
-11.9209
 20
0.0061
 30
6.4632
 70
192
 0
VERTEX
 8
ROSETTE_1
 10
-11.9209
 20
0.0061
 30
6.4632
 70
192
 0
VERTEX
 8
ROSETTE_1
 10
-11.9209
 20
0.0061
 30
6.0632
 70
192
 0
VERTEX
 8
ROSETTE_1
 10
-11.9209
 20
0.0061
 30
6.0632
 70
192
 0
VERTEX
 8
ROSETTE_1
 10
-15.2496
 20
1.0876
 30
6.0632
 70
192
 0
VERTEX
 8
ROSETTE_1
 10
-15.2496
 20
1.0876
 30
6.0632
 70
192
 0
VERTEX
 8
ROSETTE_1
 10
-15.2496
 20
1.0876
 30
6.4632
 70
192
 0
VERTEX
 8
ROSETTE_1
 10
-15.2496
 20
1.0876
 30
6.4632
 70
192
 0
VERTEX
 8
ROSETTE_1
 10
-11.9209
 20
0.0061
 30
6.4632
 70
192
 0
VERTEX
 8
ROSETTE_1
 10
-11.9209
 20
0.0061
 30
6.4632
 70
192
 0
VERTEX
 8
ROSETTE_1
 10
-11.9209
 20
0.0061
 30
6.0632
 70
192
 0
VERTEX
 8
ROSETTE_1
 10
-11.9209
 20
0.0061
 30
6.0632
 70
192
 0
VERTEX
 8
ROSETTE_1
 10
-15.4017
 20
-0.3598
 30
6.0632
 70
192
 0
VERTEX
 8
ROSETTE_1
 10
-15.4017
 20
-0.3598
 30
6.0632
 70
192
 0
VERTEX
 8
ROSETTE_1
 10
-15.4017
 20
-0.3598
 30
6.4632
 70
192
 0
VERTEX
 8
ROSETTE_1
 10
-15.4017
 20
-0.3598
 30
6.4632
 70
192
 0
VERTEX
 8
ROSETTE_1
 10
-11.9209
 20
0.0061
 30
6.4632
 70
192
 0
VERTEX
 8
ROSETTE_1
 10
-11.9209
 20
0.0061
 30
6.4632
 70
192
 0
VERTEX
 8
ROSETTE_1
 10
-11.9209
 20
0.0061
 30
6.0632
 70
192
 0
VERTEX
 8
ROSETTE_1
 10
-11.9209
 20
0.0061
 30
6.0632
 70
192
 0
VERTEX
 8
ROSETTE_1
 10
-14.952
 20
-1.7439
 30
6.0632
 70
192
 0
VERTEX
 8
ROSETTE_1
 10
-14.952
 20
-1.7439
 30
6.0632
 70
192
 0
VERTEX
 8
ROSETTE_1
 10
-14.952
 20
-1.7439
 30
6.4632
 70
192
 0
VERTEX
 8
ROSETTE_1
 10
-14.952
 20
-1.7439
 30
6.4632
 70
192
 0
VERTEX
 8
ROSETTE_1
 10
-11.9209
 20
0.0061
 30
6.4632
 70
192
 0
VERTEX
 8
ROSETTE_1
 10
-11.9209
 20
0.0061
 30
6.4632
 70
192
 0
VERTEX
 8
ROSETTE_1
 10
-11.9209
 20
0.0061
 30
6.0632
 70
192
 0
VERTEX
 8
ROSETTE_1
 10
-11.9209
 20
0.0061
 30
6.0632
 70
192
 0
VERTEX
 8
ROSETTE_1
 10
-13.9781
 20
-2.8255
 30
6.0632
 70
192
 0
VERTEX
 8
ROSETTE_1
 10
-13.9781
 20
-2.8255
 30
6.0632
 70
192
 0
VERTEX
 8
ROSETTE_1
 10
-13.9781
 20
-2.8255
 30
6.4632
 70
192
 0
VERTEX
 8
ROSETTE_1
 10
-13.9781
 20
-2.8255
 30
6.4632
 70
192
 0
VERTEX
 8
ROSETTE_1
 10
-11.9209
 20
0.0061
 30
6.4632
 70
192
 0
VERTEX
 8
ROSETTE_1
 10
-11.9209
 20
0.0061
 30
6.4632
 70
192
 0
VERTEX
 8
ROSETTE_1
 10
-11.9209
 20
0.0061
 30
6.0632
 70
192
 0
VERTEX
 8
ROSETTE_1
 10
-11.9209
 20
0.0061
 30
6.0632
 70
192
 0
VERTEX
 8
ROSETTE_1
 10
-12.6486
 20
-3.4175
 30
6.0632
 70
192
 0
VERTEX
 8
ROSETTE_1
 10
-12.6486
 20
-3.4175
 30
6.0632
 70
192
 0
VERTEX
 8
ROSETTE_1
 10
-12.6486
 20
-3.4175
 30
6.4632
 70
192
 0
VERTEX
 8
ROSETTE_1
 10
-12.6486
 20
-3.4175
 30
6.4632
 70
192
 0
VERTEX
 8
ROSETTE_1
 10
-11.9209
 20
0.0061
 30
6.4632
 70
192
 0
VERTEX
 8
ROSETTE_1
 10
-11.9209
 20
0.0061
 30
6.4632
 70
192
 0
VERTEX
 8
ROSETTE_1
 10
-11.9209
 20
0.0061
 30
6.0632
 70
192
 0
VERTEX
 8
ROSETTE_1
 10
-11.9209
 20
0.0061
 30
6.0632
 70
192
 0
VERTEX
 8
ROSETTE_1
 10
-11.1932
 20
-3.4175
 30
6.0632
 70
192
 0
VERTEX
 8
ROSETTE_1
 10
-11.1932
 20
-3.4175
 30
6.0632
 70
192
 0
VERTEX
 8
ROSETTE_1
 10
-11.1932
 20
-3.4175
 30
6.4632
 70
192
 0
VERTEX
 8
ROSETTE_1
 10
-11.1932
 20
-3.4175
 30
6.4632
 70
192
 0
VERTEX
 8
ROSETTE_1
 10
-11.9209
 20
0.0061
 30
6.4632
 70
192
 0
VERTEX
 8
ROSETTE_1
 10
-11.9209
 20
0.0061
 30
6.4632
 70
192
 0
VERTEX
 8
ROSETTE_1
 10
-11.9209
 20
0.0061
 30
6.0632
 70
192
 0
VERTEX
 8
ROSETTE_1
 10
-11.9209
 20
0.0061
 30
6.0632
 70
192
 0
VERTEX
 8
ROSETTE_1
 10
-9.8636
 20
-2.8255
 30
6.0632
 70
192
 0
VERTEX
 8
ROSETTE_1
 10
-9.8636
 20
-2.8255
 30
6.0632
 70
192
 0
VERTEX
 8
ROSETTE_1
 10
-9.8636
 20
-2.8255
 30
6.4632
 70
192
 0
VERTEX
 8
ROSETTE_1
 10
-9.8636
 20
-2.8255
 30
6.4632
 70
192
 0
VERTEX
 8
ROSETTE_1
 10
-11.9209
 20
0.0061
 30
6.4632
 70
192
 0
VERTEX
 8
ROSETTE_1
 10
-11.9209
 20
0.0061
 30
6.4632
 70
192
 0
VERTEX
 8
ROSETTE_1
 10
-11.9209
 20
0.0061
 30
6.0632
 70
192
 0
VERTEX
 8
ROSETTE_1
 10
-11.9209
 20
0.0061
 30
6.0632
 70
192
 0
VERTEX
 8
ROSETTE_1
 10
-8.8898
 20
-1.7439
 30
6.0632
 70
192
 0
VERTEX
 8
ROSETTE_1
 10
-8.8898
 20
-1.7439
 30
6.0632
 70
192
 0
VERTEX
 8
ROSETTE_1
 10
-8.8898
 20
-1.7439
 30
6.4632
 70
192
 0
VERTEX
 8
ROSETTE_1
 10
-8.8898
 20
-1.7439
 30
6.4632
 70
192
 0
VERTEX
 8
ROSETTE_1
 10
-11.9209
 20
0.0061
 30
6.4632
 70
192
 0
VERTEX
 8
ROSETTE_1
 10
-11.9209
 20
0.0061
 30
6.4632
 70
192
 0
VERTEX
 8
ROSETTE_1
 10
-11.9209
 20
0.0061
 30
6.0632
 70
192
 0
VERTEX
 8
ROSETTE_1
 10
-11.9209
 20
0.0061
 30
6.0632
 70
192
 0
VERTEX
 8
ROSETTE_1
 10
-8.4401
 20
-0.3598
 30
6.0632
 70
192
 0
VERTEX
 8
ROSETTE_1
 10
-8.4401
 20
-0.3598
 30
6.0632
 70
192
 0
VERTEX
 8
ROSETTE_1
 10
-8.4401
 20
-0.3598
 30
6.4632
 70
192
 0
VERTEX
 8
ROSETTE_1
 10
-8.4401
 20
-0.3598
 30
6.4632
 70
192
 0
VERTEX
 8
ROSETTE_1
 10
-11.9209
 20
0.0061
 30
6.4632
 70
192
 0
VERTEX
 8
ROSETTE_1
 10
-11.9209
 20
0.0061
 30
6.4632
 70
192
 0
VERTEX
 8
ROSETTE_1
 10
-11.9209
 20
0.0061
 30
6.0632
 70
192
 0
VERTEX
 8
ROSETTE_1
 10
-11.9209
 20
0.0061
 30
6.0632
 70
192
 0
VERTEX
 8
ROSETTE_1
 10
-8.5922
 20
1.0876
 30
6.0632
 70
192
 0
VERTEX
 8
ROSETTE_1
 10
-8.5922
 20
1.0876
 30
6.0632
 70
192
 0
VERTEX
 8
ROSETTE_1
 10
-8.5922
 20
1.0876
 30
6.4632
 70
192
 0
VERTEX
 8
ROSETTE_1
 10
-8.5922
 20
1.0876
 30
6.4632
 70
192
 0
VERTEX
 8
ROSETTE_1
 10
-11.9209
 20
0.0061
 30
6.4632
 70
192
 0
VERTEX
 8
ROSETTE_1
 10
-11.9209
 20
0.0061
 30
6.4632
 70
192
 0
VERTEX
 8
ROSETTE_1
 10
-11.9209
 20
0.0061
 30
6.0632
 70
192
 0
VERTEX
 8
ROSETTE_1
 10
-11.9209
 20
0.0061
 30
6.0632
 70
192
 0
VERTEX
 8
ROSETTE_1
 10
-9.3199
 20
2.348
 30
6.0632
 70
192
 0
VERTEX
 8
ROSETTE_1
 10
-9.3199
 20
2.348
 30
6.0632
 70
192
 0
VERTEX
 8
ROSETTE_1
 10
-9.3199
 20
2.348
 30
6.4632
 70
192
 0
VERTEX
 8
ROSETTE_1
 10
-9.3199
 20
2.348
 30
6.4632
 70
192
 0
VERTEX
 8
ROSETTE_1
 10
-11.9209
 20
0.0061
 30
6.4632
 70
192
 0
VERTEX
 8
ROSETTE_1
 10
-11.9209
 20
0.0061
 30
6.4632
 70
192
 0
VERTEX
 8
ROSETTE_1
 10
-11.9209
 20
0.0061
 30
6.0632
 70
192
 0
VERTEX
 8
ROSETTE_1
 10
-11.9209
 20
0.0061
 30
6.0632
 70
192
 0
VERTEX
 8
ROSETTE_1
 10
-10.4973
 20
3.2035
 30
6.0632
 70
192
 0
VERTEX
 8
ROSETTE_1
 10
-10.4973
 20
3.2035
 30
6.0632
 70
192
 0
VERTEX
 8
ROSETTE_1
 10
-10.4973
 20
3.2035
 30
6.4632
 70
192
 0
VERTEX
 8
ROSETTE_1
 10
-10.4973
 20
3.2035
 30
6.4632
 70
192
 0
VERTEX
 8
ROSETTE_1
 10
-11.9209
 20
0.0061
 30
6.4632
 70
192
 0
VERTEX
 8
ROSETTE_1
 10
-11.9209
 20
0.0061
 30
6.4632
 70
192
 0
VERTEX
 8
ROSETTE_1
 10
-11.9209
 20
0.0061
 30
6.0632
 70
192
 0
VERTEX
 8
ROSETTE_1
 10
0
 20
0
 30
0
 70
128
 71
1
 72
2
 73
10
 74
10
 0
VERTEX
 8
ROSETTE_1
 10
0
 20
0
 30
0
 70
128
 71
3
 72
4
 73
12
 74
11
 0
VERTEX
 8
ROSETTE_1
 10
0
 20
0
 30
0
 70
128
 71
5
 72
14
 73
13
 74
13
 0
VERTEX
 8
ROSETTE_1
 10
0
 20
0
 30
0
 70
128
 71
9
 72
10
 73
18
 74
18
 0
VERTEX
 8
ROSETTE_1
 10
0
 20
0
 30
0
 70
128
 71
11
 72
12
 73
20
 74
19
 0
VERTEX
 8
ROSETTE_1
 10
0
 20
0
 30
0
 70
128
 71
13
 72
22
 73
21
 74
21
 0
VERTEX
 8
ROSETTE_1
 10
0
 20
0
 30
0
 70
128
 71
17
 72
18
 73
26
 74
26
 0
VERTEX
 8
ROSETTE_1
 10
0
 20
0
 30
0
 70
128
 71
19
 72
20
 73
28
 74
27
 0
VERTEX
 8
ROSETTE_1
 10
0
 20
0
 30
0
 70
128
 71
21
 72
30
 73
29
 74
29
 0
VERTEX
 8
ROSETTE_1
 10
0
 20
0
 30
0
 70
128
 71
25
 72
26
 73
34
 74
34
 0
VERTEX
 8
ROSETTE_1
 10
0
 20
0
 30
0
 70
128
 71
27
 72
28
 73
36
 74
35
 0
VERTEX
 8
ROSETTE_1
 10
0
 20
0
 30
0
 70
128
 71
29
 72
38
 73
37
 74
37
 0
VERTEX
 8
ROSETTE_1
 10
0
 20
0
 30
0
 70
128
 71
33
 72
34
 73
42
 74
42
 0
VERTEX
 8
ROSETTE_1
 10
0
 20
0
 30
0
 70
128
 71
35
 72
36
 73
44
 74
43
 0
VERTEX
 8
ROSETTE_1
 10
0
 20
0
 30
0
 70
128
 71
37
 72
46
 73
45
 74
45
 0
VERTEX
 8
ROSETTE_1
 10
0
 20
0
 30
0
 70
128
 71
41
 72
42
 73
50
 74
50
 0
VERTEX
 8
ROSETTE_1
 10
0
 20
0
 30
0
 70
128
 71
43
 72
44
 73
52
 74
51
 0
VERTEX
 8
ROSETTE_1
 10
0
 20
0
 30
0
 70
128
 71
45
 72
54
 73
53
 74
53
 0
VERTEX
 8
ROSETTE_1
 10
0
 20
0
 30
0
 70
128
 71
49
 72
50
 73
58
 74
58
 0
VERTEX
 8
ROSETTE_1
 10
0
 20
0
 30
0
 70
128
 71
51
 72
52
 73
60
 74
59
 0
VERTEX
 8
ROSETTE_1
 10
0
 20
0
 30
0
 70
128
 71
53
 72
62
 73
61
 74
61
 0
VERTEX
 8
ROSETTE_1
 10
0
 20
0
 30
0
 70
128
 71
57
 72
58
 73
66
 74
66
 0
VERTEX
 8
ROSETTE_1
 10
0
 20
0
 30
0
 70
128
 71
59
 72
60
 73
68
 74
67
 0
VERTEX
 8
ROSETTE_1
 10
0
 20
0
 30
0
 70
128
 71
61
 72
70
 73
69
 74
69
 0
VERTEX
 8
ROSETTE_1
 10
0
 20
0
 30
0
 70
128
 71
65
 72
66
 73
74
 74
74
 0
VERTEX
 8
ROSETTE_1
 10
0
 20
0
 30
0
 70
128
 71
67
 72
68
 73
76
 74
75
 0
VERTEX
 8
ROSETTE_1
 10
0
 20
0
 30
0
 70
128
 71
69
 72
78
 73
77
 74
77
 0
VERTEX
 8
ROSETTE_1
 10
0
 20
0
 30
0
 70
128
 71
73
 72
74
 73
82
 74
82
 0
VERTEX
 8
ROSETTE_1
 10
0
 20
0
 30
0
 70
128
 71
75
 72
76
 73
84
 74
83
 0
VERTEX
 8
ROSETTE_1
 10
0
 20
0
 30
0
 70
128
 71
77
 72
86
 73
85
 74
85
 0
VERTEX
 8
ROSETTE_1
 10
0
 20
0
 30
0
 70
128
 71
81
 72
82
 73
90
 74
90
 0
VERTEX
 8
ROSETTE_1
 10
0
 20
0
 30
0
 70
128
 71
83
 72
84
 73
92
 74
91
 0
VERTEX
 8
ROSETTE_1
 10
0
 20
0
 30
0
 70
128
 71
85
 72
94
 73
93
 74
93
 0
VERTEX
 8
ROSETTE_1
 10
0
 20
0
 30
0
 70
128
 71
89
 72
90
 73
98
 74
98
 0
VERTEX
 8
ROSETTE_1
 10
0
 20
0
 30
0
 70
128
 71
91
 72
92
 73
100
 74
99
 0
VERTEX
 8
ROSETTE_1
 10
0
 20
0
 30
0
 70
128
 71
93
 72
102
 73
101
 74
101
 0
VERTEX
 8
ROSETTE_1
 10
0
 20
0
 30
0
 70
128
 71
97
 72
98
 73
106
 74
106
 0
VERTEX
 8
ROSETTE_1
 10
0
 20
0
 30
0
 70
128
 71
99
 72
100
 73
108
 74
107
 0
VERTEX
 8
ROSETTE_1
 10
0
 20
0
 30
0
 70
128
 71
101
 72
110
 73
109
 74
109
 0
VERTEX
 8
ROSETTE_1
 10
0
 20
0
 30
0
 70
128
 71
105
 72
106
 73
114
 74
114
 0
VERTEX
 8
ROSETTE_1
 10
0
 20
0
 30
0
 70
128
 71
107
 72
108
 73
116
 74
115
 0
VERTEX
 8
ROSETTE_1
 10
0
 20
0
 30
0
 70
128
 71
109
 72
118
 73
117
 74
117
 0
VERTEX
 8
ROSETTE_1
 10
0
 20
0
 30
0
 70
128
 71
113
 72
114
 73
2
 74
2
 0
VERTEX
 8
ROSETTE_1
 10
0
 20
0
 30
0
 70
128
 71
115
 72
116
 73
4
 74
3
 0
VERTEX
 8
ROSETTE_1
 10
0
 20
0
 30
0
 70
128
 71
117
 72
6
 73
5
 74
5
 0
SEQEND
 0
POLYLINE
 8
GRIFF_13
 66
1
 10
0.0
 20
0.0
 30
0.0
 70
64
 71
90
 72
30
 0
VERTEX
 8
GRIFF_13
 10
-9.7528
 20
-0.2218
 30
6.2329
 70
192
 0
VERTEX
 8
GRIFF_13
 10
-11.9209
 20
2.1861
 30
6.2329
 70
192
 0
VERTEX
 8
GRIFF_13
 10
-11.9209
 20
2.1861
 30
6.2329
 70
192
 0
VERTEX
 8
GRIFF_13
 10
-11.9209
 20
2.1861
 30
11.2329
 70
192
 0
VERTEX
 8
GRIFF_13
 10
-11.9209
 20
2.1861
 30
11.2329
 70
192
 0
VERTEX
 8
GRIFF_13
 10
-11.9209
 20
0.0061
 30
11.2329
 70
192
 0
VERTEX
 8
GRIFF_13
 10
-11.9209
 20
0.0061
 30
11.2329
 70
192
 0
VERTEX
 8
GRIFF_13
 10
-9.7528
 20
-0.2218
 30
11.2329
 70
192
 0
VERTEX
 8
GRIFF_13
 10
-9.7528
 20
-0.2218
 30
11.2329
 70
192
 0
VERTEX
 8
GRIFF_13
 10
-12.8076
 20
1.9976
 30
6.2329
 70
192
 0
VERTEX
 8
GRIFF_13
 10
-12.8076
 20
1.9976
 30
6.2329
 70
192
 0
VERTEX
 8
GRIFF_13
 10
-12.8076
 20
1.9976
 30
11.2329
 70
192
 0
VERTEX
 8
GRIFF_13
 10
-12.8076
 20
1.9976
 30
11.2329
 70
192
 0
VERTEX
 8
GRIFF_13
 10
-11.9209
 20
0.0061
 30
11.2329
 70
192
 0
VERTEX
 8
GRIFF_13
 10
-11.9209
 20
0.0061
 30
11.2329
 70
192
 0
VERTEX
 8
GRIFF_13
 10
-11.9209
 20
0.0061
 30
11.2329
 70
192
 0
VERTEX
 8
GRIFF_13
 10
-11.9209
 20
0.0061
 30
11.2329
 70
192
 0
VERTEX
 8
GRIFF_13
 10
-13.5409
 20
1.4648
 30
6.2329
 70
192
 0
VERTEX
 8
GRIFF_13
 10
-13.5409
 20
1.4648
 30
6.2329
 70
192
 0
VERTEX
 8
GRIFF_13
 10
-13.5409
 20
1.4648
 30
11.2329
 70
192
 0
VERTEX
 8
GRIFF_13
 10
-13.5409
 20
1.4648
 30
11.2329
 70
192
 0
VERTEX
 8
GRIFF_13
 10
-11.9209
 20
0.0061
 30
11.2329
 70
192
 0
VERTEX
 8
GRIFF_13
 10
-11.9209
 20
0.0061
 30
11.2329
 70
192
 0
VERTEX
 8
GRIFF_13
 10
-9.8476
 20
0.6797
 30
6.2329
 70
192
 0
VERTEX
 8
GRIFF_13
 10
-9.8476
 20
0.6797
 30
6.2329
 70
192
 0
VERTEX
 8
GRIFF_13
 10
-13.9942
 20
0.6797
 30
6.2329
 70
192
 0
VERTEX
 8
GRIFF_13
 10
-13.9942
 20
0.6797
 30
6.2329
 70
192
 0
VERTEX
 8
GRIFF_13
 10
-13.9942
 20
0.6797
 30
11.2329
 70
192
 0
VERTEX
 8
GRIFF_13
 10
-13.9942
 20
0.6797
 30
11.2329
 70
192
 0
VERTEX
 8
GRIFF_13
 10
-11.9209
 20
0.0061
 30
11.2329
 70
192
 0
VERTEX
 8
GRIFF_13
 10
-11.9209
 20
0.0061
 30
11.2329
 70
192
 0
VERTEX
 8
GRIFF_13
 10
-9.8476
 20
0.6797
 30
11.2329
 70
192
 0
VERTEX
 8
GRIFF_13
 10
-9.8476
 20
0.6797
 30
11.2329
 70
192
 0
VERTEX
 8
GRIFF_13
 10
-14.089
 20
-0.2218
 30
6.2329
 70
192
 0
VERTEX
 8
GRIFF_13
 10
-14.089
 20
-0.2218
 30
6.2329
 70
192
 0
VERTEX
 8
GRIFF_13
 10
-14.089
 20
-0.2218
 30
11.2329
 70
192
 0
VERTEX
 8
GRIFF_13
 10
-14.089
 20
-0.2218
 30
11.2329
 70
192
 0
VERTEX
 8
GRIFF_13
 10
-11.9209
 20
0.0061
 30
11.2329
 70
192
 0
VERTEX
 8
GRIFF_13
 10
-11.9209
 20
0.0061
 30
11.2329
 70
192
 0
VERTEX
 8
GRIFF_13
 10
-11.9209
 20
0.0061
 30
11.2329
 70
192
 0
VERTEX
 8
GRIFF_13
 10
-11.9209
 20
0.0061
 30
11.2329
 70
192
 0
VERTEX
 8
GRIFF_13
 10
-13.8088
 20
-1.0839
 30
6.2329
 70
192
 0
VERTEX
 8
GRIFF_13
 10
-13.8088
 20
-1.0839
 30
6.2329
 70
192
 0
VERTEX
 8
GRIFF_13
 10
-13.8088
 20
-1.0839
 30
11.2329
 70
192
 0
VERTEX
 8
GRIFF_13
 10
-13.8088
 20
-1.0839
 30
11.2329
 70
192
 0
VERTEX
 8
GRIFF_13
 10
-11.9209
 20
0.0061
 30
11.2329
 70
192
 0
VERTEX
 8
GRIFF_13
 10
-11.9209
 20
0.0061
 30
11.2329
 70
192
 0
VERTEX
 8
GRIFF_13
 10
-10.3008
 20
1.4648
 30
6.2329
 70
192
 0
VERTEX
 8
GRIFF_13
 10
-10.3008
 20
1.4648
 30
6.2329
 70
192
 0
VERTEX
 8
GRIFF_13
 10
-13.2023
 20
-1.7576
 30
6.2329
 70
192
 0
VERTEX
 8
GRIFF_13
 10
-13.2023
 20
-1.7576
 30
6.2329
 70
192
 0
VERTEX
 8
GRIFF_13
 10
-13.2023
 20
-1.7576
 30
11.2329
 70
192
 0
VERTEX
 8
GRIFF_13
 10
-13.2023
 20
-1.7576
 30
11.2329
 70
192
 0
VERTEX
 8
GRIFF_13
 10
-11.9209
 20
0.0061
 30
11.2329
 70
192
 0
VERTEX
 8
GRIFF_13
 10
-11.9209
 20
0.0061
 30
11.2329
 70
192
 0
VERTEX
 8
GRIFF_13
 10
-10.3008
 20
1.4648
 30
11.2329
 70
192
 0
VERTEX
 8
GRIFF_13
 10
-10.3008
 20
1.4648
 30
11.2329
 70
192
 0
VERTEX
 8
GRIFF_13
 10
-12.3741
 20
-2.1263
 30
6.2329
 70
192
 0
VERTEX
 8
GRIFF_13
 10
-12.3741
 20
-2.1263
 30
6.2329
 70
192
 0
VERTEX
 8
GRIFF_13
 10
-12.3741
 20
-2.1263
 30
11.2329
 70
192
 0
VERTEX
 8
GRIFF_13
 10
-12.3741
 20
-2.1263
 30
11.2329
 70
192
 0
VERTEX
 8
GRIFF_13
 10
-11.9209
 20
0.0061
 30
11.2329
 70
192
 0
VERTEX
 8
GRIFF_13
 10
-11.9209
 20
0.0061
 30
11.2329
 70
192
 0
VERTEX
 8
GRIFF_13
 10
-11.9209
 20
0.0061
 30
11.2329
 70
192
 0
VERTEX
 8
GRIFF_13
 10
-11.9209
 20
0.0061
 30
11.2329
 70
192
 0
VERTEX
 8
GRIFF_13
 10
-11.4676
 20
-2.1263
 30
6.2329
 70
192
 0
VERTEX
 8
GRIFF_13
 10
-11.4676
 20
-2.1263
 30
6.2329
 70
192
 0
VERTEX
 8
GRIFF_13
 10
-11.4676
 20
-2.1263
 30
11.2329
 70
192
 0
VERTEX
 8
GRIFF_13
 10
-11.4676
 20
-2.1263
 30
11.2329
 70
192
 0
VERTEX
 8
GRIFF_13
 10
-11.9209
 20
0.0061
 30
11.2329
 70
192
 0
VERTEX
 8
GRIFF_13
 10
-11.9209
 20
0.0061
 30
11.2329
 70
192
 0
VERTEX
 8
GRIFF_13
 10
-11.0342
 20
1.9976
 30
6.2329
 70
192
 0
VERTEX
 8
GRIFF_13
 10
-11.0342
 20
1.9976
 30
6.2329
 70
192
 0
VERTEX
 8
GRIFF_13
 10
-10.6395
 20
-1.7576
 30
6.2329
 70
192
 0
VERTEX
 8
GRIFF_13
 10
-10.6395
 20
-1.7576
 30
6.2329
 70
192
 0
VERTEX
 8
GRIFF_13
 10
-10.6395
 20
-1.7576
 30
11.2329
 70
192
 0
VERTEX
 8
GRIFF_13
 10
-10.6395
 20
-1.7576
 30
11.2329
 70
192
 0
VERTEX
 8
GRIFF_13
 10
-11.9209
 20
0.0061
 30
11.2329
 70
192
 0
VERTEX
 8
GRIFF_13
 10
-11.9209
 20
0.0061
 30
11.2329
 70
192
 0
VERTEX
 8
GRIFF_13
 10
-11.0342
 20
1.9976
 30
11.2329
 70
192
 0
VERTEX
 8
GRIFF_13
 10
-11.0342
 20
1.9976
 30
11.2329
 70
192
 0
VERTEX
 8
GRIFF_13
 10
-10.033
 20
-1.0839
 30
6.2329
 70
192
 0
VERTEX
 8
GRIFF_13
 10
-10.033
 20
-1.0839
 30
6.2329
 70
192
 0
VERTEX
 8
GRIFF_13
 10
-10.033
 20
-1.0839
 30
11.2329
 70
192
 0
VERTEX
 8
GRIFF_13
 10
-10.033
 20
-1.0839
 30
11.2329
 70
192
 0
VERTEX
 8
GRIFF_13
 10
-11.9209
 20
0.0061
 30
11.2329
 70
192
 0
VERTEX
 8
GRIFF_13
 10
-11.9209
 20
0.0061
 30
11.2329
 70
192
 0
VERTEX
 8
GRIFF_13
 10
-11.9209
 20
0.0061
 30
11.2329
 70
192
 0
VERTEX
 8
GRIFF_13
 10
-11.9209
 20
0.0061
 30
11.2329
 70
192
 0
VERTEX
 8
GRIFF_13
 10
-9.7528
 20
-0.2218
 30
6.2329
 70
192
 0
VERTEX
 8
GRIFF_13
 10
0
 20
0
 30
0
 70
128
 71
83
 72
84
 73
8
 74
1
 0
VERTEX
 8
GRIFF_13
 10
0
 20
0
 30
0
 70
128
 71
3
 72
4
 73
12
 74
11
 0
VERTEX
 8
GRIFF_13
 10
0
 20
0
 30
0
 70
128
 71
5
 72
14
 73
13
 74
13
 0
VERTEX
 8
GRIFF_13
 10
0
 20
0
 30
0
 70
128
 71
85
 72
16
 73
9
 74
9
 0
VERTEX
 8
GRIFF_13
 10
0
 20
0
 30
0
 70
128
 71
11
 72
12
 73
20
 74
19
 0
VERTEX
 8
GRIFF_13
 10
0
 20
0
 30
0
 70
128
 71
13
 72
22
 73
21
 74
21
 0
VERTEX
 8
GRIFF_13
 10
0
 20
0
 30
0
 70
128
 71
1
 72
8
 73
32
 74
25
 0
VERTEX
 8
GRIFF_13
 10
0
 20
0
 30
0
 70
128
 71
19
 72
20
 73
28
 74
27
 0
VERTEX
 8
GRIFF_13
 10
0
 20
0
 30
0
 70
128
 71
21
 72
30
 73
29
 74
29
 0
VERTEX
 8
GRIFF_13
 10
0
 20
0
 30
0
 70
128
 71
9
 72
40
 73
33
 74
33
 0
VERTEX
 8
GRIFF_13
 10
0
 20
0
 30
0
 70
128
 71
27
 72
28
 73
36
 74
35
 0
VERTEX
 8
GRIFF_13
 10
0
 20
0
 30
0
 70
128
 71
29
 72
38
 73
37
 74
37
 0
VERTEX
 8
GRIFF_13
 10
0
 20
0
 30
0
 70
128
 71
25
 72
32
 73
56
 74
49
 0
VERTEX
 8
GRIFF_13
 10
0
 20
0
 30
0
 70
128
 71
35
 72
36
 73
44
 74
43
 0
VERTEX
 8
GRIFF_13
 10
0
 20
0
 30
0
 70
128
 71
37
 72
46
 73
45
 74
45
 0
VERTEX
 8
GRIFF_13
 10
0
 20
0
 30
0
 70
128
 71
33
 72
64
 73
57
 74
57
 0
VERTEX
 8
GRIFF_13
 10
0
 20
0
 30
0
 70
128
 71
43
 72
44
 73
52
 74
51
 0
VERTEX
 8
GRIFF_13
 10
0
 20
0
 30
0
 70
128
 71
45
 72
54
 73
53
 74
53
 0
VERTEX
 8
GRIFF_13
 10
0
 20
0
 30
0
 70
128
 71
49
 72
56
 73
80
 74
73
 0
VERTEX
 8
GRIFF_13
 10
0
 20
0
 30
0
 70
128
 71
51
 72
52
 73
60
 74
59
 0
VERTEX
 8
GRIFF_13
 10
0
 20
0
 30
0
 70
128
 71
53
 72
62
 73
61
 74
61
 0
VERTEX
 8
GRIFF_13
 10
0
 20
0
 30
0
 70
128
 71
57
 72
88
 73
81
 74
81
 0
VERTEX
 8
GRIFF_13
 10
0
 20
0
 30
0
 70
128
 71
59
 72
60
 73
68
 74
67
 0
VERTEX
 8
GRIFF_13
 10
0
 20
0
 30
0
 70
128
 71
61
 72
70
 73
69
 74
69
 0
VERTEX
 8
GRIFF_13
 10
0
 20
0
 30
0
 70
128
 71
73
 72
80
 73
4
 74
3
 0
VERTEX
 8
GRIFF_13
 10
0
 20
0
 30
0
 70
128
 71
67
 72
68
 73
76
 74
75
 0
VERTEX
 8
GRIFF_13
 10
0
 20
0
 30
0
 70
128
 71
69
 72
78
 73
77
 74
77
 0
VERTEX
 8
GRIFF_13
 10
0
 20
0
 30
0
 70
128
 71
81
 72
6
 73
5
 74
5
 0
VERTEX
 8
GRIFF_13
 10
0
 20
0
 30
0
 70
128
 71
75
 72
76
 73
84
 74
83
 0
VERTEX
 8
GRIFF_13
 10
0
 20
0
 30
0
 70
128
 71
77
 72
86
 73
85
 74
85
 0
SEQEND
 0
POLYLINE
 8
GRIFF_12
 66
1
 10
0.0
 20
0.0
 30
0.0
 70
64
 71
12
 72
6
 0
VERTEX
 8
GRIFF_12
 10
-11.9088
 20
-0.4939
 30
10.8508
 70
192
 0
VERTEX
 8
GRIFF_12
 10
-11.9088
 20
-0.4939
 30
12.8508
 70
192
 0
VERTEX
 8
GRIFF_12
 10
-11.4758
 20
-0.2439
 30
10.8508
 70
192
 0
VERTEX
 8
GRIFF_12
 10
-11.4758
 20
-0.2439
 30
12.8508
 70
192
 0
VERTEX
 8
GRIFF_12
 10
-11.4758
 20
0.2561
 30
10.8508
 70
192
 0
VERTEX
 8
GRIFF_12
 10
-11.4758
 20
0.2561
 30
12.8508
 70
192
 0
VERTEX
 8
GRIFF_12
 10
-11.9088
 20
0.5061
 30
10.8508
 70
192
 0
VERTEX
 8
GRIFF_12
 10
-11.9088
 20
0.5061
 30
12.8508
 70
192
 0
VERTEX
 8
GRIFF_12
 10
-12.3419
 20
0.2561
 30
10.8508
 70
192
 0
VERTEX
 8
GRIFF_12
 10
-12.3419
 20
0.2561
 30
12.8508
 70
192
 0
VERTEX
 8
GRIFF_12
 10
-12.3419
 20
-0.2439
 30
10.8508
 70
192
 0
VERTEX
 8
GRIFF_12
 10
-12.3419
 20
-0.2439
 30
12.8508
 70
192
 0
VERTEX
 8
GRIFF_12
 10
0
 20
0
 30
0
 70
128
 71
1
 72
2
 73
4
 74
3
 0
VERTEX
 8
GRIFF_12
 10
0
 20
0
 30
0
 70
128
 71
3
 72
4
 73
6
 74
5
 0
VERTEX
 8
GRIFF_12
 10
0
 20
0
 30
0
 70
128
 71
5
 72
6
 73
8
 74
7
 0
VERTEX
 8
GRIFF_12
 10
0
 20
0
 30
0
 70
128
 71
7
 72
8
 73
10
 74
9
 0
VERTEX
 8
GRIFF_12
 10
0
 20
0
 30
0
 70
128
 71
9
 72
10
 73
12
 74
11
 0
VERTEX
 8
GRIFF_12
 10
0
 20
0
 30
0
 70
128
 71
11
 72
12
 73
2
 74
1
 0
SEQEND
 0
POLYLINE
 8
GRIFF_11
 66
1
 10
0.0
 20
0.0
 30
0.0
 70
64
 71
12
 72
6
 0
VERTEX
 8
GRIFF_11
 10
-12.2046
 20
0.3018
 30
13.5505
 70
192
 0
VERTEX
 8
GRIFF_11
 10
-13.0531
 20
1.1503
 30
13.5505
 70
192
 0
VERTEX
 8
GRIFF_11
 10
-11.9902
 20
0.5161
 30
13.3755
 70
192
 0
VERTEX
 8
GRIFF_11
 10
-12.8388
 20
1.3646
 30
13.3755
 70
192
 0
VERTEX
 8
GRIFF_11
 10
-11.9902
 20
0.5161
 30
13.0255
 70
192
 0
VERTEX
 8
GRIFF_11
 10
-12.8388
 20
1.3646
 30
13.0255
 70
192
 0
VERTEX
 8
GRIFF_11
 10
-12.2046
 20
0.3018
 30
12.8505
 70
192
 0
VERTEX
 8
GRIFF_11
 10
-13.0531
 20
1.1503
 30
12.8505
 70
192
 0
VERTEX
 8
GRIFF_11
 10
-12.4189
 20
0.0875
 30
13.0255
 70
192
 0
VERTEX
 8
GRIFF_11
 10
-13.2674
 20
0.936
 30
13.0255
 70
192
 0
VERTEX
 8
GRIFF_11
 10
-12.4189
 20
0.0875
 30
13.3755
 70
192
 0
VERTEX
 8
GRIFF_11
 10
-13.2674
 20
0.936
 30
13.3755
 70
192
 0
VERTEX
 8
GRIFF_11
 10
0
 20
0
 30
0
 70
128
 71
1
 72
2
 73
4
 74
3
 0
VERTEX
 8
GRIFF_11
 10
0
 20
0
 30
0
 70
128
 71
3
 72
4
 73
6
 74
5
 0
VERTEX
 8
GRIFF_11
 10
0
 20
0
 30
0
 70
128
 71
5
 72
6
 73
8
 74
7
 0
VERTEX
 8
GRIFF_11
 10
0
 20
0
 30
0
 70
128
 71
7
 72
8
 73
10
 74
9
 0
VERTEX
 8
GRIFF_11
 10
0
 20
0
 30
0
 70
128
 71
9
 72
10
 73
12
 74
11
 0
VERTEX
 8
GRIFF_11
 10
0
 20
0
 30
0
 70
128
 71
11
 72
12
 73
2
 74
1
 0
SEQEND
 0
POLYLINE
 8
GRIFF_10
 66
1
 10
0.0
 20
0.0
 30
0.0
 70
64
 71
34
 72
24
 0
VERTEX
 8
GRIFF_10
 10
-12.6005
 20
0.6977
 30
13.2026
 70
192
 0
VERTEX
 8
GRIFF_10
 10
-14.0147
 20
2.1119
 30
13.2026
 70
192
 0
VERTEX
 8
GRIFF_10
 10
-12.6005
 20
0.6977
 30
13.7026
 70
192
 0
VERTEX
 8
GRIFF_10
 10
-12.6005
 20
0.6977
 30
13.7026
 70
192
 0
VERTEX
 8
GRIFF_10
 10
-14.0147
 20
2.1119
 30
13.7026
 70
192
 0
VERTEX
 8
GRIFF_10
 10
-14.0147
 20
2.1119
 30
13.7026
 70
192
 0
VERTEX
 8
GRIFF_10
 10
-12.3505
 20
0.9477
 30
13.5562
 70
192
 0
VERTEX
 8
GRIFF_10
 10
-12.3505
 20
0.9477
 30
13.5562
 70
192
 0
VERTEX
 8
GRIFF_10
 10
-13.7647
 20
2.3619
 30
13.5562
 70
192
 0
VERTEX
 8
GRIFF_10
 10
-13.7647
 20
2.3619
 30
13.5562
 70
192
 0
VERTEX
 8
GRIFF_10
 10
-12.2469
 20
1.0512
 30
13.2026
 70
192
 0
VERTEX
 8
GRIFF_10
 10
-12.2469
 20
1.0512
 30
13.2026
 70
192
 0
VERTEX
 8
GRIFF_10
 10
-13.6611
 20
2.4655
 30
13.2026
 70
192
 0
VERTEX
 8
GRIFF_10
 10
-13.6611
 20
2.4655
 30
13.2026
 70
192
 0
VERTEX
 8
GRIFF_10
 10
-12.3505
 20
0.9477
 30
12.8491
 70
192
 0
VERTEX
 8
GRIFF_10
 10
-12.3505
 20
0.9477
 30
12.8491
 70
192
 0
VERTEX
 8
GRIFF_10
 10
-13.7647
 20
2.3619
 30
12.8491
 70
192
 0
VERTEX
 8
GRIFF_10
 10
-13.7647
 20
2.3619
 30
12.8491
 70
192
 0
VERTEX
 8
GRIFF_10
 10
-12.6005
 20
0.6977
 30
12.7026
 70
192
 0
VERTEX
 8
GRIFF_10
 10
-12.6005
 20
0.6977
 30
12.7026
 70
192
 0
VERTEX
 8
GRIFF_10
 10
-14.0147
 20
2.1119
 30
12.7026
 70
192
 0
VERTEX
 8
GRIFF_10
 10
-14.0147
 20
2.1119
 30
12.7026
 70
192
 0
VERTEX
 8
GRIFF_10
 10
-12.8505
 20
0.4477
 30
12.8491
 70
192
 0
VERTEX
 8
GRIFF_10
 10
-12.8505
 20
0.4477
 30
12.8491
 70
192
 0
VERTEX
 8
GRIFF_10
 10
-14.2647
 20
1.8619
 30
12.8491
 70
192
 0
VERTEX
 8
GRIFF_10
 10
-14.2647
 20
1.8619
 30
12.8491
 70
192
 0
VERTEX
 8
GRIFF_10
 10
-12.954
 20
0.3441
 30
13.2026
 70
192
 0
VERTEX
 8
GRIFF_10
 10
-12.954
 20
0.3441
 30
13.2026
 70
192
 0
VERTEX
 8
GRIFF_10
 10
-14.3682
 20
1.7584
 30
13.2026
 70
192
 0
VERTEX
 8
GRIFF_10
 10
-14.3682
 20
1.7584
 30
13.2026
 70
192
 0
VERTEX
 8
GRIFF_10
 10
-12.8505
 20
0.4477
 30
13.5562
 70
192
 0
VERTEX
 8
GRIFF_10
 10
-12.8505
 20
0.4477
 30
13.5562
 70
192
 0
VERTEX
 8
GRIFF_10
 10
-14.2647
 20
1.8619
 30
13.5562
 70
192
 0
VERTEX
 8
GRIFF_10
 10
-14.2647
 20
1.8619
 30
13.5562
 70
192
 0
VERTEX
 8
GRIFF_10
 10
0
 20
0
 30
0
 70
128
 71
1
 72
3
 73
7
 74
7
 0
VERTEX
 8
GRIFF_10
 10
0
 20
0
 30
0
 70
128
 71
4
 72
5
 73
9
 74
8
 0
VERTEX
 8
GRIFF_10
 10
0
 20
0
 30
0
 70
128
 71
6
 72
2
 73
10
 74
10
 0
VERTEX
 8
GRIFF_10
 10
0
 20
0
 30
0
 70
128
 71
1
 72
7
 73
11
 74
11
 0
VERTEX
 8
GRIFF_10
 10
0
 20
0
 30
0
 70
128
 71
8
 72
9
 73
13
 74
12
 0
VERTEX
 8
GRIFF_10
 10
0
 20
0
 30
0
 70
128
 71
10
 72
2
 73
14
 74
14
 0
VERTEX
 8
GRIFF_10
 10
0
 20
0
 30
0
 70
128
 71
1
 72
11
 73
15
 74
15
 0
VERTEX
 8
GRIFF_10
 10
0
 20
0
 30
0
 70
128
 71
12
 72
13
 73
17
 74
16
 0
VERTEX
 8
GRIFF_10
 10
0
 20
0
 30
0
 70
128
 71
14
 72
2
 73
18
 74
18
 0
VERTEX
 8
GRIFF_10
 10
0
 20
0
 30
0
 70
128
 71
1
 72
15
 73
19
 74
19
 0
VERTEX
 8
GRIFF_10
 10
0
 20
0
 30
0
 70
128
 71
16
 72
17
 73
21
 74
20
 0
VERTEX
 8
GRIFF_10
 10
0
 20
0
 30
0
 70
128
 71
18
 72
2
 73
22
 74
22
 0
VERTEX
 8
GRIFF_10
 10
0
 20
0
 30
0
 70
128
 71
1
 72
19
 73
23
 74
23
 0
VERTEX
 8
GRIFF_10
 10
0
 20
0
 30
0
 70
128
 71
20
 72
21
 73
25
 74
24
 0
VERTEX
 8
GRIFF_10
 10
0
 20
0
 30
0
 70
128
 71
22
 72
2
 73
26
 74
26
 0
VERTEX
 8
GRIFF_10
 10
0
 20
0
 30
0
 70
128
 71
1
 72
23
 73
27
 74
27
 0
VERTEX
 8
GRIFF_10
 10
0
 20
0
 30
0
 70
128
 71
24
 72
25
 73
29
 74
28
 0
VERTEX
 8
GRIFF_10
 10
0
 20
0
 30
0
 70
128
 71
26
 72
2
 73
30
 74
30
 0
VERTEX
 8
GRIFF_10
 10
0
 20
0
 30
0
 70
128
 71
1
 72
27
 73
31
 74
31
 0
VERTEX
 8
GRIFF_10
 10
0
 20
0
 30
0
 70
128
 71
28
 72
29
 73
33
 74
32
 0
VERTEX
 8
GRIFF_10
 10
0
 20
0
 30
0
 70
128
 71
30
 72
2
 73
34
 74
34
 0
VERTEX
 8
GRIFF_10
 10
0
 20
0
 30
0
 70
128
 71
1
 72
31
 73
3
 74
3
 0
VERTEX
 8
GRIFF_10
 10
0
 20
0
 30
0
 70
128
 71
32
 72
33
 73
5
 74
4
 0
VERTEX
 8
GRIFF_10
 10
0
 20
0
 30
0
 70
128
 71
34
 72
2
 73
6
 74
6
 0
SEQEND
 0
POLYLINE
 8
GRIFF_9
 66
1
 10
0.0
 20
0.0
 30
0.0
 70
64
 71
12
 72
6
 0
VERTEX
 8
GRIFF_9
 10
-11.5885
 20
-0.3143
 30
13.5505
 70
192
 0
VERTEX
 8
GRIFF_9
 10
-10.74
 20
-1.1628
 30
13.5505
 70
192
 0
VERTEX
 8
GRIFF_9
 10
-11.8028
 20
-0.5286
 30
13.3755
 70
192
 0
VERTEX
 8
GRIFF_9
 10
-10.9543
 20
-1.3771
 30
13.3755
 70
192
 0
VERTEX
 8
GRIFF_9
 10
-11.8028
 20
-0.5286
 30
13.0255
 70
192
 0
VERTEX
 8
GRIFF_9
 10
-10.9543
 20
-1.3771
 30
13.0255
 70
192
 0
VERTEX
 8
GRIFF_9
 10
-11.5885
 20
-0.3143
 30
12.8505
 70
192
 0
VERTEX
 8
GRIFF_9
 10
-10.74
 20
-1.1628
 30
12.8505
 70
192
 0
VERTEX
 8
GRIFF_9
 10
-11.3742
 20
-0.0999
 30
13.0255
 70
192
 0
VERTEX
 8
GRIFF_9
 10
-10.5256
 20
-0.9485
 30
13.0255
 70
192
 0
VERTEX
 8
GRIFF_9
 10
-11.3742
 20
-0.0999
 30
13.3755
 70
192
 0
VERTEX
 8
GRIFF_9
 10
-10.5256
 20
-0.9485
 30
13.3755
 70
192
 0
VERTEX
 8
GRIFF_9
 10
0
 20
0
 30
0
 70
128
 71
1
 72
2
 73
4
 74
3
 0
VERTEX
 8
GRIFF_9
 10
0
 20
0
 30
0
 70
128
 71
3
 72
4
 73
6
 74
5
 0
VERTEX
 8
GRIFF_9
 10
0
 20
0
 30
0
 70
128
 71
5
 72
6
 73
8
 74
7
 0
VERTEX
 8
GRIFF_9
 10
0
 20
0
 30
0
 70
128
 71
7
 72
8
 73
10
 74
9
 0
VERTEX
 8
GRIFF_9
 10
0
 20
0
 30
0
 70
128
 71
9
 72
10
 73
12
 74
11
 0
VERTEX
 8
GRIFF_9
 10
0
 20
0
 30
0
 70
128
 71
11
 72
12
 73
2
 74
1
 0
SEQEND
 0
POLYLINE
 8
GRIFF_8
 66
1
 10
0.0
 20
0.0
 30
0.0
 70
64
 71
34
 72
24
 0
VERTEX
 8
GRIFF_8
 10
-11.2055
 20
-0.6973
 30
13.2026
 70
192
 0
VERTEX
 8
GRIFF_8
 10
-9.7913
 20
-2.1115
 30
13.2026
 70
192
 0
VERTEX
 8
GRIFF_8
 10
-11.2055
 20
-0.6973
 30
13.7026
 70
192
 0
VERTEX
 8
GRIFF_8
 10
-11.2055
 20
-0.6973
 30
13.7026
 70
192
 0
VERTEX
 8
GRIFF_8
 10
-9.7913
 20
-2.1115
 30
13.7026
 70
192
 0
VERTEX
 8
GRIFF_8
 10
-9.7913
 20
-2.1115
 30
13.7026
 70
192
 0
VERTEX
 8
GRIFF_8
 10
-11.4555
 20
-0.9473
 30
13.5562
 70
192
 0
VERTEX
 8
GRIFF_8
 10
-11.4555
 20
-0.9473
 30
13.5562
 70
192
 0
VERTEX
 8
GRIFF_8
 10
-10.0413
 20
-2.3615
 30
13.5562
 70
192
 0
VERTEX
 8
GRIFF_8
 10
-10.0413
 20
-2.3615
 30
13.5562
 70
192
 0
VERTEX
 8
GRIFF_8
 10
-11.5591
 20
-1.0508
 30
13.2026
 70
192
 0
VERTEX
 8
GRIFF_8
 10
-11.5591
 20
-1.0508
 30
13.2026
 70
192
 0
VERTEX
 8
GRIFF_8
 10
-10.1449
 20
-2.465
 30
13.2026
 70
192
 0
VERTEX
 8
GRIFF_8
 10
-10.1449
 20
-2.465
 30
13.2026
 70
192
 0
VERTEX
 8
GRIFF_8
 10
-11.4555
 20
-0.9473
 30
12.8491
 70
192
 0
VERTEX
 8
GRIFF_8
 10
-11.4555
 20
-0.9473
 30
12.8491
 70
192
 0
VERTEX
 8
GRIFF_8
 10
-10.0413
 20
-2.3615
 30
12.8491
 70
192
 0
VERTEX
 8
GRIFF_8
 10
-10.0413
 20
-2.3615
 30
12.8491
 70
192
 0
VERTEX
 8
GRIFF_8
 10
-11.2055
 20
-0.6973
 30
12.7026
 70
192
 0
VERTEX
 8
GRIFF_8
 10
-11.2055
 20
-0.6973
 30
12.7026
 70
192
 0
VERTEX
 8
GRIFF_8
 10
-9.7913
 20
-2.1115
 30
12.7026
 70
192
 0
VERTEX
 8
GRIFF_8
 10
-9.7913
 20
-2.1115
 30
12.7026
 70
192
 0
VERTEX
 8
GRIFF_8
 10
-10.9555
 20
-0.4473
 30
12.8491
 70
192
 0
VERTEX
 8
GRIFF_8
 10
-10.9555
 20
-0.4473
 30
12.8491
 70
192
 0
VERTEX
 8
GRIFF_8
 10
-9.5413
 20
-1.8615
 30
12.8491
 70
192
 0
VERTEX
 8
GRIFF_8
 10
-9.5413
 20
-1.8615
 30
12.8491
 70
192
 0
VERTEX
 8
GRIFF_8
 10
-10.852
 20
-0.3437
 30
13.2026
 70
192
 0
VERTEX
 8
GRIFF_8
 10
-10.852
 20
-0.3437
 30
13.2026
 70
192
 0
VERTEX
 8
GRIFF_8
 10
-9.4378
 20
-1.7579
 30
13.2026
 70
192
 0
VERTEX
 8
GRIFF_8
 10
-9.4378
 20
-1.7579
 30
13.2026
 70
192
 0
VERTEX
 8
GRIFF_8
 10
-10.9555
 20
-0.4473
 30
13.5562
 70
192
 0
VERTEX
 8
GRIFF_8
 10
-10.9555
 20
-0.4473
 30
13.5562
 70
192
 0
VERTEX
 8
GRIFF_8
 10
-9.5413
 20
-1.8615
 30
13.5562
 70
192
 0
VERTEX
 8
GRIFF_8
 10
-9.5413
 20
-1.8615
 30
13.5562
 70
192
 0
VERTEX
 8
GRIFF_8
 10
0
 20
0
 30
0
 70
128
 71
1
 72
3
 73
7
 74
7
 0
VERTEX
 8
GRIFF_8
 10
0
 20
0
 30
0
 70
128
 71
4
 72
5
 73
9
 74
8
 0
VERTEX
 8
GRIFF_8
 10
0
 20
0
 30
0
 70
128
 71
6
 72
2
 73
10
 74
10
 0
VERTEX
 8
GRIFF_8
 10
0
 20
0
 30
0
 70
128
 71
1
 72
7
 73
11
 74
11
 0
VERTEX
 8
GRIFF_8
 10
0
 20
0
 30
0
 70
128
 71
8
 72
9
 73
13
 74
12
 0
VERTEX
 8
GRIFF_8
 10
0
 20
0
 30
0
 70
128
 71
10
 72
2
 73
14
 74
14
 0
VERTEX
 8
GRIFF_8
 10
0
 20
0
 30
0
 70
128
 71
1
 72
11
 73
15
 74
15
 0
VERTEX
 8
GRIFF_8
 10
0
 20
0
 30
0
 70
128
 71
12
 72
13
 73
17
 74
16
 0
VERTEX
 8
GRIFF_8
 10
0
 20
0
 30
0
 70
128
 71
14
 72
2
 73
18
 74
18
 0
VERTEX
 8
GRIFF_8
 10
0
 20
0
 30
0
 70
128
 71
1
 72
15
 73
19
 74
19
 0
VERTEX
 8
GRIFF_8
 10
0
 20
0
 30
0
 70
128
 71
16
 72
17
 73
21
 74
20
 0
VERTEX
 8
GRIFF_8
 10
0
 20
0
 30
0
 70
128
 71
18
 72
2
 73
22
 74
22
 0
VERTEX
 8
GRIFF_8
 10
0
 20
0
 30
0
 70
128
 71
1
 72
19
 73
23
 74
23
 0
VERTEX
 8
GRIFF_8
 10
0
 20
0
 30
0
 70
128
 71
20
 72
21
 73
25
 74
24
 0
VERTEX
 8
GRIFF_8
 10
0
 20
0
 30
0
 70
128
 71
22
 72
2
 73
26
 74
26
 0
VERTEX
 8
GRIFF_8
 10
0
 20
0
 30
0
 70
128
 71
1
 72
23
 73
27
 74
27
 0
VERTEX
 8
GRIFF_8
 10
0
 20
0
 30
0
 70
128
 71
24
 72
25
 73
29
 74
28
 0
VERTEX
 8
GRIFF_8
 10
0
 20
0
 30
0
 70
128
 71
26
 72
2
 73
30
 74
30
 0
VERTEX
 8
GRIFF_8
 10
0
 20
0
 30
0
 70
128
 71
1
 72
27
 73
31
 74
31
 0
VERTEX
 8
GRIFF_8
 10
0
 20
0
 30
0
 70
128
 71
28
 72
29
 73
33
 74
32
 0
VERTEX
 8
GRIFF_8
 10
0
 20
0
 30
0
 70
128
 71
30
 72
2
 73
34
 74
34
 0
VERTEX
 8
GRIFF_8
 10
0
 20
0
 30
0
 70
128
 71
1
 72
31
 73
3
 74
3
 0
VERTEX
 8
GRIFF_8
 10
0
 20
0
 30
0
 70
128
 71
32
 72
33
 73
5
 74
4
 0
VERTEX
 8
GRIFF_8
 10
0
 20
0
 30
0
 70
128
 71
34
 72
2
 73
6
 74
6
 0
SEQEND
 0
POLYLINE
 8
GRIFF_7
 66
1
 10
0.0
 20
0.0
 30
0.0
 70
64
 71
12
 72
6
 0
VERTEX
 8
GRIFF_7
 10
-12.2868
 20
-0.3453
 30
13.5505
 70
192
 0
VERTEX
 8
GRIFF_7
 10
-13.1353
 20
-1.1939
 30
13.5505
 70
192
 0
VERTEX
 8
GRIFF_7
 10
-12.5011
 20
-0.131
 30
13.3755
 70
192
 0
VERTEX
 8
GRIFF_7
 10
-13.3496
 20
-0.9795
 30
13.3755
 70
192
 0
VERTEX
 8
GRIFF_7
 10
-12.5011
 20
-0.131
 30
13.0255
 70
192
 0
VERTEX
 8
GRIFF_7
 10
-13.3496
 20
-0.9795
 30
13.0255
 70
192
 0
VERTEX
 8
GRIFF_7
 10
-12.2868
 20
-0.3453
 30
12.8505
 70
192
 0
VERTEX
 8
GRIFF_7
 10
-13.1353
 20
-1.1939
 30
12.8505
 70
192
 0
VERTEX
 8
GRIFF_7
 10
-12.0725
 20
-0.5597
 30
13.0255
 70
192
 0
VERTEX
 8
GRIFF_7
 10
-12.921
 20
-1.4082
 30
13.0255
 70
192
 0
VERTEX
 8
GRIFF_7
 10
-12.0725
 20
-0.5597
 30
13.3755
 70
192
 0
VERTEX
 8
GRIFF_7
 10
-12.921
 20
-1.4082
 30
13.3755
 70
192
 0
VERTEX
 8
GRIFF_7
 10
0
 20
0
 30
0
 70
128
 71
1
 72
2
 73
4
 74
3
 0
VERTEX
 8
GRIFF_7
 10
0
 20
0
 30
0
 70
128
 71
3
 72
4
 73
6
 74
5
 0
VERTEX
 8
GRIFF_7
 10
0
 20
0
 30
0
 70
128
 71
5
 72
6
 73
8
 74
7
 0
VERTEX
 8
GRIFF_7
 10
0
 20
0
 30
0
 70
128
 71
7
 72
8
 73
10
 74
9
 0
VERTEX
 8
GRIFF_7
 10
0
 20
0
 30
0
 70
128
 71
9
 72
10
 73
12
 74
11
 0
VERTEX
 8
GRIFF_7
 10
0
 20
0
 30
0
 70
128
 71
11
 72
12
 73
2
 74
1
 0
SEQEND
 0
POLYLINE
 8
GRIFF_6
 66
1
 10
0.0
 20
0.0
 30
0.0
 70
64
 71
34
 72
24
 0
VERTEX
 8
GRIFF_6
 10
-12.6698
 20
-0.7283
 30
13.2026
 70
192
 0
VERTEX
 8
GRIFF_6
 10
-14.084
 20
-2.1425
 30
13.2026
 70
192
 0
VERTEX
 8
GRIFF_6
 10
-12.6698
 20
-0.7283
 30
13.7026
 70
192
 0
VERTEX
 8
GRIFF_6
 10
-12.6698
 20
-0.7283
 30
13.7026
 70
192
 0
VERTEX
 8
GRIFF_6
 10
-14.084
 20
-2.1425
 30
13.7026
 70
192
 0
VERTEX
 8
GRIFF_6
 10
-14.084
 20
-2.1425
 30
13.7026
 70
192
 0
VERTEX
 8
GRIFF_6
 10
-12.9198
 20
-0.4783
 30
13.5562
 70
192
 0
VERTEX
 8
GRIFF_6
 10
-12.9198
 20
-0.4783
 30
13.5562
 70
192
 0
VERTEX
 8
GRIFF_6
 10
-14.334
 20
-1.8925
 30
13.5562
 70
192
 0
VERTEX
 8
GRIFF_6
 10
-14.334
 20
-1.8925
 30
13.5562
 70
192
 0
VERTEX
 8
GRIFF_6
 10
-13.0233
 20
-0.3748
 30
13.2026
 70
192
 0
VERTEX
 8
GRIFF_6
 10
-13.0233
 20
-0.3748
 30
13.2026
 70
192
 0
VERTEX
 8
GRIFF_6
 10
-14.4375
 20
-1.789
 30
13.2026
 70
192
 0
VERTEX
 8
GRIFF_6
 10
-14.4375
 20
-1.789
 30
13.2026
 70
192
 0
VERTEX
 8
GRIFF_6
 10
-12.9198
 20
-0.4783
 30
12.8491
 70
192
 0
VERTEX
 8
GRIFF_6
 10
-12.9198
 20
-0.4783
 30
12.8491
 70
192
 0
VERTEX
 8
GRIFF_6
 10
-14.334
 20
-1.8925
 30
12.8491
 70
192
 0
VERTEX
 8
GRIFF_6
 10
-14.334
 20
-1.8925
 30
12.8491
 70
192
 0
VERTEX
 8
GRIFF_6
 10
-12.6698
 20
-0.7283
 30
12.7026
 70
192
 0
VERTEX
 8
GRIFF_6
 10
-12.6698
 20
-0.7283
 30
12.7026
 70
192
 0
VERTEX
 8
GRIFF_6
 10
-14.084
 20
-2.1425
 30
12.7026
 70
192
 0
VERTEX
 8
GRIFF_6
 10
-14.084
 20
-2.1425
 30
12.7026
 70
192
 0
VERTEX
 8
GRIFF_6
 10
-12.4198
 20
-0.9783
 30
12.8491
 70
192
 0
VERTEX
 8
GRIFF_6
 10
-12.4198
 20
-0.9783
 30
12.8491
 70
192
 0
VERTEX
 8
GRIFF_6
 10
-13.834
 20
-2.3925
 30
12.8491
 70
192
 0
VERTEX
 8
GRIFF_6
 10
-13.834
 20
-2.3925
 30
12.8491
 70
192
 0
VERTEX
 8
GRIFF_6
 10
-12.3162
 20
-1.0819
 30
13.2026
 70
192
 0
VERTEX
 8
GRIFF_6
 10
-12.3162
 20
-1.0819
 30
13.2026
 70
192
 0
VERTEX
 8
GRIFF_6
 10
-13.7304
 20
-2.4961
 30
13.2026
 70
192
 0
VERTEX
 8
GRIFF_6
 10
-13.7304
 20
-2.4961
 30
13.2026
 70
192
 0
VERTEX
 8
GRIFF_6
 10
-12.4198
 20
-0.9783
 30
13.5562
 70
192
 0
VERTEX
 8
GRIFF_6
 10
-12.4198
 20
-0.9783
 30
13.5562
 70
192
 0
VERTEX
 8
GRIFF_6
 10
-13.834
 20
-2.3925
 30
13.5562
 70
192
 0
VERTEX
 8
GRIFF_6
 10
-13.834
 20
-2.3925
 30
13.5562
 70
192
 0
VERTEX
 8
GRIFF_6
 10
0
 20
0
 30
0
 70
128
 71
1
 72
3
 73
7
 74
7
 0
VERTEX
 8
GRIFF_6
 10
0
 20
0
 30
0
 70
128
 71
4
 72
5
 73
9
 74
8
 0
VERTEX
 8
GRIFF_6
 10
0
 20
0
 30
0
 70
128
 71
6
 72
2
 73
10
 74
10
 0
VERTEX
 8
GRIFF_6
 10
0
 20
0
 30
0
 70
128
 71
1
 72
7
 73
11
 74
11
 0
VERTEX
 8
GRIFF_6
 10
0
 20
0
 30
0
 70
128
 71
8
 72
9
 73
13
 74
12
 0
VERTEX
 8
GRIFF_6
 10
0
 20
0
 30
0
 70
128
 71
10
 72
2
 73
14
 74
14
 0
VERTEX
 8
GRIFF_6
 10
0
 20
0
 30
0
 70
128
 71
1
 72
11
 73
15
 74
15
 0
VERTEX
 8
GRIFF_6
 10
0
 20
0
 30
0
 70
128
 71
12
 72
13
 73
17
 74
16
 0
VERTEX
 8
GRIFF_6
 10
0
 20
0
 30
0
 70
128
 71
14
 72
2
 73
18
 74
18
 0
VERTEX
 8
GRIFF_6
 10
0
 20
0
 30
0
 70
128
 71
1
 72
15
 73
19
 74
19
 0
VERTEX
 8
GRIFF_6
 10
0
 20
0
 30
0
 70
128
 71
16
 72
17
 73
21
 74
20
 0
VERTEX
 8
GRIFF_6
 10
0
 20
0
 30
0
 70
128
 71
18
 72
2
 73
22
 74
22
 0
VERTEX
 8
GRIFF_6
 10
0
 20
0
 30
0
 70
128
 71
1
 72
19
 73
23
 74
23
 0
VERTEX
 8
GRIFF_6
 10
0
 20
0
 30
0
 70
128
 71
20
 72
21
 73
25
 74
24
 0
VERTEX
 8
GRIFF_6
 10
0
 20
0
 30
0
 70
128
 71
22
 72
2
 73
26
 74
26
 0
VERTEX
 8
GRIFF_6
 10
0
 20
0
 30
0
 70
128
 71
1
 72
23
 73
27
 74
27
 0
VERTEX
 8
GRIFF_6
 10
0
 20
0
 30
0
 70
128
 71
24
 72
25
 73
29
 74
28
 0
VERTEX
 8
GRIFF_6
 10
0
 20
0
 30
0
 70
128
 71
26
 72
2
 73
30
 74
30
 0
VERTEX
 8
GRIFF_6
 10
0
 20
0
 30
0
 70
128
 71
1
 72
27
 73
31
 74
31
 0
VERTEX
 8
GRIFF_6
 10
0
 20
0
 30
0
 70
128
 71
28
 72
29
 73
33
 74
32
 0
VERTEX
 8
GRIFF_6
 10
0
 20
0
 30
0
 70
128
 71
30
 72
2
 73
34
 74
34
 0
VERTEX
 8
GRIFF_6
 10
0
 20
0
 30
0
 70
128
 71
1
 72
31
 73
3
 74
3
 0
VERTEX
 8
GRIFF_6
 10
0
 20
0
 30
0
 70
128
 71
32
 72
33
 73
5
 74
4
 0
VERTEX
 8
GRIFF_6
 10
0
 20
0
 30
0
 70
128
 71
34
 72
2
 73
6
 74
6
 0
SEQEND
 0
POLYLINE
 8
GRIFF_5
 66
1
 10
0.0
 20
0.0
 30
0.0
 70
64
 71
12
 72
6
 0
VERTEX
 8
GRIFF_5
 10
-11.5834
 20
0.3581
 30
13.5505
 70
192
 0
VERTEX
 8
GRIFF_5
 10
-10.7348
 20
1.2066
 30
13.5505
 70
192
 0
VERTEX
 8
GRIFF_5
 10
-11.369
 20
0.1438
 30
13.3755
 70
192
 0
VERTEX
 8
GRIFF_5
 10
-10.5205
 20
0.9923
 30
13.3755
 70
192
 0
VERTEX
 8
GRIFF_5
 10
-11.369
 20
0.1438
 30
13.0255
 70
192
 0
VERTEX
 8
GRIFF_5
 10
-10.5205
 20
0.9923
 30
13.0255
 70
192
 0
VERTEX
 8
GRIFF_5
 10
-11.5834
 20
0.3581
 30
12.8505
 70
192
 0
VERTEX
 8
GRIFF_5
 10
-10.7348
 20
1.2066
 30
12.8505
 70
192
 0
VERTEX
 8
GRIFF_5
 10
-11.7977
 20
0.5724
 30
13.0255
 70
192
 0
VERTEX
 8
GRIFF_5
 10
-10.9492
 20
1.4209
 30
13.0255
 70
192
 0
VERTEX
 8
GRIFF_5
 10
-11.7977
 20
0.5724
 30
13.3755
 70
192
 0
VERTEX
 8
GRIFF_5
 10
-10.9492
 20
1.4209
 30
13.3755
 70
192
 0
VERTEX
 8
GRIFF_5
 10
0
 20
0
 30
0
 70
128
 71
1
 72
2
 73
4
 74
3
 0
VERTEX
 8
GRIFF_5
 10
0
 20
0
 30
0
 70
128
 71
3
 72
4
 73
6
 74
5
 0
VERTEX
 8
GRIFF_5
 10
0
 20
0
 30
0
 70
128
 71
5
 72
6
 73
8
 74
7
 0
VERTEX
 8
GRIFF_5
 10
0
 20
0
 30
0
 70
128
 71
7
 72
8
 73
10
 74
9
 0
VERTEX
 8
GRIFF_5
 10
0
 20
0
 30
0
 70
128
 71
9
 72
10
 73
12
 74
11
 0
VERTEX
 8
GRIFF_5
 10
0
 20
0
 30
0
 70
128
 71
11
 72
12
 73
2
 74
1
 0
SEQEND
 0
POLYLINE
 8
GRIFF_4
 66
1
 10
0.0
 20
0.0
 30
0.0
 70
64
 71
34
 72
24
 0
VERTEX
 8
GRIFF_4
 10
-11.2004
 20
0.7411
 30
13.2026
 70
192
 0
VERTEX
 8
GRIFF_4
 10
-9.7862
 20
2.1553
 30
13.2026
 70
192
 0
VERTEX
 8
GRIFF_4
 10
-11.2004
 20
0.7411
 30
13.7026
 70
192
 0
VERTEX
 8
GRIFF_4
 10
-11.2004
 20
0.7411
 30
13.7026
 70
192
 0
VERTEX
 8
GRIFF_4
 10
-9.7862
 20
2.1553
 30
13.7026
 70
192
 0
VERTEX
 8
GRIFF_4
 10
-9.7862
 20
2.1553
 30
13.7026
 70
192
 0
VERTEX
 8
GRIFF_4
 10
-10.9504
 20
0.4911
 30
13.5562
 70
192
 0
VERTEX
 8
GRIFF_4
 10
-10.9504
 20
0.4911
 30
13.5562
 70
192
 0
VERTEX
 8
GRIFF_4
 10
-9.5362
 20
1.9053
 30
13.5562
 70
192
 0
VERTEX
 8
GRIFF_4
 10
-9.5362
 20
1.9053
 30
13.5562
 70
192
 0
VERTEX
 8
GRIFF_4
 10
-10.8468
 20
0.3875
 30
13.2026
 70
192
 0
VERTEX
 8
GRIFF_4
 10
-10.8468
 20
0.3875
 30
13.2026
 70
192
 0
VERTEX
 8
GRIFF_4
 10
-9.4326
 20
1.8017
 30
13.2026
 70
192
 0
VERTEX
 8
GRIFF_4
 10
-9.4326
 20
1.8017
 30
13.2026
 70
192
 0
VERTEX
 8
GRIFF_4
 10
-10.9504
 20
0.4911
 30
12.8491
 70
192
 0
VERTEX
 8
GRIFF_4
 10
-10.9504
 20
0.4911
 30
12.8491
 70
192
 0
VERTEX
 8
GRIFF_4
 10
-9.5362
 20
1.9053
 30
12.8491
 70
192
 0
VERTEX
 8
GRIFF_4
 10
-9.5362
 20
1.9053
 30
12.8491
 70
192
 0
VERTEX
 8
GRIFF_4
 10
-11.2004
 20
0.7411
 30
12.7026
 70
192
 0
VERTEX
 8
GRIFF_4
 10
-11.2004
 20
0.7411
 30
12.7026
 70
192
 0
VERTEX
 8
GRIFF_4
 10
-9.7862
 20
2.1553
 30
12.7026
 70
192
 0
VERTEX
 8
GRIFF_4
 10
-9.7862
 20
2.1553
 30
12.7026
 70
192
 0
VERTEX
 8
GRIFF_4
 10
-11.4504
 20
0.9911
 30
12.8491
 70
192
 0
VERTEX
 8
GRIFF_4
 10
-11.4504
 20
0.9911
 30
12.8491
 70
192
 0
VERTEX
 8
GRIFF_4
 10
-10.0362
 20
2.4053
 30
12.8491
 70
192
 0
VERTEX
 8
GRIFF_4
 10
-10.0362
 20
2.4053
 30
12.8491
 70
192
 0
VERTEX
 8
GRIFF_4
 10
-11.5539
 20
1.0946
 30
13.2026
 70
192
 0
VERTEX
 8
GRIFF_4
 10
-11.5539
 20
1.0946
 30
13.2026
 70
192
 0
VERTEX
 8
GRIFF_4
 10
-10.1397
 20
2.5088
 30
13.2026
 70
192
 0
VERTEX
 8
GRIFF_4
 10
-10.1397
 20
2.5088
 30
13.2026
 70
192
 0
VERTEX
 8
GRIFF_4
 10
-11.4504
 20
0.9911
 30
13.5562
 70
192
 0
VERTEX
 8
GRIFF_4
 10
-11.4504
 20
0.9911
 30
13.5562
 70
192
 0
VERTEX
 8
GRIFF_4
 10
-10.0362
 20
2.4053
 30
13.5562
 70
192
 0
VERTEX
 8
GRIFF_4
 10
-10.0362
 20
2.4053
 30
13.5562
 70
192
 0
VERTEX
 8
GRIFF_4
 10
0
 20
0
 30
0
 70
128
 71
1
 72
3
 73
7
 74
7
 0
VERTEX
 8
GRIFF_4
 10
0
 20
0
 30
0
 70
128
 71
4
 72
5
 73
9
 74
8
 0
VERTEX
 8
GRIFF_4
 10
0
 20
0
 30
0
 70
128
 71
6
 72
2
 73
10
 74
10
 0
VERTEX
 8
GRIFF_4
 10
0
 20
0
 30
0
 70
128
 71
1
 72
7
 73
11
 74
11
 0
VERTEX
 8
GRIFF_4
 10
0
 20
0
 30
0
 70
128
 71
8
 72
9
 73
13
 74
12
 0
VERTEX
 8
GRIFF_4
 10
0
 20
0
 30
0
 70
128
 71
10
 72
2
 73
14
 74
14
 0
VERTEX
 8
GRIFF_4
 10
0
 20
0
 30
0
 70
128
 71
1
 72
11
 73
15
 74
15
 0
VERTEX
 8
GRIFF_4
 10
0
 20
0
 30
0
 70
128
 71
12
 72
13
 73
17
 74
16
 0
VERTEX
 8
GRIFF_4
 10
0
 20
0
 30
0
 70
128
 71
14
 72
2
 73
18
 74
18
 0
VERTEX
 8
GRIFF_4
 10
0
 20
0
 30
0
 70
128
 71
1
 72
15
 73
19
 74
19
 0
VERTEX
 8
GRIFF_4
 10
0
 20
0
 30
0
 70
128
 71
16
 72
17
 73
21
 74
20
 0
VERTEX
 8
GRIFF_4
 10
0
 20
0
 30
0
 70
128
 71
18
 72
2
 73
22
 74
22
 0
VERTEX
 8
GRIFF_4
 10
0
 20
0
 30
0
 70
128
 71
1
 72
19
 73
23
 74
23
 0
VERTEX
 8
GRIFF_4
 10
0
 20
0
 30
0
 70
128
 71
20
 72
21
 73
25
 74
24
 0
VERTEX
 8
GRIFF_4
 10
0
 20
0
 30
0
 70
128
 71
22
 72
2
 73
26
 74
26
 0
VERTEX
 8
GRIFF_4
 10
0
 20
0
 30
0
 70
128
 71
1
 72
23
 73
27
 74
27
 0
VERTEX
 8
GRIFF_4
 10
0
 20
0
 30
0
 70
128
 71
24
 72
25
 73
29
 74
28
 0
VERTEX
 8
GRIFF_4
 10
0
 20
0
 30
0
 70
128
 71
26
 72
2
 73
30
 74
30
 0
VERTEX
 8
GRIFF_4
 10
0
 20
0
 30
0
 70
128
 71
1
 72
27
 73
31
 74
31
 0
VERTEX
 8
GRIFF_4
 10
0
 20
0
 30
0
 70
128
 71
28
 72
29
 73
33
 74
32
 0
VERTEX
 8
GRIFF_4
 10
0
 20
0
 30
0
 70
128
 71
30
 72
2
 73
34
 74
34
 0
VERTEX
 8
GRIFF_4
 10
0
 20
0
 30
0
 70
128
 71
1
 72
31
 73
3
 74
3
 0
VERTEX
 8
GRIFF_4
 10
0
 20
0
 30
0
 70
128
 71
32
 72
33
 73
5
 74
4
 0
VERTEX
 8
GRIFF_4
 10
0
 20
0
 30
0
 70
128
 71
34
 72
2
 73
6
 74
6
 0
SEQEND
 0
POLYLINE
 8
GRIFF_3
 66
1
 10
0.0
 20
0.0
 30
0.0
 70
64
 71
34
 72
24
 0
VERTEX
 8
GRIFF_3
 10
-11.9088
 20
0.0061
 30
12.711
 70
192
 0
VERTEX
 8
GRIFF_3
 10
-11.9088
 20
0.0061
 30
13.711
 70
192
 0
VERTEX
 8
GRIFF_3
 10
-11.4139
 20
-0.4889
 30
12.711
 70
192
 0
VERTEX
 8
GRIFF_3
 10
-11.4139
 20
-0.4889
 30
12.711
 70
192
 0
VERTEX
 8
GRIFF_3
 10
-11.4139
 20
-0.4889
 30
13.711
 70
192
 0
VERTEX
 8
GRIFF_3
 10
-11.4139
 20
-0.4889
 30
13.711
 70
192
 0
VERTEX
 8
GRIFF_3
 10
-11.2088
 20
0.0061
 30
12.711
 70
192
 0
VERTEX
 8
GRIFF_3
 10
-11.2088
 20
0.0061
 30
12.711
 70
192
 0
VERTEX
 8
GRIFF_3
 10
-11.2088
 20
0.0061
 30
13.711
 70
192
 0
VERTEX
 8
GRIFF_3
 10
-11.2088
 20
0.0061
 30
13.711
 70
192
 0
VERTEX
 8
GRIFF_3
 10
-11.4139
 20
0.5011
 30
12.711
 70
192
 0
VERTEX
 8
GRIFF_3
 10
-11.4139
 20
0.5011
 30
12.711
 70
192
 0
VERTEX
 8
GRIFF_3
 10
-11.4139
 20
0.5011
 30
13.711
 70
192
 0
VERTEX
 8
GRIFF_3
 10
-11.4139
 20
0.5011
 30
13.711
 70
192
 0
VERTEX
 8
GRIFF_3
 10
-11.9088
 20
0.7061
 30
12.711
 70
192
 0
VERTEX
 8
GRIFF_3
 10
-11.9088
 20
0.7061
 30
12.711
 70
192
 0
VERTEX
 8
GRIFF_3
 10
-11.9088
 20
0.7061
 30
13.711
 70
192
 0
VERTEX
 8
GRIFF_3
 10
-11.9088
 20
0.7061
 30
13.711
 70
192
 0
VERTEX
 8
GRIFF_3
 10
-12.4038
 20
0.5011
 30
12.711
 70
192
 0
VERTEX
 8
GRIFF_3
 10
-12.4038
 20
0.5011
 30
12.711
 70
192
 0
VERTEX
 8
GRIFF_3
 10
-12.4038
 20
0.5011
 30
13.711
 70
192
 0
VERTEX
 8
GRIFF_3
 10
-12.4038
 20
0.5011
 30
13.711
 70
192
 0
VERTEX
 8
GRIFF_3
 10
-12.6088
 20
0.0061
 30
12.711
 70
192
 0
VERTEX
 8
GRIFF_3
 10
-12.6088
 20
0.0061
 30
12.711
 70
192
 0
VERTEX
 8
GRIFF_3
 10
-12.6088
 20
0.0061
 30
13.711
 70
192
 0
VERTEX
 8
GRIFF_3
 10
-12.6088
 20
0.0061
 30
13.711
 70
192
 0
VERTEX
 8
GRIFF_3
 10
-12.4038
 20
-0.4889
 30
12.711
 70
192
 0
VERTEX
 8
GRIFF_3
 10
-12.4038
 20
-0.4889
 30
12.711
 70
192
 0
VERTEX
 8
GRIFF_3
 10
-12.4038
 20
-0.4889
 30
13.711
 70
192
 0
VERTEX
 8
GRIFF_3
 10
-12.4038
 20
-0.4889
 30
13.711
 70
192
 0
VERTEX
 8
GRIFF_3
 10
-11.9088
 20
-0.6939
 30
12.711
 70
192
 0
VERTEX
 8
GRIFF_3
 10
-11.9088
 20
-0.6939
 30
12.711
 70
192
 0
VERTEX
 8
GRIFF_3
 10
-11.9088
 20
-0.6939
 30
13.711
 70
192
 0
VERTEX
 8
GRIFF_3
 10
-11.9088
 20
-0.6939
 30
13.711
 70
192
 0
VERTEX
 8
GRIFF_3
 10
0
 20
0
 30
0
 70
128
 71
1
 72
3
 73
7
 74
7
 0
VERTEX
 8
GRIFF_3
 10
0
 20
0
 30
0
 70
128
 71
4
 72
5
 73
9
 74
8
 0
VERTEX
 8
GRIFF_3
 10
0
 20
0
 30
0
 70
128
 71
6
 72
2
 73
10
 74
10
 0
VERTEX
 8
GRIFF_3
 10
0
 20
0
 30
0
 70
128
 71
1
 72
7
 73
11
 74
11
 0
VERTEX
 8
GRIFF_3
 10
0
 20
0
 30
0
 70
128
 71
8
 72
9
 73
13
 74
12
 0
VERTEX
 8
GRIFF_3
 10
0
 20
0
 30
0
 70
128
 71
10
 72
2
 73
14
 74
14
 0
VERTEX
 8
GRIFF_3
 10
0
 20
0
 30
0
 70
128
 71
1
 72
11
 73
15
 74
15
 0
VERTEX
 8
GRIFF_3
 10
0
 20
0
 30
0
 70
128
 71
12
 72
13
 73
17
 74
16
 0
VERTEX
 8
GRIFF_3
 10
0
 20
0
 30
0
 70
128
 71
14
 72
2
 73
18
 74
18
 0
VERTEX
 8
GRIFF_3
 10
0
 20
0
 30
0
 70
128
 71
1
 72
15
 73
19
 74
19
 0
VERTEX
 8
GRIFF_3
 10
0
 20
0
 30
0
 70
128
 71
16
 72
17
 73
21
 74
20
 0
VERTEX
 8
GRIFF_3
 10
0
 20
0
 30
0
 70
128
 71
18
 72
2
 73
22
 74
22
 0
VERTEX
 8
GRIFF_3
 10
0
 20
0
 30
0
 70
128
 71
1
 72
19
 73
23
 74
23
 0
VERTEX
 8
GRIFF_3
 10
0
 20
0
 30
0
 70
128
 71
20
 72
21
 73
25
 74
24
 0
VERTEX
 8
GRIFF_3
 10
0
 20
0
 30
0
 70
128
 71
22
 72
2
 73
26
 74
26
 0
VERTEX
 8
GRIFF_3
 10
0
 20
0
 30
0
 70
128
 71
1
 72
23
 73
27
 74
27
 0
VERTEX
 8
GRIFF_3
 10
0
 20
0
 30
0
 70
128
 71
24
 72
25
 73
29
 74
28
 0
VERTEX
 8
GRIFF_3
 10
0
 20
0
 30
0
 70
128
 71
26
 72
2
 73
30
 74
30
 0
VERTEX
 8
GRIFF_3
 10
0
 20
0
 30
0
 70
128
 71
1
 72
27
 73
31
 74
31
 0
VERTEX
 8
GRIFF_3
 10
0
 20
0
 30
0
 70
128
 71
28
 72
29
 73
33
 74
32
 0
VERTEX
 8
GRIFF_3
 10
0
 20
0
 30
0
 70
128
 71
30
 72
2
 73
34
 74
34
 0
VERTEX
 8
GRIFF_3
 10
0
 20
0
 30
0
 70
128
 71
1
 72
31
 73
3
 74
3
 0
VERTEX
 8
GRIFF_3
 10
0
 20
0
 30
0
 70
128
 71
32
 72
33
 73
5
 74
4
 0
VERTEX
 8
GRIFF_3
 10
0
 20
0
 30
0
 70
128
 71
34
 72
2
 73
6
 74
6
 0
SEQEND
 0
POLYLINE
 8
ROSETTE
 66
1
 10
0.0
 20
0.0
 30
0.0
 70
64
 71
60
 72
23
 0
VERTEX
 8
ROSETTE
 10
-0.7355
 20
-3.4175
 30
6.4632
 70
192
 0
VERTEX
 8
ROSETTE
 10
-0.0078
 20
3.5061
 30
6.0632
 70
192
 0
VERTEX
 8
ROSETTE
 10
-0.0078
 20
3.5061
 30
6.0632
 70
192
 0
VERTEX
 8
ROSETTE
 10
-0.0078
 20
3.5061
 30
6.4632
 70
192
 0
VERTEX
 8
ROSETTE
 10
-0.0078
 20
3.5061
 30
6.4632
 70
192
 0
VERTEX
 8
ROSETTE
 10
0.7199
 20
-3.4175
 30
6.0632
 70
192
 0
VERTEX
 8
ROSETTE
 10
0.7199
 20
-3.4175
 30
6.0632
 70
192
 0
VERTEX
 8
ROSETTE
 10
0.7199
 20
-3.4175
 30
6.4632
 70
192
 0
VERTEX
 8
ROSETTE
 10
0.7199
 20
-3.4175
 30
6.4632
 70
192
 0
VERTEX
 8
ROSETTE
 10
-1.4314
 20
3.2035
 30
6.0632
 70
192
 0
VERTEX
 8
ROSETTE
 10
-1.4314
 20
3.2035
 30
6.0632
 70
192
 0
VERTEX
 8
ROSETTE
 10
-1.4314
 20
3.2035
 30
6.4632
 70
192
 0
VERTEX
 8
ROSETTE
 10
-1.4314
 20
3.2035
 30
6.4632
 70
192
 0
VERTEX
 8
ROSETTE
 10
2.0494
 20
-2.8255
 30
6.0632
 70
192
 0
VERTEX
 8
ROSETTE
 10
2.0494
 20
-2.8255
 30
6.0632
 70
192
 0
VERTEX
 8
ROSETTE
 10
2.0494
 20
-2.8255
 30
6.4632
 70
192
 0
VERTEX
 8
ROSETTE
 10
2.0494
 20
-2.8255
 30
6.4632
 70
192
 0
VERTEX
 8
ROSETTE
 10
-2.6088
 20
2.348
 30
6.0632
 70
192
 0
VERTEX
 8
ROSETTE
 10
-2.6088
 20
2.348
 30
6.0632
 70
192
 0
VERTEX
 8
ROSETTE
 10
-2.6088
 20
2.348
 30
6.4632
 70
192
 0
VERTEX
 8
ROSETTE
 10
-2.6088
 20
2.348
 30
6.4632
 70
192
 0
VERTEX
 8
ROSETTE
 10
3.0233
 20
-1.7439
 30
6.0632
 70
192
 0
VERTEX
 8
ROSETTE
 10
3.0233
 20
-1.7439
 30
6.0632
 70
192
 0
VERTEX
 8
ROSETTE
 10
3.0233
 20
-1.7439
 30
6.4632
 70
192
 0
VERTEX
 8
ROSETTE
 10
3.0233
 20
-1.7439
 30
6.4632
 70
192
 0
VERTEX
 8
ROSETTE
 10
-3.3365
 20
1.0876
 30
6.0632
 70
192
 0
VERTEX
 8
ROSETTE
 10
-3.3365
 20
1.0876
 30
6.0632
 70
192
 0
VERTEX
 8
ROSETTE
 10
-3.3365
 20
1.0876
 30
6.4632
 70
192
 0
VERTEX
 8
ROSETTE
 10
-3.3365
 20
1.0876
 30
6.4632
 70
192
 0
VERTEX
 8
ROSETTE
 10
3.473
 20
-0.3598
 30
6.0632
 70
192
 0
VERTEX
 8
ROSETTE
 10
3.473
 20
-0.3598
 30
6.0632
 70
192
 0
VERTEX
 8
ROSETTE
 10
3.473
 20
-0.3598
 30
6.4632
 70
192
 0
VERTEX
 8
ROSETTE
 10
3.473
 20
-0.3598
 30
6.4632
 70
192
 0
VERTEX
 8
ROSETTE
 10
-3.4887
 20
-0.3598
 30
6.0632
 70
192
 0
VERTEX
 8
ROSETTE
 10
-3.4887
 20
-0.3598
 30
6.0632
 70
192
 0
VERTEX
 8
ROSETTE
 10
-3.4887
 20
-0.3598
 30
6.4632
 70
192
 0
VERTEX
 8
ROSETTE
 10
-3.4887
 20
-0.3598
 30
6.4632
 70
192
 0
VERTEX
 8
ROSETTE
 10
3.3209
 20
1.0876
 30
6.0632
 70
192
 0
VERTEX
 8
ROSETTE
 10
3.3209
 20
1.0876
 30
6.0632
 70
192
 0
VERTEX
 8
ROSETTE
 10
3.3209
 20
1.0876
 30
6.4632
 70
192
 0
VERTEX
 8
ROSETTE
 10
3.3209
 20
1.0876
 30
6.4632
 70
192
 0
VERTEX
 8
ROSETTE
 10
-3.0389
 20
-1.7439
 30
6.0632
 70
192
 0
VERTEX
 8
ROSETTE
 10
-3.0389
 20
-1.7439
 30
6.0632
 70
192
 0
VERTEX
 8
ROSETTE
 10
-3.0389
 20
-1.7439
 30
6.4632
 70
192
 0
VERTEX
 8
ROSETTE
 10
-3.0389
 20
-1.7439
 30
6.4632
 70
192
 0
VERTEX
 8
ROSETTE
 10
2.5932
 20
2.348
 30
6.0632
 70
192
 0
VERTEX
 8
ROSETTE
 10
2.5932
 20
2.348
 30
6.0632
 70
192
 0
VERTEX
 8
ROSETTE
 10
2.5932
 20
2.348
 30
6.4632
 70
192
 0
VERTEX
 8
ROSETTE
 10
2.5932
 20
2.348
 30
6.4632
 70
192
 0
VERTEX
 8
ROSETTE
 10
-2.0651
 20
-2.8255
 30
6.0632
 70
192
 0
VERTEX
 8
ROSETTE
 10
-2.0651
 20
-2.8255
 30
6.0632
 70
192
 0
VERTEX
 8
ROSETTE
 10
-2.0651
 20
-2.8255
 30
6.4632
 70
192
 0
VERTEX
 8
ROSETTE
 10
-2.0651
 20
-2.8255
 30
6.4632
 70
192
 0
VERTEX
 8
ROSETTE
 10
1.4157
 20
3.2035
 30
6.0632
 70
192
 0
VERTEX
 8
ROSETTE
 10
1.4157
 20
3.2035
 30
6.0632
 70
192
 0
VERTEX
 8
ROSETTE
 10
1.4157
 20
3.2035
 30
6.4632
 70
192
 0
VERTEX
 8
ROSETTE
 10
1.4157
 20
3.2035
 30
6.4632
 70
192
 0
VERTEX
 8
ROSETTE
 10
-0.7355
 20
-3.4175
 30
6.0632
 70
192
 0
VERTEX
 8
ROSETTE
 10
-0.7355
 20
-3.4175
 30
6.0632
 70
192
 0
VERTEX
 8
ROSETTE
 10
-0.7355
 20
-3.4175
 30
6.4632
 70
192
 0
VERTEX
 8
ROSETTE
 10
0
 20
0
 30
0
 70
128
 71
35
 72
36
 73
44
 74
43
 0
VERTEX
 8
ROSETTE
 10
0
 20
0
 30
0
 70
128
 71
3
 72
4
 73
12
 74
11
 0
VERTEX
 8
ROSETTE
 10
0
 20
0
 30
0
 70
128
 71
43
 72
44
 73
52
 74
51
 0
VERTEX
 8
ROSETTE
 10
0
 20
0
 30
0
 70
128
 71
51
 72
52
 73
60
 74
59
 0
VERTEX
 8
ROSETTE
 10
0
 20
0
 30
0
 70
128
 71
59
 72
60
 73
8
 74
7
 0
VERTEX
 8
ROSETTE
 10
0
 20
0
 30
0
 70
128
 71
11
 72
12
 73
20
 74
19
 0
VERTEX
 8
ROSETTE
 10
0
 20
0
 30
0
 70
128
 71
7
 72
8
 73
16
 74
15
 0
VERTEX
 8
ROSETTE
 10
0
 20
0
 30
0
 70
128
 71
15
 72
16
 73
24
 74
23
 0
VERTEX
 8
ROSETTE
 10
0
 20
0
 30
0
 70
128
 71
23
 72
24
 73
32
 74
31
 0
VERTEX
 8
ROSETTE
 10
0
 20
0
 30
0
 70
128
 71
19
 72
20
 73
28
 74
27
 0
VERTEX
 8
ROSETTE
 10
0
 20
0
 30
0
 70
128
 71
31
 72
32
 73
40
 74
39
 0
VERTEX
 8
ROSETTE
 10
0
 20
0
 30
0
 70
128
 71
39
 72
40
 73
48
 74
47
 0
VERTEX
 8
ROSETTE
 10
0
 20
0
 30
0
 70
128
 71
47
 72
48
 73
56
 74
55
 0
VERTEX
 8
ROSETTE
 10
0
 20
0
 30
0
 70
128
 71
27
 72
28
 73
36
 74
35
 0
VERTEX
 8
ROSETTE
 10
0
 20
0
 30
0
 70
128
 71
55
 72
56
 73
4
 74
3
 0
VERTEX
 8
ROSETTE
 10
0
 20
0
 30
0
 70
128
 71
28
 72
20
 73
44
 74
36
 0
VERTEX
 8
ROSETTE
 10
0
 20
0
 30
0
 70
128
 71
56
 72
20
 73
12
 74
4
 0
VERTEX
 8
ROSETTE
 10
0
 20
0
 30
0
 70
128
 71
8
 72
20
 73
56
 74
40
 0
VERTEX
 8
ROSETTE
 10
0
 20
0
 30
0
 70
128
 71
20
 72
8
 73
52
 74
44
 0
VERTEX
 8
ROSETTE
 10
0
 20
0
 30
0
 70
128
 71
56
 72
48
 73
40
 74
40
 0
VERTEX
 8
ROSETTE
 10
0
 20
0
 30
0
 70
128
 71
8
 72
40
 73
32
 74
24
 0
VERTEX
 8
ROSETTE
 10
0
 20
0
 30
0
 70
128
 71
24
 72
16
 73
8
 74
8
 0
VERTEX
 8
ROSETTE
 10
0
 20
0
 30
0
 70
128
 71
8
 72
60
 73
52
 74
52
 0
SEQEND
 0
POLYLINE
 8
EXENT1
 66
1
 10
0.0
 20
0.0
 30
0.0
 70
64
 71
20
 72
15
 0
VERTEX
 8
EXENT1
 10
0.3459
 20
1.4551
 30
7.0001
 70
192
 0
VERTEX
 8
EXENT1
 10
-0.3537
 20
1.4551
 30
6.956
 70
192
 0
VERTEX
 8
EXENT1
 10
0.3217
 20
1.4551
 30
6.956
 70
192
 0
VERTEX
 8
EXENT1
 10
0.0341
 20
1.4551
 30
11.0617
 70
192
 0
VERTEX
 8
EXENT1
 10
0.0835
 20
1.4551
 30
11.0523
 70
192
 0
VERTEX
 8
EXENT1
 10
0.3644
 20
1.4551
 30
10.7885
 70
192
 0
VERTEX
 8
EXENT1
 10
-0.3537
 20
1.4551
 30
10.8792
 70
192
 0
VERTEX
 8
EXENT1
 10
-0.3964
 20
1.4551
 30
10.7885
 70
192
 0
VERTEX
 8
EXENT1
 10
-0.3663
 20
2.1777
 30
8.9744
 70
192
 0
VERTEX
 8
EXENT1
 10
-0.109
 20
2.2324
 30
6.8591
 70
192
 0
VERTEX
 8
EXENT1
 10
-0.0802
 20
2.2385
 30
10.9681
 70
192
 0
VERTEX
 8
EXENT1
 10
-0.3663
 20
2.1777
 30
10.8563
 70
192
 0
VERTEX
 8
EXENT1
 10
-0.3759
 20
2.1756
 30
7.0031
 70
192
 0
VERTEX
 8
EXENT1
 10
0.1911
 20
2.2167
 30
6.8611
 70
192
 0
VERTEX
 8
EXENT1
 10
0.2382
 20
2.2066
 30
10.9228
 70
192
 0
VERTEX
 8
EXENT1
 10
0.3345
 20
2.1862
 30
6.9792
 70
192
 0
VERTEX
 8
EXENT1
 10
0.3547
 20
2.1819
 30
8.8058
 70
192
 0
VERTEX
 8
EXENT1
 10
0.1103
 20
2.2338
 30
11.0436
 70
192
 0
VERTEX
 8
EXENT1
 10
0.0041
 20
2.2564
 30
6.8562
 70
192
 0
VERTEX
 8
EXENT1
 10
0.0041
 20
2.2564
 30
11.001
 70
192
 0
VERTEX
 8
EXENT1
 10
0
 20
0
 30
0
 70
128
 71
3
 72
2
 73
14
 74
14
 0
VERTEX
 8
EXENT1
 10
0
 20
0
 30
0
 70
128
 71
10
 72
19
 73
14
 74
2
 0
VERTEX
 8
EXENT1
 10
0
 20
0
 30
0
 70
128
 71
6
 72
17
 73
15
 74
15
 0
VERTEX
 8
EXENT1
 10
0
 20
0
 30
0
 70
128
 71
7
 72
11
 73
12
 74
12
 0
VERTEX
 8
EXENT1
 10
0
 20
0
 30
0
 70
128
 71
16
 72
17
 73
6
 74
3
 0
VERTEX
 8
EXENT1
 10
0
 20
0
 30
0
 70
128
 71
3
 72
14
 73
16
 74
16
 0
VERTEX
 8
EXENT1
 10
0
 20
0
 30
0
 70
128
 71
2
 72
6
 73
4
 74
4
 0
VERTEX
 8
EXENT1
 10
0
 20
0
 30
0
 70
128
 71
7
 72
12
 73
9
 74
2
 0
VERTEX
 8
EXENT1
 10
0
 20
0
 30
0
 70
128
 71
2
 72
1
 73
6
 74
6
 0
VERTEX
 8
EXENT1
 10
0
 20
0
 30
0
 70
128
 71
2
 72
9
 73
13
 74
13
 0
VERTEX
 8
EXENT1
 10
0
 20
0
 30
0
 70
128
 71
2
 72
13
 73
10
 74
10
 0
VERTEX
 8
EXENT1
 10
0
 20
0
 30
0
 70
128
 71
5
 72
6
 73
15
 74
18
 0
VERTEX
 8
EXENT1
 10
0
 20
0
 30
0
 70
128
 71
5
 72
18
 73
7
 74
7
 0
VERTEX
 8
EXENT1
 10
0
 20
0
 30
0
 70
128
 71
11
 72
7
 73
18
 74
20
 0
VERTEX
 8
EXENT1
 10
0
 20
0
 30
0
 70
128
 71
2
 72
4
 73
8
 74
8
 0
SEQEND
 0
POLYLINE
 8
GRIFF
 66
1
 10
0.0
 20
0.0
 30
0.0
 70
64
 71
43
 72
40
 0
VERTEX
 8
GRIFF
 10
0.1103
 20
2.2338
 30
11.0436
 70
192
 0
VERTEX
 8
GRIFF
 10
0.0041
 20
0.0064
 30
12.5666
 70
192
 0
VERTEX
 8
GRIFF
 10
0.0041
 20
2.2564
 30
6.2388
 70
192
 0
VERTEX
 8
GRIFF
 10
0.0041
 20
2.2564
 30
12.5666
 70
192
 0
VERTEX
 8
GRIFF
 10
-0.9111
 20
2.0619
 30
6.2388
 70
192
 0
VERTEX
 8
GRIFF
 10
-0.9111
 20
2.0619
 30
12.5666
 70
192
 0
VERTEX
 8
GRIFF
 10
-1.668
 20
1.5119
 30
6.2388
 70
192
 0
VERTEX
 8
GRIFF
 10
-1.668
 20
1.5119
 30
12.5666
 70
192
 0
VERTEX
 8
GRIFF
 10
-2.1358
 20
0.7017
 30
6.2388
 70
192
 0
VERTEX
 8
GRIFF
 10
-2.1358
 20
0.7017
 30
12.5666
 70
192
 0
VERTEX
 8
GRIFF
 10
-2.2336
 20
-0.2288
 30
6.2388
 70
192
 0
VERTEX
 8
GRIFF
 10
-2.2336
 20
-0.2288
 30
12.5666
 70
192
 0
VERTEX
 8
GRIFF
 10
-1.9445
 20
-1.1186
 30
6.2388
 70
192
 0
VERTEX
 8
GRIFF
 10
-1.9445
 20
-1.1186
 30
12.5666
 70
192
 0
VERTEX
 8
GRIFF
 10
-1.3184
 20
-1.8139
 30
6.2388
 70
192
 0
VERTEX
 8
GRIFF
 10
-1.3184
 20
-1.8139
 30
12.5666
 70
192
 0
VERTEX
 8
GRIFF
 10
-0.4637
 20
-2.1944
 30
6.2388
 70
192
 0
VERTEX
 8
GRIFF
 10
-0.4637
 20
-2.1944
 30
12.5666
 70
192
 0
VERTEX
 8
GRIFF
 10
0.4719
 20
-2.1944
 30
6.2388
 70
192
 0
VERTEX
 8
GRIFF
 10
0.4719
 20
-2.1944
 30
12.5666
 70
192
 0
VERTEX
 8
GRIFF
 10
1.3266
 20
-1.8139
 30
6.2388
 70
192
 0
VERTEX
 8
GRIFF
 10
1.3266
 20
-1.8139
 30
12.5666
 70
192
 0
VERTEX
 8
GRIFF
 10
1.9527
 20
-1.1186
 30
6.2388
 70
192
 0
VERTEX
 8
GRIFF
 10
1.9527
 20
-1.1186
 30
12.5666
 70
192
 0
VERTEX
 8
GRIFF
 10
2.2418
 20
-0.2288
 30
6.2388
 70
192
 0
VERTEX
 8
GRIFF
 10
2.2418
 20
-0.2288
 30
12.5666
 70
192
 0
VERTEX
 8
GRIFF
 10
2.144
 20
0.7017
 30
6.2388
 70
192
 0
VERTEX
 8
GRIFF
 10
2.144
 20
0.7017
 30
12.5666
 70
192
 0
VERTEX
 8
GRIFF
 10
1.6762
 20
1.5119
 30
6.2388
 70
192
 0
VERTEX
 8
GRIFF
 10
1.6762
 20
1.5119
 30
12.5666
 70
192
 0
VERTEX
 8
GRIFF
 10
0.9193
 20
2.0619
 30
6.2388
 70
192
 0
VERTEX
 8
GRIFF
 10
0.9193
 20
2.0619
 30
12.5666
 70
192
 0
VERTEX
 8
GRIFF
 10
0.0041
 20
2.2564
 30
6.8562
 70
192
 0
VERTEX
 8
GRIFF
 10
0.0041
 20
2.2564
 30
11.001
 70
192
 0
VERTEX
 8
GRIFF
 10
-0.3663
 20
2.1777
 30
8.9744
 70
192
 0
VERTEX
 8
GRIFF
 10
-0.109
 20
2.2324
 30
6.8591
 70
192
 0
VERTEX
 8
GRIFF
 10
-0.0802
 20
2.2385
 30
10.9681
 70
192
 0
VERTEX
 8
GRIFF
 10
-0.3663
 20
2.1777
 30
10.8563
 70
192
 0
VERTEX
 8
GRIFF
 10
-0.3759
 20
2.1756
 30
7.0031
 70
192
 0
VERTEX
 8
GRIFF
 10
0.1911
 20
2.2167
 30
6.8611
 70
192
 0
VERTEX
 8
GRIFF
 10
0.2382
 20
2.2066
 30
10.9228
 70
192
 0
VERTEX
 8
GRIFF
 10
0.3345
 20
2.1862
 30
6.9792
 70
192
 0
VERTEX
 8
GRIFF
 10
0.3547
 20
2.1819
 30
8.8058
 70
192
 0
VERTEX
 8
GRIFF
 10
0
 20
0
 30
0
 70
128
 71
26
 72
2
 73
28
 74
28
 0
VERTEX
 8
GRIFF
 10
0
 20
0
 30
0
 70
128
 71
34
 72
4
 73
6
 74
37
 0
VERTEX
 8
GRIFF
 10
0
 20
0
 30
0
 70
128
 71
5
 72
3
 73
33
 74
36
 0
VERTEX
 8
GRIFF
 10
0
 20
0
 30
0
 70
128
 71
38
 72
37
 73
6
 74
6
 0
VERTEX
 8
GRIFF
 10
0
 20
0
 30
0
 70
128
 71
5
 72
36
 73
39
 74
39
 0
VERTEX
 8
GRIFF
 10
0
 20
0
 30
0
 70
128
 71
35
 72
38
 73
6
 74
6
 0
VERTEX
 8
GRIFF
 10
0
 20
0
 30
0
 70
128
 71
39
 72
35
 73
6
 74
5
 0
VERTEX
 8
GRIFF
 10
0
 20
0
 30
0
 70
128
 71
4
 72
2
 73
6
 74
6
 0
VERTEX
 8
GRIFF
 10
0
 20
0
 30
0
 70
128
 71
27
 72
28
 73
30
 74
29
 0
VERTEX
 8
GRIFF
 10
0
 20
0
 30
0
 70
128
 71
5
 72
6
 73
8
 74
7
 0
VERTEX
 8
GRIFF
 10
0
 20
0
 30
0
 70
128
 71
6
 72
2
 73
8
 74
8
 0
VERTEX
 8
GRIFF
 10
0
 20
0
 30
0
 70
128
 71
28
 72
2
 73
30
 74
30
 0
VERTEX
 8
GRIFF
 10
0
 20
0
 30
0
 70
128
 71
7
 72
8
 73
10
 74
9
 0
VERTEX
 8
GRIFF
 10
0
 20
0
 30
0
 70
128
 71
8
 72
2
 73
10
 74
10
 0
VERTEX
 8
GRIFF
 10
0
 20
0
 30
0
 70
128
 71
29
 72
30
 73
32
 74
31
 0
VERTEX
 8
GRIFF
 10
0
 20
0
 30
0
 70
128
 71
9
 72
10
 73
12
 74
11
 0
VERTEX
 8
GRIFF
 10
0
 20
0
 30
0
 70
128
 71
10
 72
2
 73
12
 74
12
 0
VERTEX
 8
GRIFF
 10
0
 20
0
 30
0
 70
128
 71
30
 72
2
 73
32
 74
32
 0
VERTEX
 8
GRIFF
 10
0
 20
0
 30
0
 70
128
 71
11
 72
12
 73
14
 74
13
 0
VERTEX
 8
GRIFF
 10
0
 20
0
 30
0
 70
128
 71
12
 72
2
 73
14
 74
14
 0
VERTEX
 8
GRIFF
 10
0
 20
0
 30
0
 70
128
 71
40
 72
33
 73
3
 74
31
 0
VERTEX
 8
GRIFF
 10
0
 20
0
 30
0
 70
128
 71
13
 72
14
 73
16
 74
15
 0
VERTEX
 8
GRIFF
 10
0
 20
0
 30
0
 70
128
 71
14
 72
2
 73
16
 74
16
 0
VERTEX
 8
GRIFF
 10
0
 20
0
 30
0
 70
128
 71
4
 72
34
 73
1
 74
32
 0
VERTEX
 8
GRIFF
 10
0
 20
0
 30
0
 70
128
 71
15
 72
16
 73
18
 74
17
 0
VERTEX
 8
GRIFF
 10
0
 20
0
 30
0
 70
128
 71
16
 72
2
 73
18
 74
18
 0
VERTEX
 8
GRIFF
 10
0
 20
0
 30
0
 70
128
 71
42
 72
40
 73
31
 74
31
 0
VERTEX
 8
GRIFF
 10
0
 20
0
 30
0
 70
128
 71
17
 72
18
 73
20
 74
19
 0
VERTEX
 8
GRIFF
 10
0
 20
0
 30
0
 70
128
 71
18
 72
2
 73
20
 74
20
 0
VERTEX
 8
GRIFF
 10
0
 20
0
 30
0
 70
128
 71
32
 72
1
 73
41
 74
41
 0
VERTEX
 8
GRIFF
 10
0
 20
0
 30
0
 70
128
 71
19
 72
20
 73
22
 74
21
 0
VERTEX
 8
GRIFF
 10
0
 20
0
 30
0
 70
128
 71
20
 72
2
 73
22
 74
22
 0
VERTEX
 8
GRIFF
 10
0
 20
0
 30
0
 70
128
 71
43
 72
42
 73
31
 74
32
 0
VERTEX
 8
GRIFF
 10
0
 20
0
 30
0
 70
128
 71
21
 72
22
 73
24
 74
23
 0
VERTEX
 8
GRIFF
 10
0
 20
0
 30
0
 70
128
 71
22
 72
2
 73
24
 74
24
 0
VERTEX
 8
GRIFF
 10
0
 20
0
 30
0
 70
128
 71
32
 72
41
 73
43
 74
43
 0
VERTEX
 8
GRIFF
 10
0
 20
0
 30
0
 70
128
 71
23
 72
24
 73
26
 74
25
 0
VERTEX
 8
GRIFF
 10
0
 20
0
 30
0
 70
128
 71
24
 72
2
 73
26
 74
26
 0
VERTEX
 8
GRIFF
 10
0
 20
0
 30
0
 70
128
 71
32
 72
2
 73
4
 74
4
 0
VERTEX
 8
GRIFF
 10
0
 20
0
 30
0
 70
128
 71
25
 72
26
 73
28
 74
27
 0
SEQEND
 0
POLYLINE
 8
EXENTER
 66
1
 10
0.0
 20
0.0
 30
0.0
 70
64
 71
26
 72
18
 0
VERTEX
 8
EXENTER
 10
-0.016
 20
3.4586
 30
8.3909
 70
192
 0
VERTEX
 8
EXENTER
 10
-0.016
 20
0.7985
 30
8.3909
 70
192
 0
VERTEX
 8
EXENTER
 10
-0.016
 20
3.4586
 30
8.0409
 70
192
 0
VERTEX
 8
EXENTER
 10
-0.016
 20
3.4586
 30
8.0409
 70
192
 0
VERTEX
 8
EXENTER
 10
-0.016
 20
0.7985
 30
8.0409
 70
192
 0
VERTEX
 8
EXENTER
 10
-0.016
 20
0.7985
 30
8.0409
 70
192
 0
VERTEX
 8
EXENTER
 10
0.2871
 20
3.4586
 30
8.2159
 70
192
 0
VERTEX
 8
EXENTER
 10
0.2871
 20
3.4586
 30
8.2159
 70
192
 0
VERTEX
 8
EXENTER
 10
0.2871
 20
0.7985
 30
8.2159
 70
192
 0
VERTEX
 8
EXENTER
 10
0.2871
 20
0.7985
 30
8.2159
 70
192
 0
VERTEX
 8
EXENTER
 10
0.2871
 20
3.4586
 30
8.5659
 70
192
 0
VERTEX
 8
EXENTER
 10
0.2871
 20
3.4586
 30
8.5659
 70
192
 0
VERTEX
 8
EXENTER
 10
0.2871
 20
0.7985
 30
8.5659
 70
192
 0
VERTEX
 8
EXENTER
 10
0.2871
 20
0.7985
 30
8.5659
 70
192
 0
VERTEX
 8
EXENTER
 10
-0.016
 20
3.4586
 30
8.7409
 70
192
 0
VERTEX
 8
EXENTER
 10
-0.016
 20
3.4586
 30
8.7409
 70
192
 0
VERTEX
 8
EXENTER
 10
-0.016
 20
0.7985
 30
8.7409
 70
192
 0
VERTEX
 8
EXENTER
 10
-0.016
 20
0.7985
 30
8.7409
 70
192
 0
VERTEX
 8
EXENTER
 10
-0.3191
 20
3.4586
 30
8.5659
 70
192
 0
VERTEX
 8
EXENTER
 10
-0.3191
 20
3.4586
 30
8.5659
 70
192
 0
VERTEX
 8
EXENTER
 10
-0.3191
 20
0.7985
 30
8.5659
 70
192
 0
VERTEX
 8
EXENTER
 10
-0.3191
 20
0.7985
 30
8.5659
 70
192
 0
VERTEX
 8
EXENTER
 10
-0.3191
 20
3.4586
 30
8.2159
 70
192
 0
VERTEX
 8
EXENTER
 10
-0.3191
 20
3.4586
 30
8.2159
 70
192
 0
VERTEX
 8
EXENTER
 10
-0.3191
 20
0.7985
 30
8.2159
 70
192
 0
VERTEX
 8
EXENTER
 10
-0.3191
 20
0.7985
 30
8.2159
 70
192
 0
VERTEX
 8
EXENTER
 10
0
 20
0
 30
0
 70
128
 71
1
 72
3
 73
7
 74
7
 0
VERTEX
 8
EXENTER
 10
0
 20
0
 30
0
 70
128
 71
4
 72
5
 73
9
 74
8
 0
VERTEX
 8
EXENTER
 10
0
 20
0
 30
0
 70
128
 71
6
 72
2
 73
10
 74
10
 0
VERTEX
 8
EXENTER
 10
0
 20
0
 30
0
 70
128
 71
1
 72
7
 73
11
 74
11
 0
VERTEX
 8
EXENTER
 10
0
 20
0
 30
0
 70
128
 71
8
 72
9
 73
13
 74
12
 0
VERTEX
 8
EXENTER
 10
0
 20
0
 30
0
 70
128
 71
10
 72
2
 73
14
 74
14
 0
VERTEX
 8
EXENTER
 10
0
 20
0
 30
0
 70
128
 71
1
 72
11
 73
15
 74
15
 0
VERTEX
 8
EXENTER
 10
0
 20
0
 30
0
 70
128
 71
12
 72
13
 73
17
 74
16
 0
VERTEX
 8
EXENTER
 10
0
 20
0
 30
0
 70
128
 71
14
 72
2
 73
18
 74
18
 0
VERTEX
 8
EXENTER
 10
0
 20
0
 30
0
 70
128
 71
1
 72
15
 73
19
 74
19
 0
VERTEX
 8
EXENTER
 10
0
 20
0
 30
0
 70
128
 71
16
 72
17
 73
21
 74
20
 0
VERTEX
 8
EXENTER
 10
0
 20
0
 30
0
 70
128
 71
18
 72
2
 73
22
 74
22
 0
VERTEX
 8
EXENTER
 10
0
 20
0
 30
0
 70
128
 71
1
 72
19
 73
23
 74
23
 0
VERTEX
 8
EXENTER
 10
0
 20
0
 30
0
 70
128
 71
20
 72
21
 73
25
 74
24
 0
VERTEX
 8
EXENTER
 10
0
 20
0
 30
0
 70
128
 71
22
 72
2
 73
26
 74
26
 0
VERTEX
 8
EXENTER
 10
0
 20
0
 30
0
 70
128
 71
1
 72
23
 73
3
 74
3
 0
VERTEX
 8
EXENTER
 10
0
 20
0
 30
0
 70
128
 71
24
 72
25
 73
5
 74
4
 0
VERTEX
 8
EXENTER
 10
0
 20
0
 30
0
 70
128
 71
26
 72
2
 73
6
 74
6
 0
SEQEND
 0
POLYLINE
 8
AUSLAUF_3
 66
1
 10
0.0
 20
0.0
 30
0.0
 70
64
 71
25
 72
24
 0
VERTEX
 8
AUSLAUF_3
 10
0.005
 20
-14.521
 30
23.8034
 70
192
 0
VERTEX
 8
AUSLAUF_3
 10
0.005
 20
-13.7332
 30
23.6645
 70
192
 0
VERTEX
 8
AUSLAUF_3
 10
0.405
 20
-13.8388
 30
23.6831
 70
192
 0
VERTEX
 8
AUSLAUF_3
 10
0.6978
 20
-14.1271
 30
23.734
 70
192
 0
VERTEX
 8
AUSLAUF_3
 10
0.805
 20
-14.521
 30
23.8034
 70
192
 0
VERTEX
 8
AUSLAUF_3
 10
0.6978
 20
-14.915
 30
23.8729
 70
192
 0
VERTEX
 8
AUSLAUF_3
 10
0.405
 20
-15.2033
 30
23.9238
 70
192
 0
VERTEX
 8
AUSLAUF_3
 10
0.005
 20
-15.3089
 30
23.9424
 70
192
 0
VERTEX
 8
AUSLAUF_3
 10
-0.395
 20
-15.2033
 30
23.9238
 70
192
 0
VERTEX
 8
AUSLAUF_3
 10
-0.6878
 20
-14.915
 30
23.8729
 70
192
 0
VERTEX
 8
AUSLAUF_3
 10
-0.795
 20
-14.521
 30
23.8034
 70
192
 0
VERTEX
 8
AUSLAUF_3
 10
-0.6878
 20
-14.1271
 30
23.734
 70
192
 0
VERTEX
 8
AUSLAUF_3
 10
-0.395
 20
-13.8388
 30
23.6831
 70
192
 0
VERTEX
 8
AUSLAUF_3
 10
-0.395
 20
-15.3878
 30
22.8775
 70
192
 0
VERTEX
 8
AUSLAUF_3
 10
0.405
 20
-14.0232
 30
22.6369
 70
192
 0
VERTEX
 8
AUSLAUF_3
 10
0.005
 20
-13.9177
 30
22.6183
 70
192
 0
VERTEX
 8
AUSLAUF_3
 10
0.6978
 20
-14.3116
 30
22.6877
 70
192
 0
VERTEX
 8
AUSLAUF_3
 10
-0.6878
 20
-15.0995
 30
22.8267
 70
192
 0
VERTEX
 8
AUSLAUF_3
 10
0.805
 20
-14.7055
 30
22.7572
 70
192
 0
VERTEX
 8
AUSLAUF_3
 10
-0.795
 20
-14.7055
 30
22.7572
 70
192
 0
VERTEX
 8
AUSLAUF_3
 10
0.6978
 20
-15.0995
 30
22.8267
 70
192
 0
VERTEX
 8
AUSLAUF_3
 10
-0.6878
 20
-14.3116
 30
22.6877
 70
192
 0
VERTEX
 8
AUSLAUF_3
 10
-0.395
 20
-14.0232
 30
22.6369
 70
192
 0
VERTEX
 8
AUSLAUF_3
 10
0.405
 20
-15.3878
 30
22.8775
 70
192
 0
VERTEX
 8
AUSLAUF_3
 10
0.005
 20
-15.4934
 30
22.8961
 70
192
 0
VERTEX
 8
AUSLAUF_3
 10
0
 20
0
 30
0
 70
128
 71
2
 72
1
 73
3
 74
3
 0
VERTEX
 8
AUSLAUF_3
 10
0
 20
0
 30
0
 70
128
 71
3
 72
15
 73
16
 74
2
 0
VERTEX
 8
AUSLAUF_3
 10
0
 20
0
 30
0
 70
128
 71
3
 72
1
 73
4
 74
4
 0
VERTEX
 8
AUSLAUF_3
 10
0
 20
0
 30
0
 70
128
 71
4
 72
17
 73
15
 74
3
 0
VERTEX
 8
AUSLAUF_3
 10
0
 20
0
 30
0
 70
128
 71
4
 72
1
 73
5
 74
5
 0
VERTEX
 8
AUSLAUF_3
 10
0
 20
0
 30
0
 70
128
 71
5
 72
19
 73
17
 74
4
 0
VERTEX
 8
AUSLAUF_3
 10
0
 20
0
 30
0
 70
128
 71
5
 72
1
 73
6
 74
6
 0
VERTEX
 8
AUSLAUF_3
 10
0
 20
0
 30
0
 70
128
 71
6
 72
21
 73
19
 74
5
 0
VERTEX
 8
AUSLAUF_3
 10
0
 20
0
 30
0
 70
128
 71
6
 72
1
 73
7
 74
7
 0
VERTEX
 8
AUSLAUF_3
 10
0
 20
0
 30
0
 70
128
 71
7
 72
24
 73
21
 74
6
 0
VERTEX
 8
AUSLAUF_3
 10
0
 20
0
 30
0
 70
128
 71
7
 72
1
 73
8
 74
8
 0
VERTEX
 8
AUSLAUF_3
 10
0
 20
0
 30
0
 70
128
 71
8
 72
25
 73
24
 74
7
 0
VERTEX
 8
AUSLAUF_3
 10
0
 20
0
 30
0
 70
128
 71
8
 72
1
 73
9
 74
9
 0
VERTEX
 8
AUSLAUF_3
 10
0
 20
0
 30
0
 70
128
 71
9
 72
14
 73
25
 74
8
 0
VERTEX
 8
AUSLAUF_3
 10
0
 20
0
 30
0
 70
128
 71
9
 72
1
 73
10
 74
10
 0
VERTEX
 8
AUSLAUF_3
 10
0
 20
0
 30
0
 70
128
 71
10
 72
18
 73
14
 74
9
 0
VERTEX
 8
AUSLAUF_3
 10
0
 20
0
 30
0
 70
128
 71
10
 72
1
 73
11
 74
11
 0
VERTEX
 8
AUSLAUF_3
 10
0
 20
0
 30
0
 70
128
 71
11
 72
20
 73
18
 74
10
 0
VERTEX
 8
AUSLAUF_3
 10
0
 20
0
 30
0
 70
128
 71
11
 72
1
 73
12
 74
12
 0
VERTEX
 8
AUSLAUF_3
 10
0
 20
0
 30
0
 70
128
 71
12
 72
22
 73
20
 74
11
 0
VERTEX
 8
AUSLAUF_3
 10
0
 20
0
 30
0
 70
128
 71
12
 72
1
 73
13
 74
13
 0
VERTEX
 8
AUSLAUF_3
 10
0
 20
0
 30
0
 70
128
 71
13
 72
23
 73
22
 74
12
 0
VERTEX
 8
AUSLAUF_3
 10
0
 20
0
 30
0
 70
128
 71
13
 72
1
 73
2
 74
2
 0
VERTEX
 8
AUSLAUF_3
 10
0
 20
0
 30
0
 70
128
 71
2
 72
16
 73
23
 74
13
 0
SEQEND
 0
POLYLINE
 8
AUSLAUF_2
 66
1
 10
0.0
 20
0.0
 30
0.0
 70
64
 71
180
 72
168
 0
VERTEX
 8
AUSLAUF_2
 10
-0.861
 20
-5.2068
 30
29.5518
 70
192
 0
VERTEX
 8
AUSLAUF_2
 10
-0.861
 20
-7.0567
 30
29.8686
 70
192
 0
VERTEX
 8
AUSLAUF_2
 10
-0.861
 20
-8.9225
 30
29.6653
 70
192
 0
VERTEX
 8
AUSLAUF_2
 10
-0.861
 20
-10.6608
 30
28.9574
 70
192
 0
VERTEX
 8
AUSLAUF_2
 10
0.005
 20
-0.9941
 30
12.0574
 70
192
 0
VERTEX
 8
AUSLAUF_2
 10
0.005
 20
-0.9941
 30
22.235
 70
192
 0
VERTEX
 8
AUSLAUF_2
 10
0.005
 20
-1.064
 30
24.0361
 70
192
 0
VERTEX
 8
AUSLAUF_2
 10
0.005
 20
-1.5586
 30
25.7024
 70
192
 0
VERTEX
 8
AUSLAUF_2
 10
0.005
 20
-2.4918
 30
27.1689
 70
192
 0
VERTEX
 8
AUSLAUF_2
 10
0.005
 20
-3.7918
 30
28.3228
 70
192
 0
VERTEX
 8
AUSLAUF_2
 10
0.005
 20
-5.3587
 30
29.0754
 70
192
 0
VERTEX
 8
AUSLAUF_2
 10
0.005
 20
-7.0719
 30
29.3688
 70
192
 0
VERTEX
 8
AUSLAUF_2
 10
0.005
 20
-8.7999
 30
29.1805
 70
192
 0
VERTEX
 8
AUSLAUF_2
 10
0.005
 20
-10.4098
 30
28.5249
 70
192
 0
VERTEX
 8
AUSLAUF_2
 10
0.005
 20
-11.7778
 30
27.4525
 70
192
 0
VERTEX
 8
AUSLAUF_2
 10
0.005
 20
-12.7987
 30
26.0457
 70
192
 0
VERTEX
 8
AUSLAUF_2
 10
0.005
 20
-13.3941
 30
24.4126
 70
192
 0
VERTEX
 8
AUSLAUF_2
 10
0.005
 20
-13.7207
 30
22.5836
 70
192
 0
VERTEX
 8
AUSLAUF_2
 10
-0.861
 20
-12.1378
 30
27.7995
 70
192
 0
VERTEX
 8
AUSLAUF_2
 10
-0.861
 20
-13.2402
 30
26.2804
 70
192
 0
VERTEX
 8
AUSLAUF_2
 10
-0.861
 20
-13.8831
 30
24.5171
 70
192
 0
VERTEX
 8
AUSLAUF_2
 10
0.505
 20
-0.8602
 30
12.0574
 70
192
 0
VERTEX
 8
AUSLAUF_2
 10
0.505
 20
-0.8602
 30
22.235
 70
192
 0
VERTEX
 8
AUSLAUF_2
 10
0.505
 20
-0.9315
 30
24.056
 70
192
 0
VERTEX
 8
AUSLAUF_2
 10
0.505
 20
-1.4367
 30
25.758
 70
192
 0
VERTEX
 8
AUSLAUF_2
 10
0.505
 20
-2.3898
 30
27.2558
 70
192
 0
VERTEX
 8
AUSLAUF_2
 10
0.505
 20
-3.7176
 30
28.4344
 70
192
 0
VERTEX
 8
AUSLAUF_2
 10
0.505
 20
-5.318
 30
29.2031
 70
192
 0
VERTEX
 8
AUSLAUF_2
 10
0.505
 20
-7.0679
 30
29.5027
 70
192
 0
VERTEX
 8
AUSLAUF_2
 10
0.505
 20
-8.8328
 30
29.3104
 70
192
 0
VERTEX
 8
AUSLAUF_2
 10
0.505
 20
-10.4771
 30
28.6408
 70
192
 0
VERTEX
 8
AUSLAUF_2
 10
0.505
 20
-11.8743
 30
27.5455
 70
192
 0
VERTEX
 8
AUSLAUF_2
 10
0.505
 20
-12.917
 30
26.1086
 70
192
 0
VERTEX
 8
AUSLAUF_2
 10
0.505
 20
-13.5251
 30
24.4406
 70
192
 0
VERTEX
 8
AUSLAUF_2
 10
0.505
 20
-13.8527
 30
22.6068
 70
192
 0
VERTEX
 8
AUSLAUF_2
 10
-0.861
 20
-14.2131
 30
22.6704
 70
192
 0
VERTEX
 8
AUSLAUF_2
 10
-0.495
 20
-0.8602
 30
12.0574
 70
192
 0
VERTEX
 8
AUSLAUF_2
 10
-0.495
 20
-0.8602
 30
22.235
 70
192
 0
VERTEX
 8
AUSLAUF_2
 10
0.871
 20
-0.4941
 30
12.0574
 70
192
 0
VERTEX
 8
AUSLAUF_2
 10
0.871
 20
-0.4941
 30
22.235
 70
192
 0
VERTEX
 8
AUSLAUF_2
 10
0.871
 20
-0.5696
 30
24.1105
 70
192
 0
VERTEX
 8
AUSLAUF_2
 10
0.871
 20
-1.1037
 30
25.9098
 70
192
 0
VERTEX
 8
AUSLAUF_2
 10
0.871
 20
-2.1113
 30
27.4933
 70
192
 0
VERTEX
 8
AUSLAUF_2
 10
0.871
 20
-3.5149
 30
28.7392
 70
192
 0
VERTEX
 8
AUSLAUF_2
 10
0.871
 20
-5.2068
 30
29.5518
 70
192
 0
VERTEX
 8
AUSLAUF_2
 10
0.871
 20
-7.0567
 30
29.8686
 70
192
 0
VERTEX
 8
AUSLAUF_2
 10
0.871
 20
-8.9225
 30
29.6653
 70
192
 0
VERTEX
 8
AUSLAUF_2
 10
0.871
 20
-10.6608
 30
28.9574
 70
192
 0
VERTEX
 8
AUSLAUF_2
 10
0.871
 20
-12.1378
 30
27.7995
 70
192
 0
VERTEX
 8
AUSLAUF_2
 10
0.871
 20
-13.2402
 30
26.2804
 70
192
 0
VERTEX
 8
AUSLAUF_2
 10
0.871
 20
-13.8831
 30
24.5171
 70
192
 0
VERTEX
 8
AUSLAUF_2
 10
0.871
 20
-14.2131
 30
22.6704
 70
192
 0
VERTEX
 8
AUSLAUF_2
 10
-0.495
 20
-0.9315
 30
24.056
 70
192
 0
VERTEX
 8
AUSLAUF_2
 10
-0.495
 20
-1.4367
 30
25.758
 70
192
 0
VERTEX
 8
AUSLAUF_2
 10
-0.495
 20
-2.3898
 30
27.2558
 70
192
 0
VERTEX
 8
AUSLAUF_2
 10
1.005
 20
0.0059
 30
12.0574
 70
192
 0
VERTEX
 8
AUSLAUF_2
 10
1.005
 20
0.0059
 30
22.235
 70
192
 0
VERTEX
 8
AUSLAUF_2
 10
1.005
 20
-0.0752
 30
24.185
 70
192
 0
VERTEX
 8
AUSLAUF_2
 10
1.005
 20
-0.6487
 30
26.1171
 70
192
 0
VERTEX
 8
AUSLAUF_2
 10
1.005
 20
-1.7307
 30
27.8176
 70
192
 0
VERTEX
 8
AUSLAUF_2
 10
1.005
 20
-3.2381
 30
29.1555
 70
192
 0
VERTEX
 8
AUSLAUF_2
 10
1.005
 20
-5.0548
 30
30.0281
 70
192
 0
VERTEX
 8
AUSLAUF_2
 10
1.005
 20
-7.0414
 30
30.3684
 70
192
 0
VERTEX
 8
AUSLAUF_2
 10
1.005
 20
-9.0451
 30
30.15
 70
192
 0
VERTEX
 8
AUSLAUF_2
 10
1.005
 20
-10.9117
 30
29.3899
 70
192
 0
VERTEX
 8
AUSLAUF_2
 10
1.005
 20
-12.4979
 30
28.1464
 70
192
 0
VERTEX
 8
AUSLAUF_2
 10
1.005
 20
-13.6817
 30
26.5152
 70
192
 0
VERTEX
 8
AUSLAUF_2
 10
1.005
 20
-14.372
 30
24.6216
 70
192
 0
VERTEX
 8
AUSLAUF_2
 10
1.005
 20
-14.7055
 30
22.7572
 70
192
 0
VERTEX
 8
AUSLAUF_2
 10
-0.495
 20
-3.7176
 30
28.4344
 70
192
 0
VERTEX
 8
AUSLAUF_2
 10
-0.495
 20
-5.318
 30
29.2031
 70
192
 0
VERTEX
 8
AUSLAUF_2
 10
-0.495
 20
-7.0679
 30
29.5027
 70
192
 0
VERTEX
 8
AUSLAUF_2
 10
0.871
 20
0.5059
 30
12.0574
 70
192
 0
VERTEX
 8
AUSLAUF_2
 10
0.871
 20
0.5059
 30
22.235
 70
192
 0
VERTEX
 8
AUSLAUF_2
 10
0.871
 20
0.4193
 30
24.2594
 70
192
 0
VERTEX
 8
AUSLAUF_2
 10
0.871
 20
-0.1937
 30
26.3245
 70
192
 0
VERTEX
 8
AUSLAUF_2
 10
0.871
 20
-1.3502
 30
28.1419
 70
192
 0
VERTEX
 8
AUSLAUF_2
 10
0.871
 20
-2.9612
 30
29.5719
 70
192
 0
VERTEX
 8
AUSLAUF_2
 10
0.871
 20
-4.9029
 30
30.5045
 70
192
 0
VERTEX
 8
AUSLAUF_2
 10
0.871
 20
-7.0262
 30
30.8681
 70
192
 0
VERTEX
 8
AUSLAUF_2
 10
0.871
 20
-9.1676
 30
30.6348
 70
192
 0
VERTEX
 8
AUSLAUF_2
 10
0.871
 20
-11.1627
 30
29.8223
 70
192
 0
VERTEX
 8
AUSLAUF_2
 10
0.871
 20
-12.858
 30
28.4933
 70
192
 0
VERTEX
 8
AUSLAUF_2
 10
0.871
 20
-14.1231
 30
26.7499
 70
192
 0
VERTEX
 8
AUSLAUF_2
 10
0.871
 20
-14.861
 30
24.7261
 70
192
 0
VERTEX
 8
AUSLAUF_2
 10
0.871
 20
-15.1979
 30
22.844
 70
192
 0
VERTEX
 8
AUSLAUF_2
 10
-0.495
 20
-8.8328
 30
29.3104
 70
192
 0
VERTEX
 8
AUSLAUF_2
 10
-0.495
 20
-10.4771
 30
28.6408
 70
192
 0
VERTEX
 8
AUSLAUF_2
 10
-0.495
 20
-11.8743
 30
27.5455
 70
192
 0
VERTEX
 8
AUSLAUF_2
 10
0.505
 20
0.8719
 30
12.0574
 70
192
 0
VERTEX
 8
AUSLAUF_2
 10
0.505
 20
0.8719
 30
22.235
 70
192
 0
VERTEX
 8
AUSLAUF_2
 10
0.505
 20
0.7812
 30
24.3139
 70
192
 0
VERTEX
 8
AUSLAUF_2
 10
0.505
 20
0.1394
 30
26.4763
 70
192
 0
VERTEX
 8
AUSLAUF_2
 10
0.505
 20
-1.0716
 30
28.3793
 70
192
 0
VERTEX
 8
AUSLAUF_2
 10
0.505
 20
-2.7585
 30
29.8767
 70
192
 0
VERTEX
 8
AUSLAUF_2
 10
0.505
 20
-4.7917
 30
30.8532
 70
192
 0
VERTEX
 8
AUSLAUF_2
 10
0.505
 20
-7.015
 30
31.234
 70
192
 0
VERTEX
 8
AUSLAUF_2
 10
0.505
 20
-9.2573
 30
30.9896
 70
192
 0
VERTEX
 8
AUSLAUF_2
 10
0.505
 20
-11.3464
 30
30.1389
 70
192
 0
VERTEX
 8
AUSLAUF_2
 10
0.505
 20
-13.1215
 30
28.7473
 70
192
 0
VERTEX
 8
AUSLAUF_2
 10
0.505
 20
-14.4463
 30
26.9217
 70
192
 0
VERTEX
 8
AUSLAUF_2
 10
0.505
 20
-15.2189
 30
24.8025
 70
192
 0
VERTEX
 8
AUSLAUF_2
 10
0.505
 20
-15.5584
 30
22.9076
 70
192
 0
VERTEX
 8
AUSLAUF_2
 10
-0.495
 20
-12.917
 30
26.1086
 70
192
 0
VERTEX
 8
AUSLAUF_2
 10
-0.495
 20
-13.5251
 30
24.4406
 70
192
 0
VERTEX
 8
AUSLAUF_2
 10
-0.495
 20
-13.8527
 30
22.6068
 70
192
 0
VERTEX
 8
AUSLAUF_2
 10
0.005
 20
1.0059
 30
12.0574
 70
192
 0
VERTEX
 8
AUSLAUF_2
 10
0.005
 20
1.0059
 30
22.235
 70
192
 0
VERTEX
 8
AUSLAUF_2
 10
0.005
 20
0.9137
 30
24.3339
 70
192
 0
VERTEX
 8
AUSLAUF_2
 10
0.005
 20
0.2613
 30
26.5318
 70
192
 0
VERTEX
 8
AUSLAUF_2
 10
0.005
 20
-0.9696
 30
28.4662
 70
192
 0
VERTEX
 8
AUSLAUF_2
 10
0.005
 20
-2.6843
 30
29.9882
 70
192
 0
VERTEX
 8
AUSLAUF_2
 10
0.005
 20
-4.751
 30
30.9809
 70
192
 0
VERTEX
 8
AUSLAUF_2
 10
0.005
 20
-7.0109
 30
31.3679
 70
192
 0
VERTEX
 8
AUSLAUF_2
 10
0.005
 20
-9.2902
 30
31.1195
 70
192
 0
VERTEX
 8
AUSLAUF_2
 10
0.005
 20
-11.4136
 30
30.2548
 70
192
 0
VERTEX
 8
AUSLAUF_2
 10
0.005
 20
-13.218
 30
28.8402
 70
192
 0
VERTEX
 8
AUSLAUF_2
 10
0.005
 20
-14.5646
 30
26.9846
 70
192
 0
VERTEX
 8
AUSLAUF_2
 10
0.005
 20
-15.3499
 30
24.8305
 70
192
 0
VERTEX
 8
AUSLAUF_2
 10
0.005
 20
-15.6903
 30
22.9308
 70
192
 0
VERTEX
 8
AUSLAUF_2
 10
0.005
 20
-13.9177
 30
22.6183
 70
192
 0
VERTEX
 8
AUSLAUF_2
 10
-0.395
 20
-15.3878
 30
22.8775
 70
192
 0
VERTEX
 8
AUSLAUF_2
 10
0.405
 20
-14.0232
 30
22.6369
 70
192
 0
VERTEX
 8
AUSLAUF_2
 10
-0.495
 20
0.8719
 30
12.0574
 70
192
 0
VERTEX
 8
AUSLAUF_2
 10
-0.495
 20
0.8719
 30
22.235
 70
192
 0
VERTEX
 8
AUSLAUF_2
 10
-0.495
 20
0.7812
 30
24.3139
 70
192
 0
VERTEX
 8
AUSLAUF_2
 10
-0.495
 20
0.1394
 30
26.4763
 70
192
 0
VERTEX
 8
AUSLAUF_2
 10
-0.495
 20
-1.0716
 30
28.3793
 70
192
 0
VERTEX
 8
AUSLAUF_2
 10
-0.495
 20
-2.7585
 30
29.8767
 70
192
 0
VERTEX
 8
AUSLAUF_2
 10
-0.495
 20
-4.7917
 30
30.8532
 70
192
 0
VERTEX
 8
AUSLAUF_2
 10
-0.495
 20
-7.015
 30
31.234
 70
192
 0
VERTEX
 8
AUSLAUF_2
 10
-0.495
 20
-9.2573
 30
30.9896
 70
192
 0
VERTEX
 8
AUSLAUF_2
 10
-0.495
 20
-11.3464
 30
30.1389
 70
192
 0
VERTEX
 8
AUSLAUF_2
 10
-0.495
 20
-13.1215
 30
28.7473
 70
192
 0
VERTEX
 8
AUSLAUF_2
 10
-0.495
 20
-14.4463
 30
26.9217
 70
192
 0
VERTEX
 8
AUSLAUF_2
 10
-0.495
 20
-15.2189
 30
24.8025
 70
192
 0
VERTEX
 8
AUSLAUF_2
 10
-0.495
 20
-15.5584
 30
22.9076
 70
192
 0
VERTEX
 8
AUSLAUF_2
 10
-0.6878
 20
-15.0995
 30
22.8267
 70
192
 0
VERTEX
 8
AUSLAUF_2
 10
0.805
 20
-14.7055
 30
22.7572
 70
192
 0
VERTEX
 8
AUSLAUF_2
 10
0.6978
 20
-14.3116
 30
22.6877
 70
192
 0
VERTEX
 8
AUSLAUF_2
 10
-0.861
 20
0.5059
 30
12.0574
 70
192
 0
VERTEX
 8
AUSLAUF_2
 10
-0.861
 20
0.5059
 30
22.235
 70
192
 0
VERTEX
 8
AUSLAUF_2
 10
-0.861
 20
0.4193
 30
24.2594
 70
192
 0
VERTEX
 8
AUSLAUF_2
 10
-0.861
 20
-0.1937
 30
26.3245
 70
192
 0
VERTEX
 8
AUSLAUF_2
 10
-0.861
 20
-1.3502
 30
28.1419
 70
192
 0
VERTEX
 8
AUSLAUF_2
 10
-0.861
 20
-2.9612
 30
29.5719
 70
192
 0
VERTEX
 8
AUSLAUF_2
 10
-0.861
 20
-4.9029
 30
30.5045
 70
192
 0
VERTEX
 8
AUSLAUF_2
 10
-0.861
 20
-7.0262
 30
30.8681
 70
192
 0
VERTEX
 8
AUSLAUF_2
 10
-0.861
 20
-9.1676
 30
30.6348
 70
192
 0
VERTEX
 8
AUSLAUF_2
 10
-0.861
 20
-11.1627
 30
29.8223
 70
192
 0
VERTEX
 8
AUSLAUF_2
 10
-0.861
 20
-12.858
 30
28.4933
 70
192
 0
VERTEX
 8
AUSLAUF_2
 10
-0.861
 20
-14.1231
 30
26.7499
 70
192
 0
VERTEX
 8
AUSLAUF_2
 10
-0.861
 20
-14.861
 30
24.7261
 70
192
 0
VERTEX
 8
AUSLAUF_2
 10
-0.861
 20
-15.1979
 30
22.844
 70
192
 0
VERTEX
 8
AUSLAUF_2
 10
-0.795
 20
-14.7055
 30
22.7572
 70
192
 0
VERTEX
 8
AUSLAUF_2
 10
0.6978
 20
-15.0995
 30
22.8267
 70
192
 0
VERTEX
 8
AUSLAUF_2
 10
0.405
 20
-15.3878
 30
22.8775
 70
192
 0
VERTEX
 8
AUSLAUF_2
 10
-0.995
 20
0.0059
 30
12.0574
 70
192
 0
VERTEX
 8
AUSLAUF_2
 10
-0.995
 20
0.0059
 30
22.235
 70
192
 0
VERTEX
 8
AUSLAUF_2
 10
-0.995
 20
-0.0752
 30
24.185
 70
192
 0
VERTEX
 8
AUSLAUF_2
 10
-0.995
 20
-0.6487
 30
26.1171
 70
192
 0
VERTEX
 8
AUSLAUF_2
 10
-0.995
 20
-1.7307
 30
27.8176
 70
192
 0
VERTEX
 8
AUSLAUF_2
 10
-0.995
 20
-3.2381
 30
29.1555
 70
192
 0
VERTEX
 8
AUSLAUF_2
 10
-0.995
 20
-5.0548
 30
30.0281
 70
192
 0
VERTEX
 8
AUSLAUF_2
 10
-0.995
 20
-7.0414
 30
30.3684
 70
192
 0
VERTEX
 8
AUSLAUF_2
 10
-0.995
 20
-9.0451
 30
30.15
 70
192
 0
VERTEX
 8
AUSLAUF_2
 10
-0.995
 20
-10.9117
 30
29.3899
 70
192
 0
VERTEX
 8
AUSLAUF_2
 10
-0.995
 20
-12.4979
 30
28.1464
 70
192
 0
VERTEX
 8
AUSLAUF_2
 10
-0.995
 20
-13.6817
 30
26.5152
 70
192
 0
VERTEX
 8
AUSLAUF_2
 10
-0.995
 20
-14.372
 30
24.6216
 70
192
 0
VERTEX
 8
AUSLAUF_2
 10
-0.995
 20
-14.7055
 30
22.7572
 70
192
 0
VERTEX
 8
AUSLAUF_2
 10
-0.6878
 20
-14.3116
 30
22.6877
 70
192
 0
VERTEX
 8
AUSLAUF_2
 10
-0.395
 20
-14.0232
 30
22.6369
 70
192
 0
VERTEX
 8
AUSLAUF_2
 10
0.005
 20
-15.4934
 30
22.8961
 70
192
 0
VERTEX
 8
AUSLAUF_2
 10
-0.861
 20
-0.4941
 30
12.0574
 70
192
 0
VERTEX
 8
AUSLAUF_2
 10
-0.861
 20
-0.4941
 30
22.235
 70
192
 0
VERTEX
 8
AUSLAUF_2
 10
-0.861
 20
-0.5696
 30
24.1105
 70
192
 0
VERTEX
 8
AUSLAUF_2
 10
-0.861
 20
-1.1037
 30
25.9098
 70
192
 0
VERTEX
 8
AUSLAUF_2
 10
-0.861
 20
-2.1113
 30
27.4933
 70
192
 0
VERTEX
 8
AUSLAUF_2
 10
-0.861
 20
-3.5149
 30
28.7392
 70
192
 0
VERTEX
 8
AUSLAUF_2
 10
0
 20
0
 30
0
 70
128
 71
160
 72
161
 73
178
 74
177
 0
VERTEX
 8
AUSLAUF_2
 10
0
 20
0
 30
0
 70
128
 71
161
 72
162
 73
179
 74
178
 0
VERTEX
 8
AUSLAUF_2
 10
0
 20
0
 30
0
 70
128
 71
162
 72
163
 73
180
 74
179
 0
VERTEX
 8
AUSLAUF_2
 10
0
 20
0
 30
0
 70
128
 71
163
 72
164
 73
1
 74
180
 0
VERTEX
 8
AUSLAUF_2
 10
0
 20
0
 30
0
 70
128
 71
5
 72
6
 73
23
 74
22
 0
VERTEX
 8
AUSLAUF_2
 10
0
 20
0
 30
0
 70
128
 71
6
 72
7
 73
24
 74
23
 0
VERTEX
 8
AUSLAUF_2
 10
0
 20
0
 30
0
 70
128
 71
7
 72
8
 73
25
 74
24
 0
VERTEX
 8
AUSLAUF_2
 10
0
 20
0
 30
0
 70
128
 71
8
 72
9
 73
26
 74
25
 0
VERTEX
 8
AUSLAUF_2
 10
0
 20
0
 30
0
 70
128
 71
9
 72
10
 73
27
 74
26
 0
VERTEX
 8
AUSLAUF_2
 10
0
 20
0
 30
0
 70
128
 71
10
 72
11
 73
28
 74
27
 0
VERTEX
 8
AUSLAUF_2
 10
0
 20
0
 30
0
 70
128
 71
11
 72
12
 73
29
 74
28
 0
VERTEX
 8
AUSLAUF_2
 10
0
 20
0
 30
0
 70
128
 71
12
 72
13
 73
30
 74
29
 0
VERTEX
 8
AUSLAUF_2
 10
0
 20
0
 30
0
 70
128
 71
13
 72
14
 73
31
 74
30
 0
VERTEX
 8
AUSLAUF_2
 10
0
 20
0
 30
0
 70
128
 71
14
 72
15
 73
32
 74
31
 0
VERTEX
 8
AUSLAUF_2
 10
0
 20
0
 30
0
 70
128
 71
15
 72
16
 73
33
 74
32
 0
VERTEX
 8
AUSLAUF_2
 10
0
 20
0
 30
0
 70
128
 71
16
 72
17
 73
34
 74
33
 0
VERTEX
 8
AUSLAUF_2
 10
0
 20
0
 30
0
 70
128
 71
17
 72
18
 73
35
 74
34
 0
VERTEX
 8
AUSLAUF_2
 10
0
 20
0
 30
0
 70
128
 71
121
 72
123
 73
35
 74
18
 0
VERTEX
 8
AUSLAUF_2
 10
0
 20
0
 30
0
 70
128
 71
164
 72
165
 73
2
 74
1
 0
VERTEX
 8
AUSLAUF_2
 10
0
 20
0
 30
0
 70
128
 71
165
 72
166
 73
3
 74
2
 0
VERTEX
 8
AUSLAUF_2
 10
0
 20
0
 30
0
 70
128
 71
166
 72
167
 73
4
 74
3
 0
VERTEX
 8
AUSLAUF_2
 10
0
 20
0
 30
0
 70
128
 71
167
 72
168
 73
19
 74
4
 0
VERTEX
 8
AUSLAUF_2
 10
0
 20
0
 30
0
 70
128
 71
22
 72
23
 73
40
 74
39
 0
VERTEX
 8
AUSLAUF_2
 10
0
 20
0
 30
0
 70
128
 71
23
 72
24
 73
41
 74
40
 0
VERTEX
 8
AUSLAUF_2
 10
0
 20
0
 30
0
 70
128
 71
24
 72
25
 73
42
 74
41
 0
VERTEX
 8
AUSLAUF_2
 10
0
 20
0
 30
0
 70
128
 71
25
 72
26
 73
43
 74
42
 0
VERTEX
 8
AUSLAUF_2
 10
0
 20
0
 30
0
 70
128
 71
26
 72
27
 73
44
 74
43
 0
VERTEX
 8
AUSLAUF_2
 10
0
 20
0
 30
0
 70
128
 71
27
 72
28
 73
45
 74
44
 0
VERTEX
 8
AUSLAUF_2
 10
0
 20
0
 30
0
 70
128
 71
28
 72
29
 73
46
 74
45
 0
VERTEX
 8
AUSLAUF_2
 10
0
 20
0
 30
0
 70
128
 71
29
 72
30
 73
47
 74
46
 0
VERTEX
 8
AUSLAUF_2
 10
0
 20
0
 30
0
 70
128
 71
30
 72
31
 73
48
 74
47
 0
VERTEX
 8
AUSLAUF_2
 10
0
 20
0
 30
0
 70
128
 71
31
 72
32
 73
49
 74
48
 0
VERTEX
 8
AUSLAUF_2
 10
0
 20
0
 30
0
 70
128
 71
32
 72
33
 73
50
 74
49
 0
VERTEX
 8
AUSLAUF_2
 10
0
 20
0
 30
0
 70
128
 71
33
 72
34
 73
51
 74
50
 0
VERTEX
 8
AUSLAUF_2
 10
0
 20
0
 30
0
 70
128
 71
34
 72
35
 73
52
 74
51
 0
VERTEX
 8
AUSLAUF_2
 10
0
 20
0
 30
0
 70
128
 71
123
 72
140
 73
52
 74
35
 0
VERTEX
 8
AUSLAUF_2
 10
0
 20
0
 30
0
 70
128
 71
168
 72
169
 73
20
 74
19
 0
VERTEX
 8
AUSLAUF_2
 10
0
 20
0
 30
0
 70
128
 71
169
 72
170
 73
21
 74
20
 0
VERTEX
 8
AUSLAUF_2
 10
0
 20
0
 30
0
 70
128
 71
170
 72
171
 73
36
 74
21
 0
VERTEX
 8
AUSLAUF_2
 10
0
 20
0
 30
0
 70
128
 71
155
 72
172
 73
36
 74
171
 0
VERTEX
 8
AUSLAUF_2
 10
0
 20
0
 30
0
 70
128
 71
39
 72
40
 73
57
 74
56
 0
VERTEX
 8
AUSLAUF_2
 10
0
 20
0
 30
0
 70
128
 71
40
 72
41
 73
58
 74
57
 0
VERTEX
 8
AUSLAUF_2
 10
0
 20
0
 30
0
 70
128
 71
41
 72
42
 73
59
 74
58
 0
VERTEX
 8
AUSLAUF_2
 10
0
 20
0
 30
0
 70
128
 71
42
 72
43
 73
60
 74
59
 0
VERTEX
 8
AUSLAUF_2
 10
0
 20
0
 30
0
 70
128
 71
43
 72
44
 73
61
 74
60
 0
VERTEX
 8
AUSLAUF_2
 10
0
 20
0
 30
0
 70
128
 71
44
 72
45
 73
62
 74
61
 0
VERTEX
 8
AUSLAUF_2
 10
0
 20
0
 30
0
 70
128
 71
45
 72
46
 73
63
 74
62
 0
VERTEX
 8
AUSLAUF_2
 10
0
 20
0
 30
0
 70
128
 71
46
 72
47
 73
64
 74
63
 0
VERTEX
 8
AUSLAUF_2
 10
0
 20
0
 30
0
 70
128
 71
47
 72
48
 73
65
 74
64
 0
VERTEX
 8
AUSLAUF_2
 10
0
 20
0
 30
0
 70
128
 71
48
 72
49
 73
66
 74
65
 0
VERTEX
 8
AUSLAUF_2
 10
0
 20
0
 30
0
 70
128
 71
49
 72
50
 73
67
 74
66
 0
VERTEX
 8
AUSLAUF_2
 10
0
 20
0
 30
0
 70
128
 71
50
 72
51
 73
68
 74
67
 0
VERTEX
 8
AUSLAUF_2
 10
0
 20
0
 30
0
 70
128
 71
51
 72
52
 73
69
 74
68
 0
VERTEX
 8
AUSLAUF_2
 10
0
 20
0
 30
0
 70
128
 71
69
 72
52
 73
140
 74
139
 0
VERTEX
 8
AUSLAUF_2
 10
0
 20
0
 30
0
 70
128
 71
175
 72
176
 73
38
 74
37
 0
VERTEX
 8
AUSLAUF_2
 10
0
 20
0
 30
0
 70
128
 71
176
 72
177
 73
53
 74
38
 0
VERTEX
 8
AUSLAUF_2
 10
0
 20
0
 30
0
 70
128
 71
177
 72
178
 73
54
 74
53
 0
VERTEX
 8
AUSLAUF_2
 10
0
 20
0
 30
0
 70
128
 71
178
 72
179
 73
55
 74
54
 0
VERTEX
 8
AUSLAUF_2
 10
0
 20
0
 30
0
 70
128
 71
56
 72
57
 73
74
 74
73
 0
VERTEX
 8
AUSLAUF_2
 10
0
 20
0
 30
0
 70
128
 71
57
 72
58
 73
75
 74
74
 0
VERTEX
 8
AUSLAUF_2
 10
0
 20
0
 30
0
 70
128
 71
58
 72
59
 73
76
 74
75
 0
VERTEX
 8
AUSLAUF_2
 10
0
 20
0
 30
0
 70
128
 71
59
 72
60
 73
77
 74
76
 0
VERTEX
 8
AUSLAUF_2
 10
0
 20
0
 30
0
 70
128
 71
60
 72
61
 73
78
 74
77
 0
VERTEX
 8
AUSLAUF_2
 10
0
 20
0
 30
0
 70
128
 71
61
 72
62
 73
79
 74
78
 0
VERTEX
 8
AUSLAUF_2
 10
0
 20
0
 30
0
 70
128
 71
62
 72
63
 73
80
 74
79
 0
VERTEX
 8
AUSLAUF_2
 10
0
 20
0
 30
0
 70
128
 71
63
 72
64
 73
81
 74
80
 0
VERTEX
 8
AUSLAUF_2
 10
0
 20
0
 30
0
 70
128
 71
64
 72
65
 73
82
 74
81
 0
VERTEX
 8
AUSLAUF_2
 10
0
 20
0
 30
0
 70
128
 71
65
 72
66
 73
83
 74
82
 0
VERTEX
 8
AUSLAUF_2
 10
0
 20
0
 30
0
 70
128
 71
66
 72
67
 73
84
 74
83
 0
VERTEX
 8
AUSLAUF_2
 10
0
 20
0
 30
0
 70
128
 71
67
 72
68
 73
85
 74
84
 0
VERTEX
 8
AUSLAUF_2
 10
0
 20
0
 30
0
 70
128
 71
68
 72
69
 73
86
 74
85
 0
VERTEX
 8
AUSLAUF_2
 10
0
 20
0
 30
0
 70
128
 71
69
 72
139
 73
156
 74
86
 0
VERTEX
 8
AUSLAUF_2
 10
0
 20
0
 30
0
 70
128
 71
179
 72
180
 73
70
 74
55
 0
VERTEX
 8
AUSLAUF_2
 10
0
 20
0
 30
0
 70
128
 71
180
 72
1
 73
71
 74
70
 0
VERTEX
 8
AUSLAUF_2
 10
0
 20
0
 30
0
 70
128
 71
1
 72
2
 73
72
 74
71
 0
VERTEX
 8
AUSLAUF_2
 10
0
 20
0
 30
0
 70
128
 71
2
 72
3
 73
87
 74
72
 0
VERTEX
 8
AUSLAUF_2
 10
0
 20
0
 30
0
 70
128
 71
73
 72
74
 73
91
 74
90
 0
VERTEX
 8
AUSLAUF_2
 10
0
 20
0
 30
0
 70
128
 71
74
 72
75
 73
92
 74
91
 0
VERTEX
 8
AUSLAUF_2
 10
0
 20
0
 30
0
 70
128
 71
75
 72
76
 73
93
 74
92
 0
VERTEX
 8
AUSLAUF_2
 10
0
 20
0
 30
0
 70
128
 71
76
 72
77
 73
94
 74
93
 0
VERTEX
 8
AUSLAUF_2
 10
0
 20
0
 30
0
 70
128
 71
77
 72
78
 73
95
 74
94
 0
VERTEX
 8
AUSLAUF_2
 10
0
 20
0
 30
0
 70
128
 71
78
 72
79
 73
96
 74
95
 0
VERTEX
 8
AUSLAUF_2
 10
0
 20
0
 30
0
 70
128
 71
79
 72
80
 73
97
 74
96
 0
VERTEX
 8
AUSLAUF_2
 10
0
 20
0
 30
0
 70
128
 71
80
 72
81
 73
98
 74
97
 0
VERTEX
 8
AUSLAUF_2
 10
0
 20
0
 30
0
 70
128
 71
81
 72
82
 73
99
 74
98
 0
VERTEX
 8
AUSLAUF_2
 10
0
 20
0
 30
0
 70
128
 71
82
 72
83
 73
100
 74
99
 0
VERTEX
 8
AUSLAUF_2
 10
0
 20
0
 30
0
 70
128
 71
83
 72
84
 73
101
 74
100
 0
VERTEX
 8
AUSLAUF_2
 10
0
 20
0
 30
0
 70
128
 71
84
 72
85
 73
102
 74
101
 0
VERTEX
 8
AUSLAUF_2
 10
0
 20
0
 30
0
 70
128
 71
85
 72
86
 73
103
 74
102
 0
VERTEX
 8
AUSLAUF_2
 10
0
 20
0
 30
0
 70
128
 71
86
 72
156
 73
157
 74
103
 0
VERTEX
 8
AUSLAUF_2
 10
0
 20
0
 30
0
 70
128
 71
3
 72
4
 73
88
 74
87
 0
VERTEX
 8
AUSLAUF_2
 10
0
 20
0
 30
0
 70
128
 71
4
 72
19
 73
89
 74
88
 0
VERTEX
 8
AUSLAUF_2
 10
0
 20
0
 30
0
 70
128
 71
19
 72
20
 73
104
 74
89
 0
VERTEX
 8
AUSLAUF_2
 10
0
 20
0
 30
0
 70
128
 71
20
 72
21
 73
105
 74
104
 0
VERTEX
 8
AUSLAUF_2
 10
0
 20
0
 30
0
 70
128
 71
90
 72
91
 73
108
 74
107
 0
VERTEX
 8
AUSLAUF_2
 10
0
 20
0
 30
0
 70
128
 71
91
 72
92
 73
109
 74
108
 0
VERTEX
 8
AUSLAUF_2
 10
0
 20
0
 30
0
 70
128
 71
92
 72
93
 73
110
 74
109
 0
VERTEX
 8
AUSLAUF_2
 10
0
 20
0
 30
0
 70
128
 71
93
 72
94
 73
111
 74
110
 0
VERTEX
 8
AUSLAUF_2
 10
0
 20
0
 30
0
 70
128
 71
94
 72
95
 73
112
 74
111
 0
VERTEX
 8
AUSLAUF_2
 10
0
 20
0
 30
0
 70
128
 71
95
 72
96
 73
113
 74
112
 0
VERTEX
 8
AUSLAUF_2
 10
0
 20
0
 30
0
 70
128
 71
96
 72
97
 73
114
 74
113
 0
VERTEX
 8
AUSLAUF_2
 10
0
 20
0
 30
0
 70
128
 71
97
 72
98
 73
115
 74
114
 0
VERTEX
 8
AUSLAUF_2
 10
0
 20
0
 30
0
 70
128
 71
98
 72
99
 73
116
 74
115
 0
VERTEX
 8
AUSLAUF_2
 10
0
 20
0
 30
0
 70
128
 71
99
 72
100
 73
117
 74
116
 0
VERTEX
 8
AUSLAUF_2
 10
0
 20
0
 30
0
 70
128
 71
100
 72
101
 73
118
 74
117
 0
VERTEX
 8
AUSLAUF_2
 10
0
 20
0
 30
0
 70
128
 71
101
 72
102
 73
119
 74
118
 0
VERTEX
 8
AUSLAUF_2
 10
0
 20
0
 30
0
 70
128
 71
102
 72
103
 73
120
 74
119
 0
VERTEX
 8
AUSLAUF_2
 10
0
 20
0
 30
0
 70
128
 71
103
 72
157
 73
174
 74
120
 0
VERTEX
 8
AUSLAUF_2
 10
0
 20
0
 30
0
 70
128
 71
21
 72
36
 73
106
 74
105
 0
VERTEX
 8
AUSLAUF_2
 10
0
 20
0
 30
0
 70
128
 71
172
 72
173
 73
106
 74
36
 0
VERTEX
 8
AUSLAUF_2
 10
0
 20
0
 30
0
 70
128
 71
37
 72
38
 73
6
 74
5
 0
VERTEX
 8
AUSLAUF_2
 10
0
 20
0
 30
0
 70
128
 71
38
 72
53
 73
7
 74
6
 0
VERTEX
 8
AUSLAUF_2
 10
0
 20
0
 30
0
 70
128
 71
107
 72
108
 73
125
 74
124
 0
VERTEX
 8
AUSLAUF_2
 10
0
 20
0
 30
0
 70
128
 71
108
 72
109
 73
126
 74
125
 0
VERTEX
 8
AUSLAUF_2
 10
0
 20
0
 30
0
 70
128
 71
109
 72
110
 73
127
 74
126
 0
VERTEX
 8
AUSLAUF_2
 10
0
 20
0
 30
0
 70
128
 71
110
 72
111
 73
128
 74
127
 0
VERTEX
 8
AUSLAUF_2
 10
0
 20
0
 30
0
 70
128
 71
111
 72
112
 73
129
 74
128
 0
VERTEX
 8
AUSLAUF_2
 10
0
 20
0
 30
0
 70
128
 71
112
 72
113
 73
130
 74
129
 0
VERTEX
 8
AUSLAUF_2
 10
0
 20
0
 30
0
 70
128
 71
113
 72
114
 73
131
 74
130
 0
VERTEX
 8
AUSLAUF_2
 10
0
 20
0
 30
0
 70
128
 71
114
 72
115
 73
132
 74
131
 0
VERTEX
 8
AUSLAUF_2
 10
0
 20
0
 30
0
 70
128
 71
115
 72
116
 73
133
 74
132
 0
VERTEX
 8
AUSLAUF_2
 10
0
 20
0
 30
0
 70
128
 71
116
 72
117
 73
134
 74
133
 0
VERTEX
 8
AUSLAUF_2
 10
0
 20
0
 30
0
 70
128
 71
117
 72
118
 73
135
 74
134
 0
VERTEX
 8
AUSLAUF_2
 10
0
 20
0
 30
0
 70
128
 71
118
 72
119
 73
136
 74
135
 0
VERTEX
 8
AUSLAUF_2
 10
0
 20
0
 30
0
 70
128
 71
119
 72
120
 73
137
 74
136
 0
VERTEX
 8
AUSLAUF_2
 10
0
 20
0
 30
0
 70
128
 71
120
 72
174
 73
122
 74
137
 0
VERTEX
 8
AUSLAUF_2
 10
0
 20
0
 30
0
 70
128
 71
53
 72
54
 73
8
 74
7
 0
VERTEX
 8
AUSLAUF_2
 10
0
 20
0
 30
0
 70
128
 71
54
 72
55
 73
9
 74
8
 0
VERTEX
 8
AUSLAUF_2
 10
0
 20
0
 30
0
 70
128
 71
55
 72
70
 73
10
 74
9
 0
VERTEX
 8
AUSLAUF_2
 10
0
 20
0
 30
0
 70
128
 71
70
 72
71
 73
11
 74
10
 0
VERTEX
 8
AUSLAUF_2
 10
0
 20
0
 30
0
 70
128
 71
124
 72
125
 73
142
 74
141
 0
VERTEX
 8
AUSLAUF_2
 10
0
 20
0
 30
0
 70
128
 71
125
 72
126
 73
143
 74
142
 0
VERTEX
 8
AUSLAUF_2
 10
0
 20
0
 30
0
 70
128
 71
126
 72
127
 73
144
 74
143
 0
VERTEX
 8
AUSLAUF_2
 10
0
 20
0
 30
0
 70
128
 71
127
 72
128
 73
145
 74
144
 0
VERTEX
 8
AUSLAUF_2
 10
0
 20
0
 30
0
 70
128
 71
128
 72
129
 73
146
 74
145
 0
VERTEX
 8
AUSLAUF_2
 10
0
 20
0
 30
0
 70
128
 71
129
 72
130
 73
147
 74
146
 0
VERTEX
 8
AUSLAUF_2
 10
0
 20
0
 30
0
 70
128
 71
130
 72
131
 73
148
 74
147
 0
VERTEX
 8
AUSLAUF_2
 10
0
 20
0
 30
0
 70
128
 71
131
 72
132
 73
149
 74
148
 0
VERTEX
 8
AUSLAUF_2
 10
0
 20
0
 30
0
 70
128
 71
132
 72
133
 73
150
 74
149
 0
VERTEX
 8
AUSLAUF_2
 10
0
 20
0
 30
0
 70
128
 71
133
 72
134
 73
151
 74
150
 0
VERTEX
 8
AUSLAUF_2
 10
0
 20
0
 30
0
 70
128
 71
134
 72
135
 73
152
 74
151
 0
VERTEX
 8
AUSLAUF_2
 10
0
 20
0
 30
0
 70
128
 71
135
 72
136
 73
153
 74
152
 0
VERTEX
 8
AUSLAUF_2
 10
0
 20
0
 30
0
 70
128
 71
136
 72
137
 73
154
 74
153
 0
VERTEX
 8
AUSLAUF_2
 10
0
 20
0
 30
0
 70
128
 71
137
 72
122
 73
138
 74
154
 0
VERTEX
 8
AUSLAUF_2
 10
0
 20
0
 30
0
 70
128
 71
71
 72
72
 73
12
 74
11
 0
VERTEX
 8
AUSLAUF_2
 10
0
 20
0
 30
0
 70
128
 71
72
 72
87
 73
13
 74
12
 0
VERTEX
 8
AUSLAUF_2
 10
0
 20
0
 30
0
 70
128
 71
87
 72
88
 73
14
 74
13
 0
VERTEX
 8
AUSLAUF_2
 10
0
 20
0
 30
0
 70
128
 71
88
 72
89
 73
15
 74
14
 0
VERTEX
 8
AUSLAUF_2
 10
0
 20
0
 30
0
 70
128
 71
141
 72
142
 73
159
 74
158
 0
VERTEX
 8
AUSLAUF_2
 10
0
 20
0
 30
0
 70
128
 71
142
 72
143
 73
160
 74
159
 0
VERTEX
 8
AUSLAUF_2
 10
0
 20
0
 30
0
 70
128
 71
143
 72
144
 73
161
 74
160
 0
VERTEX
 8
AUSLAUF_2
 10
0
 20
0
 30
0
 70
128
 71
144
 72
145
 73
162
 74
161
 0
VERTEX
 8
AUSLAUF_2
 10
0
 20
0
 30
0
 70
128
 71
145
 72
146
 73
163
 74
162
 0
VERTEX
 8
AUSLAUF_2
 10
0
 20
0
 30
0
 70
128
 71
146
 72
147
 73
164
 74
163
 0
VERTEX
 8
AUSLAUF_2
 10
0
 20
0
 30
0
 70
128
 71
147
 72
148
 73
165
 74
164
 0
VERTEX
 8
AUSLAUF_2
 10
0
 20
0
 30
0
 70
128
 71
148
 72
149
 73
166
 74
165
 0
VERTEX
 8
AUSLAUF_2
 10
0
 20
0
 30
0
 70
128
 71
149
 72
150
 73
167
 74
166
 0
VERTEX
 8
AUSLAUF_2
 10
0
 20
0
 30
0
 70
128
 71
150
 72
151
 73
168
 74
167
 0
VERTEX
 8
AUSLAUF_2
 10
0
 20
0
 30
0
 70
128
 71
151
 72
152
 73
169
 74
168
 0
VERTEX
 8
AUSLAUF_2
 10
0
 20
0
 30
0
 70
128
 71
152
 72
153
 73
170
 74
169
 0
VERTEX
 8
AUSLAUF_2
 10
0
 20
0
 30
0
 70
128
 71
153
 72
154
 73
171
 74
170
 0
VERTEX
 8
AUSLAUF_2
 10
0
 20
0
 30
0
 70
128
 71
154
 72
138
 73
155
 74
171
 0
VERTEX
 8
AUSLAUF_2
 10
0
 20
0
 30
0
 70
128
 71
89
 72
104
 73
16
 74
15
 0
VERTEX
 8
AUSLAUF_2
 10
0
 20
0
 30
0
 70
128
 71
104
 72
105
 73
17
 74
16
 0
VERTEX
 8
AUSLAUF_2
 10
0
 20
0
 30
0
 70
128
 71
105
 72
106
 73
18
 74
17
 0
VERTEX
 8
AUSLAUF_2
 10
0
 20
0
 30
0
 70
128
 71
173
 72
121
 73
18
 74
106
 0
VERTEX
 8
AUSLAUF_2
 10
0
 20
0
 30
0
 70
128
 71
158
 72
159
 73
176
 74
175
 0
VERTEX
 8
AUSLAUF_2
 10
0
 20
0
 30
0
 70
128
 71
159
 72
160
 73
177
 74
176
 0
SEQEND
 0
POLYLINE
 8
TUBE
 66
1
 10
0.0
 20
0.0
 30
0.0
 70
64
 71
24
 72
7
 0
VERTEX
 8
TUBE
 10
0.9497
 20
-14.6999
 30
22.8204
 70
192
 0
VERTEX
 8
TUBE
 10
0.9497
 20
-14.6999
 30
22.8204
 70
192
 0
VERTEX
 8
TUBE
 10
-0.9503
 20
-14.6999
 30
22.8204
 70
192
 0
VERTEX
 8
TUBE
 10
-0.0003
 20
-13.7644
 30
22.6554
 70
192
 0
VERTEX
 8
TUBE
 10
-0.0003
 20
-13.7644
 30
22.6554
 70
192
 0
VERTEX
 8
TUBE
 10
-0.9503
 20
-14.6999
 30
22.8204
 70
192
 0
VERTEX
 8
TUBE
 10
-0.0003
 20
-15.6355
 30
22.9854
 70
192
 0
VERTEX
 8
TUBE
 10
-0.0003
 20
-15.6355
 30
22.9854
 70
192
 0
VERTEX
 8
TUBE
 10
0.8224
 20
-15.1677
 30
22.9029
 70
192
 0
VERTEX
 8
TUBE
 10
0.8224
 20
-15.1677
 30
22.9029
 70
192
 0
VERTEX
 8
TUBE
 10
-0.823
 20
-14.2321
 30
22.7379
 70
192
 0
VERTEX
 8
TUBE
 10
0.4747
 20
-13.8897
 30
22.6775
 70
192
 0
VERTEX
 8
TUBE
 10
0.4747
 20
-13.8897
 30
22.6775
 70
192
 0
VERTEX
 8
TUBE
 10
-0.823
 20
-14.2321
 30
22.7379
 70
192
 0
VERTEX
 8
TUBE
 10
-0.4753
 20
-15.5101
 30
22.9633
 70
192
 0
VERTEX
 8
TUBE
 10
-0.4753
 20
-15.5101
 30
22.9633
 70
192
 0
VERTEX
 8
TUBE
 10
0.4747
 20
-15.5101
 30
22.9633
 70
192
 0
VERTEX
 8
TUBE
 10
0.4747
 20
-15.5101
 30
22.9633
 70
192
 0
VERTEX
 8
TUBE
 10
-0.4753
 20
-13.8897
 30
22.6775
 70
192
 0
VERTEX
 8
TUBE
 10
0.8224
 20
-14.2321
 30
22.7379
 70
192
 0
VERTEX
 8
TUBE
 10
0.8224
 20
-14.2321
 30
22.7379
 70
192
 0
VERTEX
 8
TUBE
 10
-0.4753
 20
-13.8897
 30
22.6775
 70
192
 0
VERTEX
 8
TUBE
 10
-0.823
 20
-15.1677
 30
22.9029
 70
192
 0
VERTEX
 8
TUBE
 10
-0.823
 20
-15.1677
 30
22.9029
 70
192
 0
VERTEX
 8
TUBE
 10
0
 20
0
 30
0
 70
128
 71
17
 72
9
 73
7
 74
7
 0
VERTEX
 8
TUBE
 10
0
 20
0
 30
0
 70
128
 71
7
 72
9
 73
1
 74
15
 0
VERTEX
 8
TUBE
 10
0
 20
0
 30
0
 70
128
 71
1
 72
20
 73
12
 74
12
 0
VERTEX
 8
TUBE
 10
0
 20
0
 30
0
 70
128
 71
15
 72
1
 73
12
 74
4
 0
VERTEX
 8
TUBE
 10
0
 20
0
 30
0
 70
128
 71
4
 72
19
 73
11
 74
11
 0
VERTEX
 8
TUBE
 10
0
 20
0
 30
0
 70
128
 71
4
 72
11
 73
3
 74
15
 0
VERTEX
 8
TUBE
 10
0
 20
0
 30
0
 70
128
 71
3
 72
23
 73
15
 74
15
 0
SEQEND
 0
ENDSEC
 0
EOF
