 0
SECTION
 2
HEADER
 9
$ACADVER
 1
AC1009
 0
ENDSEC
 0
SECTION
 2
TABLES
 0
TABLE
 2
LTYPE
 70
1
 0
LTYPE
 2
CONTINUOUS
 70
64
 3
solid line
 72
65
 73
0
 40
0.0
 0
ENDTAB
 0
TABLE
 2
LAYER
 70
6
 0
LAYER
 2
0
 70
0
 62
7
 6
CONTINUOUS
 0
LAYER
 2
250_2400_M
 70
64
 62
7
 6
CONTINUOUS
 0
LAYER
 2
ROSETTE_3
 70
64
 62
250
 6
CONTINUOUS
 0
LAYER
 2
EXENTER_1
 70
64
 62
250
 6
CONTINUOUS
 0
LAYER
 2
GRIFF_25
 70
64
 62
250
 6
CONTINUOUS
 0
LAYER
 2
EXENTER
 70
64
 62
250
 6
CONTINUOUS
 0
LAYER
 2
AUSLAUF_2
 70
64
 62
250
 6
CONTINUOUS
 0
LAYER
 2
ROSETTE-ZYLINDER
 70
64
 62
250
 6
CONTINUOUS
 0
LAYER
 2
R_HRE
 70
64
 62
250
 6
CONTINUOUS
 0
LAYER
 2
ZYLINDER_1
 70
64
 62
250
 6
CONTINUOUS
 0
LAYER
 2
ZYLINDER
 70
64
 62
250
 6
CONTINUOUS
 0
LAYER
 2
ROSETTE_2
 70
64
 62
250
 6
CONTINUOUS
 0
LAYER
 2
ROSETTE_1
 70
64
 62
250
 6
CONTINUOUS
 0
LAYER
 2
GRIFF_24
 70
64
 62
250
 6
CONTINUOUS
 0
LAYER
 2
GRIFF_23
 70
64
 62
250
 6
CONTINUOUS
 0
LAYER
 2
GRIFF_22
 70
64
 62
250
 6
CONTINUOUS
 0
LAYER
 2
GRIFF_21
 70
64
 62
250
 6
CONTINUOUS
 0
LAYER
 2
GRIFF_20
 70
64
 62
250
 6
CONTINUOUS
 0
LAYER
 2
GRIFF_19
 70
64
 62
250
 6
CONTINUOUS
 0
LAYER
 2
GRIFF_18
 70
64
 62
250
 6
CONTINUOUS
 0
LAYER
 2
GRIFF_17
 70
64
 62
250
 6
CONTINUOUS
 0
LAYER
 2
GRIFF_16
 70
64
 62
250
 6
CONTINUOUS
 0
LAYER
 2
GRIFF_15
 70
64
 62
250
 6
CONTINUOUS
 0
LAYER
 2
GRIFF_14
 70
64
 62
250
 6
CONTINUOUS
 0
LAYER
 2
ROSETTE
 70
64
 62
250
 6
CONTINUOUS
 0
LAYER
 2
GRIFF_11
 70
64
 62
250
 6
CONTINUOUS
 0
LAYER
 2
GRIFF_10
 70
64
 62
250
 6
CONTINUOUS
 0
LAYER
 2
GRIFF_9
 70
64
 62
250
 6
CONTINUOUS
 0
LAYER
 2
GRIFF_8
 70
64
 62
250
 6
CONTINUOUS
 0
LAYER
 2
GRIFF_7
 70
64
 62
250
 6
CONTINUOUS
 0
LAYER
 2
GRIFF_6
 70
64
 62
250
 6
CONTINUOUS
 0
LAYER
 2
GRIFF_5
 70
64
 62
250
 6
CONTINUOUS
 0
LAYER
 2
GRIFF_4
 70
64
 62
250
 6
CONTINUOUS
 0
LAYER
 2
GRIFF_3
 70
64
 62
250
 6
CONTINUOUS
 0
LAYER
 2
GRIFF_2
 70
64
 62
250
 6
CONTINUOUS
 0
LAYER
 2
GRIFF_1
 70
64
 62
250
 6
CONTINUOUS
 0
ENDTAB
 0
ENDSEC
 0
SECTION
 2
BLOCKS
 0
ENDSEC
 0
SECTION
 2
ENTITIES
 0
POLYLINE
 8
ROSETTE_3
 66
1
 10
0.0
 20
0.0
 30
0.0
 70
64
 71
120
 72
45
 0
VERTEX
 8
ROSETTE_3
 10
-5.9811
 20
-0.7452
 30
9.6204
 70
192
 0
VERTEX
 8
ROSETTE_3
 10
-5.9811
 20
2.0548
 30
9.6204
 70
192
 0
VERTEX
 8
ROSETTE_3
 10
-5.9811
 20
2.0548
 30
9.6204
 70
192
 0
VERTEX
 8
ROSETTE_3
 10
-5.9811
 20
2.0548
 30
9.9404
 70
192
 0
VERTEX
 8
ROSETTE_3
 10
-5.9811
 20
2.0548
 30
9.9404
 70
192
 0
VERTEX
 8
ROSETTE_3
 10
-5.9811
 20
-0.7452
 30
9.9404
 70
192
 0
VERTEX
 8
ROSETTE_3
 10
-5.9811
 20
-0.7452
 30
9.9404
 70
192
 0
VERTEX
 8
ROSETTE_3
 10
-5.9811
 20
-0.7452
 30
9.6204
 70
192
 0
VERTEX
 8
ROSETTE_3
 10
-5.9811
 20
-0.7452
 30
9.6204
 70
192
 0
VERTEX
 8
ROSETTE_3
 10
-7.12
 20
1.8127
 30
9.6204
 70
192
 0
VERTEX
 8
ROSETTE_3
 10
-7.12
 20
1.8127
 30
9.6204
 70
192
 0
VERTEX
 8
ROSETTE_3
 10
-7.12
 20
1.8127
 30
9.9404
 70
192
 0
VERTEX
 8
ROSETTE_3
 10
-7.12
 20
1.8127
 30
9.9404
 70
192
 0
VERTEX
 8
ROSETTE_3
 10
-5.9811
 20
-0.7452
 30
9.9404
 70
192
 0
VERTEX
 8
ROSETTE_3
 10
-5.9811
 20
-0.7452
 30
9.9404
 70
192
 0
VERTEX
 8
ROSETTE_3
 10
-5.9811
 20
-0.7452
 30
9.6204
 70
192
 0
VERTEX
 8
ROSETTE_3
 10
-5.9811
 20
-0.7452
 30
9.6204
 70
192
 0
VERTEX
 8
ROSETTE_3
 10
-8.0619
 20
1.1283
 30
9.6204
 70
192
 0
VERTEX
 8
ROSETTE_3
 10
-8.0619
 20
1.1283
 30
9.6204
 70
192
 0
VERTEX
 8
ROSETTE_3
 10
-8.0619
 20
1.1283
 30
9.9404
 70
192
 0
VERTEX
 8
ROSETTE_3
 10
-8.0619
 20
1.1283
 30
9.9404
 70
192
 0
VERTEX
 8
ROSETTE_3
 10
-5.9811
 20
-0.7452
 30
9.9404
 70
192
 0
VERTEX
 8
ROSETTE_3
 10
-5.9811
 20
-0.7452
 30
9.9404
 70
192
 0
VERTEX
 8
ROSETTE_3
 10
-5.9811
 20
-0.7452
 30
9.6204
 70
192
 0
VERTEX
 8
ROSETTE_3
 10
-5.9811
 20
-0.7452
 30
9.6204
 70
192
 0
VERTEX
 8
ROSETTE_3
 10
-8.6441
 20
0.12
 30
9.6204
 70
192
 0
VERTEX
 8
ROSETTE_3
 10
-8.6441
 20
0.12
 30
9.6204
 70
192
 0
VERTEX
 8
ROSETTE_3
 10
-8.6441
 20
0.12
 30
9.9404
 70
192
 0
VERTEX
 8
ROSETTE_3
 10
-8.6441
 20
0.12
 30
9.9404
 70
192
 0
VERTEX
 8
ROSETTE_3
 10
-5.9811
 20
-0.7452
 30
9.9404
 70
192
 0
VERTEX
 8
ROSETTE_3
 10
-5.9811
 20
-0.7452
 30
9.9404
 70
192
 0
VERTEX
 8
ROSETTE_3
 10
-5.9811
 20
-0.7452
 30
9.6204
 70
192
 0
VERTEX
 8
ROSETTE_3
 10
-5.9811
 20
-0.7452
 30
9.6204
 70
192
 0
VERTEX
 8
ROSETTE_3
 10
-8.7658
 20
-1.0379
 30
9.6204
 70
192
 0
VERTEX
 8
ROSETTE_3
 10
-8.7658
 20
-1.0379
 30
9.6204
 70
192
 0
VERTEX
 8
ROSETTE_3
 10
-8.7658
 20
-1.0379
 30
9.9404
 70
192
 0
VERTEX
 8
ROSETTE_3
 10
-8.7658
 20
-1.0379
 30
9.9404
 70
192
 0
VERTEX
 8
ROSETTE_3
 10
-5.9811
 20
-0.7452
 30
9.9404
 70
192
 0
VERTEX
 8
ROSETTE_3
 10
-5.9811
 20
-0.7452
 30
9.9404
 70
192
 0
VERTEX
 8
ROSETTE_3
 10
-5.9811
 20
-0.7452
 30
9.6204
 70
192
 0
VERTEX
 8
ROSETTE_3
 10
-5.9811
 20
-0.7452
 30
9.6204
 70
192
 0
VERTEX
 8
ROSETTE_3
 10
-8.406
 20
-2.1452
 30
9.6204
 70
192
 0
VERTEX
 8
ROSETTE_3
 10
-8.406
 20
-2.1452
 30
9.6204
 70
192
 0
VERTEX
 8
ROSETTE_3
 10
-8.406
 20
-2.1452
 30
9.9404
 70
192
 0
VERTEX
 8
ROSETTE_3
 10
-8.406
 20
-2.1452
 30
9.9404
 70
192
 0
VERTEX
 8
ROSETTE_3
 10
-5.9811
 20
-0.7452
 30
9.9404
 70
192
 0
VERTEX
 8
ROSETTE_3
 10
-5.9811
 20
-0.7452
 30
9.9404
 70
192
 0
VERTEX
 8
ROSETTE_3
 10
-5.9811
 20
-0.7452
 30
9.6204
 70
192
 0
VERTEX
 8
ROSETTE_3
 10
-5.9811
 20
-0.7452
 30
9.6204
 70
192
 0
VERTEX
 8
ROSETTE_3
 10
-7.6269
 20
-3.0105
 30
9.6204
 70
192
 0
VERTEX
 8
ROSETTE_3
 10
-7.6269
 20
-3.0105
 30
9.6204
 70
192
 0
VERTEX
 8
ROSETTE_3
 10
-7.6269
 20
-3.0105
 30
9.9404
 70
192
 0
VERTEX
 8
ROSETTE_3
 10
-7.6269
 20
-3.0105
 30
9.9404
 70
192
 0
VERTEX
 8
ROSETTE_3
 10
-5.9811
 20
-0.7452
 30
9.9404
 70
192
 0
VERTEX
 8
ROSETTE_3
 10
-5.9811
 20
-0.7452
 30
9.9404
 70
192
 0
VERTEX
 8
ROSETTE_3
 10
-5.9811
 20
-0.7452
 30
9.6204
 70
192
 0
VERTEX
 8
ROSETTE_3
 10
-5.9811
 20
-0.7452
 30
9.6204
 70
192
 0
VERTEX
 8
ROSETTE_3
 10
-6.5633
 20
-3.484
 30
9.6204
 70
192
 0
VERTEX
 8
ROSETTE_3
 10
-6.5633
 20
-3.484
 30
9.6204
 70
192
 0
VERTEX
 8
ROSETTE_3
 10
-6.5633
 20
-3.484
 30
9.9404
 70
192
 0
VERTEX
 8
ROSETTE_3
 10
-6.5633
 20
-3.484
 30
9.9404
 70
192
 0
VERTEX
 8
ROSETTE_3
 10
-5.9811
 20
-0.7452
 30
9.9404
 70
192
 0
VERTEX
 8
ROSETTE_3
 10
-5.9811
 20
-0.7452
 30
9.9404
 70
192
 0
VERTEX
 8
ROSETTE_3
 10
-5.9811
 20
-0.7452
 30
9.6204
 70
192
 0
VERTEX
 8
ROSETTE_3
 10
-5.9811
 20
-0.7452
 30
9.6204
 70
192
 0
VERTEX
 8
ROSETTE_3
 10
-5.399
 20
-3.484
 30
9.6204
 70
192
 0
VERTEX
 8
ROSETTE_3
 10
-5.399
 20
-3.484
 30
9.6204
 70
192
 0
VERTEX
 8
ROSETTE_3
 10
-5.399
 20
-3.484
 30
9.9404
 70
192
 0
VERTEX
 8
ROSETTE_3
 10
-5.399
 20
-3.484
 30
9.9404
 70
192
 0
VERTEX
 8
ROSETTE_3
 10
-5.9811
 20
-0.7452
 30
9.9404
 70
192
 0
VERTEX
 8
ROSETTE_3
 10
-5.9811
 20
-0.7452
 30
9.9404
 70
192
 0
VERTEX
 8
ROSETTE_3
 10
-5.9811
 20
-0.7452
 30
9.6204
 70
192
 0
VERTEX
 8
ROSETTE_3
 10
-5.9811
 20
-0.7452
 30
9.6204
 70
192
 0
VERTEX
 8
ROSETTE_3
 10
-4.3353
 20
-3.0105
 30
9.6204
 70
192
 0
VERTEX
 8
ROSETTE_3
 10
-4.3353
 20
-3.0105
 30
9.6204
 70
192
 0
VERTEX
 8
ROSETTE_3
 10
-4.3353
 20
-3.0105
 30
9.9404
 70
192
 0
VERTEX
 8
ROSETTE_3
 10
-4.3353
 20
-3.0105
 30
9.9404
 70
192
 0
VERTEX
 8
ROSETTE_3
 10
-5.9811
 20
-0.7452
 30
9.9404
 70
192
 0
VERTEX
 8
ROSETTE_3
 10
-5.9811
 20
-0.7452
 30
9.9404
 70
192
 0
VERTEX
 8
ROSETTE_3
 10
-5.9811
 20
-0.7452
 30
9.6204
 70
192
 0
VERTEX
 8
ROSETTE_3
 10
-5.9811
 20
-0.7452
 30
9.6204
 70
192
 0
VERTEX
 8
ROSETTE_3
 10
-3.5563
 20
-2.1452
 30
9.6204
 70
192
 0
VERTEX
 8
ROSETTE_3
 10
-3.5563
 20
-2.1452
 30
9.6204
 70
192
 0
VERTEX
 8
ROSETTE_3
 10
-3.5563
 20
-2.1452
 30
9.9404
 70
192
 0
VERTEX
 8
ROSETTE_3
 10
-3.5563
 20
-2.1452
 30
9.9404
 70
192
 0
VERTEX
 8
ROSETTE_3
 10
-5.9811
 20
-0.7452
 30
9.9404
 70
192
 0
VERTEX
 8
ROSETTE_3
 10
-5.9811
 20
-0.7452
 30
9.9404
 70
192
 0
VERTEX
 8
ROSETTE_3
 10
-5.9811
 20
-0.7452
 30
9.6204
 70
192
 0
VERTEX
 8
ROSETTE_3
 10
-5.9811
 20
-0.7452
 30
9.6204
 70
192
 0
VERTEX
 8
ROSETTE_3
 10
-3.1965
 20
-1.0379
 30
9.6204
 70
192
 0
VERTEX
 8
ROSETTE_3
 10
-3.1965
 20
-1.0379
 30
9.6204
 70
192
 0
VERTEX
 8
ROSETTE_3
 10
-3.1965
 20
-1.0379
 30
9.9404
 70
192
 0
VERTEX
 8
ROSETTE_3
 10
-3.1965
 20
-1.0379
 30
9.9404
 70
192
 0
VERTEX
 8
ROSETTE_3
 10
-5.9811
 20
-0.7452
 30
9.9404
 70
192
 0
VERTEX
 8
ROSETTE_3
 10
-5.9811
 20
-0.7452
 30
9.9404
 70
192
 0
VERTEX
 8
ROSETTE_3
 10
-5.9811
 20
-0.7452
 30
9.6204
 70
192
 0
VERTEX
 8
ROSETTE_3
 10
-5.9811
 20
-0.7452
 30
9.6204
 70
192
 0
VERTEX
 8
ROSETTE_3
 10
-3.3182
 20
0.12
 30
9.6204
 70
192
 0
VERTEX
 8
ROSETTE_3
 10
-3.3182
 20
0.12
 30
9.6204
 70
192
 0
VERTEX
 8
ROSETTE_3
 10
-3.3182
 20
0.12
 30
9.9404
 70
192
 0
VERTEX
 8
ROSETTE_3
 10
-3.3182
 20
0.12
 30
9.9404
 70
192
 0
VERTEX
 8
ROSETTE_3
 10
-5.9811
 20
-0.7452
 30
9.9404
 70
192
 0
VERTEX
 8
ROSETTE_3
 10
-5.9811
 20
-0.7452
 30
9.9404
 70
192
 0
VERTEX
 8
ROSETTE_3
 10
-5.9811
 20
-0.7452
 30
9.6204
 70
192
 0
VERTEX
 8
ROSETTE_3
 10
-5.9811
 20
-0.7452
 30
9.6204
 70
192
 0
VERTEX
 8
ROSETTE_3
 10
-3.9003
 20
1.1283
 30
9.6204
 70
192
 0
VERTEX
 8
ROSETTE_3
 10
-3.9003
 20
1.1283
 30
9.6204
 70
192
 0
VERTEX
 8
ROSETTE_3
 10
-3.9003
 20
1.1283
 30
9.9404
 70
192
 0
VERTEX
 8
ROSETTE_3
 10
-3.9003
 20
1.1283
 30
9.9404
 70
192
 0
VERTEX
 8
ROSETTE_3
 10
-5.9811
 20
-0.7452
 30
9.9404
 70
192
 0
VERTEX
 8
ROSETTE_3
 10
-5.9811
 20
-0.7452
 30
9.9404
 70
192
 0
VERTEX
 8
ROSETTE_3
 10
-5.9811
 20
-0.7452
 30
9.6204
 70
192
 0
VERTEX
 8
ROSETTE_3
 10
-5.9811
 20
-0.7452
 30
9.6204
 70
192
 0
VERTEX
 8
ROSETTE_3
 10
-4.8423
 20
1.8127
 30
9.6204
 70
192
 0
VERTEX
 8
ROSETTE_3
 10
-4.8423
 20
1.8127
 30
9.6204
 70
192
 0
VERTEX
 8
ROSETTE_3
 10
-4.8423
 20
1.8127
 30
9.9404
 70
192
 0
VERTEX
 8
ROSETTE_3
 10
-4.8423
 20
1.8127
 30
9.9404
 70
192
 0
VERTEX
 8
ROSETTE_3
 10
-5.9811
 20
-0.7452
 30
9.9404
 70
192
 0
VERTEX
 8
ROSETTE_3
 10
-5.9811
 20
-0.7452
 30
9.9404
 70
192
 0
VERTEX
 8
ROSETTE_3
 10
-5.9811
 20
-0.7452
 30
9.6204
 70
192
 0
VERTEX
 8
ROSETTE_3
 10
0
 20
0
 30
0
 70
128
 71
1
 72
2
 73
10
 74
10
 0
VERTEX
 8
ROSETTE_3
 10
0
 20
0
 30
0
 70
128
 71
3
 72
4
 73
12
 74
11
 0
VERTEX
 8
ROSETTE_3
 10
0
 20
0
 30
0
 70
128
 71
5
 72
14
 73
13
 74
13
 0
VERTEX
 8
ROSETTE_3
 10
0
 20
0
 30
0
 70
128
 71
9
 72
10
 73
18
 74
18
 0
VERTEX
 8
ROSETTE_3
 10
0
 20
0
 30
0
 70
128
 71
11
 72
12
 73
20
 74
19
 0
VERTEX
 8
ROSETTE_3
 10
0
 20
0
 30
0
 70
128
 71
13
 72
22
 73
21
 74
21
 0
VERTEX
 8
ROSETTE_3
 10
0
 20
0
 30
0
 70
128
 71
17
 72
18
 73
26
 74
26
 0
VERTEX
 8
ROSETTE_3
 10
0
 20
0
 30
0
 70
128
 71
19
 72
20
 73
28
 74
27
 0
VERTEX
 8
ROSETTE_3
 10
0
 20
0
 30
0
 70
128
 71
21
 72
30
 73
29
 74
29
 0
VERTEX
 8
ROSETTE_3
 10
0
 20
0
 30
0
 70
128
 71
25
 72
26
 73
34
 74
34
 0
VERTEX
 8
ROSETTE_3
 10
0
 20
0
 30
0
 70
128
 71
27
 72
28
 73
36
 74
35
 0
VERTEX
 8
ROSETTE_3
 10
0
 20
0
 30
0
 70
128
 71
29
 72
38
 73
37
 74
37
 0
VERTEX
 8
ROSETTE_3
 10
0
 20
0
 30
0
 70
128
 71
33
 72
34
 73
42
 74
42
 0
VERTEX
 8
ROSETTE_3
 10
0
 20
0
 30
0
 70
128
 71
35
 72
36
 73
44
 74
43
 0
VERTEX
 8
ROSETTE_3
 10
0
 20
0
 30
0
 70
128
 71
37
 72
46
 73
45
 74
45
 0
VERTEX
 8
ROSETTE_3
 10
0
 20
0
 30
0
 70
128
 71
41
 72
42
 73
50
 74
50
 0
VERTEX
 8
ROSETTE_3
 10
0
 20
0
 30
0
 70
128
 71
43
 72
44
 73
52
 74
51
 0
VERTEX
 8
ROSETTE_3
 10
0
 20
0
 30
0
 70
128
 71
45
 72
54
 73
53
 74
53
 0
VERTEX
 8
ROSETTE_3
 10
0
 20
0
 30
0
 70
128
 71
49
 72
50
 73
58
 74
58
 0
VERTEX
 8
ROSETTE_3
 10
0
 20
0
 30
0
 70
128
 71
51
 72
52
 73
60
 74
59
 0
VERTEX
 8
ROSETTE_3
 10
0
 20
0
 30
0
 70
128
 71
53
 72
62
 73
61
 74
61
 0
VERTEX
 8
ROSETTE_3
 10
0
 20
0
 30
0
 70
128
 71
57
 72
58
 73
66
 74
66
 0
VERTEX
 8
ROSETTE_3
 10
0
 20
0
 30
0
 70
128
 71
59
 72
60
 73
68
 74
67
 0
VERTEX
 8
ROSETTE_3
 10
0
 20
0
 30
0
 70
128
 71
61
 72
70
 73
69
 74
69
 0
VERTEX
 8
ROSETTE_3
 10
0
 20
0
 30
0
 70
128
 71
65
 72
66
 73
74
 74
74
 0
VERTEX
 8
ROSETTE_3
 10
0
 20
0
 30
0
 70
128
 71
67
 72
68
 73
76
 74
75
 0
VERTEX
 8
ROSETTE_3
 10
0
 20
0
 30
0
 70
128
 71
69
 72
78
 73
77
 74
77
 0
VERTEX
 8
ROSETTE_3
 10
0
 20
0
 30
0
 70
128
 71
73
 72
74
 73
82
 74
82
 0
VERTEX
 8
ROSETTE_3
 10
0
 20
0
 30
0
 70
128
 71
75
 72
76
 73
84
 74
83
 0
VERTEX
 8
ROSETTE_3
 10
0
 20
0
 30
0
 70
128
 71
77
 72
86
 73
85
 74
85
 0
VERTEX
 8
ROSETTE_3
 10
0
 20
0
 30
0
 70
128
 71
81
 72
82
 73
90
 74
90
 0
VERTEX
 8
ROSETTE_3
 10
0
 20
0
 30
0
 70
128
 71
83
 72
84
 73
92
 74
91
 0
VERTEX
 8
ROSETTE_3
 10
0
 20
0
 30
0
 70
128
 71
85
 72
94
 73
93
 74
93
 0
VERTEX
 8
ROSETTE_3
 10
0
 20
0
 30
0
 70
128
 71
89
 72
90
 73
98
 74
98
 0
VERTEX
 8
ROSETTE_3
 10
0
 20
0
 30
0
 70
128
 71
91
 72
92
 73
100
 74
99
 0
VERTEX
 8
ROSETTE_3
 10
0
 20
0
 30
0
 70
128
 71
93
 72
102
 73
101
 74
101
 0
VERTEX
 8
ROSETTE_3
 10
0
 20
0
 30
0
 70
128
 71
97
 72
98
 73
106
 74
106
 0
VERTEX
 8
ROSETTE_3
 10
0
 20
0
 30
0
 70
128
 71
99
 72
100
 73
108
 74
107
 0
VERTEX
 8
ROSETTE_3
 10
0
 20
0
 30
0
 70
128
 71
101
 72
110
 73
109
 74
109
 0
VERTEX
 8
ROSETTE_3
 10
0
 20
0
 30
0
 70
128
 71
105
 72
106
 73
114
 74
114
 0
VERTEX
 8
ROSETTE_3
 10
0
 20
0
 30
0
 70
128
 71
107
 72
108
 73
116
 74
115
 0
VERTEX
 8
ROSETTE_3
 10
0
 20
0
 30
0
 70
128
 71
109
 72
118
 73
117
 74
117
 0
VERTEX
 8
ROSETTE_3
 10
0
 20
0
 30
0
 70
128
 71
113
 72
114
 73
2
 74
2
 0
VERTEX
 8
ROSETTE_3
 10
0
 20
0
 30
0
 70
128
 71
115
 72
116
 73
4
 74
3
 0
VERTEX
 8
ROSETTE_3
 10
0
 20
0
 30
0
 70
128
 71
117
 72
6
 73
5
 74
5
 0
SEQEND
 0
POLYLINE
 8
EXENTER_1
 66
1
 10
0.0
 20
0.0
 30
0.0
 70
64
 71
19
 72
15
 0
VERTEX
 8
EXENTER_1
 10
-5.6833
 20
0.414
 30
13.4006
 70
192
 0
VERTEX
 8
EXENTER_1
 10
-6.2578
 20
0.414
 30
10.3346
 70
192
 0
VERTEX
 8
EXENTER_1
 10
-6.2578
 20
0.414
 30
13.4732
 70
192
 0
VERTEX
 8
EXENTER_1
 10
-5.7175
 20
0.414
 30
10.3346
 70
192
 0
VERTEX
 8
EXENTER_1
 10
-5.9081
 20
0.414
 30
13.6117
 70
192
 0
VERTEX
 8
EXENTER_1
 10
-5.8699
 20
0.414
 30
10.2086
 70
192
 0
VERTEX
 8
EXENTER_1
 10
-6.0278
 20
0.414
 30
13.6192
 70
192
 0
VERTEX
 8
EXENTER_1
 10
-6.0621
 20
1.0358
 30
10.2571
 70
192
 0
VERTEX
 8
EXENTER_1
 10
-6.2756
 20
0.9904
 30
10.3723
 70
192
 0
VERTEX
 8
EXENTER_1
 10
-6.039
 20
1.0407
 30
13.5443
 70
192
 0
VERTEX
 8
EXENTER_1
 10
-6.2679
 20
0.9921
 30
13.4549
 70
192
 0
VERTEX
 8
EXENTER_1
 10
-6.2679
 20
0.9921
 30
11.9493
 70
192
 0
VERTEX
 8
EXENTER_1
 10
-5.7843
 20
1.0152
 30
13.5081
 70
192
 0
VERTEX
 8
EXENTER_1
 10
-5.7073
 20
0.9989
 30
10.3532
 70
192
 0
VERTEX
 8
EXENTER_1
 10
-5.6911
 20
0.9954
 30
11.8145
 70
192
 0
VERTEX
 8
EXENTER_1
 10
-5.8867
 20
1.037
 30
13.6047
 70
192
 0
VERTEX
 8
EXENTER_1
 10
-5.822
 20
1.0233
 30
10.2587
 70
192
 0
VERTEX
 8
EXENTER_1
 10
-5.9716
 20
1.055
 30
13.5706
 70
192
 0
VERTEX
 8
EXENTER_1
 10
-5.9716
 20
1.055
 30
10.2547
 70
192
 0
VERTEX
 8
EXENTER_1
 10
0
 20
0
 30
0
 70
128
 71
2
 72
9
 73
8
 74
8
 0
VERTEX
 8
EXENTER_1
 10
0
 20
0
 30
0
 70
128
 71
1
 72
15
 73
13
 74
13
 0
VERTEX
 8
EXENTER_1
 10
0
 20
0
 30
0
 70
128
 71
5
 72
1
 73
13
 74
16
 0
VERTEX
 8
EXENTER_1
 10
0
 20
0
 30
0
 70
128
 71
3
 72
10
 73
11
 74
11
 0
VERTEX
 8
EXENTER_1
 10
0
 20
0
 30
0
 70
128
 71
4
 72
17
 73
14
 74
14
 0
VERTEX
 8
EXENTER_1
 10
0
 20
0
 30
0
 70
128
 71
5
 72
16
 73
3
 74
3
 0
VERTEX
 8
EXENTER_1
 10
0
 20
0
 30
0
 70
128
 71
10
 72
3
 73
16
 74
18
 0
VERTEX
 8
EXENTER_1
 10
0
 20
0
 30
0
 70
128
 71
6
 72
1
 73
7
 74
7
 0
VERTEX
 8
EXENTER_1
 10
0
 20
0
 30
0
 70
128
 71
4
 72
2
 73
17
 74
17
 0
VERTEX
 8
EXENTER_1
 10
0
 20
0
 30
0
 70
128
 71
8
 72
19
 73
17
 74
2
 0
VERTEX
 8
EXENTER_1
 10
0
 20
0
 30
0
 70
128
 71
6
 72
7
 73
3
 74
3
 0
VERTEX
 8
EXENTER_1
 10
0
 20
0
 30
0
 70
128
 71
2
 72
12
 73
9
 74
9
 0
VERTEX
 8
EXENTER_1
 10
0
 20
0
 30
0
 70
128
 71
6
 72
3
 73
2
 74
2
 0
VERTEX
 8
EXENTER_1
 10
0
 20
0
 30
0
 70
128
 71
14
 72
15
 73
1
 74
4
 0
VERTEX
 8
EXENTER_1
 10
0
 20
0
 30
0
 70
128
 71
3
 72
11
 73
12
 74
2
 0
SEQEND
 0
POLYLINE
 8
GRIFF_25
 66
1
 10
0.0
 20
0.0
 30
0.0
 70
64
 71
43
 72
40
 0
VERTEX
 8
GRIFF_25
 10
-5.822
 20
1.0233
 30
10.2587
 70
192
 0
VERTEX
 8
GRIFF_25
 10
-5.9716
 20
-0.745
 30
14.8231
 70
192
 0
VERTEX
 8
GRIFF_25
 10
-5.9716
 20
1.055
 30
9.7542
 70
192
 0
VERTEX
 8
GRIFF_25
 10
-5.9716
 20
1.055
 30
14.8231
 70
192
 0
VERTEX
 8
GRIFF_25
 10
-6.7037
 20
0.8994
 30
9.7542
 70
192
 0
VERTEX
 8
GRIFF_25
 10
-6.7037
 20
0.8994
 30
14.8231
 70
192
 0
VERTEX
 8
GRIFF_25
 10
-7.3092
 20
0.4595
 30
9.7542
 70
192
 0
VERTEX
 8
GRIFF_25
 10
-7.3092
 20
0.4595
 30
14.8231
 70
192
 0
VERTEX
 8
GRIFF_25
 10
-7.6835
 20
-0.1887
 30
9.7542
 70
192
 0
VERTEX
 8
GRIFF_25
 10
-7.6835
 20
-0.1887
 30
14.8231
 70
192
 0
VERTEX
 8
GRIFF_25
 10
-7.7617
 20
-0.9331
 30
9.7542
 70
192
 0
VERTEX
 8
GRIFF_25
 10
-7.7617
 20
-0.9331
 30
14.8231
 70
192
 0
VERTEX
 8
GRIFF_25
 10
-7.5304
 20
-1.645
 30
9.7542
 70
192
 0
VERTEX
 8
GRIFF_25
 10
-7.5304
 20
-1.645
 30
14.8231
 70
192
 0
VERTEX
 8
GRIFF_25
 10
-7.0296
 20
-2.2012
 30
9.7542
 70
192
 0
VERTEX
 8
GRIFF_25
 10
-7.0296
 20
-2.2012
 30
14.8231
 70
192
 0
VERTEX
 8
GRIFF_25
 10
-6.3458
 20
-2.5056
 30
9.7542
 70
192
 0
VERTEX
 8
GRIFF_25
 10
-6.3458
 20
-2.5056
 30
14.8231
 70
192
 0
VERTEX
 8
GRIFF_25
 10
-5.5973
 20
-2.5056
 30
9.7542
 70
192
 0
VERTEX
 8
GRIFF_25
 10
-5.5973
 20
-2.5056
 30
14.8231
 70
192
 0
VERTEX
 8
GRIFF_25
 10
-4.9136
 20
-2.2012
 30
9.7542
 70
192
 0
VERTEX
 8
GRIFF_25
 10
-4.9136
 20
-2.2012
 30
14.8231
 70
192
 0
VERTEX
 8
GRIFF_25
 10
-4.4127
 20
-1.645
 30
9.7542
 70
192
 0
VERTEX
 8
GRIFF_25
 10
-4.4127
 20
-1.645
 30
14.8231
 70
192
 0
VERTEX
 8
GRIFF_25
 10
-4.1814
 20
-0.9331
 30
9.7542
 70
192
 0
VERTEX
 8
GRIFF_25
 10
-4.1814
 20
-0.9331
 30
14.8231
 70
192
 0
VERTEX
 8
GRIFF_25
 10
-4.2597
 20
-0.1887
 30
9.7542
 70
192
 0
VERTEX
 8
GRIFF_25
 10
-4.2597
 20
-0.1887
 30
14.8231
 70
192
 0
VERTEX
 8
GRIFF_25
 10
-4.6339
 20
0.4595
 30
9.7542
 70
192
 0
VERTEX
 8
GRIFF_25
 10
-4.6339
 20
0.4595
 30
14.8231
 70
192
 0
VERTEX
 8
GRIFF_25
 10
-5.2395
 20
0.8994
 30
9.7542
 70
192
 0
VERTEX
 8
GRIFF_25
 10
-5.2395
 20
0.8994
 30
14.8231
 70
192
 0
VERTEX
 8
GRIFF_25
 10
-5.9716
 20
1.055
 30
13.5706
 70
192
 0
VERTEX
 8
GRIFF_25
 10
-5.9716
 20
1.055
 30
10.2547
 70
192
 0
VERTEX
 8
GRIFF_25
 10
-6.0621
 20
1.0358
 30
10.2571
 70
192
 0
VERTEX
 8
GRIFF_25
 10
-6.2756
 20
0.9904
 30
10.3723
 70
192
 0
VERTEX
 8
GRIFF_25
 10
-6.039
 20
1.0407
 30
13.5443
 70
192
 0
VERTEX
 8
GRIFF_25
 10
-6.2679
 20
0.9921
 30
13.4549
 70
192
 0
VERTEX
 8
GRIFF_25
 10
-6.2679
 20
0.9921
 30
11.9493
 70
192
 0
VERTEX
 8
GRIFF_25
 10
-5.7843
 20
1.0152
 30
13.5081
 70
192
 0
VERTEX
 8
GRIFF_25
 10
-5.7073
 20
0.9989
 30
10.3532
 70
192
 0
VERTEX
 8
GRIFF_25
 10
-5.6911
 20
0.9954
 30
11.8145
 70
192
 0
VERTEX
 8
GRIFF_25
 10
-5.8867
 20
1.037
 30
13.6047
 70
192
 0
VERTEX
 8
GRIFF_25
 10
0
 20
0
 30
0
 70
128
 71
26
 72
2
 73
28
 74
28
 0
VERTEX
 8
GRIFF_25
 10
0
 20
0
 30
0
 70
128
 71
33
 72
4
 73
6
 74
37
 0
VERTEX
 8
GRIFF_25
 10
0
 20
0
 30
0
 70
128
 71
5
 72
3
 73
34
 74
35
 0
VERTEX
 8
GRIFF_25
 10
0
 20
0
 30
0
 70
128
 71
38
 72
37
 73
6
 74
6
 0
VERTEX
 8
GRIFF_25
 10
0
 20
0
 30
0
 70
128
 71
5
 72
35
 73
36
 74
36
 0
VERTEX
 8
GRIFF_25
 10
0
 20
0
 30
0
 70
128
 71
39
 72
38
 73
6
 74
6
 0
VERTEX
 8
GRIFF_25
 10
0
 20
0
 30
0
 70
128
 71
36
 72
39
 73
6
 74
5
 0
VERTEX
 8
GRIFF_25
 10
0
 20
0
 30
0
 70
128
 71
4
 72
2
 73
6
 74
6
 0
VERTEX
 8
GRIFF_25
 10
0
 20
0
 30
0
 70
128
 71
27
 72
28
 73
30
 74
29
 0
VERTEX
 8
GRIFF_25
 10
0
 20
0
 30
0
 70
128
 71
5
 72
6
 73
8
 74
7
 0
VERTEX
 8
GRIFF_25
 10
0
 20
0
 30
0
 70
128
 71
6
 72
2
 73
8
 74
8
 0
VERTEX
 8
GRIFF_25
 10
0
 20
0
 30
0
 70
128
 71
28
 72
2
 73
30
 74
30
 0
VERTEX
 8
GRIFF_25
 10
0
 20
0
 30
0
 70
128
 71
7
 72
8
 73
10
 74
9
 0
VERTEX
 8
GRIFF_25
 10
0
 20
0
 30
0
 70
128
 71
8
 72
2
 73
10
 74
10
 0
VERTEX
 8
GRIFF_25
 10
0
 20
0
 30
0
 70
128
 71
29
 72
30
 73
32
 74
31
 0
VERTEX
 8
GRIFF_25
 10
0
 20
0
 30
0
 70
128
 71
9
 72
10
 73
12
 74
11
 0
VERTEX
 8
GRIFF_25
 10
0
 20
0
 30
0
 70
128
 71
10
 72
2
 73
12
 74
12
 0
VERTEX
 8
GRIFF_25
 10
0
 20
0
 30
0
 70
128
 71
30
 72
2
 73
32
 74
32
 0
VERTEX
 8
GRIFF_25
 10
0
 20
0
 30
0
 70
128
 71
11
 72
12
 73
14
 74
13
 0
VERTEX
 8
GRIFF_25
 10
0
 20
0
 30
0
 70
128
 71
12
 72
2
 73
14
 74
14
 0
VERTEX
 8
GRIFF_25
 10
0
 20
0
 30
0
 70
128
 71
1
 72
34
 73
3
 74
31
 0
VERTEX
 8
GRIFF_25
 10
0
 20
0
 30
0
 70
128
 71
13
 72
14
 73
16
 74
15
 0
VERTEX
 8
GRIFF_25
 10
0
 20
0
 30
0
 70
128
 71
14
 72
2
 73
16
 74
16
 0
VERTEX
 8
GRIFF_25
 10
0
 20
0
 30
0
 70
128
 71
4
 72
33
 73
43
 74
32
 0
VERTEX
 8
GRIFF_25
 10
0
 20
0
 30
0
 70
128
 71
15
 72
16
 73
18
 74
17
 0
VERTEX
 8
GRIFF_25
 10
0
 20
0
 30
0
 70
128
 71
16
 72
2
 73
18
 74
18
 0
VERTEX
 8
GRIFF_25
 10
0
 20
0
 30
0
 70
128
 71
41
 72
1
 73
31
 74
31
 0
VERTEX
 8
GRIFF_25
 10
0
 20
0
 30
0
 70
128
 71
17
 72
18
 73
20
 74
19
 0
VERTEX
 8
GRIFF_25
 10
0
 20
0
 30
0
 70
128
 71
18
 72
2
 73
20
 74
20
 0
VERTEX
 8
GRIFF_25
 10
0
 20
0
 30
0
 70
128
 71
32
 72
43
 73
40
 74
40
 0
VERTEX
 8
GRIFF_25
 10
0
 20
0
 30
0
 70
128
 71
19
 72
20
 73
22
 74
21
 0
VERTEX
 8
GRIFF_25
 10
0
 20
0
 30
0
 70
128
 71
20
 72
2
 73
22
 74
22
 0
VERTEX
 8
GRIFF_25
 10
0
 20
0
 30
0
 70
128
 71
42
 72
41
 73
31
 74
32
 0
VERTEX
 8
GRIFF_25
 10
0
 20
0
 30
0
 70
128
 71
21
 72
22
 73
24
 74
23
 0
VERTEX
 8
GRIFF_25
 10
0
 20
0
 30
0
 70
128
 71
22
 72
2
 73
24
 74
24
 0
VERTEX
 8
GRIFF_25
 10
0
 20
0
 30
0
 70
128
 71
32
 72
40
 73
42
 74
42
 0
VERTEX
 8
GRIFF_25
 10
0
 20
0
 30
0
 70
128
 71
23
 72
24
 73
26
 74
25
 0
VERTEX
 8
GRIFF_25
 10
0
 20
0
 30
0
 70
128
 71
24
 72
2
 73
26
 74
26
 0
VERTEX
 8
GRIFF_25
 10
0
 20
0
 30
0
 70
128
 71
32
 72
2
 73
4
 74
4
 0
VERTEX
 8
GRIFF_25
 10
0
 20
0
 30
0
 70
128
 71
25
 72
26
 73
28
 74
27
 0
SEQEND
 0
POLYLINE
 8
EXENTER
 66
1
 10
0.0
 20
0.0
 30
0.0
 70
64
 71
26
 72
18
 0
VERTEX
 8
EXENTER
 10
-5.9877
 20
2.0168
 30
11.4826
 70
192
 0
VERTEX
 8
EXENTER
 10
-5.9877
 20
-0.1112
 30
11.4826
 70
192
 0
VERTEX
 8
EXENTER
 10
-5.9877
 20
2.0168
 30
11.2026
 70
192
 0
VERTEX
 8
EXENTER
 10
-5.9877
 20
2.0168
 30
11.2026
 70
192
 0
VERTEX
 8
EXENTER
 10
-5.9877
 20
-0.1112
 30
11.2026
 70
192
 0
VERTEX
 8
EXENTER
 10
-5.9877
 20
-0.1112
 30
11.2026
 70
192
 0
VERTEX
 8
EXENTER
 10
-5.7452
 20
2.0168
 30
11.3426
 70
192
 0
VERTEX
 8
EXENTER
 10
-5.7452
 20
2.0168
 30
11.3426
 70
192
 0
VERTEX
 8
EXENTER
 10
-5.7452
 20
-0.1112
 30
11.3426
 70
192
 0
VERTEX
 8
EXENTER
 10
-5.7452
 20
-0.1112
 30
11.3426
 70
192
 0
VERTEX
 8
EXENTER
 10
-5.7452
 20
2.0168
 30
11.6226
 70
192
 0
VERTEX
 8
EXENTER
 10
-5.7452
 20
2.0168
 30
11.6226
 70
192
 0
VERTEX
 8
EXENTER
 10
-5.7452
 20
-0.1112
 30
11.6226
 70
192
 0
VERTEX
 8
EXENTER
 10
-5.7452
 20
-0.1112
 30
11.6226
 70
192
 0
VERTEX
 8
EXENTER
 10
-5.9877
 20
2.0168
 30
11.7626
 70
192
 0
VERTEX
 8
EXENTER
 10
-5.9877
 20
2.0168
 30
11.7626
 70
192
 0
VERTEX
 8
EXENTER
 10
-5.9877
 20
-0.1112
 30
11.7626
 70
192
 0
VERTEX
 8
EXENTER
 10
-5.9877
 20
-0.1112
 30
11.7626
 70
192
 0
VERTEX
 8
EXENTER
 10
-6.2302
 20
2.0168
 30
11.6226
 70
192
 0
VERTEX
 8
EXENTER
 10
-6.2302
 20
2.0168
 30
11.6226
 70
192
 0
VERTEX
 8
EXENTER
 10
-6.2302
 20
-0.1112
 30
11.6226
 70
192
 0
VERTEX
 8
EXENTER
 10
-6.2302
 20
-0.1112
 30
11.6226
 70
192
 0
VERTEX
 8
EXENTER
 10
-6.2302
 20
2.0168
 30
11.3426
 70
192
 0
VERTEX
 8
EXENTER
 10
-6.2302
 20
2.0168
 30
11.3426
 70
192
 0
VERTEX
 8
EXENTER
 10
-6.2302
 20
-0.1112
 30
11.3426
 70
192
 0
VERTEX
 8
EXENTER
 10
-6.2302
 20
-0.1112
 30
11.3426
 70
192
 0
VERTEX
 8
EXENTER
 10
0
 20
0
 30
0
 70
128
 71
1
 72
3
 73
7
 74
7
 0
VERTEX
 8
EXENTER
 10
0
 20
0
 30
0
 70
128
 71
4
 72
5
 73
9
 74
8
 0
VERTEX
 8
EXENTER
 10
0
 20
0
 30
0
 70
128
 71
6
 72
2
 73
10
 74
10
 0
VERTEX
 8
EXENTER
 10
0
 20
0
 30
0
 70
128
 71
1
 72
7
 73
11
 74
11
 0
VERTEX
 8
EXENTER
 10
0
 20
0
 30
0
 70
128
 71
8
 72
9
 73
13
 74
12
 0
VERTEX
 8
EXENTER
 10
0
 20
0
 30
0
 70
128
 71
10
 72
2
 73
14
 74
14
 0
VERTEX
 8
EXENTER
 10
0
 20
0
 30
0
 70
128
 71
1
 72
11
 73
15
 74
15
 0
VERTEX
 8
EXENTER
 10
0
 20
0
 30
0
 70
128
 71
12
 72
13
 73
17
 74
16
 0
VERTEX
 8
EXENTER
 10
0
 20
0
 30
0
 70
128
 71
14
 72
2
 73
18
 74
18
 0
VERTEX
 8
EXENTER
 10
0
 20
0
 30
0
 70
128
 71
1
 72
15
 73
19
 74
19
 0
VERTEX
 8
EXENTER
 10
0
 20
0
 30
0
 70
128
 71
16
 72
17
 73
21
 74
20
 0
VERTEX
 8
EXENTER
 10
0
 20
0
 30
0
 70
128
 71
18
 72
2
 73
22
 74
22
 0
VERTEX
 8
EXENTER
 10
0
 20
0
 30
0
 70
128
 71
1
 72
19
 73
23
 74
23
 0
VERTEX
 8
EXENTER
 10
0
 20
0
 30
0
 70
128
 71
20
 72
21
 73
25
 74
24
 0
VERTEX
 8
EXENTER
 10
0
 20
0
 30
0
 70
128
 71
22
 72
2
 73
26
 74
26
 0
VERTEX
 8
EXENTER
 10
0
 20
0
 30
0
 70
128
 71
1
 72
23
 73
3
 74
3
 0
VERTEX
 8
EXENTER
 10
0
 20
0
 30
0
 70
128
 71
24
 72
25
 73
5
 74
4
 0
VERTEX
 8
EXENTER
 10
0
 20
0
 30
0
 70
128
 71
26
 72
2
 73
6
 74
6
 0
SEQEND
 0
POLYLINE
 8
AUSLAUF_2
 66
1
 10
0.0
 20
0.0
 30
0.0
 70
64
 71
217
 72
204
 0
VERTEX
 8
AUSLAUF_2
 10
-6.9629
 20
-1.2927
 30
25.2309
 70
192
 0
VERTEX
 8
AUSLAUF_2
 10
-5.9709
 20
-16.2481
 30
23.1273
 70
192
 0
VERTEX
 8
AUSLAUF_2
 10
-6.9629
 20
-2.0379
 30
26.6564
 70
192
 0
VERTEX
 8
AUSLAUF_2
 10
-6.9629
 20
-3.061
 30
27.8975
 70
192
 0
VERTEX
 8
AUSLAUF_2
 10
-6.9629
 20
-4.318
 30
28.901
 70
192
 0
VERTEX
 8
AUSLAUF_2
 10
-6.9629
 20
-5.755
 30
29.6238
 70
192
 0
VERTEX
 8
AUSLAUF_2
 10
-6.9629
 20
-7.3101
 30
30.0347
 70
192
 0
VERTEX
 8
AUSLAUF_2
 10
-5.9709
 20
-1.7374
 30
14.3048
 70
192
 0
VERTEX
 8
AUSLAUF_2
 10
-5.9709
 20
-1.7374
 30
22.1662
 70
192
 0
VERTEX
 8
AUSLAUF_2
 10
-5.9709
 20
-1.8351
 30
23.5145
 70
192
 0
VERTEX
 8
AUSLAUF_2
 10
-5.9709
 20
-2.2147
 30
24.8649
 70
192
 0
VERTEX
 8
AUSLAUF_2
 10
-5.9709
 20
-2.8646
 30
26.1081
 70
192
 0
VERTEX
 8
AUSLAUF_2
 10
-5.9709
 20
-3.7569
 30
27.1906
 70
192
 0
VERTEX
 8
AUSLAUF_2
 10
-5.9709
 20
-4.8532
 30
28.0658
 70
192
 0
VERTEX
 8
AUSLAUF_2
 10
-5.9709
 20
-6.1065
 30
28.6961
 70
192
 0
VERTEX
 8
AUSLAUF_2
 10
-5.9709
 20
-7.4627
 30
29.0545
 70
192
 0
VERTEX
 8
AUSLAUF_2
 10
-5.9709
 20
-8.8638
 30
29.1255
 70
192
 0
VERTEX
 8
AUSLAUF_2
 10
-5.9709
 20
-10.2493
 30
28.906
 70
192
 0
VERTEX
 8
AUSLAUF_2
 10
-5.9709
 20
-11.5598
 30
28.4056
 70
192
 0
VERTEX
 8
AUSLAUF_2
 10
-5.9709
 20
-12.739
 30
27.6457
 70
192
 0
VERTEX
 8
AUSLAUF_2
 10
-5.9709
 20
-13.7362
 30
26.659
 70
192
 0
VERTEX
 8
AUSLAUF_2
 10
-5.9709
 20
-14.5084
 30
25.4878
 70
192
 0
VERTEX
 8
AUSLAUF_2
 10
-5.9709
 20
-15.0225
 30
24.1826
 70
192
 0
VERTEX
 8
AUSLAUF_2
 10
-5.9709
 20
-15.2712
 30
22.9551
 70
192
 0
VERTEX
 8
AUSLAUF_2
 10
-5.9709
 20
-15.2712
 30
22.9551
 70
192
 0
VERTEX
 8
AUSLAUF_2
 10
-6.9629
 20
-8.9165
 30
30.1161
 70
192
 0
VERTEX
 8
AUSLAUF_2
 10
-6.9629
 20
-10.5052
 30
29.8644
 70
192
 0
VERTEX
 8
AUSLAUF_2
 10
-6.9629
 20
-12.0079
 30
29.2906
 70
192
 0
VERTEX
 8
AUSLAUF_2
 10
-6.9629
 20
-13.3599
 30
28.4193
 70
192
 0
VERTEX
 8
AUSLAUF_2
 10
-6.9629
 20
-14.5032
 30
27.2879
 70
192
 0
VERTEX
 8
AUSLAUF_2
 10
-5.4749
 20
-1.6045
 30
14.3048
 70
192
 0
VERTEX
 8
AUSLAUF_2
 10
-5.4749
 20
-1.6045
 30
22.1662
 70
192
 0
VERTEX
 8
AUSLAUF_2
 10
-5.4749
 20
-1.7041
 30
23.537
 70
192
 0
VERTEX
 8
AUSLAUF_2
 10
-5.4749
 20
-2.0912
 30
24.914
 70
192
 0
VERTEX
 8
AUSLAUF_2
 10
-5.4749
 20
-2.7538
 30
26.1816
 70
192
 0
VERTEX
 8
AUSLAUF_2
 10
-5.4749
 20
-3.6637
 30
27.2853
 70
192
 0
VERTEX
 8
AUSLAUF_2
 10
-5.4749
 20
-4.7815
 30
28.1777
 70
192
 0
VERTEX
 8
AUSLAUF_2
 10
-5.4749
 20
-6.0594
 30
28.8204
 70
192
 0
VERTEX
 8
AUSLAUF_2
 10
-5.4749
 20
-7.4423
 30
29.1858
 70
192
 0
VERTEX
 8
AUSLAUF_2
 10
-5.4749
 20
-8.8708
 30
29.2582
 70
192
 0
VERTEX
 8
AUSLAUF_2
 10
-5.4749
 20
-10.2836
 30
29.0344
 70
192
 0
VERTEX
 8
AUSLAUF_2
 10
-5.4749
 20
-11.6199
 30
28.5242
 70
192
 0
VERTEX
 8
AUSLAUF_2
 10
-5.4749
 20
-12.8222
 30
27.7493
 70
192
 0
VERTEX
 8
AUSLAUF_2
 10
-5.4749
 20
-13.8389
 30
26.7432
 70
192
 0
VERTEX
 8
AUSLAUF_2
 10
-5.4749
 20
-14.6263
 30
25.5491
 70
192
 0
VERTEX
 8
AUSLAUF_2
 10
-5.4749
 20
-15.1506
 30
24.2182
 70
192
 0
VERTEX
 8
AUSLAUF_2
 10
-5.4749
 20
-15.4021
 30
22.9782
 70
192
 0
VERTEX
 8
AUSLAUF_2
 10
-5.4749
 20
-15.4021
 30
22.9782
 70
192
 0
VERTEX
 8
AUSLAUF_2
 10
-6.9629
 20
-15.3887
 30
25.9451
 70
192
 0
VERTEX
 8
AUSLAUF_2
 10
-6.9629
 20
-15.9782
 30
24.4486
 70
192
 0
VERTEX
 8
AUSLAUF_2
 10
-6.9629
 20
-16.2481
 30
23.1273
 70
192
 0
VERTEX
 8
AUSLAUF_2
 10
-6.9629
 20
-16.2481
 30
23.1273
 70
192
 0
VERTEX
 8
AUSLAUF_2
 10
-6.83
 20
-1.2414
 30
14.3048
 70
192
 0
VERTEX
 8
AUSLAUF_2
 10
-5.1118
 20
-1.2414
 30
14.3048
 70
192
 0
VERTEX
 8
AUSLAUF_2
 10
-5.1118
 20
-1.2414
 30
22.1662
 70
192
 0
VERTEX
 8
AUSLAUF_2
 10
-5.1118
 20
-1.3463
 30
23.5985
 70
192
 0
VERTEX
 8
AUSLAUF_2
 10
-5.1118
 20
-1.7537
 30
25.0479
 70
192
 0
VERTEX
 8
AUSLAUF_2
 10
-5.1118
 20
-2.4512
 30
26.3823
 70
192
 0
VERTEX
 8
AUSLAUF_2
 10
-5.1118
 20
-3.4089
 30
27.5441
 70
192
 0
VERTEX
 8
AUSLAUF_2
 10
-5.1118
 20
-4.5856
 30
28.4834
 70
192
 0
VERTEX
 8
AUSLAUF_2
 10
-5.1118
 20
-5.9307
 30
29.1599
 70
192
 0
VERTEX
 8
AUSLAUF_2
 10
-5.1118
 20
-7.3864
 30
29.5446
 70
192
 0
VERTEX
 8
AUSLAUF_2
 10
-5.1118
 20
-8.8902
 30
29.6208
 70
192
 0
VERTEX
 8
AUSLAUF_2
 10
-5.1118
 20
-10.3773
 30
29.3852
 70
192
 0
VERTEX
 8
AUSLAUF_2
 10
-5.1118
 20
-11.7839
 30
28.8481
 70
192
 0
VERTEX
 8
AUSLAUF_2
 10
-5.1118
 20
-13.0495
 30
28.0325
 70
192
 0
VERTEX
 8
AUSLAUF_2
 10
-5.1118
 20
-14.1197
 30
26.9734
 70
192
 0
VERTEX
 8
AUSLAUF_2
 10
-5.1118
 20
-14.9485
 30
25.7165
 70
192
 0
VERTEX
 8
AUSLAUF_2
 10
-5.1118
 20
-15.5004
 30
24.3156
 70
192
 0
VERTEX
 8
AUSLAUF_2
 10
-5.1118
 20
-15.7597
 30
23.0412
 70
192
 0
VERTEX
 8
AUSLAUF_2
 10
-5.1118
 20
-15.7597
 30
23.0412
 70
192
 0
VERTEX
 8
AUSLAUF_2
 10
-6.83
 20
-1.2414
 30
22.1662
 70
192
 0
VERTEX
 8
AUSLAUF_2
 10
-6.83
 20
-1.3463
 30
23.5985
 70
192
 0
VERTEX
 8
AUSLAUF_2
 10
-6.83
 20
-1.7537
 30
25.0479
 70
192
 0
VERTEX
 8
AUSLAUF_2
 10
-6.83
 20
-2.4512
 30
26.3823
 70
192
 0
VERTEX
 8
AUSLAUF_2
 10
-6.83
 20
-3.4089
 30
27.5441
 70
192
 0
VERTEX
 8
AUSLAUF_2
 10
-4.9789
 20
-0.7454
 30
14.3048
 70
192
 0
VERTEX
 8
AUSLAUF_2
 10
-4.9789
 20
-0.7454
 30
22.1662
 70
192
 0
VERTEX
 8
AUSLAUF_2
 10
-4.9789
 20
-0.8574
 30
23.6824
 70
192
 0
VERTEX
 8
AUSLAUF_2
 10
-4.9789
 20
-1.2927
 30
25.2309
 70
192
 0
VERTEX
 8
AUSLAUF_2
 10
-4.9789
 20
-2.0379
 30
26.6564
 70
192
 0
VERTEX
 8
AUSLAUF_2
 10
-4.9789
 20
-3.061
 30
27.8975
 70
192
 0
VERTEX
 8
AUSLAUF_2
 10
-4.9789
 20
-4.318
 30
28.901
 70
192
 0
VERTEX
 8
AUSLAUF_2
 10
-4.9789
 20
-5.755
 30
29.6238
 70
192
 0
VERTEX
 8
AUSLAUF_2
 10
-4.9789
 20
-7.3101
 30
30.0347
 70
192
 0
VERTEX
 8
AUSLAUF_2
 10
-4.9789
 20
-8.9165
 30
30.1161
 70
192
 0
VERTEX
 8
AUSLAUF_2
 10
-4.9789
 20
-10.5052
 30
29.8644
 70
192
 0
VERTEX
 8
AUSLAUF_2
 10
-4.9789
 20
-12.0079
 30
29.2906
 70
192
 0
VERTEX
 8
AUSLAUF_2
 10
-4.9789
 20
-13.3599
 30
28.4193
 70
192
 0
VERTEX
 8
AUSLAUF_2
 10
-4.9789
 20
-14.5032
 30
27.2879
 70
192
 0
VERTEX
 8
AUSLAUF_2
 10
-4.9789
 20
-15.3887
 30
25.9451
 70
192
 0
VERTEX
 8
AUSLAUF_2
 10
-4.9789
 20
-15.9782
 30
24.4486
 70
192
 0
VERTEX
 8
AUSLAUF_2
 10
-4.9789
 20
-16.2481
 30
23.1273
 70
192
 0
VERTEX
 8
AUSLAUF_2
 10
-4.9789
 20
-16.2481
 30
23.1273
 70
192
 0
VERTEX
 8
AUSLAUF_2
 10
-6.83
 20
-4.5856
 30
28.4834
 70
192
 0
VERTEX
 8
AUSLAUF_2
 10
-6.83
 20
-5.9307
 30
29.1599
 70
192
 0
VERTEX
 8
AUSLAUF_2
 10
-6.83
 20
-7.3864
 30
29.5446
 70
192
 0
VERTEX
 8
AUSLAUF_2
 10
-6.83
 20
-8.8902
 30
29.6208
 70
192
 0
VERTEX
 8
AUSLAUF_2
 10
-6.83
 20
-10.3773
 30
29.3852
 70
192
 0
VERTEX
 8
AUSLAUF_2
 10
-5.1118
 20
-0.2494
 30
14.3048
 70
192
 0
VERTEX
 8
AUSLAUF_2
 10
-5.1118
 20
-0.2494
 30
22.1662
 70
192
 0
VERTEX
 8
AUSLAUF_2
 10
-5.1118
 20
-0.3686
 30
23.7664
 70
192
 0
VERTEX
 8
AUSLAUF_2
 10
-5.1118
 20
-0.8317
 30
25.4139
 70
192
 0
VERTEX
 8
AUSLAUF_2
 10
-5.1118
 20
-1.6245
 30
26.9305
 70
192
 0
VERTEX
 8
AUSLAUF_2
 10
-5.1118
 20
-2.713
 30
28.251
 70
192
 0
VERTEX
 8
AUSLAUF_2
 10
-5.1118
 20
-4.0504
 30
29.3187
 70
192
 0
VERTEX
 8
AUSLAUF_2
 10
-5.1118
 20
-5.5793
 30
30.0876
 70
192
 0
VERTEX
 8
AUSLAUF_2
 10
-5.1118
 20
-7.2338
 30
30.5248
 70
192
 0
VERTEX
 8
AUSLAUF_2
 10
-5.1118
 20
-8.9429
 30
30.6114
 70
192
 0
VERTEX
 8
AUSLAUF_2
 10
-5.1118
 20
-10.6332
 30
30.3437
 70
192
 0
VERTEX
 8
AUSLAUF_2
 10
-5.1118
 20
-12.2319
 30
29.7332
 70
192
 0
VERTEX
 8
AUSLAUF_2
 10
-5.1118
 20
-13.6704
 30
28.8062
 70
192
 0
VERTEX
 8
AUSLAUF_2
 10
-5.1118
 20
-14.8868
 30
27.6024
 70
192
 0
VERTEX
 8
AUSLAUF_2
 10
-5.1118
 20
-15.8289
 30
26.1738
 70
192
 0
VERTEX
 8
AUSLAUF_2
 10
-5.1118
 20
-16.4561
 30
24.5815
 70
192
 0
VERTEX
 8
AUSLAUF_2
 10
-5.1118
 20
-16.7366
 30
23.2135
 70
192
 0
VERTEX
 8
AUSLAUF_2
 10
-5.1118
 20
-16.7366
 30
23.2135
 70
192
 0
VERTEX
 8
AUSLAUF_2
 10
-6.83
 20
-11.7839
 30
28.8481
 70
192
 0
VERTEX
 8
AUSLAUF_2
 10
-6.83
 20
-13.0495
 30
28.0325
 70
192
 0
VERTEX
 8
AUSLAUF_2
 10
-6.83
 20
-14.1197
 30
26.9734
 70
192
 0
VERTEX
 8
AUSLAUF_2
 10
-6.83
 20
-14.9485
 30
25.7165
 70
192
 0
VERTEX
 8
AUSLAUF_2
 10
-6.83
 20
-15.5004
 30
24.3156
 70
192
 0
VERTEX
 8
AUSLAUF_2
 10
-5.4749
 20
0.1137
 30
14.3048
 70
192
 0
VERTEX
 8
AUSLAUF_2
 10
-5.4749
 20
0.1137
 30
22.1662
 70
192
 0
VERTEX
 8
AUSLAUF_2
 10
-5.4749
 20
-0.0107
 30
23.8279
 70
192
 0
VERTEX
 8
AUSLAUF_2
 10
-5.4749
 20
-0.4942
 30
25.5479
 70
192
 0
VERTEX
 8
AUSLAUF_2
 10
-5.4749
 20
-1.3219
 30
27.1312
 70
192
 0
VERTEX
 8
AUSLAUF_2
 10
-5.4749
 20
-2.4583
 30
28.5097
 70
192
 0
VERTEX
 8
AUSLAUF_2
 10
-5.4749
 20
-3.8545
 30
29.6244
 70
192
 0
VERTEX
 8
AUSLAUF_2
 10
-5.4749
 20
-5.4506
 30
30.4271
 70
192
 0
VERTEX
 8
AUSLAUF_2
 10
-5.4749
 20
-7.1779
 30
30.8835
 70
192
 0
VERTEX
 8
AUSLAUF_2
 10
-5.4749
 20
-8.9622
 30
30.9739
 70
192
 0
VERTEX
 8
AUSLAUF_2
 10
-5.4749
 20
-10.7268
 30
30.6945
 70
192
 0
VERTEX
 8
AUSLAUF_2
 10
-5.4749
 20
-12.3959
 30
30.0571
 70
192
 0
VERTEX
 8
AUSLAUF_2
 10
-5.4749
 20
-13.8977
 30
29.0893
 70
192
 0
VERTEX
 8
AUSLAUF_2
 10
-5.4749
 20
-15.1676
 30
27.8327
 70
192
 0
VERTEX
 8
AUSLAUF_2
 10
-5.4749
 20
-16.1511
 30
26.3411
 70
192
 0
VERTEX
 8
AUSLAUF_2
 10
-5.4749
 20
-16.8059
 30
24.6789
 70
192
 0
VERTEX
 8
AUSLAUF_2
 10
-5.4749
 20
-17.0942
 30
23.2765
 70
192
 0
VERTEX
 8
AUSLAUF_2
 10
-5.4749
 20
-17.0942
 30
23.2765
 70
192
 0
VERTEX
 8
AUSLAUF_2
 10
-6.83
 20
-15.7597
 30
23.0412
 70
192
 0
VERTEX
 8
AUSLAUF_2
 10
-6.83
 20
-15.7597
 30
23.0412
 70
192
 0
VERTEX
 8
AUSLAUF_2
 10
-6.4669
 20
-1.6045
 30
14.3048
 70
192
 0
VERTEX
 8
AUSLAUF_2
 10
-6.4669
 20
-1.6045
 30
22.1662
 70
192
 0
VERTEX
 8
AUSLAUF_2
 10
-6.4669
 20
-1.7041
 30
23.537
 70
192
 0
VERTEX
 8
AUSLAUF_2
 10
-5.9709
 20
0.2466
 30
14.3048
 70
192
 0
VERTEX
 8
AUSLAUF_2
 10
-5.9709
 20
0.2466
 30
22.1662
 70
192
 0
VERTEX
 8
AUSLAUF_2
 10
-5.9709
 20
0.1202
 30
23.8504
 70
192
 0
VERTEX
 8
AUSLAUF_2
 10
-5.9709
 20
-0.3707
 30
25.5969
 70
192
 0
VERTEX
 8
AUSLAUF_2
 10
-5.9709
 20
-1.2111
 30
27.2046
 70
192
 0
VERTEX
 8
AUSLAUF_2
 10
-5.9709
 20
-2.3651
 30
28.6045
 70
192
 0
VERTEX
 8
AUSLAUF_2
 10
-5.9709
 20
-3.7828
 30
29.7363
 70
192
 0
VERTEX
 8
AUSLAUF_2
 10
-5.9709
 20
-5.4035
 30
30.5514
 70
192
 0
VERTEX
 8
AUSLAUF_2
 10
-5.9709
 20
-7.1575
 30
31.0149
 70
192
 0
VERTEX
 8
AUSLAUF_2
 10
-5.9709
 20
-8.9693
 30
31.1067
 70
192
 0
VERTEX
 8
AUSLAUF_2
 10
-5.9709
 20
-10.7611
 30
30.8229
 70
192
 0
VERTEX
 8
AUSLAUF_2
 10
-5.9709
 20
-12.4559
 30
30.1757
 70
192
 0
VERTEX
 8
AUSLAUF_2
 10
-5.9709
 20
-13.9808
 30
29.193
 70
192
 0
VERTEX
 8
AUSLAUF_2
 10
-5.9709
 20
-15.2703
 30
27.9169
 70
192
 0
VERTEX
 8
AUSLAUF_2
 10
-5.9709
 20
-16.269
 30
26.4024
 70
192
 0
VERTEX
 8
AUSLAUF_2
 10
-5.9709
 20
-16.9339
 30
24.7145
 70
192
 0
VERTEX
 8
AUSLAUF_2
 10
-5.9709
 20
-17.2251
 30
23.2996
 70
192
 0
VERTEX
 8
AUSLAUF_2
 10
-5.9709
 20
-17.2251
 30
23.2996
 70
192
 0
VERTEX
 8
AUSLAUF_2
 10
-6.4669
 20
-2.0912
 30
24.914
 70
192
 0
VERTEX
 8
AUSLAUF_2
 10
-6.4669
 20
-2.7538
 30
26.1816
 70
192
 0
VERTEX
 8
AUSLAUF_2
 10
-6.4669
 20
-3.6637
 30
27.2853
 70
192
 0
VERTEX
 8
AUSLAUF_2
 10
-6.4669
 20
-4.7815
 30
28.1777
 70
192
 0
VERTEX
 8
AUSLAUF_2
 10
-6.4669
 20
-6.0594
 30
28.8204
 70
192
 0
VERTEX
 8
AUSLAUF_2
 10
-6.4669
 20
0.1137
 30
14.3048
 70
192
 0
VERTEX
 8
AUSLAUF_2
 10
-6.4669
 20
0.1137
 30
22.1662
 70
192
 0
VERTEX
 8
AUSLAUF_2
 10
-6.4669
 20
-0.0107
 30
23.8279
 70
192
 0
VERTEX
 8
AUSLAUF_2
 10
-6.4669
 20
-0.4942
 30
25.5479
 70
192
 0
VERTEX
 8
AUSLAUF_2
 10
-6.4669
 20
-1.3219
 30
27.1312
 70
192
 0
VERTEX
 8
AUSLAUF_2
 10
-6.4669
 20
-2.4583
 30
28.5097
 70
192
 0
VERTEX
 8
AUSLAUF_2
 10
-6.4669
 20
-3.8545
 30
29.6244
 70
192
 0
VERTEX
 8
AUSLAUF_2
 10
-6.4669
 20
-5.4506
 30
30.4271
 70
192
 0
VERTEX
 8
AUSLAUF_2
 10
-6.4669
 20
-7.1779
 30
30.8835
 70
192
 0
VERTEX
 8
AUSLAUF_2
 10
-6.4669
 20
-8.9622
 30
30.9739
 70
192
 0
VERTEX
 8
AUSLAUF_2
 10
-6.4669
 20
-10.7268
 30
30.6945
 70
192
 0
VERTEX
 8
AUSLAUF_2
 10
-6.4669
 20
-12.3959
 30
30.0571
 70
192
 0
VERTEX
 8
AUSLAUF_2
 10
-6.4669
 20
-13.8977
 30
29.0893
 70
192
 0
VERTEX
 8
AUSLAUF_2
 10
-6.4669
 20
-15.1676
 30
27.8327
 70
192
 0
VERTEX
 8
AUSLAUF_2
 10
-6.4669
 20
-16.1511
 30
26.3411
 70
192
 0
VERTEX
 8
AUSLAUF_2
 10
-6.4669
 20
-16.8059
 30
24.6789
 70
192
 0
VERTEX
 8
AUSLAUF_2
 10
-6.4669
 20
-17.0942
 30
23.2765
 70
192
 0
VERTEX
 8
AUSLAUF_2
 10
-6.4669
 20
-17.0942
 30
23.2765
 70
192
 0
VERTEX
 8
AUSLAUF_2
 10
-6.4669
 20
-7.4423
 30
29.1858
 70
192
 0
VERTEX
 8
AUSLAUF_2
 10
-6.4669
 20
-8.8708
 30
29.2582
 70
192
 0
VERTEX
 8
AUSLAUF_2
 10
-6.4669
 20
-10.2836
 30
29.0344
 70
192
 0
VERTEX
 8
AUSLAUF_2
 10
-6.4669
 20
-11.6199
 30
28.5242
 70
192
 0
VERTEX
 8
AUSLAUF_2
 10
-6.4669
 20
-12.8222
 30
27.7493
 70
192
 0
VERTEX
 8
AUSLAUF_2
 10
-6.83
 20
-0.2494
 30
14.3048
 70
192
 0
VERTEX
 8
AUSLAUF_2
 10
-6.83
 20
-0.2494
 30
22.1662
 70
192
 0
VERTEX
 8
AUSLAUF_2
 10
-6.83
 20
-0.3686
 30
23.7664
 70
192
 0
VERTEX
 8
AUSLAUF_2
 10
-6.83
 20
-0.8317
 30
25.4139
 70
192
 0
VERTEX
 8
AUSLAUF_2
 10
-6.83
 20
-1.6245
 30
26.9305
 70
192
 0
VERTEX
 8
AUSLAUF_2
 10
-6.83
 20
-2.713
 30
28.251
 70
192
 0
VERTEX
 8
AUSLAUF_2
 10
-6.83
 20
-4.0504
 30
29.3187
 70
192
 0
VERTEX
 8
AUSLAUF_2
 10
-6.83
 20
-5.5793
 30
30.0876
 70
192
 0
VERTEX
 8
AUSLAUF_2
 10
-6.83
 20
-7.2338
 30
30.5248
 70
192
 0
VERTEX
 8
AUSLAUF_2
 10
-6.83
 20
-8.9429
 30
30.6114
 70
192
 0
VERTEX
 8
AUSLAUF_2
 10
-6.83
 20
-10.6332
 30
30.3437
 70
192
 0
VERTEX
 8
AUSLAUF_2
 10
-6.83
 20
-12.2319
 30
29.7332
 70
192
 0
VERTEX
 8
AUSLAUF_2
 10
-6.83
 20
-13.6704
 30
28.8062
 70
192
 0
VERTEX
 8
AUSLAUF_2
 10
-6.83
 20
-14.8868
 30
27.6024
 70
192
 0
VERTEX
 8
AUSLAUF_2
 10
-6.83
 20
-15.8289
 30
26.1738
 70
192
 0
VERTEX
 8
AUSLAUF_2
 10
-6.83
 20
-16.4561
 30
24.5815
 70
192
 0
VERTEX
 8
AUSLAUF_2
 10
-6.83
 20
-16.7366
 30
23.2135
 70
192
 0
VERTEX
 8
AUSLAUF_2
 10
-6.83
 20
-16.7366
 30
23.2135
 70
192
 0
VERTEX
 8
AUSLAUF_2
 10
-6.4669
 20
-13.8389
 30
26.7432
 70
192
 0
VERTEX
 8
AUSLAUF_2
 10
-6.4669
 20
-14.6263
 30
25.5491
 70
192
 0
VERTEX
 8
AUSLAUF_2
 10
-6.4669
 20
-15.1506
 30
24.2182
 70
192
 0
VERTEX
 8
AUSLAUF_2
 10
-6.4669
 20
-15.4021
 30
22.9782
 70
192
 0
VERTEX
 8
AUSLAUF_2
 10
-6.4669
 20
-15.4021
 30
22.9782
 70
192
 0
VERTEX
 8
AUSLAUF_2
 10
-6.9629
 20
-0.7454
 30
14.3048
 70
192
 0
VERTEX
 8
AUSLAUF_2
 10
-6.9629
 20
-0.7454
 30
22.1662
 70
192
 0
VERTEX
 8
AUSLAUF_2
 10
-6.9629
 20
-0.8574
 30
23.6824
 70
192
 0
VERTEX
 8
AUSLAUF_2
 10
0
 20
0
 30
0
 70
128
 71
216
 72
217
 73
73
 74
72
 0
VERTEX
 8
AUSLAUF_2
 10
0
 20
0
 30
0
 70
128
 71
217
 72
1
 73
74
 74
73
 0
VERTEX
 8
AUSLAUF_2
 10
0
 20
0
 30
0
 70
128
 71
1
 72
3
 73
75
 74
74
 0
VERTEX
 8
AUSLAUF_2
 10
0
 20
0
 30
0
 70
128
 71
3
 72
4
 73
76
 74
75
 0
VERTEX
 8
AUSLAUF_2
 10
0
 20
0
 30
0
 70
128
 71
4
 72
5
 73
95
 74
76
 0
VERTEX
 8
AUSLAUF_2
 10
0
 20
0
 30
0
 70
128
 71
8
 72
9
 73
32
 74
31
 0
VERTEX
 8
AUSLAUF_2
 10
0
 20
0
 30
0
 70
128
 71
9
 72
10
 73
33
 74
32
 0
VERTEX
 8
AUSLAUF_2
 10
0
 20
0
 30
0
 70
128
 71
10
 72
11
 73
34
 74
33
 0
VERTEX
 8
AUSLAUF_2
 10
0
 20
0
 30
0
 70
128
 71
11
 72
12
 73
35
 74
34
 0
VERTEX
 8
AUSLAUF_2
 10
0
 20
0
 30
0
 70
128
 71
12
 72
13
 73
36
 74
35
 0
VERTEX
 8
AUSLAUF_2
 10
0
 20
0
 30
0
 70
128
 71
13
 72
14
 73
37
 74
36
 0
VERTEX
 8
AUSLAUF_2
 10
0
 20
0
 30
0
 70
128
 71
14
 72
15
 73
38
 74
37
 0
VERTEX
 8
AUSLAUF_2
 10
0
 20
0
 30
0
 70
128
 71
15
 72
16
 73
39
 74
38
 0
VERTEX
 8
AUSLAUF_2
 10
0
 20
0
 30
0
 70
128
 71
16
 72
17
 73
40
 74
39
 0
VERTEX
 8
AUSLAUF_2
 10
0
 20
0
 30
0
 70
128
 71
17
 72
18
 73
41
 74
40
 0
VERTEX
 8
AUSLAUF_2
 10
0
 20
0
 30
0
 70
128
 71
18
 72
19
 73
42
 74
41
 0
VERTEX
 8
AUSLAUF_2
 10
0
 20
0
 30
0
 70
128
 71
19
 72
20
 73
43
 74
42
 0
VERTEX
 8
AUSLAUF_2
 10
0
 20
0
 30
0
 70
128
 71
20
 72
21
 73
44
 74
43
 0
VERTEX
 8
AUSLAUF_2
 10
0
 20
0
 30
0
 70
128
 71
21
 72
22
 73
45
 74
44
 0
VERTEX
 8
AUSLAUF_2
 10
0
 20
0
 30
0
 70
128
 71
22
 72
23
 73
46
 74
45
 0
VERTEX
 8
AUSLAUF_2
 10
0
 20
0
 30
0
 70
128
 71
23
 72
24
 73
47
 74
46
 0
VERTEX
 8
AUSLAUF_2
 10
0
 20
0
 30
0
 70
128
 71
25
 72
2
 73
48
 74
48
 0
VERTEX
 8
AUSLAUF_2
 10
0
 20
0
 30
0
 70
128
 71
5
 72
6
 73
96
 74
95
 0
VERTEX
 8
AUSLAUF_2
 10
0
 20
0
 30
0
 70
128
 71
6
 72
7
 73
97
 74
96
 0
VERTEX
 8
AUSLAUF_2
 10
0
 20
0
 30
0
 70
128
 71
7
 72
26
 73
98
 74
97
 0
VERTEX
 8
AUSLAUF_2
 10
0
 20
0
 30
0
 70
128
 71
26
 72
27
 73
99
 74
98
 0
VERTEX
 8
AUSLAUF_2
 10
0
 20
0
 30
0
 70
128
 71
27
 72
28
 73
118
 74
99
 0
VERTEX
 8
AUSLAUF_2
 10
0
 20
0
 30
0
 70
128
 71
31
 72
32
 73
55
 74
54
 0
VERTEX
 8
AUSLAUF_2
 10
0
 20
0
 30
0
 70
128
 71
32
 72
33
 73
56
 74
55
 0
VERTEX
 8
AUSLAUF_2
 10
0
 20
0
 30
0
 70
128
 71
33
 72
34
 73
57
 74
56
 0
VERTEX
 8
AUSLAUF_2
 10
0
 20
0
 30
0
 70
128
 71
34
 72
35
 73
58
 74
57
 0
VERTEX
 8
AUSLAUF_2
 10
0
 20
0
 30
0
 70
128
 71
35
 72
36
 73
59
 74
58
 0
VERTEX
 8
AUSLAUF_2
 10
0
 20
0
 30
0
 70
128
 71
36
 72
37
 73
60
 74
59
 0
VERTEX
 8
AUSLAUF_2
 10
0
 20
0
 30
0
 70
128
 71
37
 72
38
 73
61
 74
60
 0
VERTEX
 8
AUSLAUF_2
 10
0
 20
0
 30
0
 70
128
 71
38
 72
39
 73
62
 74
61
 0
VERTEX
 8
AUSLAUF_2
 10
0
 20
0
 30
0
 70
128
 71
39
 72
40
 73
63
 74
62
 0
VERTEX
 8
AUSLAUF_2
 10
0
 20
0
 30
0
 70
128
 71
40
 72
41
 73
64
 74
63
 0
VERTEX
 8
AUSLAUF_2
 10
0
 20
0
 30
0
 70
128
 71
41
 72
42
 73
65
 74
64
 0
VERTEX
 8
AUSLAUF_2
 10
0
 20
0
 30
0
 70
128
 71
42
 72
43
 73
66
 74
65
 0
VERTEX
 8
AUSLAUF_2
 10
0
 20
0
 30
0
 70
128
 71
43
 72
44
 73
67
 74
66
 0
VERTEX
 8
AUSLAUF_2
 10
0
 20
0
 30
0
 70
128
 71
44
 72
45
 73
68
 74
67
 0
VERTEX
 8
AUSLAUF_2
 10
0
 20
0
 30
0
 70
128
 71
45
 72
46
 73
69
 74
68
 0
VERTEX
 8
AUSLAUF_2
 10
0
 20
0
 30
0
 70
128
 71
46
 72
47
 73
70
 74
69
 0
VERTEX
 8
AUSLAUF_2
 10
0
 20
0
 30
0
 70
128
 71
48
 72
2
 73
71
 74
71
 0
VERTEX
 8
AUSLAUF_2
 10
0
 20
0
 30
0
 70
128
 71
28
 72
29
 73
119
 74
118
 0
VERTEX
 8
AUSLAUF_2
 10
0
 20
0
 30
0
 70
128
 71
29
 72
30
 73
120
 74
119
 0
VERTEX
 8
AUSLAUF_2
 10
0
 20
0
 30
0
 70
128
 71
30
 72
49
 73
121
 74
120
 0
VERTEX
 8
AUSLAUF_2
 10
0
 20
0
 30
0
 70
128
 71
49
 72
50
 73
122
 74
121
 0
VERTEX
 8
AUSLAUF_2
 10
0
 20
0
 30
0
 70
128
 71
50
 72
51
 73
141
 74
122
 0
VERTEX
 8
AUSLAUF_2
 10
0
 20
0
 30
0
 70
128
 71
54
 72
55
 73
78
 74
77
 0
VERTEX
 8
AUSLAUF_2
 10
0
 20
0
 30
0
 70
128
 71
55
 72
56
 73
79
 74
78
 0
VERTEX
 8
AUSLAUF_2
 10
0
 20
0
 30
0
 70
128
 71
56
 72
57
 73
80
 74
79
 0
VERTEX
 8
AUSLAUF_2
 10
0
 20
0
 30
0
 70
128
 71
57
 72
58
 73
81
 74
80
 0
VERTEX
 8
AUSLAUF_2
 10
0
 20
0
 30
0
 70
128
 71
58
 72
59
 73
82
 74
81
 0
VERTEX
 8
AUSLAUF_2
 10
0
 20
0
 30
0
 70
128
 71
59
 72
60
 73
83
 74
82
 0
VERTEX
 8
AUSLAUF_2
 10
0
 20
0
 30
0
 70
128
 71
60
 72
61
 73
84
 74
83
 0
VERTEX
 8
AUSLAUF_2
 10
0
 20
0
 30
0
 70
128
 71
61
 72
62
 73
85
 74
84
 0
VERTEX
 8
AUSLAUF_2
 10
0
 20
0
 30
0
 70
128
 71
62
 72
63
 73
86
 74
85
 0
VERTEX
 8
AUSLAUF_2
 10
0
 20
0
 30
0
 70
128
 71
63
 72
64
 73
87
 74
86
 0
VERTEX
 8
AUSLAUF_2
 10
0
 20
0
 30
0
 70
128
 71
64
 72
65
 73
88
 74
87
 0
VERTEX
 8
AUSLAUF_2
 10
0
 20
0
 30
0
 70
128
 71
65
 72
66
 73
89
 74
88
 0
VERTEX
 8
AUSLAUF_2
 10
0
 20
0
 30
0
 70
128
 71
66
 72
67
 73
90
 74
89
 0
VERTEX
 8
AUSLAUF_2
 10
0
 20
0
 30
0
 70
128
 71
67
 72
68
 73
91
 74
90
 0
VERTEX
 8
AUSLAUF_2
 10
0
 20
0
 30
0
 70
128
 71
68
 72
69
 73
92
 74
91
 0
VERTEX
 8
AUSLAUF_2
 10
0
 20
0
 30
0
 70
128
 71
69
 72
70
 73
93
 74
92
 0
VERTEX
 8
AUSLAUF_2
 10
0
 20
0
 30
0
 70
128
 71
71
 72
2
 73
94
 74
94
 0
VERTEX
 8
AUSLAUF_2
 10
0
 20
0
 30
0
 70
128
 71
52
 72
2
 73
142
 74
142
 0
VERTEX
 8
AUSLAUF_2
 10
0
 20
0
 30
0
 70
128
 71
53
 72
72
 73
144
 74
143
 0
VERTEX
 8
AUSLAUF_2
 10
0
 20
0
 30
0
 70
128
 71
72
 72
73
 73
145
 74
144
 0
VERTEX
 8
AUSLAUF_2
 10
0
 20
0
 30
0
 70
128
 71
73
 72
74
 73
164
 74
145
 0
VERTEX
 8
AUSLAUF_2
 10
0
 20
0
 30
0
 70
128
 71
74
 72
75
 73
165
 74
164
 0
VERTEX
 8
AUSLAUF_2
 10
0
 20
0
 30
0
 70
128
 71
77
 72
78
 73
101
 74
100
 0
VERTEX
 8
AUSLAUF_2
 10
0
 20
0
 30
0
 70
128
 71
78
 72
79
 73
102
 74
101
 0
VERTEX
 8
AUSLAUF_2
 10
0
 20
0
 30
0
 70
128
 71
79
 72
80
 73
103
 74
102
 0
VERTEX
 8
AUSLAUF_2
 10
0
 20
0
 30
0
 70
128
 71
80
 72
81
 73
104
 74
103
 0
VERTEX
 8
AUSLAUF_2
 10
0
 20
0
 30
0
 70
128
 71
81
 72
82
 73
105
 74
104
 0
VERTEX
 8
AUSLAUF_2
 10
0
 20
0
 30
0
 70
128
 71
82
 72
83
 73
106
 74
105
 0
VERTEX
 8
AUSLAUF_2
 10
0
 20
0
 30
0
 70
128
 71
83
 72
84
 73
107
 74
106
 0
VERTEX
 8
AUSLAUF_2
 10
0
 20
0
 30
0
 70
128
 71
84
 72
85
 73
108
 74
107
 0
VERTEX
 8
AUSLAUF_2
 10
0
 20
0
 30
0
 70
128
 71
85
 72
86
 73
109
 74
108
 0
VERTEX
 8
AUSLAUF_2
 10
0
 20
0
 30
0
 70
128
 71
86
 72
87
 73
110
 74
109
 0
VERTEX
 8
AUSLAUF_2
 10
0
 20
0
 30
0
 70
128
 71
87
 72
88
 73
111
 74
110
 0
VERTEX
 8
AUSLAUF_2
 10
0
 20
0
 30
0
 70
128
 71
88
 72
89
 73
112
 74
111
 0
VERTEX
 8
AUSLAUF_2
 10
0
 20
0
 30
0
 70
128
 71
89
 72
90
 73
113
 74
112
 0
VERTEX
 8
AUSLAUF_2
 10
0
 20
0
 30
0
 70
128
 71
90
 72
91
 73
114
 74
113
 0
VERTEX
 8
AUSLAUF_2
 10
0
 20
0
 30
0
 70
128
 71
91
 72
92
 73
115
 74
114
 0
VERTEX
 8
AUSLAUF_2
 10
0
 20
0
 30
0
 70
128
 71
92
 72
93
 73
116
 74
115
 0
VERTEX
 8
AUSLAUF_2
 10
0
 20
0
 30
0
 70
128
 71
94
 72
2
 73
117
 74
117
 0
VERTEX
 8
AUSLAUF_2
 10
0
 20
0
 30
0
 70
128
 71
75
 72
76
 73
166
 74
165
 0
VERTEX
 8
AUSLAUF_2
 10
0
 20
0
 30
0
 70
128
 71
76
 72
95
 73
167
 74
166
 0
VERTEX
 8
AUSLAUF_2
 10
0
 20
0
 30
0
 70
128
 71
95
 72
96
 73
168
 74
167
 0
VERTEX
 8
AUSLAUF_2
 10
0
 20
0
 30
0
 70
128
 71
96
 72
97
 73
187
 74
168
 0
VERTEX
 8
AUSLAUF_2
 10
0
 20
0
 30
0
 70
128
 71
97
 72
98
 73
188
 74
187
 0
VERTEX
 8
AUSLAUF_2
 10
0
 20
0
 30
0
 70
128
 71
100
 72
101
 73
124
 74
123
 0
VERTEX
 8
AUSLAUF_2
 10
0
 20
0
 30
0
 70
128
 71
101
 72
102
 73
125
 74
124
 0
VERTEX
 8
AUSLAUF_2
 10
0
 20
0
 30
0
 70
128
 71
102
 72
103
 73
126
 74
125
 0
VERTEX
 8
AUSLAUF_2
 10
0
 20
0
 30
0
 70
128
 71
103
 72
104
 73
127
 74
126
 0
VERTEX
 8
AUSLAUF_2
 10
0
 20
0
 30
0
 70
128
 71
104
 72
105
 73
128
 74
127
 0
VERTEX
 8
AUSLAUF_2
 10
0
 20
0
 30
0
 70
128
 71
105
 72
106
 73
129
 74
128
 0
VERTEX
 8
AUSLAUF_2
 10
0
 20
0
 30
0
 70
128
 71
106
 72
107
 73
130
 74
129
 0
VERTEX
 8
AUSLAUF_2
 10
0
 20
0
 30
0
 70
128
 71
107
 72
108
 73
131
 74
130
 0
VERTEX
 8
AUSLAUF_2
 10
0
 20
0
 30
0
 70
128
 71
108
 72
109
 73
132
 74
131
 0
VERTEX
 8
AUSLAUF_2
 10
0
 20
0
 30
0
 70
128
 71
109
 72
110
 73
133
 74
132
 0
VERTEX
 8
AUSLAUF_2
 10
0
 20
0
 30
0
 70
128
 71
110
 72
111
 73
134
 74
133
 0
VERTEX
 8
AUSLAUF_2
 10
0
 20
0
 30
0
 70
128
 71
111
 72
112
 73
135
 74
134
 0
VERTEX
 8
AUSLAUF_2
 10
0
 20
0
 30
0
 70
128
 71
112
 72
113
 73
136
 74
135
 0
VERTEX
 8
AUSLAUF_2
 10
0
 20
0
 30
0
 70
128
 71
113
 72
114
 73
137
 74
136
 0
VERTEX
 8
AUSLAUF_2
 10
0
 20
0
 30
0
 70
128
 71
114
 72
115
 73
138
 74
137
 0
VERTEX
 8
AUSLAUF_2
 10
0
 20
0
 30
0
 70
128
 71
115
 72
116
 73
139
 74
138
 0
VERTEX
 8
AUSLAUF_2
 10
0
 20
0
 30
0
 70
128
 71
117
 72
2
 73
140
 74
140
 0
VERTEX
 8
AUSLAUF_2
 10
0
 20
0
 30
0
 70
128
 71
98
 72
99
 73
189
 74
188
 0
VERTEX
 8
AUSLAUF_2
 10
0
 20
0
 30
0
 70
128
 71
99
 72
118
 73
190
 74
189
 0
VERTEX
 8
AUSLAUF_2
 10
0
 20
0
 30
0
 70
128
 71
118
 72
119
 73
191
 74
190
 0
VERTEX
 8
AUSLAUF_2
 10
0
 20
0
 30
0
 70
128
 71
119
 72
120
 73
210
 74
191
 0
VERTEX
 8
AUSLAUF_2
 10
0
 20
0
 30
0
 70
128
 71
120
 72
121
 73
211
 74
210
 0
VERTEX
 8
AUSLAUF_2
 10
0
 20
0
 30
0
 70
128
 71
123
 72
124
 73
147
 74
146
 0
VERTEX
 8
AUSLAUF_2
 10
0
 20
0
 30
0
 70
128
 71
124
 72
125
 73
148
 74
147
 0
VERTEX
 8
AUSLAUF_2
 10
0
 20
0
 30
0
 70
128
 71
125
 72
126
 73
149
 74
148
 0
VERTEX
 8
AUSLAUF_2
 10
0
 20
0
 30
0
 70
128
 71
126
 72
127
 73
150
 74
149
 0
VERTEX
 8
AUSLAUF_2
 10
0
 20
0
 30
0
 70
128
 71
127
 72
128
 73
151
 74
150
 0
VERTEX
 8
AUSLAUF_2
 10
0
 20
0
 30
0
 70
128
 71
128
 72
129
 73
152
 74
151
 0
VERTEX
 8
AUSLAUF_2
 10
0
 20
0
 30
0
 70
128
 71
129
 72
130
 73
153
 74
152
 0
VERTEX
 8
AUSLAUF_2
 10
0
 20
0
 30
0
 70
128
 71
130
 72
131
 73
154
 74
153
 0
VERTEX
 8
AUSLAUF_2
 10
0
 20
0
 30
0
 70
128
 71
131
 72
132
 73
155
 74
154
 0
VERTEX
 8
AUSLAUF_2
 10
0
 20
0
 30
0
 70
128
 71
132
 72
133
 73
156
 74
155
 0
VERTEX
 8
AUSLAUF_2
 10
0
 20
0
 30
0
 70
128
 71
133
 72
134
 73
157
 74
156
 0
VERTEX
 8
AUSLAUF_2
 10
0
 20
0
 30
0
 70
128
 71
134
 72
135
 73
158
 74
157
 0
VERTEX
 8
AUSLAUF_2
 10
0
 20
0
 30
0
 70
128
 71
135
 72
136
 73
159
 74
158
 0
VERTEX
 8
AUSLAUF_2
 10
0
 20
0
 30
0
 70
128
 71
136
 72
137
 73
160
 74
159
 0
VERTEX
 8
AUSLAUF_2
 10
0
 20
0
 30
0
 70
128
 71
137
 72
138
 73
161
 74
160
 0
VERTEX
 8
AUSLAUF_2
 10
0
 20
0
 30
0
 70
128
 71
138
 72
139
 73
162
 74
161
 0
VERTEX
 8
AUSLAUF_2
 10
0
 20
0
 30
0
 70
128
 71
140
 72
2
 73
163
 74
163
 0
VERTEX
 8
AUSLAUF_2
 10
0
 20
0
 30
0
 70
128
 71
121
 72
122
 73
212
 74
211
 0
VERTEX
 8
AUSLAUF_2
 10
0
 20
0
 30
0
 70
128
 71
122
 72
141
 73
213
 74
212
 0
VERTEX
 8
AUSLAUF_2
 10
0
 20
0
 30
0
 70
128
 71
142
 72
2
 73
214
 74
214
 0
VERTEX
 8
AUSLAUF_2
 10
0
 20
0
 30
0
 70
128
 71
143
 72
144
 73
9
 74
8
 0
VERTEX
 8
AUSLAUF_2
 10
0
 20
0
 30
0
 70
128
 71
144
 72
145
 73
10
 74
9
 0
VERTEX
 8
AUSLAUF_2
 10
0
 20
0
 30
0
 70
128
 71
146
 72
147
 73
170
 74
169
 0
VERTEX
 8
AUSLAUF_2
 10
0
 20
0
 30
0
 70
128
 71
147
 72
148
 73
171
 74
170
 0
VERTEX
 8
AUSLAUF_2
 10
0
 20
0
 30
0
 70
128
 71
148
 72
149
 73
172
 74
171
 0
VERTEX
 8
AUSLAUF_2
 10
0
 20
0
 30
0
 70
128
 71
149
 72
150
 73
173
 74
172
 0
VERTEX
 8
AUSLAUF_2
 10
0
 20
0
 30
0
 70
128
 71
150
 72
151
 73
174
 74
173
 0
VERTEX
 8
AUSLAUF_2
 10
0
 20
0
 30
0
 70
128
 71
151
 72
152
 73
175
 74
174
 0
VERTEX
 8
AUSLAUF_2
 10
0
 20
0
 30
0
 70
128
 71
152
 72
153
 73
176
 74
175
 0
VERTEX
 8
AUSLAUF_2
 10
0
 20
0
 30
0
 70
128
 71
153
 72
154
 73
177
 74
176
 0
VERTEX
 8
AUSLAUF_2
 10
0
 20
0
 30
0
 70
128
 71
154
 72
155
 73
178
 74
177
 0
VERTEX
 8
AUSLAUF_2
 10
0
 20
0
 30
0
 70
128
 71
155
 72
156
 73
179
 74
178
 0
VERTEX
 8
AUSLAUF_2
 10
0
 20
0
 30
0
 70
128
 71
156
 72
157
 73
180
 74
179
 0
VERTEX
 8
AUSLAUF_2
 10
0
 20
0
 30
0
 70
128
 71
157
 72
158
 73
181
 74
180
 0
VERTEX
 8
AUSLAUF_2
 10
0
 20
0
 30
0
 70
128
 71
158
 72
159
 73
182
 74
181
 0
VERTEX
 8
AUSLAUF_2
 10
0
 20
0
 30
0
 70
128
 71
159
 72
160
 73
183
 74
182
 0
VERTEX
 8
AUSLAUF_2
 10
0
 20
0
 30
0
 70
128
 71
160
 72
161
 73
184
 74
183
 0
VERTEX
 8
AUSLAUF_2
 10
0
 20
0
 30
0
 70
128
 71
161
 72
162
 73
185
 74
184
 0
VERTEX
 8
AUSLAUF_2
 10
0
 20
0
 30
0
 70
128
 71
163
 72
2
 73
186
 74
186
 0
VERTEX
 8
AUSLAUF_2
 10
0
 20
0
 30
0
 70
128
 71
145
 72
164
 73
11
 74
10
 0
VERTEX
 8
AUSLAUF_2
 10
0
 20
0
 30
0
 70
128
 71
164
 72
165
 73
12
 74
11
 0
VERTEX
 8
AUSLAUF_2
 10
0
 20
0
 30
0
 70
128
 71
165
 72
166
 73
13
 74
12
 0
VERTEX
 8
AUSLAUF_2
 10
0
 20
0
 30
0
 70
128
 71
166
 72
167
 73
14
 74
13
 0
VERTEX
 8
AUSLAUF_2
 10
0
 20
0
 30
0
 70
128
 71
167
 72
168
 73
15
 74
14
 0
VERTEX
 8
AUSLAUF_2
 10
0
 20
0
 30
0
 70
128
 71
169
 72
170
 73
193
 74
192
 0
VERTEX
 8
AUSLAUF_2
 10
0
 20
0
 30
0
 70
128
 71
170
 72
171
 73
194
 74
193
 0
VERTEX
 8
AUSLAUF_2
 10
0
 20
0
 30
0
 70
128
 71
171
 72
172
 73
195
 74
194
 0
VERTEX
 8
AUSLAUF_2
 10
0
 20
0
 30
0
 70
128
 71
172
 72
173
 73
196
 74
195
 0
VERTEX
 8
AUSLAUF_2
 10
0
 20
0
 30
0
 70
128
 71
173
 72
174
 73
197
 74
196
 0
VERTEX
 8
AUSLAUF_2
 10
0
 20
0
 30
0
 70
128
 71
174
 72
175
 73
198
 74
197
 0
VERTEX
 8
AUSLAUF_2
 10
0
 20
0
 30
0
 70
128
 71
175
 72
176
 73
199
 74
198
 0
VERTEX
 8
AUSLAUF_2
 10
0
 20
0
 30
0
 70
128
 71
176
 72
177
 73
200
 74
199
 0
VERTEX
 8
AUSLAUF_2
 10
0
 20
0
 30
0
 70
128
 71
177
 72
178
 73
201
 74
200
 0
VERTEX
 8
AUSLAUF_2
 10
0
 20
0
 30
0
 70
128
 71
178
 72
179
 73
202
 74
201
 0
VERTEX
 8
AUSLAUF_2
 10
0
 20
0
 30
0
 70
128
 71
179
 72
180
 73
203
 74
202
 0
VERTEX
 8
AUSLAUF_2
 10
0
 20
0
 30
0
 70
128
 71
180
 72
181
 73
204
 74
203
 0
VERTEX
 8
AUSLAUF_2
 10
0
 20
0
 30
0
 70
128
 71
181
 72
182
 73
205
 74
204
 0
VERTEX
 8
AUSLAUF_2
 10
0
 20
0
 30
0
 70
128
 71
182
 72
183
 73
206
 74
205
 0
VERTEX
 8
AUSLAUF_2
 10
0
 20
0
 30
0
 70
128
 71
183
 72
184
 73
207
 74
206
 0
VERTEX
 8
AUSLAUF_2
 10
0
 20
0
 30
0
 70
128
 71
184
 72
185
 73
208
 74
207
 0
VERTEX
 8
AUSLAUF_2
 10
0
 20
0
 30
0
 70
128
 71
186
 72
2
 73
209
 74
209
 0
VERTEX
 8
AUSLAUF_2
 10
0
 20
0
 30
0
 70
128
 71
168
 72
187
 73
16
 74
15
 0
VERTEX
 8
AUSLAUF_2
 10
0
 20
0
 30
0
 70
128
 71
187
 72
188
 73
17
 74
16
 0
VERTEX
 8
AUSLAUF_2
 10
0
 20
0
 30
0
 70
128
 71
188
 72
189
 73
18
 74
17
 0
VERTEX
 8
AUSLAUF_2
 10
0
 20
0
 30
0
 70
128
 71
189
 72
190
 73
19
 74
18
 0
VERTEX
 8
AUSLAUF_2
 10
0
 20
0
 30
0
 70
128
 71
190
 72
191
 73
20
 74
19
 0
VERTEX
 8
AUSLAUF_2
 10
0
 20
0
 30
0
 70
128
 71
192
 72
193
 73
216
 74
215
 0
VERTEX
 8
AUSLAUF_2
 10
0
 20
0
 30
0
 70
128
 71
193
 72
194
 73
217
 74
216
 0
VERTEX
 8
AUSLAUF_2
 10
0
 20
0
 30
0
 70
128
 71
194
 72
195
 73
1
 74
217
 0
VERTEX
 8
AUSLAUF_2
 10
0
 20
0
 30
0
 70
128
 71
195
 72
196
 73
3
 74
1
 0
VERTEX
 8
AUSLAUF_2
 10
0
 20
0
 30
0
 70
128
 71
196
 72
197
 73
4
 74
3
 0
VERTEX
 8
AUSLAUF_2
 10
0
 20
0
 30
0
 70
128
 71
197
 72
198
 73
5
 74
4
 0
VERTEX
 8
AUSLAUF_2
 10
0
 20
0
 30
0
 70
128
 71
198
 72
199
 73
6
 74
5
 0
VERTEX
 8
AUSLAUF_2
 10
0
 20
0
 30
0
 70
128
 71
199
 72
200
 73
7
 74
6
 0
VERTEX
 8
AUSLAUF_2
 10
0
 20
0
 30
0
 70
128
 71
200
 72
201
 73
26
 74
7
 0
VERTEX
 8
AUSLAUF_2
 10
0
 20
0
 30
0
 70
128
 71
201
 72
202
 73
27
 74
26
 0
VERTEX
 8
AUSLAUF_2
 10
0
 20
0
 30
0
 70
128
 71
202
 72
203
 73
28
 74
27
 0
VERTEX
 8
AUSLAUF_2
 10
0
 20
0
 30
0
 70
128
 71
203
 72
204
 73
29
 74
28
 0
VERTEX
 8
AUSLAUF_2
 10
0
 20
0
 30
0
 70
128
 71
204
 72
205
 73
30
 74
29
 0
VERTEX
 8
AUSLAUF_2
 10
0
 20
0
 30
0
 70
128
 71
205
 72
206
 73
49
 74
30
 0
VERTEX
 8
AUSLAUF_2
 10
0
 20
0
 30
0
 70
128
 71
206
 72
207
 73
50
 74
49
 0
VERTEX
 8
AUSLAUF_2
 10
0
 20
0
 30
0
 70
128
 71
207
 72
208
 73
51
 74
50
 0
VERTEX
 8
AUSLAUF_2
 10
0
 20
0
 30
0
 70
128
 71
209
 72
2
 73
52
 74
52
 0
VERTEX
 8
AUSLAUF_2
 10
0
 20
0
 30
0
 70
128
 71
191
 72
210
 73
21
 74
20
 0
VERTEX
 8
AUSLAUF_2
 10
0
 20
0
 30
0
 70
128
 71
210
 72
211
 73
22
 74
21
 0
VERTEX
 8
AUSLAUF_2
 10
0
 20
0
 30
0
 70
128
 71
211
 72
212
 73
23
 74
22
 0
VERTEX
 8
AUSLAUF_2
 10
0
 20
0
 30
0
 70
128
 71
212
 72
213
 73
24
 74
23
 0
VERTEX
 8
AUSLAUF_2
 10
0
 20
0
 30
0
 70
128
 71
214
 72
2
 73
25
 74
25
 0
VERTEX
 8
AUSLAUF_2
 10
0
 20
0
 30
0
 70
128
 71
215
 72
216
 73
72
 74
53
 0
SEQEND
 0
POLYLINE
 8
ROSETTE-ZYLINDER
 66
1
 10
0.0
 20
0.0
 30
0.0
 70
64
 71
47
 72
54
 0
VERTEX
 8
ROSETTE-ZYLINDER
 10
18.1267
 20
-1.3928
 30
12.4851
 70
192
 0
VERTEX
 8
ROSETTE-ZYLINDER
 10
18.1267
 20
-2.3243
 30
12.2528
 70
192
 0
VERTEX
 8
ROSETTE-ZYLINDER
 10
18.691
 20
-2.1464
 30
12.2972
 70
192
 0
VERTEX
 8
ROSETTE-ZYLINDER
 10
19.0398
 20
-1.6807
 30
12.4133
 70
192
 0
VERTEX
 8
ROSETTE-ZYLINDER
 10
19.0398
 20
-1.105
 30
12.5569
 70
192
 0
VERTEX
 8
ROSETTE-ZYLINDER
 10
18.691
 20
-0.6392
 30
12.673
 70
192
 0
VERTEX
 8
ROSETTE-ZYLINDER
 10
18.1267
 20
-0.4613
 30
12.7173
 70
192
 0
VERTEX
 8
ROSETTE-ZYLINDER
 10
17.5625
 20
-0.6392
 30
12.673
 70
192
 0
VERTEX
 8
ROSETTE-ZYLINDER
 10
17.2137
 20
-1.105
 30
12.5569
 70
192
 0
VERTEX
 8
ROSETTE-ZYLINDER
 10
17.2137
 20
-1.6807
 30
12.4133
 70
192
 0
VERTEX
 8
ROSETTE-ZYLINDER
 10
17.5625
 20
-2.1464
 30
12.2972
 70
192
 0
VERTEX
 8
ROSETTE-ZYLINDER
 10
18.695
 20
-2.1937
 30
12.5094
 70
192
 0
VERTEX
 8
ROSETTE-ZYLINDER
 10
18.1267
 20
-2.3769
 30
12.4637
 70
192
 0
VERTEX
 8
ROSETTE-ZYLINDER
 10
19.0398
 20
-1.7332
 30
12.6242
 70
192
 0
VERTEX
 8
ROSETTE-ZYLINDER
 10
17.2137
 20
-1.7332
 30
12.6242
 70
192
 0
VERTEX
 8
ROSETTE-ZYLINDER
 10
19.0398
 20
-1.1575
 30
12.7678
 70
192
 0
VERTEX
 8
ROSETTE-ZYLINDER
 10
17.2137
 20
-1.1575
 30
12.7678
 70
192
 0
VERTEX
 8
ROSETTE-ZYLINDER
 10
18.1267
 20
-0.5139
 30
12.9282
 70
192
 0
VERTEX
 8
ROSETTE-ZYLINDER
 10
17.5625
 20
-0.6918
 30
12.8839
 70
192
 0
VERTEX
 8
ROSETTE-ZYLINDER
 10
19.0333
 20
-1.1489
 30
12.7699
 70
192
 0
VERTEX
 8
ROSETTE-ZYLINDER
 10
19.0398
 20
-1.7226
 30
12.6269
 70
192
 0
VERTEX
 8
ROSETTE-ZYLINDER
 10
18.691
 20
-0.6918
 30
12.8839
 70
192
 0
VERTEX
 8
ROSETTE-ZYLINDER
 10
17.2137
 20
-1.7226
 30
12.6269
 70
192
 0
VERTEX
 8
ROSETTE-ZYLINDER
 10
17.5585
 20
-2.1937
 30
12.5094
 70
192
 0
VERTEX
 8
ROSETTE-ZYLINDER
 10
18.1267
 20
-2.5215
 30
12.4277
 70
192
 0
VERTEX
 8
ROSETTE-ZYLINDER
 10
18.7851
 20
-2.3139
 30
12.4794
 70
192
 0
VERTEX
 8
ROSETTE-ZYLINDER
 10
19.1919
 20
-1.7706
 30
12.6149
 70
192
 0
VERTEX
 8
ROSETTE-ZYLINDER
 10
19.7245
 20
-0.1569
 30
9.7193
 70
192
 0
VERTEX
 8
ROSETTE-ZYLINDER
 10
19.1919
 20
-1.0989
 30
12.7824
 70
192
 0
VERTEX
 8
ROSETTE-ZYLINDER
 10
19.1142
 20
0.7025
 30
9.7673
 70
192
 0
VERTEX
 8
ROSETTE-ZYLINDER
 10
18.7851
 20
-0.5556
 30
12.9178
 70
192
 0
VERTEX
 8
ROSETTE-ZYLINDER
 10
18.1267
 20
1.0138
 30
9.8449
 70
192
 0
VERTEX
 8
ROSETTE-ZYLINDER
 10
18.1267
 20
-0.348
 30
12.9696
 70
192
 0
VERTEX
 8
ROSETTE-ZYLINDER
 10
17.1393
 20
0.7025
 30
9.7673
 70
192
 0
VERTEX
 8
ROSETTE-ZYLINDER
 10
17.4684
 20
-0.5556
 30
12.9178
 70
192
 0
VERTEX
 8
ROSETTE-ZYLINDER
 10
16.529
 20
-0.1569
 30
9.7193
 70
192
 0
VERTEX
 8
ROSETTE-ZYLINDER
 10
17.0616
 20
-1.0989
 30
12.7824
 70
192
 0
VERTEX
 8
ROSETTE-ZYLINDER
 10
17.0616
 20
-1.7706
 30
12.6149
 70
192
 0
VERTEX
 8
ROSETTE-ZYLINDER
 10
17.4684
 20
-2.3139
 30
12.4794
 70
192
 0
VERTEX
 8
ROSETTE-ZYLINDER
 10
19.0681
 20
-2.0263
 30
9.7154
 70
192
 0
VERTEX
 8
ROSETTE-ZYLINDER
 10
19.6827
 20
-1.212
 30
9.7154
 70
192
 0
VERTEX
 8
ROSETTE-ZYLINDER
 10
16.5708
 20
-1.212
 30
9.7154
 70
192
 0
VERTEX
 8
ROSETTE-ZYLINDER
 10
17.1854
 20
-2.0263
 30
9.7154
 70
192
 0
VERTEX
 8
ROSETTE-ZYLINDER
 10
18.1267
 20
-2.3283
 30
9.7154
 70
192
 0
VERTEX
 8
ROSETTE-ZYLINDER
 10
19.7245
 20
-0.1725
 30
9.7154
 70
192
 0
VERTEX
 8
ROSETTE-ZYLINDER
 10
16.529
 20
-0.1725
 30
9.7154
 70
192
 0
VERTEX
 8
ROSETTE-ZYLINDER
 10
17.2202
 20
-1.1489
 30
12.7699
 70
192
 0
VERTEX
 8
ROSETTE-ZYLINDER
 10
0
 20
0
 30
0
 70
128
 71
2
 72
1
 73
3
 74
3
 0
VERTEX
 8
ROSETTE-ZYLINDER
 10
0
 20
0
 30
0
 70
128
 71
3
 72
12
 73
13
 74
2
 0
VERTEX
 8
ROSETTE-ZYLINDER
 10
0
 20
0
 30
0
 70
128
 71
3
 72
1
 73
4
 74
4
 0
VERTEX
 8
ROSETTE-ZYLINDER
 10
0
 20
0
 30
0
 70
128
 71
14
 72
12
 73
4
 74
4
 0
VERTEX
 8
ROSETTE-ZYLINDER
 10
0
 20
0
 30
0
 70
128
 71
3
 72
4
 73
12
 74
12
 0
VERTEX
 8
ROSETTE-ZYLINDER
 10
0
 20
0
 30
0
 70
128
 71
4
 72
1
 73
5
 74
5
 0
VERTEX
 8
ROSETTE-ZYLINDER
 10
0
 20
0
 30
0
 70
128
 71
16
 72
21
 73
5
 74
5
 0
VERTEX
 8
ROSETTE-ZYLINDER
 10
0
 20
0
 30
0
 70
128
 71
4
 72
5
 73
21
 74
14
 0
VERTEX
 8
ROSETTE-ZYLINDER
 10
0
 20
0
 30
0
 70
128
 71
5
 72
1
 73
6
 74
6
 0
VERTEX
 8
ROSETTE-ZYLINDER
 10
0
 20
0
 30
0
 70
128
 71
6
 72
22
 73
20
 74
20
 0
VERTEX
 8
ROSETTE-ZYLINDER
 10
0
 20
0
 30
0
 70
128
 71
16
 72
5
 73
6
 74
20
 0
VERTEX
 8
ROSETTE-ZYLINDER
 10
0
 20
0
 30
0
 70
128
 71
6
 72
1
 73
7
 74
7
 0
VERTEX
 8
ROSETTE-ZYLINDER
 10
0
 20
0
 30
0
 70
128
 71
18
 72
22
 73
7
 74
7
 0
VERTEX
 8
ROSETTE-ZYLINDER
 10
0
 20
0
 30
0
 70
128
 71
6
 72
7
 73
22
 74
22
 0
VERTEX
 8
ROSETTE-ZYLINDER
 10
0
 20
0
 30
0
 70
128
 71
7
 72
1
 73
8
 74
8
 0
VERTEX
 8
ROSETTE-ZYLINDER
 10
0
 20
0
 30
0
 70
128
 71
19
 72
7
 73
8
 74
8
 0
VERTEX
 8
ROSETTE-ZYLINDER
 10
0
 20
0
 30
0
 70
128
 71
7
 72
19
 73
18
 74
18
 0
VERTEX
 8
ROSETTE-ZYLINDER
 10
0
 20
0
 30
0
 70
128
 71
8
 72
1
 73
9
 74
9
 0
VERTEX
 8
ROSETTE-ZYLINDER
 10
0
 20
0
 30
0
 70
128
 71
9
 72
17
 73
47
 74
8
 0
VERTEX
 8
ROSETTE-ZYLINDER
 10
0
 20
0
 30
0
 70
128
 71
19
 72
8
 73
47
 74
47
 0
VERTEX
 8
ROSETTE-ZYLINDER
 10
0
 20
0
 30
0
 70
128
 71
9
 72
1
 73
10
 74
10
 0
VERTEX
 8
ROSETTE-ZYLINDER
 10
0
 20
0
 30
0
 70
128
 71
10
 72
15
 73
23
 74
23
 0
VERTEX
 8
ROSETTE-ZYLINDER
 10
0
 20
0
 30
0
 70
128
 71
17
 72
9
 73
10
 74
23
 0
VERTEX
 8
ROSETTE-ZYLINDER
 10
0
 20
0
 30
0
 70
128
 71
10
 72
1
 73
11
 74
11
 0
VERTEX
 8
ROSETTE-ZYLINDER
 10
0
 20
0
 30
0
 70
128
 71
24
 72
10
 73
11
 74
11
 0
VERTEX
 8
ROSETTE-ZYLINDER
 10
0
 20
0
 30
0
 70
128
 71
10
 72
24
 73
15
 74
15
 0
VERTEX
 8
ROSETTE-ZYLINDER
 10
0
 20
0
 30
0
 70
128
 71
11
 72
1
 73
2
 74
2
 0
VERTEX
 8
ROSETTE-ZYLINDER
 10
0
 20
0
 30
0
 70
128
 71
2
 72
13
 73
24
 74
11
 0
VERTEX
 8
ROSETTE-ZYLINDER
 10
0
 20
0
 30
0
 70
128
 71
40
 72
44
 73
25
 74
26
 0
VERTEX
 8
ROSETTE-ZYLINDER
 10
0
 20
0
 30
0
 70
128
 71
26
 72
25
 73
13
 74
12
 0
VERTEX
 8
ROSETTE-ZYLINDER
 10
0
 20
0
 30
0
 70
128
 71
40
 72
26
 73
27
 74
41
 0
VERTEX
 8
ROSETTE-ZYLINDER
 10
0
 20
0
 30
0
 70
128
 71
14
 72
21
 73
27
 74
27
 0
VERTEX
 8
ROSETTE-ZYLINDER
 10
0
 20
0
 30
0
 70
128
 71
26
 72
12
 73
14
 74
27
 0
VERTEX
 8
ROSETTE-ZYLINDER
 10
0
 20
0
 30
0
 70
128
 71
42
 72
38
 73
39
 74
43
 0
VERTEX
 8
ROSETTE-ZYLINDER
 10
0
 20
0
 30
0
 70
128
 71
29
 72
28
 73
45
 74
27
 0
VERTEX
 8
ROSETTE-ZYLINDER
 10
0
 20
0
 30
0
 70
128
 71
41
 72
27
 73
45
 74
45
 0
VERTEX
 8
ROSETTE-ZYLINDER
 10
0
 20
0
 30
0
 70
128
 71
16
 72
20
 73
29
 74
29
 0
VERTEX
 8
ROSETTE-ZYLINDER
 10
0
 20
0
 30
0
 70
128
 71
29
 72
27
 73
21
 74
16
 0
VERTEX
 8
ROSETTE-ZYLINDER
 10
0
 20
0
 30
0
 70
128
 71
15
 72
24
 73
39
 74
38
 0
VERTEX
 8
ROSETTE-ZYLINDER
 10
0
 20
0
 30
0
 70
128
 71
28
 72
29
 73
31
 74
30
 0
VERTEX
 8
ROSETTE-ZYLINDER
 10
0
 20
0
 30
0
 70
128
 71
31
 72
29
 73
20
 74
22
 0
VERTEX
 8
ROSETTE-ZYLINDER
 10
0
 20
0
 30
0
 70
128
 71
38
 72
23
 73
15
 74
15
 0
VERTEX
 8
ROSETTE-ZYLINDER
 10
0
 20
0
 30
0
 70
128
 71
30
 72
31
 73
33
 74
32
 0
VERTEX
 8
ROSETTE-ZYLINDER
 10
0
 20
0
 30
0
 70
128
 71
31
 72
22
 73
18
 74
33
 0
VERTEX
 8
ROSETTE-ZYLINDER
 10
0
 20
0
 30
0
 70
128
 71
25
 72
44
 73
43
 74
39
 0
VERTEX
 8
ROSETTE-ZYLINDER
 10
0
 20
0
 30
0
 70
128
 71
32
 72
33
 73
35
 74
34
 0
VERTEX
 8
ROSETTE-ZYLINDER
 10
0
 20
0
 30
0
 70
128
 71
33
 72
18
 73
19
 74
35
 0
VERTEX
 8
ROSETTE-ZYLINDER
 10
0
 20
0
 30
0
 70
128
 71
24
 72
13
 73
25
 74
39
 0
VERTEX
 8
ROSETTE-ZYLINDER
 10
0
 20
0
 30
0
 70
128
 71
34
 72
35
 73
37
 74
36
 0
VERTEX
 8
ROSETTE-ZYLINDER
 10
0
 20
0
 30
0
 70
128
 71
19
 72
47
 73
37
 74
35
 0
VERTEX
 8
ROSETTE-ZYLINDER
 10
0
 20
0
 30
0
 70
128
 71
46
 72
36
 73
37
 74
38
 0
VERTEX
 8
ROSETTE-ZYLINDER
 10
0
 20
0
 30
0
 70
128
 71
46
 72
38
 73
42
 74
42
 0
VERTEX
 8
ROSETTE-ZYLINDER
 10
0
 20
0
 30
0
 70
128
 71
17
 72
23
 73
38
 74
37
 0
VERTEX
 8
ROSETTE-ZYLINDER
 10
0
 20
0
 30
0
 70
128
 71
37
 72
47
 73
17
 74
17
 0
SEQEND
 0
POLYLINE
 8
R_HRE
 66
1
 10
0.0
 20
0.0
 30
0.0
 70
64
 71
72
 72
36
 0
VERTEX
 8
R_HRE
 10
18.1172
 20
-2.1741
 30
12.3172
 70
192
 0
VERTEX
 8
R_HRE
 10
18.1172
 20
-2.251
 30
12.2952
 70
192
 0
VERTEX
 8
R_HRE
 10
18.1172
 20
-2.251
 30
12.2952
 70
192
 0
VERTEX
 8
R_HRE
 10
18.1172
 20
-2.3833
 30
12.7566
 70
192
 0
VERTEX
 8
R_HRE
 10
18.1172
 20
-2.3833
 30
12.7566
 70
192
 0
VERTEX
 8
R_HRE
 10
18.1172
 20
-2.3064
 30
12.7786
 70
192
 0
VERTEX
 8
R_HRE
 10
18.1172
 20
-2.3064
 30
12.7786
 70
192
 0
VERTEX
 8
R_HRE
 10
18.1172
 20
-2.1741
 30
12.3172
 70
192
 0
VERTEX
 8
R_HRE
 10
18.6314
 20
-1.9942
 30
12.3688
 70
192
 0
VERTEX
 8
R_HRE
 10
18.6828
 20
-2.0531
 30
12.3519
 70
192
 0
VERTEX
 8
R_HRE
 10
18.6828
 20
-2.0531
 30
12.3519
 70
192
 0
VERTEX
 8
R_HRE
 10
18.6828
 20
-2.1854
 30
12.8133
 70
192
 0
VERTEX
 8
R_HRE
 10
18.6828
 20
-2.1854
 30
12.8133
 70
192
 0
VERTEX
 8
R_HRE
 10
18.6314
 20
-2.1265
 30
12.8302
 70
192
 0
VERTEX
 8
R_HRE
 10
18.6314
 20
-2.1265
 30
12.8302
 70
192
 0
VERTEX
 8
R_HRE
 10
18.6314
 20
-1.9942
 30
12.3688
 70
192
 0
VERTEX
 8
R_HRE
 10
18.905
 20
-1.5386
 30
12.4994
 70
192
 0
VERTEX
 8
R_HRE
 10
18.9838
 20
-1.552
 30
12.4956
 70
192
 0
VERTEX
 8
R_HRE
 10
18.9838
 20
-1.552
 30
12.4956
 70
192
 0
VERTEX
 8
R_HRE
 10
18.9838
 20
-1.6843
 30
12.957
 70
192
 0
VERTEX
 8
R_HRE
 10
18.9838
 20
-1.6843
 30
12.957
 70
192
 0
VERTEX
 8
R_HRE
 10
18.905
 20
-1.6709
 30
12.9608
 70
192
 0
VERTEX
 8
R_HRE
 10
18.905
 20
-1.6709
 30
12.9608
 70
192
 0
VERTEX
 8
R_HRE
 10
18.905
 20
-1.5386
 30
12.4994
 70
192
 0
VERTEX
 8
R_HRE
 10
18.81
 20
-1.0206
 30
12.648
 70
192
 0
VERTEX
 8
R_HRE
 10
18.8793
 20
-0.9821
 30
12.659
 70
192
 0
VERTEX
 8
R_HRE
 10
18.8793
 20
-0.9821
 30
12.659
 70
192
 0
VERTEX
 8
R_HRE
 10
18.8793
 20
-1.1144
 30
13.1204
 70
192
 0
VERTEX
 8
R_HRE
 10
18.8793
 20
-1.1144
 30
13.1204
 70
192
 0
VERTEX
 8
R_HRE
 10
18.81
 20
-1.1529
 30
13.1094
 70
192
 0
VERTEX
 8
R_HRE
 10
18.81
 20
-1.1529
 30
13.1094
 70
192
 0
VERTEX
 8
R_HRE
 10
18.81
 20
-1.0206
 30
12.648
 70
192
 0
VERTEX
 8
R_HRE
 10
18.3908
 20
-0.6824
 30
12.7449
 70
192
 0
VERTEX
 8
R_HRE
 10
18.4181
 20
-0.6102
 30
12.7657
 70
192
 0
VERTEX
 8
R_HRE
 10
18.4181
 20
-0.6102
 30
12.7657
 70
192
 0
VERTEX
 8
R_HRE
 10
18.4181
 20
-0.7425
 30
13.2271
 70
192
 0
VERTEX
 8
R_HRE
 10
18.4181
 20
-0.7425
 30
13.2271
 70
192
 0
VERTEX
 8
R_HRE
 10
18.3908
 20
-0.8147
 30
13.2064
 70
192
 0
VERTEX
 8
R_HRE
 10
18.3908
 20
-0.8147
 30
13.2064
 70
192
 0
VERTEX
 8
R_HRE
 10
18.3908
 20
-0.6824
 30
12.7449
 70
192
 0
VERTEX
 8
R_HRE
 10
17.8435
 20
-0.6824
 30
12.7449
 70
192
 0
VERTEX
 8
R_HRE
 10
17.8162
 20
-0.6102
 30
12.7657
 70
192
 0
VERTEX
 8
R_HRE
 10
17.8162
 20
-0.6102
 30
12.7657
 70
192
 0
VERTEX
 8
R_HRE
 10
17.8162
 20
-0.7425
 30
13.2271
 70
192
 0
VERTEX
 8
R_HRE
 10
17.8162
 20
-0.7425
 30
13.2271
 70
192
 0
VERTEX
 8
R_HRE
 10
17.8435
 20
-0.8147
 30
13.2064
 70
192
 0
VERTEX
 8
R_HRE
 10
17.8435
 20
-0.8147
 30
13.2064
 70
192
 0
VERTEX
 8
R_HRE
 10
17.8435
 20
-0.6824
 30
12.7449
 70
192
 0
VERTEX
 8
R_HRE
 10
17.4243
 20
-1.0206
 30
12.648
 70
192
 0
VERTEX
 8
R_HRE
 10
17.3551
 20
-0.9821
 30
12.659
 70
192
 0
VERTEX
 8
R_HRE
 10
17.3551
 20
-0.9821
 30
12.659
 70
192
 0
VERTEX
 8
R_HRE
 10
17.3551
 20
-1.1144
 30
13.1204
 70
192
 0
VERTEX
 8
R_HRE
 10
17.3551
 20
-1.1144
 30
13.1204
 70
192
 0
VERTEX
 8
R_HRE
 10
17.4243
 20
-1.1529
 30
13.1094
 70
192
 0
VERTEX
 8
R_HRE
 10
17.4243
 20
-1.1529
 30
13.1094
 70
192
 0
VERTEX
 8
R_HRE
 10
17.4243
 20
-1.0206
 30
12.648
 70
192
 0
VERTEX
 8
R_HRE
 10
17.3293
 20
-1.5386
 30
12.4994
 70
192
 0
VERTEX
 8
R_HRE
 10
17.2505
 20
-1.552
 30
12.4956
 70
192
 0
VERTEX
 8
R_HRE
 10
17.2505
 20
-1.552
 30
12.4956
 70
192
 0
VERTEX
 8
R_HRE
 10
17.2505
 20
-1.6843
 30
12.957
 70
192
 0
VERTEX
 8
R_HRE
 10
17.2505
 20
-1.6843
 30
12.957
 70
192
 0
VERTEX
 8
R_HRE
 10
17.3293
 20
-1.6709
 30
12.9608
 70
192
 0
VERTEX
 8
R_HRE
 10
17.3293
 20
-1.6709
 30
12.9608
 70
192
 0
VERTEX
 8
R_HRE
 10
17.3293
 20
-1.5386
 30
12.4994
 70
192
 0
VERTEX
 8
R_HRE
 10
17.6029
 20
-1.9942
 30
12.3688
 70
192
 0
VERTEX
 8
R_HRE
 10
17.5515
 20
-2.0531
 30
12.3519
 70
192
 0
VERTEX
 8
R_HRE
 10
17.5515
 20
-2.0531
 30
12.3519
 70
192
 0
VERTEX
 8
R_HRE
 10
17.5515
 20
-2.1854
 30
12.8133
 70
192
 0
VERTEX
 8
R_HRE
 10
17.5515
 20
-2.1854
 30
12.8133
 70
192
 0
VERTEX
 8
R_HRE
 10
17.6029
 20
-2.1265
 30
12.8302
 70
192
 0
VERTEX
 8
R_HRE
 10
17.6029
 20
-2.1265
 30
12.8302
 70
192
 0
VERTEX
 8
R_HRE
 10
17.6029
 20
-1.9942
 30
12.3688
 70
192
 0
VERTEX
 8
R_HRE
 10
0
 20
0
 30
0
 70
128
 71
1
 72
2
 73
10
 74
9
 0
VERTEX
 8
R_HRE
 10
0
 20
0
 30
0
 70
128
 71
3
 72
4
 73
12
 74
11
 0
VERTEX
 8
R_HRE
 10
0
 20
0
 30
0
 70
128
 71
5
 72
6
 73
14
 74
13
 0
VERTEX
 8
R_HRE
 10
0
 20
0
 30
0
 70
128
 71
7
 72
8
 73
16
 74
15
 0
VERTEX
 8
R_HRE
 10
0
 20
0
 30
0
 70
128
 71
9
 72
10
 73
18
 74
17
 0
VERTEX
 8
R_HRE
 10
0
 20
0
 30
0
 70
128
 71
11
 72
12
 73
20
 74
19
 0
VERTEX
 8
R_HRE
 10
0
 20
0
 30
0
 70
128
 71
13
 72
14
 73
22
 74
21
 0
VERTEX
 8
R_HRE
 10
0
 20
0
 30
0
 70
128
 71
15
 72
16
 73
24
 74
23
 0
VERTEX
 8
R_HRE
 10
0
 20
0
 30
0
 70
128
 71
17
 72
18
 73
26
 74
25
 0
VERTEX
 8
R_HRE
 10
0
 20
0
 30
0
 70
128
 71
19
 72
20
 73
28
 74
27
 0
VERTEX
 8
R_HRE
 10
0
 20
0
 30
0
 70
128
 71
21
 72
22
 73
30
 74
29
 0
VERTEX
 8
R_HRE
 10
0
 20
0
 30
0
 70
128
 71
23
 72
24
 73
32
 74
31
 0
VERTEX
 8
R_HRE
 10
0
 20
0
 30
0
 70
128
 71
25
 72
26
 73
34
 74
33
 0
VERTEX
 8
R_HRE
 10
0
 20
0
 30
0
 70
128
 71
27
 72
28
 73
36
 74
35
 0
VERTEX
 8
R_HRE
 10
0
 20
0
 30
0
 70
128
 71
29
 72
30
 73
38
 74
37
 0
VERTEX
 8
R_HRE
 10
0
 20
0
 30
0
 70
128
 71
31
 72
32
 73
40
 74
39
 0
VERTEX
 8
R_HRE
 10
0
 20
0
 30
0
 70
128
 71
33
 72
34
 73
42
 74
41
 0
VERTEX
 8
R_HRE
 10
0
 20
0
 30
0
 70
128
 71
35
 72
36
 73
44
 74
43
 0
VERTEX
 8
R_HRE
 10
0
 20
0
 30
0
 70
128
 71
37
 72
38
 73
46
 74
45
 0
VERTEX
 8
R_HRE
 10
0
 20
0
 30
0
 70
128
 71
39
 72
40
 73
48
 74
47
 0
VERTEX
 8
R_HRE
 10
0
 20
0
 30
0
 70
128
 71
41
 72
42
 73
50
 74
49
 0
VERTEX
 8
R_HRE
 10
0
 20
0
 30
0
 70
128
 71
43
 72
44
 73
52
 74
51
 0
VERTEX
 8
R_HRE
 10
0
 20
0
 30
0
 70
128
 71
45
 72
46
 73
54
 74
53
 0
VERTEX
 8
R_HRE
 10
0
 20
0
 30
0
 70
128
 71
47
 72
48
 73
56
 74
55
 0
VERTEX
 8
R_HRE
 10
0
 20
0
 30
0
 70
128
 71
49
 72
50
 73
58
 74
57
 0
VERTEX
 8
R_HRE
 10
0
 20
0
 30
0
 70
128
 71
51
 72
52
 73
60
 74
59
 0
VERTEX
 8
R_HRE
 10
0
 20
0
 30
0
 70
128
 71
53
 72
54
 73
62
 74
61
 0
VERTEX
 8
R_HRE
 10
0
 20
0
 30
0
 70
128
 71
55
 72
56
 73
64
 74
63
 0
VERTEX
 8
R_HRE
 10
0
 20
0
 30
0
 70
128
 71
57
 72
58
 73
66
 74
65
 0
VERTEX
 8
R_HRE
 10
0
 20
0
 30
0
 70
128
 71
59
 72
60
 73
68
 74
67
 0
VERTEX
 8
R_HRE
 10
0
 20
0
 30
0
 70
128
 71
61
 72
62
 73
70
 74
69
 0
VERTEX
 8
R_HRE
 10
0
 20
0
 30
0
 70
128
 71
63
 72
64
 73
72
 74
71
 0
VERTEX
 8
R_HRE
 10
0
 20
0
 30
0
 70
128
 71
65
 72
66
 73
2
 74
1
 0
VERTEX
 8
R_HRE
 10
0
 20
0
 30
0
 70
128
 71
67
 72
68
 73
4
 74
3
 0
VERTEX
 8
R_HRE
 10
0
 20
0
 30
0
 70
128
 71
69
 72
70
 73
6
 74
5
 0
VERTEX
 8
R_HRE
 10
0
 20
0
 30
0
 70
128
 71
71
 72
72
 73
8
 74
7
 0
SEQEND
 0
POLYLINE
 8
ZYLINDER_1
 66
1
 10
0.0
 20
0.0
 30
0.0
 70
64
 71
49
 72
48
 0
VERTEX
 8
ZYLINDER_1
 10
18.1185
 20
-1.5445
 30
13.024
 70
192
 0
VERTEX
 8
ZYLINDER_1
 10
17.6865
 20
-5.1304
 30
22.8148
 70
192
 0
VERTEX
 8
ZYLINDER_1
 10
18.1185
 20
-2.375
 30
12.7858
 70
192
 0
VERTEX
 8
ZYLINDER_1
 10
18.1185
 20
-2.4443
 30
12.8242
 70
192
 0
VERTEX
 8
ZYLINDER_1
 10
18.1185
 20
-5.2801
 30
22.7137
 70
192
 0
VERTEX
 8
ZYLINDER_1
 10
18.1185
 20
-5.2417
 30
22.7829
 70
192
 0
VERTEX
 8
ZYLINDER_1
 10
18.5505
 20
-2.2638
 30
12.8177
 70
192
 0
VERTEX
 8
ZYLINDER_1
 10
18.5785
 20
-2.3258
 30
12.8582
 70
192
 0
VERTEX
 8
ZYLINDER_1
 10
18.5785
 20
-5.1616
 30
22.7476
 70
192
 0
VERTEX
 8
ZYLINDER_1
 10
18.5505
 20
-5.1304
 30
22.8148
 70
192
 0
VERTEX
 8
ZYLINDER_1
 10
18.8667
 20
-1.9598
 30
12.9049
 70
192
 0
VERTEX
 8
ZYLINDER_1
 10
18.9152
 20
-2.0021
 30
12.951
 70
192
 0
VERTEX
 8
ZYLINDER_1
 10
18.9152
 20
-4.8379
 30
22.8405
 70
192
 0
VERTEX
 8
ZYLINDER_1
 10
18.8667
 20
-4.8264
 30
22.902
 70
192
 0
VERTEX
 8
ZYLINDER_1
 10
18.9825
 20
-1.5445
 30
13.024
 70
192
 0
VERTEX
 8
ZYLINDER_1
 10
19.0385
 20
-1.5599
 30
13.0778
 70
192
 0
VERTEX
 8
ZYLINDER_1
 10
19.0385
 20
-4.3957
 30
22.9672
 70
192
 0
VERTEX
 8
ZYLINDER_1
 10
18.9825
 20
-4.4111
 30
23.0211
 70
192
 0
VERTEX
 8
ZYLINDER_1
 10
18.8667
 20
-1.1292
 30
13.143
 70
192
 0
VERTEX
 8
ZYLINDER_1
 10
18.9152
 20
-1.1178
 30
13.2046
 70
192
 0
VERTEX
 8
ZYLINDER_1
 10
18.9152
 20
-3.9535
 30
23.094
 70
192
 0
VERTEX
 8
ZYLINDER_1
 10
18.8667
 20
-3.9959
 30
23.1402
 70
192
 0
VERTEX
 8
ZYLINDER_1
 10
18.5505
 20
-0.8252
 30
13.2302
 70
192
 0
VERTEX
 8
ZYLINDER_1
 10
18.5785
 20
-0.7941
 30
13.2974
 70
192
 0
VERTEX
 8
ZYLINDER_1
 10
18.5785
 20
-3.6298
 30
23.1869
 70
192
 0
VERTEX
 8
ZYLINDER_1
 10
18.5505
 20
-3.6919
 30
23.2273
 70
192
 0
VERTEX
 8
ZYLINDER_1
 10
18.1185
 20
-0.714
 30
13.2621
 70
192
 0
VERTEX
 8
ZYLINDER_1
 10
18.1185
 20
-0.6756
 30
13.3314
 70
192
 0
VERTEX
 8
ZYLINDER_1
 10
18.1185
 20
-3.5113
 30
23.2208
 70
192
 0
VERTEX
 8
ZYLINDER_1
 10
18.1185
 20
-3.5806
 30
23.2592
 70
192
 0
VERTEX
 8
ZYLINDER_1
 10
17.6865
 20
-0.8252
 30
13.2302
 70
192
 0
VERTEX
 8
ZYLINDER_1
 10
17.6585
 20
-0.7941
 30
13.2974
 70
192
 0
VERTEX
 8
ZYLINDER_1
 10
17.6585
 20
-3.6298
 30
23.1869
 70
192
 0
VERTEX
 8
ZYLINDER_1
 10
17.6865
 20
-3.6919
 30
23.2273
 70
192
 0
VERTEX
 8
ZYLINDER_1
 10
17.3702
 20
-1.1292
 30
13.143
 70
192
 0
VERTEX
 8
ZYLINDER_1
 10
17.3217
 20
-1.1178
 30
13.2046
 70
192
 0
VERTEX
 8
ZYLINDER_1
 10
17.3217
 20
-3.9535
 30
23.094
 70
192
 0
VERTEX
 8
ZYLINDER_1
 10
17.3702
 20
-3.9959
 30
23.1402
 70
192
 0
VERTEX
 8
ZYLINDER_1
 10
17.2545
 20
-1.5445
 30
13.024
 70
192
 0
VERTEX
 8
ZYLINDER_1
 10
17.1985
 20
-1.5599
 30
13.0778
 70
192
 0
VERTEX
 8
ZYLINDER_1
 10
17.1985
 20
-4.3957
 30
22.9672
 70
192
 0
VERTEX
 8
ZYLINDER_1
 10
17.2545
 20
-4.4111
 30
23.0211
 70
192
 0
VERTEX
 8
ZYLINDER_1
 10
17.3702
 20
-1.9598
 30
12.9049
 70
192
 0
VERTEX
 8
ZYLINDER_1
 10
17.3217
 20
-2.0021
 30
12.951
 70
192
 0
VERTEX
 8
ZYLINDER_1
 10
17.3217
 20
-4.8379
 30
22.8405
 70
192
 0
VERTEX
 8
ZYLINDER_1
 10
17.3702
 20
-4.8264
 30
22.902
 70
192
 0
VERTEX
 8
ZYLINDER_1
 10
17.6865
 20
-2.2638
 30
12.8177
 70
192
 0
VERTEX
 8
ZYLINDER_1
 10
17.6585
 20
-2.3258
 30
12.8582
 70
192
 0
VERTEX
 8
ZYLINDER_1
 10
17.6585
 20
-5.1616
 30
22.7476
 70
192
 0
VERTEX
 8
ZYLINDER_1
 10
0
 20
0
 30
0
 70
128
 71
1
 72
3
 73
7
 74
7
 0
VERTEX
 8
ZYLINDER_1
 10
0
 20
0
 30
0
 70
128
 71
3
 72
4
 73
8
 74
7
 0
VERTEX
 8
ZYLINDER_1
 10
0
 20
0
 30
0
 70
128
 71
4
 72
5
 73
9
 74
8
 0
VERTEX
 8
ZYLINDER_1
 10
0
 20
0
 30
0
 70
128
 71
5
 72
6
 73
10
 74
9
 0
VERTEX
 8
ZYLINDER_1
 10
0
 20
0
 30
0
 70
128
 71
41
 72
42
 73
46
 74
45
 0
VERTEX
 8
ZYLINDER_1
 10
0
 20
0
 30
0
 70
128
 71
1
 72
7
 73
11
 74
11
 0
VERTEX
 8
ZYLINDER_1
 10
0
 20
0
 30
0
 70
128
 71
7
 72
8
 73
12
 74
11
 0
VERTEX
 8
ZYLINDER_1
 10
0
 20
0
 30
0
 70
128
 71
8
 72
9
 73
13
 74
12
 0
VERTEX
 8
ZYLINDER_1
 10
0
 20
0
 30
0
 70
128
 71
9
 72
10
 73
14
 74
13
 0
VERTEX
 8
ZYLINDER_1
 10
0
 20
0
 30
0
 70
128
 71
1
 72
43
 73
47
 74
47
 0
VERTEX
 8
ZYLINDER_1
 10
0
 20
0
 30
0
 70
128
 71
1
 72
11
 73
15
 74
15
 0
VERTEX
 8
ZYLINDER_1
 10
0
 20
0
 30
0
 70
128
 71
11
 72
12
 73
16
 74
15
 0
VERTEX
 8
ZYLINDER_1
 10
0
 20
0
 30
0
 70
128
 71
12
 72
13
 73
17
 74
16
 0
VERTEX
 8
ZYLINDER_1
 10
0
 20
0
 30
0
 70
128
 71
13
 72
14
 73
18
 74
17
 0
VERTEX
 8
ZYLINDER_1
 10
0
 20
0
 30
0
 70
128
 71
43
 72
44
 73
48
 74
47
 0
VERTEX
 8
ZYLINDER_1
 10
0
 20
0
 30
0
 70
128
 71
1
 72
15
 73
19
 74
19
 0
VERTEX
 8
ZYLINDER_1
 10
0
 20
0
 30
0
 70
128
 71
15
 72
16
 73
20
 74
19
 0
VERTEX
 8
ZYLINDER_1
 10
0
 20
0
 30
0
 70
128
 71
16
 72
17
 73
21
 74
20
 0
VERTEX
 8
ZYLINDER_1
 10
0
 20
0
 30
0
 70
128
 71
17
 72
18
 73
22
 74
21
 0
VERTEX
 8
ZYLINDER_1
 10
0
 20
0
 30
0
 70
128
 71
44
 72
45
 73
49
 74
48
 0
VERTEX
 8
ZYLINDER_1
 10
0
 20
0
 30
0
 70
128
 71
1
 72
19
 73
23
 74
23
 0
VERTEX
 8
ZYLINDER_1
 10
0
 20
0
 30
0
 70
128
 71
19
 72
20
 73
24
 74
23
 0
VERTEX
 8
ZYLINDER_1
 10
0
 20
0
 30
0
 70
128
 71
20
 72
21
 73
25
 74
24
 0
VERTEX
 8
ZYLINDER_1
 10
0
 20
0
 30
0
 70
128
 71
21
 72
22
 73
26
 74
25
 0
VERTEX
 8
ZYLINDER_1
 10
0
 20
0
 30
0
 70
128
 71
45
 72
46
 73
2
 74
49
 0
VERTEX
 8
ZYLINDER_1
 10
0
 20
0
 30
0
 70
128
 71
1
 72
23
 73
27
 74
27
 0
VERTEX
 8
ZYLINDER_1
 10
0
 20
0
 30
0
 70
128
 71
23
 72
24
 73
28
 74
27
 0
VERTEX
 8
ZYLINDER_1
 10
0
 20
0
 30
0
 70
128
 71
24
 72
25
 73
29
 74
28
 0
VERTEX
 8
ZYLINDER_1
 10
0
 20
0
 30
0
 70
128
 71
25
 72
26
 73
30
 74
29
 0
VERTEX
 8
ZYLINDER_1
 10
0
 20
0
 30
0
 70
128
 71
1
 72
47
 73
3
 74
3
 0
VERTEX
 8
ZYLINDER_1
 10
0
 20
0
 30
0
 70
128
 71
1
 72
27
 73
31
 74
31
 0
VERTEX
 8
ZYLINDER_1
 10
0
 20
0
 30
0
 70
128
 71
27
 72
28
 73
32
 74
31
 0
VERTEX
 8
ZYLINDER_1
 10
0
 20
0
 30
0
 70
128
 71
28
 72
29
 73
33
 74
32
 0
VERTEX
 8
ZYLINDER_1
 10
0
 20
0
 30
0
 70
128
 71
29
 72
30
 73
34
 74
33
 0
VERTEX
 8
ZYLINDER_1
 10
0
 20
0
 30
0
 70
128
 71
47
 72
48
 73
4
 74
3
 0
VERTEX
 8
ZYLINDER_1
 10
0
 20
0
 30
0
 70
128
 71
1
 72
31
 73
35
 74
35
 0
VERTEX
 8
ZYLINDER_1
 10
0
 20
0
 30
0
 70
128
 71
31
 72
32
 73
36
 74
35
 0
VERTEX
 8
ZYLINDER_1
 10
0
 20
0
 30
0
 70
128
 71
32
 72
33
 73
37
 74
36
 0
VERTEX
 8
ZYLINDER_1
 10
0
 20
0
 30
0
 70
128
 71
33
 72
34
 73
38
 74
37
 0
VERTEX
 8
ZYLINDER_1
 10
0
 20
0
 30
0
 70
128
 71
48
 72
49
 73
5
 74
4
 0
VERTEX
 8
ZYLINDER_1
 10
0
 20
0
 30
0
 70
128
 71
1
 72
35
 73
39
 74
39
 0
VERTEX
 8
ZYLINDER_1
 10
0
 20
0
 30
0
 70
128
 71
35
 72
36
 73
40
 74
39
 0
VERTEX
 8
ZYLINDER_1
 10
0
 20
0
 30
0
 70
128
 71
36
 72
37
 73
41
 74
40
 0
VERTEX
 8
ZYLINDER_1
 10
0
 20
0
 30
0
 70
128
 71
37
 72
38
 73
42
 74
41
 0
VERTEX
 8
ZYLINDER_1
 10
0
 20
0
 30
0
 70
128
 71
49
 72
2
 73
6
 74
5
 0
VERTEX
 8
ZYLINDER_1
 10
0
 20
0
 30
0
 70
128
 71
1
 72
39
 73
43
 74
43
 0
VERTEX
 8
ZYLINDER_1
 10
0
 20
0
 30
0
 70
128
 71
39
 72
40
 73
44
 74
43
 0
VERTEX
 8
ZYLINDER_1
 10
0
 20
0
 30
0
 70
128
 71
40
 72
41
 73
45
 74
44
 0
SEQEND
 0
POLYLINE
 8
ZYLINDER
 66
1
 10
0.0
 20
0.0
 30
0.0
 70
64
 71
161
 72
146
 0
VERTEX
 8
ZYLINDER
 10
18.0595
 20
-6.3475
 30
26.4958
 70
192
 0
VERTEX
 8
ZYLINDER
 10
18.1207
 20
-5.7243
 30
27.6007
 70
192
 0
VERTEX
 8
ZYLINDER
 10
18.1207
 20
-5.2318
 30
22.7485
 70
192
 0
VERTEX
 8
ZYLINDER
 10
18.1207
 20
-5.301
 30
22.7869
 70
192
 0
VERTEX
 8
ZYLINDER
 10
18.1207
 20
-6.5932
 30
27.2933
 70
192
 0
VERTEX
 8
ZYLINDER
 10
18.1207
 20
-6.5548
 30
27.3625
 70
192
 0
VERTEX
 8
ZYLINDER
 10
18.5527
 20
-5.1205
 30
22.7804
 70
192
 0
VERTEX
 8
ZYLINDER
 10
18.5807
 20
-5.1826
 30
22.8208
 70
192
 0
VERTEX
 8
ZYLINDER
 10
18.5807
 20
-6.4747
 30
27.3272
 70
192
 0
VERTEX
 8
ZYLINDER
 10
18.5527
 20
-6.4436
 30
27.3944
 70
192
 0
VERTEX
 8
ZYLINDER
 10
18.869
 20
-4.8165
 30
22.8675
 70
192
 0
VERTEX
 8
ZYLINDER
 10
18.9174
 20
-4.8589
 30
22.9137
 70
192
 0
VERTEX
 8
ZYLINDER
 10
18.9175
 20
-6.151
 30
27.4201
 70
192
 0
VERTEX
 8
ZYLINDER
 10
18.869
 20
-6.1396
 30
27.4816
 70
192
 0
VERTEX
 8
ZYLINDER
 10
18.9847
 20
-4.4012
 30
22.9866
 70
192
 0
VERTEX
 8
ZYLINDER
 10
19.0407
 20
-4.4167
 30
23.0405
 70
192
 0
VERTEX
 8
ZYLINDER
 10
19.0407
 20
-5.7089
 30
27.5468
 70
192
 0
VERTEX
 8
ZYLINDER
 10
18.9847
 20
-5.7243
 30
27.6007
 70
192
 0
VERTEX
 8
ZYLINDER
 10
18.869
 20
-3.986
 30
23.1057
 70
192
 0
VERTEX
 8
ZYLINDER
 10
18.9174
 20
-3.9745
 30
23.1672
 70
192
 0
VERTEX
 8
ZYLINDER
 10
18.9174
 20
-5.2667
 30
27.6736
 70
192
 0
VERTEX
 8
ZYLINDER
 10
18.869
 20
-5.309
 30
27.7198
 70
192
 0
VERTEX
 8
ZYLINDER
 10
18.5527
 20
-3.682
 30
23.1929
 70
192
 0
VERTEX
 8
ZYLINDER
 10
18.5807
 20
-3.6508
 30
23.2601
 70
192
 0
VERTEX
 8
ZYLINDER
 10
18.5807
 20
-4.943
 30
27.7665
 70
192
 0
VERTEX
 8
ZYLINDER
 10
18.5527
 20
-5.005
 30
27.8069
 70
192
 0
VERTEX
 8
ZYLINDER
 10
18.1207
 20
-3.5707
 30
23.2248
 70
192
 0
VERTEX
 8
ZYLINDER
 10
18.1207
 20
-3.5323
 30
23.294
 70
192
 0
VERTEX
 8
ZYLINDER
 10
18.1207
 20
-4.8245
 30
27.8004
 70
192
 0
VERTEX
 8
ZYLINDER
 10
18.1207
 20
-4.8938
 30
27.8388
 70
192
 0
VERTEX
 8
ZYLINDER
 10
17.6887
 20
-3.682
 30
23.1929
 70
192
 0
VERTEX
 8
ZYLINDER
 10
17.6607
 20
-3.6508
 30
23.2601
 70
192
 0
VERTEX
 8
ZYLINDER
 10
17.6607
 20
-4.943
 30
27.7665
 70
192
 0
VERTEX
 8
ZYLINDER
 10
17.6887
 20
-5.005
 30
27.8069
 70
192
 0
VERTEX
 8
ZYLINDER
 10
17.3725
 20
-3.986
 30
23.1057
 70
192
 0
VERTEX
 8
ZYLINDER
 10
17.324
 20
-3.9745
 30
23.1672
 70
192
 0
VERTEX
 8
ZYLINDER
 10
17.324
 20
-5.2667
 30
27.6736
 70
192
 0
VERTEX
 8
ZYLINDER
 10
17.3725
 20
-5.309
 30
27.7198
 70
192
 0
VERTEX
 8
ZYLINDER
 10
17.2567
 20
-4.4012
 30
22.9866
 70
192
 0
VERTEX
 8
ZYLINDER
 10
17.2007
 20
-4.4167
 30
23.0405
 70
192
 0
VERTEX
 8
ZYLINDER
 10
17.2007
 20
-5.7089
 30
27.5468
 70
192
 0
VERTEX
 8
ZYLINDER
 10
17.2567
 20
-5.7243
 30
27.6007
 70
192
 0
VERTEX
 8
ZYLINDER
 10
17.3725
 20
-4.8165
 30
22.8675
 70
192
 0
VERTEX
 8
ZYLINDER
 10
17.324
 20
-4.8589
 30
22.9137
 70
192
 0
VERTEX
 8
ZYLINDER
 10
17.324
 20
-6.1511
 30
27.4201
 70
192
 0
VERTEX
 8
ZYLINDER
 10
17.3725
 20
-6.1396
 30
27.4816
 70
192
 0
VERTEX
 8
ZYLINDER
 10
17.6887
 20
-5.1205
 30
22.7804
 70
192
 0
VERTEX
 8
ZYLINDER
 10
17.6607
 20
-5.1826
 30
22.8208
 70
192
 0
VERTEX
 8
ZYLINDER
 10
17.6607
 20
-6.4747
 30
27.3272
 70
192
 0
VERTEX
 8
ZYLINDER
 10
17.6887
 20
-6.4436
 30
27.3944
 70
192
 0
VERTEX
 8
ZYLINDER
 10
18.1207
 20
-5.8
 30
24.527
 70
192
 0
VERTEX
 8
ZYLINDER
 10
18.1207
 20
-6.1739
 30
25.8311
 70
192
 0
VERTEX
 8
ZYLINDER
 10
18.1207
 20
-6.1409
 30
25.7157
 70
192
 0
VERTEX
 8
ZYLINDER
 10
18.1207
 20
-5.6198
 30
23.8984
 70
192
 0
VERTEX
 8
ZYLINDER
 10
18.1207
 20
-5.7297
 30
24.2819
 70
192
 0
VERTEX
 8
ZYLINDER
 10
18.1207
 20
-5.5867
 30
23.7831
 70
192
 0
VERTEX
 8
ZYLINDER
 10
18.1207
 20
-5.6967
 30
24.1665
 70
192
 0
VERTEX
 8
ZYLINDER
 10
18.1207
 20
-5.91
 30
24.9104
 70
192
 0
VERTEX
 8
ZYLINDER
 10
18.1207
 20
-6.0265
 30
25.3169
 70
192
 0
VERTEX
 8
ZYLINDER
 10
18.1207
 20
-6.2574
 30
26.1222
 70
192
 0
VERTEX
 8
ZYLINDER
 10
18.1207
 20
-6.3633
 30
26.4912
 70
192
 0
VERTEX
 8
ZYLINDER
 10
18.1207
 20
-5.943
 30
25.0258
 70
192
 0
VERTEX
 8
ZYLINDER
 10
18.1207
 20
-6.2905
 30
26.2375
 70
192
 0
VERTEX
 8
ZYLINDER
 10
18.1207
 20
-5.8331
 30
24.6423
 70
192
 0
VERTEX
 8
ZYLINDER
 10
18.1207
 20
-6.0596
 30
25.4323
 70
192
 0
VERTEX
 8
ZYLINDER
 10
18.1207
 20
-6.3963
 30
26.6066
 70
192
 0
VERTEX
 8
ZYLINDER
 10
18.1795
 20
-5.7146
 30
24.2862
 70
192
 0
VERTEX
 8
ZYLINDER
 10
18.4386
 20
-5.5048
 30
23.8065
 70
192
 0
VERTEX
 8
ZYLINDER
 10
18.5586
 20
-5.507
 30
23.9308
 70
192
 0
VERTEX
 8
ZYLINDER
 10
18.1795
 20
-5.6046
 30
23.9028
 70
192
 0
VERTEX
 8
ZYLINDER
 10
18.1795
 20
-5.8179
 30
24.6467
 70
192
 0
VERTEX
 8
ZYLINDER
 10
18.1795
 20
-5.7849
 30
24.5313
 70
192
 0
VERTEX
 8
ZYLINDER
 10
18.5586
 20
-5.6169
 30
24.3142
 70
192
 0
VERTEX
 8
ZYLINDER
 10
18.4386
 20
-5.5379
 30
23.9219
 70
192
 0
VERTEX
 8
ZYLINDER
 10
18.5586
 20
-5.4739
 30
23.8154
 70
192
 0
VERTEX
 8
ZYLINDER
 10
18.5586
 20
-5.8302
 30
25.0581
 70
192
 0
VERTEX
 8
ZYLINDER
 10
18.5586
 20
-5.7203
 30
24.6747
 70
192
 0
VERTEX
 8
ZYLINDER
 10
18.4386
 20
-5.6148
 30
24.19
 70
192
 0
VERTEX
 8
ZYLINDER
 10
18.1795
 20
-5.5716
 30
23.7874
 70
192
 0
VERTEX
 8
ZYLINDER
 10
18.1795
 20
-5.9279
 30
25.0301
 70
192
 0
VERTEX
 8
ZYLINDER
 10
18.1795
 20
-5.8948
 30
24.9148
 70
192
 0
VERTEX
 8
ZYLINDER
 10
18.4386
 20
-5.6478
 30
24.3054
 70
192
 0
VERTEX
 8
ZYLINDER
 10
18.5586
 20
-5.5839
 30
24.1989
 70
192
 0
VERTEX
 8
ZYLINDER
 10
18.5586
 20
-5.9468
 30
25.4646
 70
192
 0
VERTEX
 8
ZYLINDER
 10
18.4386
 20
-5.7181
 30
24.5505
 70
192
 0
VERTEX
 8
ZYLINDER
 10
18.4386
 20
-5.8281
 30
24.9339
 70
192
 0
VERTEX
 8
ZYLINDER
 10
18.4386
 20
-5.9446
 30
25.3404
 70
192
 0
VERTEX
 8
ZYLINDER
 10
18.1795
 20
-5.6815
 30
24.1709
 70
192
 0
VERTEX
 8
ZYLINDER
 10
18.1795
 20
-6.0445
 30
25.4366
 70
192
 0
VERTEX
 8
ZYLINDER
 10
18.1795
 20
-6.0114
 30
25.3212
 70
192
 0
VERTEX
 8
ZYLINDER
 10
18.4386
 20
-5.7512
 30
24.6658
 70
192
 0
VERTEX
 8
ZYLINDER
 10
18.5586
 20
-5.6872
 30
24.5593
 70
192
 0
VERTEX
 8
ZYLINDER
 10
18.5586
 20
-6.0612
 30
25.8634
 70
192
 0
VERTEX
 8
ZYLINDER
 10
18.4386
 20
-6.059
 30
25.7392
 70
192
 0
VERTEX
 8
ZYLINDER
 10
18.5586
 20
-6.0281
 30
25.748
 70
192
 0
VERTEX
 8
ZYLINDER
 10
18.1795
 20
-6.1588
 30
25.8354
 70
192
 0
VERTEX
 8
ZYLINDER
 10
18.1795
 20
-6.1257
 30
25.72
 70
192
 0
VERTEX
 8
ZYLINDER
 10
18.4386
 20
-5.8612
 30
25.0493
 70
192
 0
VERTEX
 8
ZYLINDER
 10
18.4386
 20
-6.2086
 30
26.261
 70
192
 0
VERTEX
 8
ZYLINDER
 10
18.5586
 20
-6.1777
 30
26.2699
 70
192
 0
VERTEX
 8
ZYLINDER
 10
18.5586
 20
-5.7972
 30
24.9428
 70
192
 0
VERTEX
 8
ZYLINDER
 10
18.4386
 20
-6.1755
 30
26.1457
 70
192
 0
VERTEX
 8
ZYLINDER
 10
18.5586
 20
-6.1446
 30
26.1545
 70
192
 0
VERTEX
 8
ZYLINDER
 10
18.1795
 20
-6.2754
 30
26.2419
 70
192
 0
VERTEX
 8
ZYLINDER
 10
18.1795
 20
-6.2423
 30
26.1265
 70
192
 0
VERTEX
 8
ZYLINDER
 10
18.4386
 20
-5.9777
 30
25.4557
 70
192
 0
VERTEX
 8
ZYLINDER
 10
18.4386
 20
-6.3144
 30
26.6301
 70
192
 0
VERTEX
 8
ZYLINDER
 10
18.5586
 20
-6.2835
 30
26.6389
 70
192
 0
VERTEX
 8
ZYLINDER
 10
18.5586
 20
-5.9137
 30
25.3492
 70
192
 0
VERTEX
 8
ZYLINDER
 10
18.4386
 20
-6.2814
 30
26.5147
 70
192
 0
VERTEX
 8
ZYLINDER
 10
18.5586
 20
-6.2505
 30
26.5236
 70
192
 0
VERTEX
 8
ZYLINDER
 10
18.1795
 20
-6.3812
 30
26.6109
 70
192
 0
VERTEX
 8
ZYLINDER
 10
18.1795
 20
-6.3481
 30
26.4956
 70
192
 0
VERTEX
 8
ZYLINDER
 10
18.4386
 20
-6.0921
 30
25.8545
 70
192
 0
VERTEX
 8
ZYLINDER
 10
17.6755
 20
-5.5051
 30
23.9313
 70
192
 0
VERTEX
 8
ZYLINDER
 10
17.7955
 20
-5.536
 30
23.9224
 70
192
 0
VERTEX
 8
ZYLINDER
 10
17.6755
 20
-5.472
 30
23.8159
 70
192
 0
VERTEX
 8
ZYLINDER
 10
17.7955
 20
-5.5029
 30
23.8071
 70
192
 0
VERTEX
 8
ZYLINDER
 10
18.0595
 20
-5.604
 30
23.9029
 70
192
 0
VERTEX
 8
ZYLINDER
 10
18.0595
 20
-5.5709
 30
23.7876
 70
192
 0
VERTEX
 8
ZYLINDER
 10
17.6755
 20
-5.6151
 30
24.3148
 70
192
 0
VERTEX
 8
ZYLINDER
 10
17.7955
 20
-5.646
 30
24.3059
 70
192
 0
VERTEX
 8
ZYLINDER
 10
17.6755
 20
-5.582
 30
24.1994
 70
192
 0
VERTEX
 8
ZYLINDER
 10
17.7955
 20
-5.6129
 30
24.1905
 70
192
 0
VERTEX
 8
ZYLINDER
 10
18.0595
 20
-5.714
 30
24.2864
 70
192
 0
VERTEX
 8
ZYLINDER
 10
18.0595
 20
-5.6809
 30
24.1711
 70
192
 0
VERTEX
 8
ZYLINDER
 10
17.6755
 20
-5.7184
 30
24.6752
 70
192
 0
VERTEX
 8
ZYLINDER
 10
17.7955
 20
-5.7493
 30
24.6663
 70
192
 0
VERTEX
 8
ZYLINDER
 10
17.6755
 20
-5.6853
 30
24.5599
 70
192
 0
VERTEX
 8
ZYLINDER
 10
17.7955
 20
-5.7162
 30
24.551
 70
192
 0
VERTEX
 8
ZYLINDER
 10
18.0595
 20
-5.8173
 30
24.6469
 70
192
 0
VERTEX
 8
ZYLINDER
 10
18.0595
 20
-5.7842
 30
24.5315
 70
192
 0
VERTEX
 8
ZYLINDER
 10
17.6755
 20
-5.8284
 30
25.0587
 70
192
 0
VERTEX
 8
ZYLINDER
 10
17.7955
 20
-5.8593
 30
25.0498
 70
192
 0
VERTEX
 8
ZYLINDER
 10
17.7955
 20
-5.8262
 30
24.9345
 70
192
 0
VERTEX
 8
ZYLINDER
 10
17.6755
 20
-5.7953
 30
24.9433
 70
192
 0
VERTEX
 8
ZYLINDER
 10
18.0595
 20
-5.9273
 30
25.0303
 70
192
 0
VERTEX
 8
ZYLINDER
 10
18.0595
 20
-5.8942
 30
24.915
 70
192
 0
VERTEX
 8
ZYLINDER
 10
17.6755
 20
-5.9449
 30
25.4651
 70
192
 0
VERTEX
 8
ZYLINDER
 10
17.7955
 20
-5.9758
 30
25.4563
 70
192
 0
VERTEX
 8
ZYLINDER
 10
17.7955
 20
-5.9428
 30
25.3409
 70
192
 0
VERTEX
 8
ZYLINDER
 10
17.6755
 20
-5.9118
 30
25.3498
 70
192
 0
VERTEX
 8
ZYLINDER
 10
18.0595
 20
-6.0438
 30
25.4368
 70
192
 0
VERTEX
 8
ZYLINDER
 10
18.0595
 20
-6.0107
 30
25.3214
 70
192
 0
VERTEX
 8
ZYLINDER
 10
17.6755
 20
-6.0593
 30
25.8639
 70
192
 0
VERTEX
 8
ZYLINDER
 10
17.7955
 20
-6.0902
 30
25.8551
 70
192
 0
VERTEX
 8
ZYLINDER
 10
17.7955
 20
-6.0571
 30
25.7397
 70
192
 0
VERTEX
 8
ZYLINDER
 10
17.6755
 20
-6.0262
 30
25.7486
 70
192
 0
VERTEX
 8
ZYLINDER
 10
18.0595
 20
-6.1582
 30
25.8356
 70
192
 0
VERTEX
 8
ZYLINDER
 10
18.0595
 20
-6.1251
 30
25.7202
 70
192
 0
VERTEX
 8
ZYLINDER
 10
17.6755
 20
-6.1758
 30
26.2704
 70
192
 0
VERTEX
 8
ZYLINDER
 10
17.6755
 20
-6.1428
 30
26.1551
 70
192
 0
VERTEX
 8
ZYLINDER
 10
17.7955
 20
-6.2067
 30
26.2615
 70
192
 0
VERTEX
 8
ZYLINDER
 10
17.7955
 20
-6.1737
 30
26.1462
 70
192
 0
VERTEX
 8
ZYLINDER
 10
18.0595
 20
-6.2747
 30
26.242
 70
192
 0
VERTEX
 8
ZYLINDER
 10
18.0595
 20
-6.2417
 30
26.1267
 70
192
 0
VERTEX
 8
ZYLINDER
 10
17.6755
 20
-6.2817
 30
26.6395
 70
192
 0
VERTEX
 8
ZYLINDER
 10
17.6755
 20
-6.2486
 30
26.5241
 70
192
 0
VERTEX
 8
ZYLINDER
 10
17.7955
 20
-6.3126
 30
26.6306
 70
192
 0
VERTEX
 8
ZYLINDER
 10
17.7955
 20
-6.2795
 30
26.5153
 70
192
 0
VERTEX
 8
ZYLINDER
 10
18.0595
 20
-6.3806
 30
26.6111
 70
192
 0
VERTEX
 8
ZYLINDER
 10
0
 20
0
 30
0
 70
128
 71
49
 72
145
 73
148
 74
148
 0
VERTEX
 8
ZYLINDER
 10
0
 20
0
 30
0
 70
128
 71
3
 72
4
 73
8
 74
7
 0
VERTEX
 8
ZYLINDER
 10
0
 20
0
 30
0
 70
128
 71
98
 72
80
 73
90
 74
87
 0
VERTEX
 8
ZYLINDER
 10
0
 20
0
 30
0
 70
128
 71
80
 72
98
 73
86
 74
81
 0
VERTEX
 8
ZYLINDER
 10
0
 20
0
 30
0
 70
128
 71
90
 72
89
 73
106
 74
87
 0
VERTEX
 8
ZYLINDER
 10
0
 20
0
 30
0
 70
128
 71
89
 72
65
 73
53
 74
97
 0
VERTEX
 8
ZYLINDER
 10
0
 20
0
 30
0
 70
128
 71
89
 72
97
 73
94
 74
106
 0
VERTEX
 8
ZYLINDER
 10
0
 20
0
 30
0
 70
128
 71
97
 72
96
 73
114
 74
94
 0
VERTEX
 8
ZYLINDER
 10
0
 20
0
 30
0
 70
128
 71
80
 72
62
 73
59
 74
90
 0
VERTEX
 8
ZYLINDER
 10
0
 20
0
 30
0
 70
128
 71
105
 72
96
 73
52
 74
60
 0
VERTEX
 8
ZYLINDER
 10
0
 20
0
 30
0
 70
128
 71
96
 72
105
 73
102
 74
114
 0
VERTEX
 8
ZYLINDER
 10
0
 20
0
 30
0
 70
128
 71
105
 72
104
 73
99
 74
102
 0
VERTEX
 8
ZYLINDER
 10
0
 20
0
 30
0
 70
128
 71
113
 72
104
 73
63
 74
61
 0
VERTEX
 8
ZYLINDER
 10
0
 20
0
 30
0
 70
128
 71
99
 72
104
 73
113
 74
110
 0
VERTEX
 8
ZYLINDER
 10
0
 20
0
 30
0
 70
128
 71
113
 72
112
 73
107
 74
110
 0
VERTEX
 8
ZYLINDER
 10
0
 20
0
 30
0
 70
128
 71
112
 72
66
 73
5
 74
5
 0
VERTEX
 8
ZYLINDER
 10
0
 20
0
 30
0
 70
128
 71
107
 72
112
 73
5
 74
9
 0
VERTEX
 8
ZYLINDER
 10
0
 20
0
 30
0
 70
128
 71
9
 72
8
 73
76
 74
109
 0
VERTEX
 8
ZYLINDER
 10
0
 20
0
 30
0
 70
128
 71
9
 72
109
 73
84
 74
84
 0
VERTEX
 8
ZYLINDER
 10
0
 20
0
 30
0
 70
128
 71
9
 72
84
 73
95
 74
95
 0
VERTEX
 8
ZYLINDER
 10
0
 20
0
 30
0
 70
128
 71
9
 72
95
 73
93
 74
93
 0
VERTEX
 8
ZYLINDER
 10
0
 20
0
 30
0
 70
128
 71
9
 72
93
 73
103
 74
103
 0
VERTEX
 8
ZYLINDER
 10
0
 20
0
 30
0
 70
128
 71
9
 72
103
 73
100
 74
100
 0
VERTEX
 8
ZYLINDER
 10
0
 20
0
 30
0
 70
128
 71
9
 72
100
 73
111
 74
111
 0
VERTEX
 8
ZYLINDER
 10
0
 20
0
 30
0
 70
128
 71
9
 72
111
 73
108
 74
108
 0
VERTEX
 8
ZYLINDER
 10
0
 20
0
 30
0
 70
128
 71
9
 72
108
 73
107
 74
107
 0
VERTEX
 8
ZYLINDER
 10
0
 20
0
 30
0
 70
128
 71
68
 72
8
 73
4
 74
79
 0
VERTEX
 8
ZYLINDER
 10
0
 20
0
 30
0
 70
128
 71
8
 72
68
 73
75
 74
75
 0
VERTEX
 8
ZYLINDER
 10
0
 20
0
 30
0
 70
128
 71
8
 72
75
 73
69
 74
69
 0
VERTEX
 8
ZYLINDER
 10
0
 20
0
 30
0
 70
128
 71
8
 72
69
 73
83
 74
83
 0
VERTEX
 8
ZYLINDER
 10
0
 20
0
 30
0
 70
128
 71
8
 72
83
 73
73
 74
73
 0
VERTEX
 8
ZYLINDER
 10
0
 20
0
 30
0
 70
128
 71
8
 72
73
 73
92
 74
92
 0
VERTEX
 8
ZYLINDER
 10
0
 20
0
 30
0
 70
128
 71
8
 72
92
 73
77
 74
77
 0
VERTEX
 8
ZYLINDER
 10
0
 20
0
 30
0
 70
128
 71
8
 72
77
 73
101
 74
101
 0
VERTEX
 8
ZYLINDER
 10
0
 20
0
 30
0
 70
128
 71
8
 72
101
 73
76
 74
76
 0
VERTEX
 8
ZYLINDER
 10
0
 20
0
 30
0
 70
128
 71
4
 72
56
 73
79
 74
79
 0
VERTEX
 8
ZYLINDER
 10
0
 20
0
 30
0
 70
128
 71
68
 72
79
 73
70
 74
74
 0
VERTEX
 8
ZYLINDER
 10
0
 20
0
 30
0
 70
128
 71
70
 72
54
 73
57
 74
88
 0
VERTEX
 8
ZYLINDER
 10
0
 20
0
 30
0
 70
128
 71
74
 72
70
 73
88
 74
78
 0
VERTEX
 8
ZYLINDER
 10
0
 20
0
 30
0
 70
128
 71
78
 72
88
 73
67
 74
82
 0
VERTEX
 8
ZYLINDER
 10
0
 20
0
 30
0
 70
128
 71
72
 72
67
 73
55
 74
51
 0
VERTEX
 8
ZYLINDER
 10
0
 20
0
 30
0
 70
128
 71
67
 72
72
 73
85
 74
82
 0
VERTEX
 8
ZYLINDER
 10
0
 20
0
 30
0
 70
128
 71
72
 72
71
 73
91
 74
85
 0
VERTEX
 8
ZYLINDER
 10
0
 20
0
 30
0
 70
128
 71
81
 72
71
 73
64
 74
58
 0
VERTEX
 8
ZYLINDER
 10
0
 20
0
 30
0
 70
128
 71
71
 72
81
 73
86
 74
91
 0
VERTEX
 8
ZYLINDER
 10
0
 20
0
 30
0
 70
128
 71
78
 72
83
 73
69
 74
74
 0
VERTEX
 8
ZYLINDER
 10
0
 20
0
 30
0
 70
128
 71
92
 72
73
 73
82
 74
85
 0
VERTEX
 8
ZYLINDER
 10
0
 20
0
 30
0
 70
128
 71
114
 72
102
 73
103
 74
93
 0
VERTEX
 8
ZYLINDER
 10
0
 20
0
 30
0
 70
128
 71
100
 72
99
 73
110
 74
111
 0
VERTEX
 8
ZYLINDER
 10
0
 20
0
 30
0
 70
128
 71
95
 72
84
 73
106
 74
94
 0
VERTEX
 8
ZYLINDER
 10
0
 20
0
 30
0
 70
128
 71
87
 72
109
 73
76
 74
98
 0
VERTEX
 8
ZYLINDER
 10
0
 20
0
 30
0
 70
128
 71
91
 72
86
 73
101
 74
77
 0
VERTEX
 8
ZYLINDER
 10
0
 20
0
 30
0
 70
128
 71
5
 72
66
 73
161
 74
161
 0
VERTEX
 8
ZYLINDER
 10
0
 20
0
 30
0
 70
128
 71
5
 72
161
 73
159
 74
49
 0
VERTEX
 8
ZYLINDER
 10
0
 20
0
 30
0
 70
128
 71
159
 72
161
 73
1
 74
160
 0
VERTEX
 8
ZYLINDER
 10
0
 20
0
 30
0
 70
128
 71
155
 72
1
 73
61
 74
63
 0
VERTEX
 8
ZYLINDER
 10
0
 20
0
 30
0
 70
128
 71
1
 72
155
 73
153
 74
160
 0
VERTEX
 8
ZYLINDER
 10
0
 20
0
 30
0
 70
128
 71
153
 72
155
 73
156
 74
154
 0
VERTEX
 8
ZYLINDER
 10
0
 20
0
 30
0
 70
128
 71
149
 72
156
 73
60
 74
52
 0
VERTEX
 8
ZYLINDER
 10
0
 20
0
 30
0
 70
128
 71
154
 72
156
 73
149
 74
146
 0
VERTEX
 8
ZYLINDER
 10
0
 20
0
 30
0
 70
128
 71
5
 72
6
 73
10
 74
9
 0
VERTEX
 8
ZYLINDER
 10
0
 20
0
 30
0
 70
128
 71
6
 72
2
 73
10
 74
10
 0
VERTEX
 8
ZYLINDER
 10
0
 20
0
 30
0
 70
128
 71
49
 72
148
 73
139
 74
139
 0
VERTEX
 8
ZYLINDER
 10
0
 20
0
 30
0
 70
128
 71
7
 72
8
 73
12
 74
11
 0
VERTEX
 8
ZYLINDER
 10
0
 20
0
 30
0
 70
128
 71
8
 72
9
 73
13
 74
12
 0
VERTEX
 8
ZYLINDER
 10
0
 20
0
 30
0
 70
128
 71
9
 72
10
 73
14
 74
13
 0
VERTEX
 8
ZYLINDER
 10
0
 20
0
 30
0
 70
128
 71
10
 72
2
 73
14
 74
14
 0
VERTEX
 8
ZYLINDER
 10
0
 20
0
 30
0
 70
128
 71
49
 72
139
 73
142
 74
142
 0
VERTEX
 8
ZYLINDER
 10
0
 20
0
 30
0
 70
128
 71
11
 72
12
 73
16
 74
15
 0
VERTEX
 8
ZYLINDER
 10
0
 20
0
 30
0
 70
128
 71
12
 72
13
 73
17
 74
16
 0
VERTEX
 8
ZYLINDER
 10
0
 20
0
 30
0
 70
128
 71
13
 72
14
 73
18
 74
17
 0
VERTEX
 8
ZYLINDER
 10
0
 20
0
 30
0
 70
128
 71
14
 72
2
 73
18
 74
18
 0
VERTEX
 8
ZYLINDER
 10
0
 20
0
 30
0
 70
128
 71
152
 72
154
 73
146
 74
145
 0
VERTEX
 8
ZYLINDER
 10
0
 20
0
 30
0
 70
128
 71
15
 72
16
 73
20
 74
19
 0
VERTEX
 8
ZYLINDER
 10
0
 20
0
 30
0
 70
128
 71
16
 72
17
 73
21
 74
20
 0
VERTEX
 8
ZYLINDER
 10
0
 20
0
 30
0
 70
128
 71
17
 72
18
 73
22
 74
21
 0
VERTEX
 8
ZYLINDER
 10
0
 20
0
 30
0
 70
128
 71
18
 72
2
 73
22
 74
22
 0
VERTEX
 8
ZYLINDER
 10
0
 20
0
 30
0
 70
128
 71
160
 72
153
 73
151
 74
158
 0
VERTEX
 8
ZYLINDER
 10
0
 20
0
 30
0
 70
128
 71
19
 72
20
 73
24
 74
23
 0
VERTEX
 8
ZYLINDER
 10
0
 20
0
 30
0
 70
128
 71
20
 72
21
 73
25
 74
24
 0
VERTEX
 8
ZYLINDER
 10
0
 20
0
 30
0
 70
128
 71
21
 72
22
 73
26
 74
25
 0
VERTEX
 8
ZYLINDER
 10
0
 20
0
 30
0
 70
128
 71
22
 72
2
 73
26
 74
26
 0
VERTEX
 8
ZYLINDER
 10
0
 20
0
 30
0
 70
128
 71
116
 72
115
 73
123
 74
124
 0
VERTEX
 8
ZYLINDER
 10
0
 20
0
 30
0
 70
128
 71
23
 72
24
 73
28
 74
27
 0
VERTEX
 8
ZYLINDER
 10
0
 20
0
 30
0
 70
128
 71
24
 72
25
 73
29
 74
28
 0
VERTEX
 8
ZYLINDER
 10
0
 20
0
 30
0
 70
128
 71
25
 72
26
 73
30
 74
29
 0
VERTEX
 8
ZYLINDER
 10
0
 20
0
 30
0
 70
128
 71
26
 72
2
 73
30
 74
30
 0
VERTEX
 8
ZYLINDER
 10
0
 20
0
 30
0
 70
128
 71
139
 72
148
 73
147
 74
140
 0
VERTEX
 8
ZYLINDER
 10
0
 20
0
 30
0
 70
128
 71
27
 72
28
 73
32
 74
31
 0
VERTEX
 8
ZYLINDER
 10
0
 20
0
 30
0
 70
128
 71
28
 72
29
 73
33
 74
32
 0
VERTEX
 8
ZYLINDER
 10
0
 20
0
 30
0
 70
128
 71
29
 72
30
 73
34
 74
33
 0
VERTEX
 8
ZYLINDER
 10
0
 20
0
 30
0
 70
128
 71
30
 72
2
 73
34
 74
34
 0
VERTEX
 8
ZYLINDER
 10
0
 20
0
 30
0
 70
128
 71
142
 72
141
 73
134
 74
133
 0
VERTEX
 8
ZYLINDER
 10
0
 20
0
 30
0
 70
128
 71
31
 72
32
 73
36
 74
35
 0
VERTEX
 8
ZYLINDER
 10
0
 20
0
 30
0
 70
128
 71
32
 72
33
 73
37
 74
36
 0
VERTEX
 8
ZYLINDER
 10
0
 20
0
 30
0
 70
128
 71
33
 72
34
 73
38
 74
37
 0
VERTEX
 8
ZYLINDER
 10
0
 20
0
 30
0
 70
128
 71
34
 72
2
 73
38
 74
38
 0
VERTEX
 8
ZYLINDER
 10
0
 20
0
 30
0
 70
128
 71
127
 72
136
 73
135
 74
128
 0
VERTEX
 8
ZYLINDER
 10
0
 20
0
 30
0
 70
128
 71
35
 72
36
 73
40
 74
39
 0
VERTEX
 8
ZYLINDER
 10
0
 20
0
 30
0
 70
128
 71
36
 72
37
 73
41
 74
40
 0
VERTEX
 8
ZYLINDER
 10
0
 20
0
 30
0
 70
128
 71
37
 72
38
 73
42
 74
41
 0
VERTEX
 8
ZYLINDER
 10
0
 20
0
 30
0
 70
128
 71
38
 72
2
 73
42
 74
42
 0
VERTEX
 8
ZYLINDER
 10
0
 20
0
 30
0
 70
128
 71
129
 72
130
 73
122
 74
121
 0
VERTEX
 8
ZYLINDER
 10
0
 20
0
 30
0
 70
128
 71
39
 72
40
 73
44
 74
43
 0
VERTEX
 8
ZYLINDER
 10
0
 20
0
 30
0
 70
128
 71
40
 72
41
 73
45
 74
44
 0
VERTEX
 8
ZYLINDER
 10
0
 20
0
 30
0
 70
128
 71
41
 72
42
 73
46
 74
45
 0
VERTEX
 8
ZYLINDER
 10
0
 20
0
 30
0
 70
128
 71
42
 72
2
 73
46
 74
46
 0
VERTEX
 8
ZYLINDER
 10
0
 20
0
 30
0
 70
128
 71
49
 72
50
 73
6
 74
5
 0
VERTEX
 8
ZYLINDER
 10
0
 20
0
 30
0
 70
128
 71
43
 72
44
 73
48
 74
47
 0
VERTEX
 8
ZYLINDER
 10
0
 20
0
 30
0
 70
128
 71
44
 72
45
 73
49
 74
48
 0
VERTEX
 8
ZYLINDER
 10
0
 20
0
 30
0
 70
128
 71
45
 72
46
 73
50
 74
49
 0
VERTEX
 8
ZYLINDER
 10
0
 20
0
 30
0
 70
128
 71
46
 72
2
 73
50
 74
50
 0
VERTEX
 8
ZYLINDER
 10
0
 20
0
 30
0
 70
128
 71
50
 72
2
 73
6
 74
6
 0
VERTEX
 8
ZYLINDER
 10
0
 20
0
 30
0
 70
128
 71
47
 72
48
 73
4
 74
3
 0
VERTEX
 8
ZYLINDER
 10
0
 20
0
 30
0
 70
128
 71
146
 72
149
 73
150
 74
147
 0
VERTEX
 8
ZYLINDER
 10
0
 20
0
 30
0
 70
128
 71
150
 72
53
 73
65
 74
143
 0
VERTEX
 8
ZYLINDER
 10
0
 20
0
 30
0
 70
128
 71
147
 72
150
 73
143
 74
140
 0
VERTEX
 8
ZYLINDER
 10
0
 20
0
 30
0
 70
128
 71
140
 72
143
 73
144
 74
141
 0
VERTEX
 8
ZYLINDER
 10
0
 20
0
 30
0
 70
128
 71
144
 72
59
 73
62
 74
137
 0
VERTEX
 8
ZYLINDER
 10
0
 20
0
 30
0
 70
128
 71
141
 72
144
 73
137
 74
134
 0
VERTEX
 8
ZYLINDER
 10
0
 20
0
 30
0
 70
128
 71
137
 72
138
 73
135
 74
134
 0
VERTEX
 8
ZYLINDER
 10
0
 20
0
 30
0
 70
128
 71
131
 72
138
 73
58
 74
64
 0
VERTEX
 8
ZYLINDER
 10
0
 20
0
 30
0
 70
128
 71
138
 72
131
 73
128
 74
135
 0
VERTEX
 8
ZYLINDER
 10
0
 20
0
 30
0
 70
128
 71
128
 72
131
 73
132
 74
130
 0
VERTEX
 8
ZYLINDER
 10
0
 20
0
 30
0
 70
128
 71
125
 72
132
 73
51
 74
55
 0
VERTEX
 8
ZYLINDER
 10
0
 20
0
 30
0
 70
128
 71
130
 72
132
 73
125
 74
122
 0
VERTEX
 8
ZYLINDER
 10
0
 20
0
 30
0
 70
128
 71
125
 72
126
 73
124
 74
122
 0
VERTEX
 8
ZYLINDER
 10
0
 20
0
 30
0
 70
128
 71
126
 72
57
 73
54
 74
119
 0
VERTEX
 8
ZYLINDER
 10
0
 20
0
 30
0
 70
128
 71
124
 72
126
 73
119
 74
116
 0
VERTEX
 8
ZYLINDER
 10
0
 20
0
 30
0
 70
128
 71
116
 72
119
 73
120
 74
118
 0
VERTEX
 8
ZYLINDER
 10
0
 20
0
 30
0
 70
128
 71
120
 72
56
 73
4
 74
4
 0
VERTEX
 8
ZYLINDER
 10
0
 20
0
 30
0
 70
128
 71
118
 72
120
 73
4
 74
48
 0
VERTEX
 8
ZYLINDER
 10
0
 20
0
 30
0
 70
128
 71
133
 72
48
 73
49
 74
142
 0
VERTEX
 8
ZYLINDER
 10
0
 20
0
 30
0
 70
128
 71
48
 72
133
 73
136
 74
136
 0
VERTEX
 8
ZYLINDER
 10
0
 20
0
 30
0
 70
128
 71
48
 72
136
 73
127
 74
127
 0
VERTEX
 8
ZYLINDER
 10
0
 20
0
 30
0
 70
128
 71
48
 72
127
 73
129
 74
129
 0
VERTEX
 8
ZYLINDER
 10
0
 20
0
 30
0
 70
128
 71
48
 72
129
 73
121
 74
121
 0
VERTEX
 8
ZYLINDER
 10
0
 20
0
 30
0
 70
128
 71
48
 72
121
 73
123
 74
123
 0
VERTEX
 8
ZYLINDER
 10
0
 20
0
 30
0
 70
128
 71
48
 72
123
 73
115
 74
115
 0
VERTEX
 8
ZYLINDER
 10
0
 20
0
 30
0
 70
128
 71
48
 72
115
 73
117
 74
117
 0
VERTEX
 8
ZYLINDER
 10
0
 20
0
 30
0
 70
128
 71
48
 72
117
 73
118
 74
118
 0
VERTEX
 8
ZYLINDER
 10
0
 20
0
 30
0
 70
128
 71
49
 72
159
 73
157
 74
157
 0
VERTEX
 8
ZYLINDER
 10
0
 20
0
 30
0
 70
128
 71
49
 72
157
 73
158
 74
158
 0
VERTEX
 8
ZYLINDER
 10
0
 20
0
 30
0
 70
128
 71
49
 72
158
 73
151
 74
151
 0
VERTEX
 8
ZYLINDER
 10
0
 20
0
 30
0
 70
128
 71
49
 72
151
 73
152
 74
152
 0
VERTEX
 8
ZYLINDER
 10
0
 20
0
 30
0
 70
128
 71
49
 72
152
 73
145
 74
145
 0
SEQEND
 0
POLYLINE
 8
ROSETTE_2
 66
1
 10
0.0
 20
0.0
 30
0.0
 70
64
 71
60
 72
43
 0
VERTEX
 8
ROSETTE_2
 10
15.3808
 20
-0.1619
 30
9.9358
 70
192
 0
VERTEX
 8
ROSETTE_2
 10
20.9196
 20
-0.7441
 30
9.6158
 70
192
 0
VERTEX
 8
ROSETTE_2
 10
20.9196
 20
-0.7441
 30
9.6158
 70
192
 0
VERTEX
 8
ROSETTE_2
 10
20.9196
 20
-0.7441
 30
9.9358
 70
192
 0
VERTEX
 8
ROSETTE_2
 10
20.9196
 20
-0.7441
 30
9.9358
 70
192
 0
VERTEX
 8
ROSETTE_2
 10
15.3808
 20
-1.3262
 30
9.6158
 70
192
 0
VERTEX
 8
ROSETTE_2
 10
15.3808
 20
-1.3262
 30
9.6158
 70
192
 0
VERTEX
 8
ROSETTE_2
 10
15.3808
 20
-1.3262
 30
9.9358
 70
192
 0
VERTEX
 8
ROSETTE_2
 10
15.3808
 20
-1.3262
 30
9.9358
 70
192
 0
VERTEX
 8
ROSETTE_2
 10
20.6775
 20
0.3948
 30
9.6158
 70
192
 0
VERTEX
 8
ROSETTE_2
 10
20.6775
 20
0.3948
 30
9.6158
 70
192
 0
VERTEX
 8
ROSETTE_2
 10
20.6775
 20
0.3948
 30
9.9358
 70
192
 0
VERTEX
 8
ROSETTE_2
 10
20.6775
 20
0.3948
 30
9.9358
 70
192
 0
VERTEX
 8
ROSETTE_2
 10
15.8544
 20
-2.3899
 30
9.6158
 70
192
 0
VERTEX
 8
ROSETTE_2
 10
15.8544
 20
-2.3899
 30
9.6158
 70
192
 0
VERTEX
 8
ROSETTE_2
 10
15.8544
 20
-2.3899
 30
9.9358
 70
192
 0
VERTEX
 8
ROSETTE_2
 10
15.8544
 20
-2.3899
 30
9.9358
 70
192
 0
VERTEX
 8
ROSETTE_2
 10
19.9932
 20
1.3367
 30
9.6158
 70
192
 0
VERTEX
 8
ROSETTE_2
 10
19.9932
 20
1.3367
 30
9.6158
 70
192
 0
VERTEX
 8
ROSETTE_2
 10
19.9932
 20
1.3367
 30
9.9358
 70
192
 0
VERTEX
 8
ROSETTE_2
 10
19.9932
 20
1.3367
 30
9.9358
 70
192
 0
VERTEX
 8
ROSETTE_2
 10
16.7196
 20
-3.1689
 30
9.6158
 70
192
 0
VERTEX
 8
ROSETTE_2
 10
16.7196
 20
-3.1689
 30
9.6158
 70
192
 0
VERTEX
 8
ROSETTE_2
 10
16.7196
 20
-3.1689
 30
9.9358
 70
192
 0
VERTEX
 8
ROSETTE_2
 10
16.7196
 20
-3.1689
 30
9.9358
 70
192
 0
VERTEX
 8
ROSETTE_2
 10
18.9849
 20
1.9189
 30
9.6158
 70
192
 0
VERTEX
 8
ROSETTE_2
 10
18.9849
 20
1.9189
 30
9.6158
 70
192
 0
VERTEX
 8
ROSETTE_2
 10
18.9849
 20
1.9189
 30
9.9358
 70
192
 0
VERTEX
 8
ROSETTE_2
 10
18.9849
 20
1.9189
 30
9.9358
 70
192
 0
VERTEX
 8
ROSETTE_2
 10
17.8269
 20
-3.5287
 30
9.6158
 70
192
 0
VERTEX
 8
ROSETTE_2
 10
17.8269
 20
-3.5287
 30
9.6158
 70
192
 0
VERTEX
 8
ROSETTE_2
 10
17.8269
 20
-3.5287
 30
9.9358
 70
192
 0
VERTEX
 8
ROSETTE_2
 10
17.8269
 20
-3.5287
 30
9.9358
 70
192
 0
VERTEX
 8
ROSETTE_2
 10
17.8269
 20
2.0406
 30
9.6158
 70
192
 0
VERTEX
 8
ROSETTE_2
 10
17.8269
 20
2.0406
 30
9.6158
 70
192
 0
VERTEX
 8
ROSETTE_2
 10
17.8269
 20
2.0406
 30
9.9358
 70
192
 0
VERTEX
 8
ROSETTE_2
 10
17.8269
 20
2.0406
 30
9.9358
 70
192
 0
VERTEX
 8
ROSETTE_2
 10
18.9849
 20
-3.407
 30
9.6158
 70
192
 0
VERTEX
 8
ROSETTE_2
 10
18.9849
 20
-3.407
 30
9.6158
 70
192
 0
VERTEX
 8
ROSETTE_2
 10
18.9849
 20
-3.407
 30
9.9358
 70
192
 0
VERTEX
 8
ROSETTE_2
 10
18.9849
 20
-3.407
 30
9.9358
 70
192
 0
VERTEX
 8
ROSETTE_2
 10
16.7196
 20
1.6808
 30
9.6158
 70
192
 0
VERTEX
 8
ROSETTE_2
 10
16.7196
 20
1.6808
 30
9.6158
 70
192
 0
VERTEX
 8
ROSETTE_2
 10
16.7196
 20
1.6808
 30
9.9358
 70
192
 0
VERTEX
 8
ROSETTE_2
 10
16.7196
 20
1.6808
 30
9.9358
 70
192
 0
VERTEX
 8
ROSETTE_2
 10
19.9932
 20
-2.8249
 30
9.6158
 70
192
 0
VERTEX
 8
ROSETTE_2
 10
19.9932
 20
-2.8249
 30
9.6158
 70
192
 0
VERTEX
 8
ROSETTE_2
 10
19.9932
 20
-2.8249
 30
9.9358
 70
192
 0
VERTEX
 8
ROSETTE_2
 10
19.9932
 20
-2.8249
 30
9.9358
 70
192
 0
VERTEX
 8
ROSETTE_2
 10
15.8544
 20
0.9017
 30
9.6158
 70
192
 0
VERTEX
 8
ROSETTE_2
 10
15.8544
 20
0.9017
 30
9.6158
 70
192
 0
VERTEX
 8
ROSETTE_2
 10
15.8544
 20
0.9017
 30
9.9358
 70
192
 0
VERTEX
 8
ROSETTE_2
 10
15.8544
 20
0.9017
 30
9.9358
 70
192
 0
VERTEX
 8
ROSETTE_2
 10
20.6775
 20
-1.8829
 30
9.6158
 70
192
 0
VERTEX
 8
ROSETTE_2
 10
20.6775
 20
-1.8829
 30
9.6158
 70
192
 0
VERTEX
 8
ROSETTE_2
 10
20.6775
 20
-1.8829
 30
9.9358
 70
192
 0
VERTEX
 8
ROSETTE_2
 10
20.6775
 20
-1.8829
 30
9.9358
 70
192
 0
VERTEX
 8
ROSETTE_2
 10
15.3808
 20
-0.1619
 30
9.6158
 70
192
 0
VERTEX
 8
ROSETTE_2
 10
15.3808
 20
-0.1619
 30
9.6158
 70
192
 0
VERTEX
 8
ROSETTE_2
 10
15.3808
 20
-0.1619
 30
9.9358
 70
192
 0
VERTEX
 8
ROSETTE_2
 10
0
 20
0
 30
0
 70
128
 71
35
 72
36
 73
44
 74
44
 0
VERTEX
 8
ROSETTE_2
 10
0
 20
0
 30
0
 70
128
 71
3
 72
4
 73
12
 74
12
 0
VERTEX
 8
ROSETTE_2
 10
0
 20
0
 30
0
 70
128
 71
43
 72
44
 73
52
 74
52
 0
VERTEX
 8
ROSETTE_2
 10
0
 20
0
 30
0
 70
128
 71
51
 72
52
 73
60
 74
60
 0
VERTEX
 8
ROSETTE_2
 10
0
 20
0
 30
0
 70
128
 71
59
 72
60
 73
8
 74
8
 0
VERTEX
 8
ROSETTE_2
 10
0
 20
0
 30
0
 70
128
 71
11
 72
12
 73
20
 74
20
 0
VERTEX
 8
ROSETTE_2
 10
0
 20
0
 30
0
 70
128
 71
7
 72
8
 73
16
 74
16
 0
VERTEX
 8
ROSETTE_2
 10
0
 20
0
 30
0
 70
128
 71
15
 72
16
 73
24
 74
24
 0
VERTEX
 8
ROSETTE_2
 10
0
 20
0
 30
0
 70
128
 71
23
 72
24
 73
32
 74
32
 0
VERTEX
 8
ROSETTE_2
 10
0
 20
0
 30
0
 70
128
 71
19
 72
20
 73
28
 74
28
 0
VERTEX
 8
ROSETTE_2
 10
0
 20
0
 30
0
 70
128
 71
31
 72
32
 73
40
 74
40
 0
VERTEX
 8
ROSETTE_2
 10
0
 20
0
 30
0
 70
128
 71
39
 72
40
 73
48
 74
48
 0
VERTEX
 8
ROSETTE_2
 10
0
 20
0
 30
0
 70
128
 71
47
 72
48
 73
56
 74
56
 0
VERTEX
 8
ROSETTE_2
 10
0
 20
0
 30
0
 70
128
 71
27
 72
28
 73
36
 74
36
 0
VERTEX
 8
ROSETTE_2
 10
0
 20
0
 30
0
 70
128
 71
55
 72
56
 73
4
 74
4
 0
VERTEX
 8
ROSETTE_2
 10
0
 20
0
 30
0
 70
128
 71
16
 72
8
 73
24
 74
24
 0
VERTEX
 8
ROSETTE_2
 10
0
 20
0
 30
0
 70
128
 71
8
 72
60
 73
52
 74
52
 0
VERTEX
 8
ROSETTE_2
 10
0
 20
0
 30
0
 70
128
 71
20
 72
8
 73
52
 74
52
 0
VERTEX
 8
ROSETTE_2
 10
0
 20
0
 30
0
 70
128
 71
8
 72
20
 73
56
 74
56
 0
VERTEX
 8
ROSETTE_2
 10
0
 20
0
 30
0
 70
128
 71
8
 72
40
 73
32
 74
32
 0
VERTEX
 8
ROSETTE_2
 10
0
 20
0
 30
0
 70
128
 71
44
 72
36
 73
28
 74
28
 0
VERTEX
 8
ROSETTE_2
 10
0
 20
0
 30
0
 70
128
 71
56
 72
20
 73
12
 74
12
 0
VERTEX
 8
ROSETTE_2
 10
0
 20
0
 30
0
 70
128
 71
56
 72
48
 73
40
 74
40
 0
VERTEX
 8
ROSETTE_2
 10
0
 20
0
 30
0
 70
128
 71
35
 72
44
 73
43
 74
43
 0
VERTEX
 8
ROSETTE_2
 10
0
 20
0
 30
0
 70
128
 71
3
 72
12
 73
11
 74
11
 0
VERTEX
 8
ROSETTE_2
 10
0
 20
0
 30
0
 70
128
 71
43
 72
52
 73
51
 74
51
 0
VERTEX
 8
ROSETTE_2
 10
0
 20
0
 30
0
 70
128
 71
51
 72
60
 73
59
 74
59
 0
VERTEX
 8
ROSETTE_2
 10
0
 20
0
 30
0
 70
128
 71
59
 72
8
 73
7
 74
7
 0
VERTEX
 8
ROSETTE_2
 10
0
 20
0
 30
0
 70
128
 71
11
 72
20
 73
19
 74
19
 0
VERTEX
 8
ROSETTE_2
 10
0
 20
0
 30
0
 70
128
 71
7
 72
16
 73
15
 74
15
 0
VERTEX
 8
ROSETTE_2
 10
0
 20
0
 30
0
 70
128
 71
15
 72
24
 73
23
 74
23
 0
VERTEX
 8
ROSETTE_2
 10
0
 20
0
 30
0
 70
128
 71
23
 72
32
 73
31
 74
31
 0
VERTEX
 8
ROSETTE_2
 10
0
 20
0
 30
0
 70
128
 71
19
 72
28
 73
27
 74
27
 0
VERTEX
 8
ROSETTE_2
 10
0
 20
0
 30
0
 70
128
 71
31
 72
40
 73
39
 74
39
 0
VERTEX
 8
ROSETTE_2
 10
0
 20
0
 30
0
 70
128
 71
39
 72
48
 73
47
 74
47
 0
VERTEX
 8
ROSETTE_2
 10
0
 20
0
 30
0
 70
128
 71
47
 72
56
 73
55
 74
55
 0
VERTEX
 8
ROSETTE_2
 10
0
 20
0
 30
0
 70
128
 71
27
 72
36
 73
35
 74
35
 0
VERTEX
 8
ROSETTE_2
 10
0
 20
0
 30
0
 70
128
 71
55
 72
4
 73
3
 74
3
 0
VERTEX
 8
ROSETTE_2
 10
0
 20
0
 30
0
 70
128
 71
20
 72
52
 73
44
 74
44
 0
VERTEX
 8
ROSETTE_2
 10
0
 20
0
 30
0
 70
128
 71
8
 72
56
 73
40
 74
40
 0
VERTEX
 8
ROSETTE_2
 10
0
 20
0
 30
0
 70
128
 71
8
 72
32
 73
24
 74
24
 0
VERTEX
 8
ROSETTE_2
 10
0
 20
0
 30
0
 70
128
 71
44
 72
28
 73
20
 74
20
 0
VERTEX
 8
ROSETTE_2
 10
0
 20
0
 30
0
 70
128
 71
56
 72
12
 73
4
 74
4
 0
SEQEND
 0
POLYLINE
 8
ROSETTE_1
 66
1
 10
0.0
 20
0.0
 30
0.0
 70
64
 71
48
 72
34
 0
VERTEX
 8
ROSETTE_1
 10
6.8913
 20
-3.3782
 30
9.6204
 70
192
 0
VERTEX
 8
ROSETTE_1
 10
5.0682
 20
1.9167
 30
9.6204
 70
192
 0
VERTEX
 8
ROSETTE_1
 10
5.0682
 20
1.9167
 30
9.6204
 70
192
 0
VERTEX
 8
ROSETTE_1
 10
5.0682
 20
1.9167
 30
9.9404
 70
192
 0
VERTEX
 8
ROSETTE_1
 10
5.0682
 20
1.9167
 30
9.9404
 70
192
 0
VERTEX
 8
ROSETTE_1
 10
6.8913
 20
-3.3782
 30
9.6204
 70
192
 0
VERTEX
 8
ROSETTE_1
 10
6.8913
 20
-3.3782
 30
9.9404
 70
192
 0
VERTEX
 8
ROSETTE_1
 10
6.8913
 20
-3.3782
 30
9.9404
 70
192
 0
VERTEX
 8
ROSETTE_1
 10
8.0929
 20
-2.5677
 30
9.6204
 70
192
 0
VERTEX
 8
ROSETTE_1
 10
3.8666
 20
1.1062
 30
9.6204
 70
192
 0
VERTEX
 8
ROSETTE_1
 10
3.8666
 20
1.1062
 30
9.6204
 70
192
 0
VERTEX
 8
ROSETTE_1
 10
3.8666
 20
1.1062
 30
9.9404
 70
192
 0
VERTEX
 8
ROSETTE_1
 10
3.8666
 20
1.1062
 30
9.9404
 70
192
 0
VERTEX
 8
ROSETTE_1
 10
8.0929
 20
-2.5677
 30
9.6204
 70
192
 0
VERTEX
 8
ROSETTE_1
 10
8.0929
 20
-2.5677
 30
9.9404
 70
192
 0
VERTEX
 8
ROSETTE_1
 10
8.0929
 20
-2.5677
 30
9.9404
 70
192
 0
VERTEX
 8
ROSETTE_1
 10
8.7283
 20
-1.265
 30
9.6204
 70
192
 0
VERTEX
 8
ROSETTE_1
 10
3.2312
 20
-0.1965
 30
9.6204
 70
192
 0
VERTEX
 8
ROSETTE_1
 10
3.2312
 20
-0.1965
 30
9.6204
 70
192
 0
VERTEX
 8
ROSETTE_1
 10
3.2312
 20
-0.1965
 30
9.9404
 70
192
 0
VERTEX
 8
ROSETTE_1
 10
3.2312
 20
-0.1965
 30
9.9404
 70
192
 0
VERTEX
 8
ROSETTE_1
 10
8.7283
 20
-1.265
 30
9.6204
 70
192
 0
VERTEX
 8
ROSETTE_1
 10
8.7283
 20
-1.265
 30
9.9404
 70
192
 0
VERTEX
 8
ROSETTE_1
 10
8.7283
 20
-1.265
 30
9.9404
 70
192
 0
VERTEX
 8
ROSETTE_1
 10
8.6272
 20
0.1808
 30
9.6204
 70
192
 0
VERTEX
 8
ROSETTE_1
 10
3.3323
 20
-1.6423
 30
9.6204
 70
192
 0
VERTEX
 8
ROSETTE_1
 10
3.3323
 20
-1.6423
 30
9.6204
 70
192
 0
VERTEX
 8
ROSETTE_1
 10
3.3323
 20
-1.6423
 30
9.9404
 70
192
 0
VERTEX
 8
ROSETTE_1
 10
3.3323
 20
-1.6423
 30
9.9404
 70
192
 0
VERTEX
 8
ROSETTE_1
 10
8.6272
 20
0.1808
 30
9.6204
 70
192
 0
VERTEX
 8
ROSETTE_1
 10
8.6272
 20
0.1808
 30
9.9404
 70
192
 0
VERTEX
 8
ROSETTE_1
 10
8.6272
 20
0.1808
 30
9.9404
 70
192
 0
VERTEX
 8
ROSETTE_1
 10
7.8167
 20
1.3824
 30
9.6204
 70
192
 0
VERTEX
 8
ROSETTE_1
 10
4.1428
 20
-2.8439
 30
9.6204
 70
192
 0
VERTEX
 8
ROSETTE_1
 10
4.1428
 20
-2.8439
 30
9.6204
 70
192
 0
VERTEX
 8
ROSETTE_1
 10
4.1428
 20
-2.8439
 30
9.9404
 70
192
 0
VERTEX
 8
ROSETTE_1
 10
4.1428
 20
-2.8439
 30
9.9404
 70
192
 0
VERTEX
 8
ROSETTE_1
 10
7.8167
 20
1.3824
 30
9.6204
 70
192
 0
VERTEX
 8
ROSETTE_1
 10
7.8167
 20
1.3824
 30
9.9404
 70
192
 0
VERTEX
 8
ROSETTE_1
 10
7.8167
 20
1.3824
 30
9.9404
 70
192
 0
VERTEX
 8
ROSETTE_1
 10
6.514
 20
2.0178
 30
9.6204
 70
192
 0
VERTEX
 8
ROSETTE_1
 10
5.4455
 20
-3.4793
 30
9.6204
 70
192
 0
VERTEX
 8
ROSETTE_1
 10
5.4455
 20
-3.4793
 30
9.6204
 70
192
 0
VERTEX
 8
ROSETTE_1
 10
5.4455
 20
-3.4793
 30
9.9404
 70
192
 0
VERTEX
 8
ROSETTE_1
 10
5.4455
 20
-3.4793
 30
9.9404
 70
192
 0
VERTEX
 8
ROSETTE_1
 10
6.514
 20
2.0178
 30
9.6204
 70
192
 0
VERTEX
 8
ROSETTE_1
 10
6.514
 20
2.0178
 30
9.9404
 70
192
 0
VERTEX
 8
ROSETTE_1
 10
6.514
 20
2.0178
 30
9.9404
 70
192
 0
VERTEX
 8
ROSETTE_1
 10
0
 20
0
 30
0
 70
128
 71
27
 72
28
 73
36
 74
36
 0
VERTEX
 8
ROSETTE_1
 10
0
 20
0
 30
0
 70
128
 71
3
 72
4
 73
12
 74
12
 0
VERTEX
 8
ROSETTE_1
 10
0
 20
0
 30
0
 70
128
 71
35
 72
36
 73
44
 74
44
 0
VERTEX
 8
ROSETTE_1
 10
0
 20
0
 30
0
 70
128
 71
43
 72
44
 73
7
 74
7
 0
VERTEX
 8
ROSETTE_1
 10
0
 20
0
 30
0
 70
128
 71
6
 72
7
 73
15
 74
15
 0
VERTEX
 8
ROSETTE_1
 10
0
 20
0
 30
0
 70
128
 71
11
 72
12
 73
20
 74
20
 0
VERTEX
 8
ROSETTE_1
 10
0
 20
0
 30
0
 70
128
 71
14
 72
15
 73
23
 74
23
 0
VERTEX
 8
ROSETTE_1
 10
0
 20
0
 30
0
 70
128
 71
22
 72
23
 73
31
 74
31
 0
VERTEX
 8
ROSETTE_1
 10
0
 20
0
 30
0
 70
128
 71
30
 72
31
 73
39
 74
39
 0
VERTEX
 8
ROSETTE_1
 10
0
 20
0
 30
0
 70
128
 71
19
 72
20
 73
28
 74
28
 0
VERTEX
 8
ROSETTE_1
 10
0
 20
0
 30
0
 70
128
 71
38
 72
39
 73
47
 74
47
 0
VERTEX
 8
ROSETTE_1
 10
0
 20
0
 30
0
 70
128
 71
46
 72
47
 73
4
 74
4
 0
VERTEX
 8
ROSETTE_1
 10
0
 20
0
 30
0
 70
128
 71
47
 72
39
 73
31
 74
31
 0
VERTEX
 8
ROSETTE_1
 10
0
 20
0
 30
0
 70
128
 71
31
 72
23
 73
15
 74
15
 0
VERTEX
 8
ROSETTE_1
 10
0
 20
0
 30
0
 70
128
 71
4
 72
31
 73
7
 74
7
 0
VERTEX
 8
ROSETTE_1
 10
0
 20
0
 30
0
 70
128
 71
7
 72
44
 73
36
 74
36
 0
VERTEX
 8
ROSETTE_1
 10
0
 20
0
 30
0
 70
128
 71
28
 72
20
 73
12
 74
12
 0
VERTEX
 8
ROSETTE_1
 10
0
 20
0
 30
0
 70
128
 71
27
 72
36
 73
35
 74
35
 0
VERTEX
 8
ROSETTE_1
 10
0
 20
0
 30
0
 70
128
 71
3
 72
12
 73
11
 74
11
 0
VERTEX
 8
ROSETTE_1
 10
0
 20
0
 30
0
 70
128
 71
35
 72
44
 73
43
 74
43
 0
VERTEX
 8
ROSETTE_1
 10
0
 20
0
 30
0
 70
128
 71
43
 72
7
 73
6
 74
6
 0
VERTEX
 8
ROSETTE_1
 10
0
 20
0
 30
0
 70
128
 71
6
 72
15
 73
14
 74
14
 0
VERTEX
 8
ROSETTE_1
 10
0
 20
0
 30
0
 70
128
 71
11
 72
20
 73
19
 74
19
 0
VERTEX
 8
ROSETTE_1
 10
0
 20
0
 30
0
 70
128
 71
14
 72
23
 73
22
 74
22
 0
VERTEX
 8
ROSETTE_1
 10
0
 20
0
 30
0
 70
128
 71
22
 72
31
 73
30
 74
30
 0
VERTEX
 8
ROSETTE_1
 10
0
 20
0
 30
0
 70
128
 71
30
 72
39
 73
38
 74
38
 0
VERTEX
 8
ROSETTE_1
 10
0
 20
0
 30
0
 70
128
 71
19
 72
28
 73
27
 74
27
 0
VERTEX
 8
ROSETTE_1
 10
0
 20
0
 30
0
 70
128
 71
38
 72
47
 73
46
 74
46
 0
VERTEX
 8
ROSETTE_1
 10
0
 20
0
 30
0
 70
128
 71
46
 72
4
 73
3
 74
3
 0
VERTEX
 8
ROSETTE_1
 10
0
 20
0
 30
0
 70
128
 71
47
 72
31
 73
4
 74
4
 0
VERTEX
 8
ROSETTE_1
 10
0
 20
0
 30
0
 70
128
 71
31
 72
15
 73
7
 74
7
 0
VERTEX
 8
ROSETTE_1
 10
0
 20
0
 30
0
 70
128
 71
4
 72
7
 73
28
 74
28
 0
VERTEX
 8
ROSETTE_1
 10
0
 20
0
 30
0
 70
128
 71
7
 72
36
 73
28
 74
28
 0
VERTEX
 8
ROSETTE_1
 10
0
 20
0
 30
0
 70
128
 71
28
 72
12
 73
4
 74
4
 0
SEQEND
 0
POLYLINE
 8
GRIFF_24
 66
1
 10
0.0
 20
0.0
 30
0.0
 70
64
 71
90
 72
30
 0
VERTEX
 8
GRIFF_24
 10
7.679
 20
-0.3384
 30
9.7562
 70
192
 0
VERTEX
 8
GRIFF_24
 10
5.412
 20
0.9182
 30
9.7562
 70
192
 0
VERTEX
 8
GRIFF_24
 10
5.412
 20
0.9182
 30
9.7562
 70
192
 0
VERTEX
 8
GRIFF_24
 10
5.412
 20
0.9182
 30
13.7562
 70
192
 0
VERTEX
 8
GRIFF_24
 10
5.412
 20
0.9182
 30
13.7562
 70
192
 0
VERTEX
 8
GRIFF_24
 10
5.9797
 20
-0.7307
 30
13.7562
 70
192
 0
VERTEX
 8
GRIFF_24
 10
5.9797
 20
-0.7307
 30
13.7562
 70
192
 0
VERTEX
 8
GRIFF_24
 10
7.679
 20
-0.3384
 30
13.7562
 70
192
 0
VERTEX
 8
GRIFF_24
 10
7.679
 20
-0.3384
 30
13.7562
 70
192
 0
VERTEX
 8
GRIFF_24
 10
4.7903
 20
0.5447
 30
9.7562
 70
192
 0
VERTEX
 8
GRIFF_24
 10
4.7903
 20
0.5447
 30
9.7562
 70
192
 0
VERTEX
 8
GRIFF_24
 10
4.7903
 20
0.5447
 30
13.7562
 70
192
 0
VERTEX
 8
GRIFF_24
 10
4.7903
 20
0.5447
 30
13.7562
 70
192
 0
VERTEX
 8
GRIFF_24
 10
5.9797
 20
-0.7307
 30
13.7562
 70
192
 0
VERTEX
 8
GRIFF_24
 10
5.9797
 20
-0.7307
 30
13.7562
 70
192
 0
VERTEX
 8
GRIFF_24
 10
5.9797
 20
-0.7307
 30
13.7562
 70
192
 0
VERTEX
 8
GRIFF_24
 10
5.9797
 20
-0.7307
 30
13.7562
 70
192
 0
VERTEX
 8
GRIFF_24
 10
4.3744
 20
-0.0493
 30
9.7562
 70
192
 0
VERTEX
 8
GRIFF_24
 10
4.3744
 20
-0.0493
 30
9.7562
 70
192
 0
VERTEX
 8
GRIFF_24
 10
4.3744
 20
-0.0493
 30
13.7562
 70
192
 0
VERTEX
 8
GRIFF_24
 10
4.3744
 20
-0.0493
 30
13.7562
 70
192
 0
VERTEX
 8
GRIFF_24
 10
5.9797
 20
-0.7307
 30
13.7562
 70
192
 0
VERTEX
 8
GRIFF_24
 10
5.9797
 20
-0.7307
 30
13.7562
 70
192
 0
VERTEX
 8
GRIFF_24
 10
7.3726
 20
0.3188
 30
9.7562
 70
192
 0
VERTEX
 8
GRIFF_24
 10
7.3726
 20
0.3188
 30
9.7562
 70
192
 0
VERTEX
 8
GRIFF_24
 10
4.236
 20
-0.7612
 30
9.7562
 70
192
 0
VERTEX
 8
GRIFF_24
 10
4.236
 20
-0.7612
 30
9.7562
 70
192
 0
VERTEX
 8
GRIFF_24
 10
4.236
 20
-0.7612
 30
13.7562
 70
192
 0
VERTEX
 8
GRIFF_24
 10
4.236
 20
-0.7612
 30
13.7562
 70
192
 0
VERTEX
 8
GRIFF_24
 10
5.9797
 20
-0.7307
 30
13.7562
 70
192
 0
VERTEX
 8
GRIFF_24
 10
5.9797
 20
-0.7307
 30
13.7562
 70
192
 0
VERTEX
 8
GRIFF_24
 10
7.3726
 20
0.3188
 30
13.7562
 70
192
 0
VERTEX
 8
GRIFF_24
 10
7.3726
 20
0.3188
 30
13.7562
 70
192
 0
VERTEX
 8
GRIFF_24
 10
4.3991
 20
-1.4678
 30
9.7562
 70
192
 0
VERTEX
 8
GRIFF_24
 10
4.3991
 20
-1.4678
 30
9.7562
 70
192
 0
VERTEX
 8
GRIFF_24
 10
4.3991
 20
-1.4678
 30
13.7562
 70
192
 0
VERTEX
 8
GRIFF_24
 10
4.3991
 20
-1.4678
 30
13.7562
 70
192
 0
VERTEX
 8
GRIFF_24
 10
5.9797
 20
-0.7307
 30
13.7562
 70
192
 0
VERTEX
 8
GRIFF_24
 10
5.9797
 20
-0.7307
 30
13.7562
 70
192
 0
VERTEX
 8
GRIFF_24
 10
5.9797
 20
-0.7307
 30
13.7562
 70
192
 0
VERTEX
 8
GRIFF_24
 10
5.9797
 20
-0.7307
 30
13.7562
 70
192
 0
VERTEX
 8
GRIFF_24
 10
4.8356
 20
-2.047
 30
9.7562
 70
192
 0
VERTEX
 8
GRIFF_24
 10
4.8356
 20
-2.047
 30
9.7562
 70
192
 0
VERTEX
 8
GRIFF_24
 10
4.8356
 20
-2.047
 30
13.7562
 70
192
 0
VERTEX
 8
GRIFF_24
 10
4.8356
 20
-2.047
 30
13.7562
 70
192
 0
VERTEX
 8
GRIFF_24
 10
5.9797
 20
-0.7307
 30
13.7562
 70
192
 0
VERTEX
 8
GRIFF_24
 10
5.9797
 20
-0.7307
 30
13.7562
 70
192
 0
VERTEX
 8
GRIFF_24
 10
6.8253
 20
0.7946
 30
9.7562
 70
192
 0
VERTEX
 8
GRIFF_24
 10
6.8253
 20
0.7946
 30
9.7562
 70
192
 0
VERTEX
 8
GRIFF_24
 10
5.4698
 20
-2.3985
 30
9.7562
 70
192
 0
VERTEX
 8
GRIFF_24
 10
5.4698
 20
-2.3985
 30
9.7562
 70
192
 0
VERTEX
 8
GRIFF_24
 10
5.4698
 20
-2.3985
 30
13.7562
 70
192
 0
VERTEX
 8
GRIFF_24
 10
5.4698
 20
-2.3985
 30
13.7562
 70
192
 0
VERTEX
 8
GRIFF_24
 10
5.9797
 20
-0.7307
 30
13.7562
 70
192
 0
VERTEX
 8
GRIFF_24
 10
5.9797
 20
-0.7307
 30
13.7562
 70
192
 0
VERTEX
 8
GRIFF_24
 10
6.8253
 20
0.7946
 30
13.7562
 70
192
 0
VERTEX
 8
GRIFF_24
 10
6.8253
 20
0.7946
 30
13.7562
 70
192
 0
VERTEX
 8
GRIFF_24
 10
6.1923
 20
-2.4617
 30
9.7562
 70
192
 0
VERTEX
 8
GRIFF_24
 10
6.1923
 20
-2.4617
 30
9.7562
 70
192
 0
VERTEX
 8
GRIFF_24
 10
6.1923
 20
-2.4617
 30
13.7562
 70
192
 0
VERTEX
 8
GRIFF_24
 10
6.1923
 20
-2.4617
 30
13.7562
 70
192
 0
VERTEX
 8
GRIFF_24
 10
5.9797
 20
-0.7307
 30
13.7562
 70
192
 0
VERTEX
 8
GRIFF_24
 10
5.9797
 20
-0.7307
 30
13.7562
 70
192
 0
VERTEX
 8
GRIFF_24
 10
5.9797
 20
-0.7307
 30
13.7562
 70
192
 0
VERTEX
 8
GRIFF_24
 10
5.9797
 20
-0.7307
 30
13.7562
 70
192
 0
VERTEX
 8
GRIFF_24
 10
6.878
 20
-2.2256
 30
9.7562
 70
192
 0
VERTEX
 8
GRIFF_24
 10
6.878
 20
-2.2256
 30
9.7562
 70
192
 0
VERTEX
 8
GRIFF_24
 10
6.878
 20
-2.2256
 30
13.7562
 70
192
 0
VERTEX
 8
GRIFF_24
 10
6.878
 20
-2.2256
 30
13.7562
 70
192
 0
VERTEX
 8
GRIFF_24
 10
5.9797
 20
-0.7307
 30
13.7562
 70
192
 0
VERTEX
 8
GRIFF_24
 10
5.9797
 20
-0.7307
 30
13.7562
 70
192
 0
VERTEX
 8
GRIFF_24
 10
6.1317
 20
1.0066
 30
9.7562
 70
192
 0
VERTEX
 8
GRIFF_24
 10
6.1317
 20
1.0066
 30
9.7562
 70
192
 0
VERTEX
 8
GRIFF_24
 10
7.4083
 20
-1.7311
 30
9.7562
 70
192
 0
VERTEX
 8
GRIFF_24
 10
7.4083
 20
-1.7311
 30
9.7562
 70
192
 0
VERTEX
 8
GRIFF_24
 10
7.4083
 20
-1.7311
 30
13.7562
 70
192
 0
VERTEX
 8
GRIFF_24
 10
7.4083
 20
-1.7311
 30
13.7562
 70
192
 0
VERTEX
 8
GRIFF_24
 10
5.9797
 20
-0.7307
 30
13.7562
 70
192
 0
VERTEX
 8
GRIFF_24
 10
5.9797
 20
-0.7307
 30
13.7562
 70
192
 0
VERTEX
 8
GRIFF_24
 10
6.1317
 20
1.0066
 30
13.7562
 70
192
 0
VERTEX
 8
GRIFF_24
 10
6.1317
 20
1.0066
 30
13.7562
 70
192
 0
VERTEX
 8
GRIFF_24
 10
7.6917
 20
-1.0635
 30
9.7562
 70
192
 0
VERTEX
 8
GRIFF_24
 10
7.6917
 20
-1.0635
 30
9.7562
 70
192
 0
VERTEX
 8
GRIFF_24
 10
7.6917
 20
-1.0635
 30
13.7562
 70
192
 0
VERTEX
 8
GRIFF_24
 10
7.6917
 20
-1.0635
 30
13.7562
 70
192
 0
VERTEX
 8
GRIFF_24
 10
5.9797
 20
-0.7307
 30
13.7562
 70
192
 0
VERTEX
 8
GRIFF_24
 10
5.9797
 20
-0.7307
 30
13.7562
 70
192
 0
VERTEX
 8
GRIFF_24
 10
5.9797
 20
-0.7307
 30
13.7562
 70
192
 0
VERTEX
 8
GRIFF_24
 10
5.9797
 20
-0.7307
 30
13.7562
 70
192
 0
VERTEX
 8
GRIFF_24
 10
7.679
 20
-0.3384
 30
9.7562
 70
192
 0
VERTEX
 8
GRIFF_24
 10
0
 20
0
 30
0
 70
128
 71
61
 72
70
 73
69
 74
69
 0
VERTEX
 8
GRIFF_24
 10
0
 20
0
 30
0
 70
128
 71
3
 72
4
 73
12
 74
11
 0
VERTEX
 8
GRIFF_24
 10
0
 20
0
 30
0
 70
128
 71
5
 72
14
 73
13
 74
13
 0
VERTEX
 8
GRIFF_24
 10
0
 20
0
 30
0
 70
128
 71
67
 72
68
 73
76
 74
75
 0
VERTEX
 8
GRIFF_24
 10
0
 20
0
 30
0
 70
128
 71
69
 72
78
 73
77
 74
77
 0
VERTEX
 8
GRIFF_24
 10
0
 20
0
 30
0
 70
128
 71
11
 72
12
 73
20
 74
19
 0
VERTEX
 8
GRIFF_24
 10
0
 20
0
 30
0
 70
128
 71
13
 72
22
 73
21
 74
21
 0
VERTEX
 8
GRIFF_24
 10
0
 20
0
 30
0
 70
128
 71
75
 72
76
 73
84
 74
83
 0
VERTEX
 8
GRIFF_24
 10
0
 20
0
 30
0
 70
128
 71
77
 72
86
 73
85
 74
85
 0
VERTEX
 8
GRIFF_24
 10
0
 20
0
 30
0
 70
128
 71
19
 72
20
 73
28
 74
27
 0
VERTEX
 8
GRIFF_24
 10
0
 20
0
 30
0
 70
128
 71
21
 72
30
 73
29
 74
29
 0
VERTEX
 8
GRIFF_24
 10
0
 20
0
 30
0
 70
128
 71
83
 72
84
 73
8
 74
1
 0
VERTEX
 8
GRIFF_24
 10
0
 20
0
 30
0
 70
128
 71
85
 72
16
 73
9
 74
9
 0
VERTEX
 8
GRIFF_24
 10
0
 20
0
 30
0
 70
128
 71
27
 72
28
 73
36
 74
35
 0
VERTEX
 8
GRIFF_24
 10
0
 20
0
 30
0
 70
128
 71
29
 72
38
 73
37
 74
37
 0
VERTEX
 8
GRIFF_24
 10
0
 20
0
 30
0
 70
128
 71
1
 72
8
 73
32
 74
25
 0
VERTEX
 8
GRIFF_24
 10
0
 20
0
 30
0
 70
128
 71
9
 72
40
 73
33
 74
33
 0
VERTEX
 8
GRIFF_24
 10
0
 20
0
 30
0
 70
128
 71
35
 72
36
 73
44
 74
43
 0
VERTEX
 8
GRIFF_24
 10
0
 20
0
 30
0
 70
128
 71
37
 72
46
 73
45
 74
45
 0
VERTEX
 8
GRIFF_24
 10
0
 20
0
 30
0
 70
128
 71
25
 72
32
 73
56
 74
49
 0
VERTEX
 8
GRIFF_24
 10
0
 20
0
 30
0
 70
128
 71
33
 72
64
 73
57
 74
57
 0
VERTEX
 8
GRIFF_24
 10
0
 20
0
 30
0
 70
128
 71
43
 72
44
 73
52
 74
51
 0
VERTEX
 8
GRIFF_24
 10
0
 20
0
 30
0
 70
128
 71
45
 72
54
 73
53
 74
53
 0
VERTEX
 8
GRIFF_24
 10
0
 20
0
 30
0
 70
128
 71
49
 72
56
 73
80
 74
73
 0
VERTEX
 8
GRIFF_24
 10
0
 20
0
 30
0
 70
128
 71
57
 72
88
 73
81
 74
81
 0
VERTEX
 8
GRIFF_24
 10
0
 20
0
 30
0
 70
128
 71
51
 72
52
 73
60
 74
59
 0
VERTEX
 8
GRIFF_24
 10
0
 20
0
 30
0
 70
128
 71
53
 72
62
 73
61
 74
61
 0
VERTEX
 8
GRIFF_24
 10
0
 20
0
 30
0
 70
128
 71
73
 72
80
 73
4
 74
3
 0
VERTEX
 8
GRIFF_24
 10
0
 20
0
 30
0
 70
128
 71
81
 72
6
 73
5
 74
5
 0
VERTEX
 8
GRIFF_24
 10
0
 20
0
 30
0
 70
128
 71
59
 72
60
 73
68
 74
67
 0
SEQEND
 0
POLYLINE
 8
GRIFF_23
 66
1
 10
0.0
 20
0.0
 30
0.0
 70
64
 71
12
 72
6
 0
VERTEX
 8
GRIFF_23
 10
6.0006
 20
-1.1078
 30
13.4504
 70
192
 0
VERTEX
 8
GRIFF_23
 10
6.0006
 20
-1.1078
 30
15.0504
 70
192
 0
VERTEX
 8
GRIFF_23
 10
6.3505
 20
-0.9139
 30
13.4504
 70
192
 0
VERTEX
 8
GRIFF_23
 10
6.3505
 20
-0.9139
 30
15.0504
 70
192
 0
VERTEX
 8
GRIFF_23
 10
6.3574
 20
-0.514
 30
13.4504
 70
192
 0
VERTEX
 8
GRIFF_23
 10
6.3574
 20
-0.514
 30
15.0504
 70
192
 0
VERTEX
 8
GRIFF_23
 10
6.0146
 20
-0.308
 30
13.4504
 70
192
 0
VERTEX
 8
GRIFF_23
 10
6.0146
 20
-0.308
 30
15.0504
 70
192
 0
VERTEX
 8
GRIFF_23
 10
5.6647
 20
-0.5019
 30
13.4504
 70
192
 0
VERTEX
 8
GRIFF_23
 10
5.6647
 20
-0.5019
 30
15.0504
 70
192
 0
VERTEX
 8
GRIFF_23
 10
5.6577
 20
-0.9018
 30
13.4504
 70
192
 0
VERTEX
 8
GRIFF_23
 10
5.6577
 20
-0.9018
 30
15.0504
 70
192
 0
VERTEX
 8
GRIFF_23
 10
0
 20
0
 30
0
 70
128
 71
1
 72
2
 73
4
 74
3
 0
VERTEX
 8
GRIFF_23
 10
0
 20
0
 30
0
 70
128
 71
3
 72
4
 73
6
 74
5
 0
VERTEX
 8
GRIFF_23
 10
0
 20
0
 30
0
 70
128
 71
5
 72
6
 73
8
 74
7
 0
VERTEX
 8
GRIFF_23
 10
0
 20
0
 30
0
 70
128
 71
7
 72
8
 73
10
 74
9
 0
VERTEX
 8
GRIFF_23
 10
0
 20
0
 30
0
 70
128
 71
9
 72
10
 73
12
 74
11
 0
VERTEX
 8
GRIFF_23
 10
0
 20
0
 30
0
 70
128
 71
11
 72
12
 73
2
 74
1
 0
SEQEND
 0
POLYLINE
 8
GRIFF_22
 66
1
 10
0.0
 20
0.0
 30
0.0
 70
64
 71
12
 72
6
 0
VERTEX
 8
GRIFF_22
 10
5.7752
 20
-0.4672
 30
15.6102
 70
192
 0
VERTEX
 8
GRIFF_22
 10
5.1083
 20
0.2233
 30
15.6102
 70
192
 0
VERTEX
 8
GRIFF_22
 10
5.9496
 20
-0.2988
 30
15.4702
 70
192
 0
VERTEX
 8
GRIFF_22
 10
5.2827
 20
0.3918
 30
15.4702
 70
192
 0
VERTEX
 8
GRIFF_22
 10
5.9496
 20
-0.2988
 30
15.1902
 70
192
 0
VERTEX
 8
GRIFF_22
 10
5.2827
 20
0.3918
 30
15.1902
 70
192
 0
VERTEX
 8
GRIFF_22
 10
5.7752
 20
-0.4672
 30
15.0502
 70
192
 0
VERTEX
 8
GRIFF_22
 10
5.1083
 20
0.2233
 30
15.0502
 70
192
 0
VERTEX
 8
GRIFF_22
 10
5.6008
 20
-0.6357
 30
15.1902
 70
192
 0
VERTEX
 8
GRIFF_22
 10
4.9339
 20
0.0549
 30
15.1902
 70
192
 0
VERTEX
 8
GRIFF_22
 10
5.6008
 20
-0.6357
 30
15.4702
 70
192
 0
VERTEX
 8
GRIFF_22
 10
4.9339
 20
0.0549
 30
15.4702
 70
192
 0
VERTEX
 8
GRIFF_22
 10
0
 20
0
 30
0
 70
128
 71
1
 72
2
 73
4
 74
3
 0
VERTEX
 8
GRIFF_22
 10
0
 20
0
 30
0
 70
128
 71
3
 72
4
 73
6
 74
5
 0
VERTEX
 8
GRIFF_22
 10
0
 20
0
 30
0
 70
128
 71
5
 72
6
 73
8
 74
7
 0
VERTEX
 8
GRIFF_22
 10
0
 20
0
 30
0
 70
128
 71
7
 72
8
 73
10
 74
9
 0
VERTEX
 8
GRIFF_22
 10
0
 20
0
 30
0
 70
128
 71
9
 72
10
 73
12
 74
11
 0
VERTEX
 8
GRIFF_22
 10
0
 20
0
 30
0
 70
128
 71
11
 72
12
 73
2
 74
1
 0
SEQEND
 0
POLYLINE
 8
GRIFF_21
 66
1
 10
0.0
 20
0.0
 30
0.0
 70
64
 71
34
 72
24
 0
VERTEX
 8
GRIFF_21
 10
5.464
 20
-0.145
 30
15.3319
 70
192
 0
VERTEX
 8
GRIFF_21
 10
4.3526
 20
1.0059
 30
15.3319
 70
192
 0
VERTEX
 8
GRIFF_21
 10
5.464
 20
-0.145
 30
15.7319
 70
192
 0
VERTEX
 8
GRIFF_21
 10
5.464
 20
-0.145
 30
15.7319
 70
192
 0
VERTEX
 8
GRIFF_21
 10
4.3526
 20
1.0059
 30
15.7319
 70
192
 0
VERTEX
 8
GRIFF_21
 10
4.3526
 20
1.0059
 30
15.7319
 70
192
 0
VERTEX
 8
GRIFF_21
 10
5.6675
 20
0.0515
 30
15.6147
 70
192
 0
VERTEX
 8
GRIFF_21
 10
5.6675
 20
0.0515
 30
15.6147
 70
192
 0
VERTEX
 8
GRIFF_21
 10
4.556
 20
1.2024
 30
15.6147
 70
192
 0
VERTEX
 8
GRIFF_21
 10
4.556
 20
1.2024
 30
15.6147
 70
192
 0
VERTEX
 8
GRIFF_21
 10
5.7518
 20
0.1328
 30
15.3319
 70
192
 0
VERTEX
 8
GRIFF_21
 10
5.7518
 20
0.1328
 30
15.3319
 70
192
 0
VERTEX
 8
GRIFF_21
 10
4.6403
 20
1.2838
 30
15.3319
 70
192
 0
VERTEX
 8
GRIFF_21
 10
4.6403
 20
1.2838
 30
15.3319
 70
192
 0
VERTEX
 8
GRIFF_21
 10
5.6675
 20
0.0515
 30
15.0491
 70
192
 0
VERTEX
 8
GRIFF_21
 10
5.6675
 20
0.0515
 30
15.0491
 70
192
 0
VERTEX
 8
GRIFF_21
 10
4.556
 20
1.2024
 30
15.0491
 70
192
 0
VERTEX
 8
GRIFF_21
 10
4.556
 20
1.2024
 30
15.0491
 70
192
 0
VERTEX
 8
GRIFF_21
 10
5.464
 20
-0.145
 30
14.9319
 70
192
 0
VERTEX
 8
GRIFF_21
 10
5.464
 20
-0.145
 30
14.9319
 70
192
 0
VERTEX
 8
GRIFF_21
 10
4.3526
 20
1.0059
 30
14.9319
 70
192
 0
VERTEX
 8
GRIFF_21
 10
4.3526
 20
1.0059
 30
14.9319
 70
192
 0
VERTEX
 8
GRIFF_21
 10
5.2606
 20
-0.3415
 30
15.0491
 70
192
 0
VERTEX
 8
GRIFF_21
 10
5.2606
 20
-0.3415
 30
15.0491
 70
192
 0
VERTEX
 8
GRIFF_21
 10
4.1491
 20
0.8094
 30
15.0491
 70
192
 0
VERTEX
 8
GRIFF_21
 10
4.1491
 20
0.8094
 30
15.0491
 70
192
 0
VERTEX
 8
GRIFF_21
 10
5.1763
 20
-0.4229
 30
15.3319
 70
192
 0
VERTEX
 8
GRIFF_21
 10
5.1763
 20
-0.4229
 30
15.3319
 70
192
 0
VERTEX
 8
GRIFF_21
 10
4.0648
 20
0.7281
 30
15.3319
 70
192
 0
VERTEX
 8
GRIFF_21
 10
4.0648
 20
0.7281
 30
15.3319
 70
192
 0
VERTEX
 8
GRIFF_21
 10
5.2606
 20
-0.3415
 30
15.6147
 70
192
 0
VERTEX
 8
GRIFF_21
 10
5.2606
 20
-0.3415
 30
15.6147
 70
192
 0
VERTEX
 8
GRIFF_21
 10
4.1491
 20
0.8094
 30
15.6147
 70
192
 0
VERTEX
 8
GRIFF_21
 10
4.1491
 20
0.8094
 30
15.6147
 70
192
 0
VERTEX
 8
GRIFF_21
 10
0
 20
0
 30
0
 70
128
 71
1
 72
3
 73
7
 74
7
 0
VERTEX
 8
GRIFF_21
 10
0
 20
0
 30
0
 70
128
 71
4
 72
5
 73
9
 74
8
 0
VERTEX
 8
GRIFF_21
 10
0
 20
0
 30
0
 70
128
 71
6
 72
2
 73
10
 74
10
 0
VERTEX
 8
GRIFF_21
 10
0
 20
0
 30
0
 70
128
 71
1
 72
7
 73
11
 74
11
 0
VERTEX
 8
GRIFF_21
 10
0
 20
0
 30
0
 70
128
 71
8
 72
9
 73
13
 74
12
 0
VERTEX
 8
GRIFF_21
 10
0
 20
0
 30
0
 70
128
 71
10
 72
2
 73
14
 74
14
 0
VERTEX
 8
GRIFF_21
 10
0
 20
0
 30
0
 70
128
 71
1
 72
11
 73
15
 74
15
 0
VERTEX
 8
GRIFF_21
 10
0
 20
0
 30
0
 70
128
 71
12
 72
13
 73
17
 74
16
 0
VERTEX
 8
GRIFF_21
 10
0
 20
0
 30
0
 70
128
 71
14
 72
2
 73
18
 74
18
 0
VERTEX
 8
GRIFF_21
 10
0
 20
0
 30
0
 70
128
 71
1
 72
15
 73
19
 74
19
 0
VERTEX
 8
GRIFF_21
 10
0
 20
0
 30
0
 70
128
 71
16
 72
17
 73
21
 74
20
 0
VERTEX
 8
GRIFF_21
 10
0
 20
0
 30
0
 70
128
 71
18
 72
2
 73
22
 74
22
 0
VERTEX
 8
GRIFF_21
 10
0
 20
0
 30
0
 70
128
 71
1
 72
19
 73
23
 74
23
 0
VERTEX
 8
GRIFF_21
 10
0
 20
0
 30
0
 70
128
 71
20
 72
21
 73
25
 74
24
 0
VERTEX
 8
GRIFF_21
 10
0
 20
0
 30
0
 70
128
 71
22
 72
2
 73
26
 74
26
 0
VERTEX
 8
GRIFF_21
 10
0
 20
0
 30
0
 70
128
 71
1
 72
23
 73
27
 74
27
 0
VERTEX
 8
GRIFF_21
 10
0
 20
0
 30
0
 70
128
 71
24
 72
25
 73
29
 74
28
 0
VERTEX
 8
GRIFF_21
 10
0
 20
0
 30
0
 70
128
 71
26
 72
2
 73
30
 74
30
 0
VERTEX
 8
GRIFF_21
 10
0
 20
0
 30
0
 70
128
 71
1
 72
27
 73
31
 74
31
 0
VERTEX
 8
GRIFF_21
 10
0
 20
0
 30
0
 70
128
 71
28
 72
29
 73
33
 74
32
 0
VERTEX
 8
GRIFF_21
 10
0
 20
0
 30
0
 70
128
 71
30
 72
2
 73
34
 74
34
 0
VERTEX
 8
GRIFF_21
 10
0
 20
0
 30
0
 70
128
 71
1
 72
31
 73
3
 74
3
 0
VERTEX
 8
GRIFF_21
 10
0
 20
0
 30
0
 70
128
 71
32
 72
33
 73
5
 74
4
 0
VERTEX
 8
GRIFF_21
 10
0
 20
0
 30
0
 70
128
 71
34
 72
2
 73
6
 74
6
 0
SEQEND
 0
POLYLINE
 8
GRIFF_20
 66
1
 10
0.0
 20
0.0
 30
0.0
 70
64
 71
12
 72
6
 0
VERTEX
 8
GRIFF_20
 10
6.2593
 20
-0.9686
 30
15.6102
 70
192
 0
VERTEX
 8
GRIFF_20
 10
6.9262
 20
-1.6592
 30
15.6102
 70
192
 0
VERTEX
 8
GRIFF_20
 10
6.0849
 20
-1.137
 30
15.4702
 70
192
 0
VERTEX
 8
GRIFF_20
 10
6.7518
 20
-1.8276
 30
15.4702
 70
192
 0
VERTEX
 8
GRIFF_20
 10
6.0849
 20
-1.137
 30
15.1902
 70
192
 0
VERTEX
 8
GRIFF_20
 10
6.7518
 20
-1.8276
 30
15.1902
 70
192
 0
VERTEX
 8
GRIFF_20
 10
6.2593
 20
-0.9686
 30
15.0502
 70
192
 0
VERTEX
 8
GRIFF_20
 10
6.9262
 20
-1.6592
 30
15.0502
 70
192
 0
VERTEX
 8
GRIFF_20
 10
6.4338
 20
-0.8002
 30
15.1902
 70
192
 0
VERTEX
 8
GRIFF_20
 10
7.1007
 20
-1.4907
 30
15.1902
 70
192
 0
VERTEX
 8
GRIFF_20
 10
6.4338
 20
-0.8002
 30
15.4702
 70
192
 0
VERTEX
 8
GRIFF_20
 10
7.1007
 20
-1.4907
 30
15.4702
 70
192
 0
VERTEX
 8
GRIFF_20
 10
0
 20
0
 30
0
 70
128
 71
1
 72
2
 73
4
 74
3
 0
VERTEX
 8
GRIFF_20
 10
0
 20
0
 30
0
 70
128
 71
3
 72
4
 73
6
 74
5
 0
VERTEX
 8
GRIFF_20
 10
0
 20
0
 30
0
 70
128
 71
5
 72
6
 73
8
 74
7
 0
VERTEX
 8
GRIFF_20
 10
0
 20
0
 30
0
 70
128
 71
7
 72
8
 73
10
 74
9
 0
VERTEX
 8
GRIFF_20
 10
0
 20
0
 30
0
 70
128
 71
9
 72
10
 73
12
 74
11
 0
VERTEX
 8
GRIFF_20
 10
0
 20
0
 30
0
 70
128
 71
11
 72
12
 73
2
 74
1
 0
SEQEND
 0
POLYLINE
 8
GRIFF_19
 66
1
 10
0.0
 20
0.0
 30
0.0
 70
64
 71
34
 72
24
 0
VERTEX
 8
GRIFF_19
 10
6.5603
 20
-1.2803
 30
15.3319
 70
192
 0
VERTEX
 8
GRIFF_19
 10
7.6718
 20
-2.4312
 30
15.3319
 70
192
 0
VERTEX
 8
GRIFF_19
 10
6.5603
 20
-1.2803
 30
15.7319
 70
192
 0
VERTEX
 8
GRIFF_19
 10
6.5603
 20
-1.2803
 30
15.7319
 70
192
 0
VERTEX
 8
GRIFF_19
 10
7.6718
 20
-2.4312
 30
15.7319
 70
192
 0
VERTEX
 8
GRIFF_19
 10
7.6718
 20
-2.4312
 30
15.7319
 70
192
 0
VERTEX
 8
GRIFF_19
 10
6.3569
 20
-1.4768
 30
15.6147
 70
192
 0
VERTEX
 8
GRIFF_19
 10
6.3569
 20
-1.4768
 30
15.6147
 70
192
 0
VERTEX
 8
GRIFF_19
 10
7.4683
 20
-2.6277
 30
15.6147
 70
192
 0
VERTEX
 8
GRIFF_19
 10
7.4683
 20
-2.6277
 30
15.6147
 70
192
 0
VERTEX
 8
GRIFF_19
 10
6.2726
 20
-1.5582
 30
15.3319
 70
192
 0
VERTEX
 8
GRIFF_19
 10
6.2726
 20
-1.5582
 30
15.3319
 70
192
 0
VERTEX
 8
GRIFF_19
 10
7.3841
 20
-2.7091
 30
15.3319
 70
192
 0
VERTEX
 8
GRIFF_19
 10
7.3841
 20
-2.7091
 30
15.3319
 70
192
 0
VERTEX
 8
GRIFF_19
 10
6.3569
 20
-1.4768
 30
15.0491
 70
192
 0
VERTEX
 8
GRIFF_19
 10
6.3569
 20
-1.4768
 30
15.0491
 70
192
 0
VERTEX
 8
GRIFF_19
 10
7.4683
 20
-2.6277
 30
15.0491
 70
192
 0
VERTEX
 8
GRIFF_19
 10
7.4683
 20
-2.6277
 30
15.0491
 70
192
 0
VERTEX
 8
GRIFF_19
 10
6.5603
 20
-1.2803
 30
14.9319
 70
192
 0
VERTEX
 8
GRIFF_19
 10
6.5603
 20
-1.2803
 30
14.9319
 70
192
 0
VERTEX
 8
GRIFF_19
 10
7.6718
 20
-2.4312
 30
14.9319
 70
192
 0
VERTEX
 8
GRIFF_19
 10
7.6718
 20
-2.4312
 30
14.9319
 70
192
 0
VERTEX
 8
GRIFF_19
 10
6.7638
 20
-1.0838
 30
15.0491
 70
192
 0
VERTEX
 8
GRIFF_19
 10
6.7638
 20
-1.0838
 30
15.0491
 70
192
 0
VERTEX
 8
GRIFF_19
 10
7.8753
 20
-2.2348
 30
15.0491
 70
192
 0
VERTEX
 8
GRIFF_19
 10
7.8753
 20
-2.2348
 30
15.0491
 70
192
 0
VERTEX
 8
GRIFF_19
 10
6.8481
 20
-1.0024
 30
15.3319
 70
192
 0
VERTEX
 8
GRIFF_19
 10
6.8481
 20
-1.0024
 30
15.3319
 70
192
 0
VERTEX
 8
GRIFF_19
 10
7.9595
 20
-2.1534
 30
15.3319
 70
192
 0
VERTEX
 8
GRIFF_19
 10
7.9595
 20
-2.1534
 30
15.3319
 70
192
 0
VERTEX
 8
GRIFF_19
 10
6.7638
 20
-1.0838
 30
15.6147
 70
192
 0
VERTEX
 8
GRIFF_19
 10
6.7638
 20
-1.0838
 30
15.6147
 70
192
 0
VERTEX
 8
GRIFF_19
 10
7.8753
 20
-2.2348
 30
15.6147
 70
192
 0
VERTEX
 8
GRIFF_19
 10
7.8753
 20
-2.2348
 30
15.6147
 70
192
 0
VERTEX
 8
GRIFF_19
 10
0
 20
0
 30
0
 70
128
 71
1
 72
3
 73
7
 74
7
 0
VERTEX
 8
GRIFF_19
 10
0
 20
0
 30
0
 70
128
 71
4
 72
5
 73
9
 74
8
 0
VERTEX
 8
GRIFF_19
 10
0
 20
0
 30
0
 70
128
 71
6
 72
2
 73
10
 74
10
 0
VERTEX
 8
GRIFF_19
 10
0
 20
0
 30
0
 70
128
 71
1
 72
7
 73
11
 74
11
 0
VERTEX
 8
GRIFF_19
 10
0
 20
0
 30
0
 70
128
 71
8
 72
9
 73
13
 74
12
 0
VERTEX
 8
GRIFF_19
 10
0
 20
0
 30
0
 70
128
 71
10
 72
2
 73
14
 74
14
 0
VERTEX
 8
GRIFF_19
 10
0
 20
0
 30
0
 70
128
 71
1
 72
11
 73
15
 74
15
 0
VERTEX
 8
GRIFF_19
 10
0
 20
0
 30
0
 70
128
 71
12
 72
13
 73
17
 74
16
 0
VERTEX
 8
GRIFF_19
 10
0
 20
0
 30
0
 70
128
 71
14
 72
2
 73
18
 74
18
 0
VERTEX
 8
GRIFF_19
 10
0
 20
0
 30
0
 70
128
 71
1
 72
15
 73
19
 74
19
 0
VERTEX
 8
GRIFF_19
 10
0
 20
0
 30
0
 70
128
 71
16
 72
17
 73
21
 74
20
 0
VERTEX
 8
GRIFF_19
 10
0
 20
0
 30
0
 70
128
 71
18
 72
2
 73
22
 74
22
 0
VERTEX
 8
GRIFF_19
 10
0
 20
0
 30
0
 70
128
 71
1
 72
19
 73
23
 74
23
 0
VERTEX
 8
GRIFF_19
 10
0
 20
0
 30
0
 70
128
 71
20
 72
21
 73
25
 74
24
 0
VERTEX
 8
GRIFF_19
 10
0
 20
0
 30
0
 70
128
 71
22
 72
2
 73
26
 74
26
 0
VERTEX
 8
GRIFF_19
 10
0
 20
0
 30
0
 70
128
 71
1
 72
23
 73
27
 74
27
 0
VERTEX
 8
GRIFF_19
 10
0
 20
0
 30
0
 70
128
 71
24
 72
25
 73
29
 74
28
 0
VERTEX
 8
GRIFF_19
 10
0
 20
0
 30
0
 70
128
 71
26
 72
2
 73
30
 74
30
 0
VERTEX
 8
GRIFF_19
 10
0
 20
0
 30
0
 70
128
 71
1
 72
27
 73
31
 74
31
 0
VERTEX
 8
GRIFF_19
 10
0
 20
0
 30
0
 70
128
 71
28
 72
29
 73
33
 74
32
 0
VERTEX
 8
GRIFF_19
 10
0
 20
0
 30
0
 70
128
 71
30
 72
2
 73
34
 74
34
 0
VERTEX
 8
GRIFF_19
 10
0
 20
0
 30
0
 70
128
 71
1
 72
31
 73
3
 74
3
 0
VERTEX
 8
GRIFF_19
 10
0
 20
0
 30
0
 70
128
 71
32
 72
33
 73
5
 74
4
 0
VERTEX
 8
GRIFF_19
 10
0
 20
0
 30
0
 70
128
 71
34
 72
2
 73
6
 74
6
 0
SEQEND
 0
POLYLINE
 8
GRIFF_18
 66
1
 10
0.0
 20
0.0
 30
0.0
 70
64
 71
12
 72
6
 0
VERTEX
 8
GRIFF_18
 10
5.7004
 20
-0.9837
 30
15.6102
 70
192
 0
VERTEX
 8
GRIFF_18
 10
5.0098
 20
-1.6506
 30
15.6102
 70
192
 0
VERTEX
 8
GRIFF_18
 10
5.5319
 20
-0.8093
 30
15.4702
 70
192
 0
VERTEX
 8
GRIFF_18
 10
4.8414
 20
-1.4762
 30
15.4702
 70
192
 0
VERTEX
 8
GRIFF_18
 10
5.5319
 20
-0.8093
 30
15.1902
 70
192
 0
VERTEX
 8
GRIFF_18
 10
4.8414
 20
-1.4762
 30
15.1902
 70
192
 0
VERTEX
 8
GRIFF_18
 10
5.7004
 20
-0.9837
 30
15.0502
 70
192
 0
VERTEX
 8
GRIFF_18
 10
5.0098
 20
-1.6506
 30
15.0502
 70
192
 0
VERTEX
 8
GRIFF_18
 10
5.8688
 20
-1.1581
 30
15.1902
 70
192
 0
VERTEX
 8
GRIFF_18
 10
5.1783
 20
-1.825
 30
15.1902
 70
192
 0
VERTEX
 8
GRIFF_18
 10
5.8688
 20
-1.1581
 30
15.4702
 70
192
 0
VERTEX
 8
GRIFF_18
 10
5.1783
 20
-1.825
 30
15.4702
 70
192
 0
VERTEX
 8
GRIFF_18
 10
0
 20
0
 30
0
 70
128
 71
1
 72
2
 73
4
 74
3
 0
VERTEX
 8
GRIFF_18
 10
0
 20
0
 30
0
 70
128
 71
3
 72
4
 73
6
 74
5
 0
VERTEX
 8
GRIFF_18
 10
0
 20
0
 30
0
 70
128
 71
5
 72
6
 73
8
 74
7
 0
VERTEX
 8
GRIFF_18
 10
0
 20
0
 30
0
 70
128
 71
7
 72
8
 73
10
 74
9
 0
VERTEX
 8
GRIFF_18
 10
0
 20
0
 30
0
 70
128
 71
9
 72
10
 73
12
 74
11
 0
VERTEX
 8
GRIFF_18
 10
0
 20
0
 30
0
 70
128
 71
11
 72
12
 73
2
 74
1
 0
SEQEND
 0
POLYLINE
 8
GRIFF_17
 66
1
 10
0.0
 20
0.0
 30
0.0
 70
64
 71
34
 72
24
 0
VERTEX
 8
GRIFF_17
 10
5.3887
 20
-1.2847
 30
15.3319
 70
192
 0
VERTEX
 8
GRIFF_17
 10
4.2377
 20
-2.3962
 30
15.3319
 70
192
 0
VERTEX
 8
GRIFF_17
 10
5.3887
 20
-1.2847
 30
15.7319
 70
192
 0
VERTEX
 8
GRIFF_17
 10
5.3887
 20
-1.2847
 30
15.7319
 70
192
 0
VERTEX
 8
GRIFF_17
 10
4.2377
 20
-2.3962
 30
15.7319
 70
192
 0
VERTEX
 8
GRIFF_17
 10
4.2377
 20
-2.3962
 30
15.7319
 70
192
 0
VERTEX
 8
GRIFF_17
 10
5.1922
 20
-1.0812
 30
15.6147
 70
192
 0
VERTEX
 8
GRIFF_17
 10
5.1922
 20
-1.0812
 30
15.6147
 70
192
 0
VERTEX
 8
GRIFF_17
 10
4.0413
 20
-2.1927
 30
15.6147
 70
192
 0
VERTEX
 8
GRIFF_17
 10
4.0413
 20
-2.1927
 30
15.6147
 70
192
 0
VERTEX
 8
GRIFF_17
 10
5.1108
 20
-0.997
 30
15.3319
 70
192
 0
VERTEX
 8
GRIFF_17
 10
5.1108
 20
-0.997
 30
15.3319
 70
192
 0
VERTEX
 8
GRIFF_17
 10
3.9599
 20
-2.1084
 30
15.3319
 70
192
 0
VERTEX
 8
GRIFF_17
 10
3.9599
 20
-2.1084
 30
15.3319
 70
192
 0
VERTEX
 8
GRIFF_17
 10
5.1922
 20
-1.0812
 30
15.0491
 70
192
 0
VERTEX
 8
GRIFF_17
 10
5.1922
 20
-1.0812
 30
15.0491
 70
192
 0
VERTEX
 8
GRIFF_17
 10
4.0413
 20
-2.1927
 30
15.0491
 70
192
 0
VERTEX
 8
GRIFF_17
 10
4.0413
 20
-2.1927
 30
15.0491
 70
192
 0
VERTEX
 8
GRIFF_17
 10
5.3887
 20
-1.2847
 30
14.9319
 70
192
 0
VERTEX
 8
GRIFF_17
 10
5.3887
 20
-1.2847
 30
14.9319
 70
192
 0
VERTEX
 8
GRIFF_17
 10
4.2377
 20
-2.3962
 30
14.9319
 70
192
 0
VERTEX
 8
GRIFF_17
 10
4.2377
 20
-2.3962
 30
14.9319
 70
192
 0
VERTEX
 8
GRIFF_17
 10
5.5852
 20
-1.4882
 30
15.0491
 70
192
 0
VERTEX
 8
GRIFF_17
 10
5.5852
 20
-1.4882
 30
15.0491
 70
192
 0
VERTEX
 8
GRIFF_17
 10
4.4342
 20
-2.5996
 30
15.0491
 70
192
 0
VERTEX
 8
GRIFF_17
 10
4.4342
 20
-2.5996
 30
15.0491
 70
192
 0
VERTEX
 8
GRIFF_17
 10
5.6665
 20
-1.5724
 30
15.3319
 70
192
 0
VERTEX
 8
GRIFF_17
 10
5.6665
 20
-1.5724
 30
15.3319
 70
192
 0
VERTEX
 8
GRIFF_17
 10
4.5156
 20
-2.6839
 30
15.3319
 70
192
 0
VERTEX
 8
GRIFF_17
 10
4.5156
 20
-2.6839
 30
15.3319
 70
192
 0
VERTEX
 8
GRIFF_17
 10
5.5852
 20
-1.4882
 30
15.6147
 70
192
 0
VERTEX
 8
GRIFF_17
 10
5.5852
 20
-1.4882
 30
15.6147
 70
192
 0
VERTEX
 8
GRIFF_17
 10
4.4342
 20
-2.5996
 30
15.6147
 70
192
 0
VERTEX
 8
GRIFF_17
 10
4.4342
 20
-2.5996
 30
15.6147
 70
192
 0
VERTEX
 8
GRIFF_17
 10
0
 20
0
 30
0
 70
128
 71
1
 72
3
 73
7
 74
7
 0
VERTEX
 8
GRIFF_17
 10
0
 20
0
 30
0
 70
128
 71
4
 72
5
 73
9
 74
8
 0
VERTEX
 8
GRIFF_17
 10
0
 20
0
 30
0
 70
128
 71
6
 72
2
 73
10
 74
10
 0
VERTEX
 8
GRIFF_17
 10
0
 20
0
 30
0
 70
128
 71
1
 72
7
 73
11
 74
11
 0
VERTEX
 8
GRIFF_17
 10
0
 20
0
 30
0
 70
128
 71
8
 72
9
 73
13
 74
12
 0
VERTEX
 8
GRIFF_17
 10
0
 20
0
 30
0
 70
128
 71
10
 72
2
 73
14
 74
14
 0
VERTEX
 8
GRIFF_17
 10
0
 20
0
 30
0
 70
128
 71
1
 72
11
 73
15
 74
15
 0
VERTEX
 8
GRIFF_17
 10
0
 20
0
 30
0
 70
128
 71
12
 72
13
 73
17
 74
16
 0
VERTEX
 8
GRIFF_17
 10
0
 20
0
 30
0
 70
128
 71
14
 72
2
 73
18
 74
18
 0
VERTEX
 8
GRIFF_17
 10
0
 20
0
 30
0
 70
128
 71
1
 72
15
 73
19
 74
19
 0
VERTEX
 8
GRIFF_17
 10
0
 20
0
 30
0
 70
128
 71
16
 72
17
 73
21
 74
20
 0
VERTEX
 8
GRIFF_17
 10
0
 20
0
 30
0
 70
128
 71
18
 72
2
 73
22
 74
22
 0
VERTEX
 8
GRIFF_17
 10
0
 20
0
 30
0
 70
128
 71
1
 72
19
 73
23
 74
23
 0
VERTEX
 8
GRIFF_17
 10
0
 20
0
 30
0
 70
128
 71
20
 72
21
 73
25
 74
24
 0
VERTEX
 8
GRIFF_17
 10
0
 20
0
 30
0
 70
128
 71
22
 72
2
 73
26
 74
26
 0
VERTEX
 8
GRIFF_17
 10
0
 20
0
 30
0
 70
128
 71
1
 72
23
 73
27
 74
27
 0
VERTEX
 8
GRIFF_17
 10
0
 20
0
 30
0
 70
128
 71
24
 72
25
 73
29
 74
28
 0
VERTEX
 8
GRIFF_17
 10
0
 20
0
 30
0
 70
128
 71
26
 72
2
 73
30
 74
30
 0
VERTEX
 8
GRIFF_17
 10
0
 20
0
 30
0
 70
128
 71
1
 72
27
 73
31
 74
31
 0
VERTEX
 8
GRIFF_17
 10
0
 20
0
 30
0
 70
128
 71
28
 72
29
 73
33
 74
32
 0
VERTEX
 8
GRIFF_17
 10
0
 20
0
 30
0
 70
128
 71
30
 72
2
 73
34
 74
34
 0
VERTEX
 8
GRIFF_17
 10
0
 20
0
 30
0
 70
128
 71
1
 72
31
 73
3
 74
3
 0
VERTEX
 8
GRIFF_17
 10
0
 20
0
 30
0
 70
128
 71
32
 72
33
 73
5
 74
4
 0
VERTEX
 8
GRIFF_17
 10
0
 20
0
 30
0
 70
128
 71
34
 72
2
 73
6
 74
6
 0
SEQEND
 0
POLYLINE
 8
GRIFF_16
 66
1
 10
0.0
 20
0.0
 30
0.0
 70
64
 71
12
 72
6
 0
VERTEX
 8
GRIFF_16
 10
6.2729
 20
-0.4309
 30
15.6102
 70
192
 0
VERTEX
 8
GRIFF_16
 10
6.9634
 20
0.236
 30
15.6102
 70
192
 0
VERTEX
 8
GRIFF_16
 10
6.4413
 20
-0.6053
 30
15.4702
 70
192
 0
VERTEX
 8
GRIFF_16
 10
7.1319
 20
0.0616
 30
15.4702
 70
192
 0
VERTEX
 8
GRIFF_16
 10
6.4413
 20
-0.6053
 30
15.1902
 70
192
 0
VERTEX
 8
GRIFF_16
 10
7.1319
 20
0.0616
 30
15.1902
 70
192
 0
VERTEX
 8
GRIFF_16
 10
6.2729
 20
-0.4309
 30
15.0502
 70
192
 0
VERTEX
 8
GRIFF_16
 10
6.9634
 20
0.236
 30
15.0502
 70
192
 0
VERTEX
 8
GRIFF_16
 10
6.1044
 20
-0.2564
 30
15.1902
 70
192
 0
VERTEX
 8
GRIFF_16
 10
6.795
 20
0.4104
 30
15.1902
 70
192
 0
VERTEX
 8
GRIFF_16
 10
6.1044
 20
-0.2564
 30
15.4702
 70
192
 0
VERTEX
 8
GRIFF_16
 10
6.795
 20
0.4104
 30
15.4702
 70
192
 0
VERTEX
 8
GRIFF_16
 10
0
 20
0
 30
0
 70
128
 71
1
 72
2
 73
4
 74
3
 0
VERTEX
 8
GRIFF_16
 10
0
 20
0
 30
0
 70
128
 71
3
 72
4
 73
6
 74
5
 0
VERTEX
 8
GRIFF_16
 10
0
 20
0
 30
0
 70
128
 71
5
 72
6
 73
8
 74
7
 0
VERTEX
 8
GRIFF_16
 10
0
 20
0
 30
0
 70
128
 71
7
 72
8
 73
10
 74
9
 0
VERTEX
 8
GRIFF_16
 10
0
 20
0
 30
0
 70
128
 71
9
 72
10
 73
12
 74
11
 0
VERTEX
 8
GRIFF_16
 10
0
 20
0
 30
0
 70
128
 71
11
 72
12
 73
2
 74
1
 0
SEQEND
 0
POLYLINE
 8
GRIFF_15
 66
1
 10
0.0
 20
0.0
 30
0.0
 70
64
 71
34
 72
24
 0
VERTEX
 8
GRIFF_15
 10
6.5845
 20
-0.1299
 30
15.3319
 70
192
 0
VERTEX
 8
GRIFF_15
 10
7.7355
 20
0.9816
 30
15.3319
 70
192
 0
VERTEX
 8
GRIFF_15
 10
6.5845
 20
-0.1299
 30
15.7319
 70
192
 0
VERTEX
 8
GRIFF_15
 10
6.5845
 20
-0.1299
 30
15.7319
 70
192
 0
VERTEX
 8
GRIFF_15
 10
7.7355
 20
0.9816
 30
15.7319
 70
192
 0
VERTEX
 8
GRIFF_15
 10
7.7355
 20
0.9816
 30
15.7319
 70
192
 0
VERTEX
 8
GRIFF_15
 10
6.781
 20
-0.3333
 30
15.6147
 70
192
 0
VERTEX
 8
GRIFF_15
 10
6.781
 20
-0.3333
 30
15.6147
 70
192
 0
VERTEX
 8
GRIFF_15
 10
7.932
 20
0.7781
 30
15.6147
 70
192
 0
VERTEX
 8
GRIFF_15
 10
7.932
 20
0.7781
 30
15.6147
 70
192
 0
VERTEX
 8
GRIFF_15
 10
6.8624
 20
-0.4176
 30
15.3319
 70
192
 0
VERTEX
 8
GRIFF_15
 10
6.8624
 20
-0.4176
 30
15.3319
 70
192
 0
VERTEX
 8
GRIFF_15
 10
8.0133
 20
0.6938
 30
15.3319
 70
192
 0
VERTEX
 8
GRIFF_15
 10
8.0133
 20
0.6938
 30
15.3319
 70
192
 0
VERTEX
 8
GRIFF_15
 10
6.781
 20
-0.3333
 30
15.0491
 70
192
 0
VERTEX
 8
GRIFF_15
 10
6.781
 20
-0.3333
 30
15.0491
 70
192
 0
VERTEX
 8
GRIFF_15
 10
7.932
 20
0.7781
 30
15.0491
 70
192
 0
VERTEX
 8
GRIFF_15
 10
7.932
 20
0.7781
 30
15.0491
 70
192
 0
VERTEX
 8
GRIFF_15
 10
6.5845
 20
-0.1299
 30
14.9319
 70
192
 0
VERTEX
 8
GRIFF_15
 10
6.5845
 20
-0.1299
 30
14.9319
 70
192
 0
VERTEX
 8
GRIFF_15
 10
7.7355
 20
0.9816
 30
14.9319
 70
192
 0
VERTEX
 8
GRIFF_15
 10
7.7355
 20
0.9816
 30
14.9319
 70
192
 0
VERTEX
 8
GRIFF_15
 10
6.3881
 20
0.0736
 30
15.0491
 70
192
 0
VERTEX
 8
GRIFF_15
 10
6.3881
 20
0.0736
 30
15.0491
 70
192
 0
VERTEX
 8
GRIFF_15
 10
7.539
 20
1.185
 30
15.0491
 70
192
 0
VERTEX
 8
GRIFF_15
 10
7.539
 20
1.185
 30
15.0491
 70
192
 0
VERTEX
 8
GRIFF_15
 10
6.3067
 20
0.1579
 30
15.3319
 70
192
 0
VERTEX
 8
GRIFF_15
 10
6.3067
 20
0.1579
 30
15.3319
 70
192
 0
VERTEX
 8
GRIFF_15
 10
7.4576
 20
1.2693
 30
15.3319
 70
192
 0
VERTEX
 8
GRIFF_15
 10
7.4576
 20
1.2693
 30
15.3319
 70
192
 0
VERTEX
 8
GRIFF_15
 10
6.3881
 20
0.0736
 30
15.6147
 70
192
 0
VERTEX
 8
GRIFF_15
 10
6.3881
 20
0.0736
 30
15.6147
 70
192
 0
VERTEX
 8
GRIFF_15
 10
7.539
 20
1.185
 30
15.6147
 70
192
 0
VERTEX
 8
GRIFF_15
 10
7.539
 20
1.185
 30
15.6147
 70
192
 0
VERTEX
 8
GRIFF_15
 10
0
 20
0
 30
0
 70
128
 71
1
 72
3
 73
7
 74
7
 0
VERTEX
 8
GRIFF_15
 10
0
 20
0
 30
0
 70
128
 71
4
 72
5
 73
9
 74
8
 0
VERTEX
 8
GRIFF_15
 10
0
 20
0
 30
0
 70
128
 71
6
 72
2
 73
10
 74
10
 0
VERTEX
 8
GRIFF_15
 10
0
 20
0
 30
0
 70
128
 71
1
 72
7
 73
11
 74
11
 0
VERTEX
 8
GRIFF_15
 10
0
 20
0
 30
0
 70
128
 71
8
 72
9
 73
13
 74
12
 0
VERTEX
 8
GRIFF_15
 10
0
 20
0
 30
0
 70
128
 71
10
 72
2
 73
14
 74
14
 0
VERTEX
 8
GRIFF_15
 10
0
 20
0
 30
0
 70
128
 71
1
 72
11
 73
15
 74
15
 0
VERTEX
 8
GRIFF_15
 10
0
 20
0
 30
0
 70
128
 71
12
 72
13
 73
17
 74
16
 0
VERTEX
 8
GRIFF_15
 10
0
 20
0
 30
0
 70
128
 71
14
 72
2
 73
18
 74
18
 0
VERTEX
 8
GRIFF_15
 10
0
 20
0
 30
0
 70
128
 71
1
 72
15
 73
19
 74
19
 0
VERTEX
 8
GRIFF_15
 10
0
 20
0
 30
0
 70
128
 71
16
 72
17
 73
21
 74
20
 0
VERTEX
 8
GRIFF_15
 10
0
 20
0
 30
0
 70
128
 71
18
 72
2
 73
22
 74
22
 0
VERTEX
 8
GRIFF_15
 10
0
 20
0
 30
0
 70
128
 71
1
 72
19
 73
23
 74
23
 0
VERTEX
 8
GRIFF_15
 10
0
 20
0
 30
0
 70
128
 71
20
 72
21
 73
25
 74
24
 0
VERTEX
 8
GRIFF_15
 10
0
 20
0
 30
0
 70
128
 71
22
 72
2
 73
26
 74
26
 0
VERTEX
 8
GRIFF_15
 10
0
 20
0
 30
0
 70
128
 71
1
 72
23
 73
27
 74
27
 0
VERTEX
 8
GRIFF_15
 10
0
 20
0
 30
0
 70
128
 71
24
 72
25
 73
29
 74
28
 0
VERTEX
 8
GRIFF_15
 10
0
 20
0
 30
0
 70
128
 71
26
 72
2
 73
30
 74
30
 0
VERTEX
 8
GRIFF_15
 10
0
 20
0
 30
0
 70
128
 71
1
 72
27
 73
31
 74
31
 0
VERTEX
 8
GRIFF_15
 10
0
 20
0
 30
0
 70
128
 71
28
 72
29
 73
33
 74
32
 0
VERTEX
 8
GRIFF_15
 10
0
 20
0
 30
0
 70
128
 71
30
 72
2
 73
34
 74
34
 0
VERTEX
 8
GRIFF_15
 10
0
 20
0
 30
0
 70
128
 71
1
 72
31
 73
3
 74
3
 0
VERTEX
 8
GRIFF_15
 10
0
 20
0
 30
0
 70
128
 71
32
 72
33
 73
5
 74
4
 0
VERTEX
 8
GRIFF_15
 10
0
 20
0
 30
0
 70
128
 71
34
 72
2
 73
6
 74
6
 0
SEQEND
 0
POLYLINE
 8
GRIFF_14
 66
1
 10
0.0
 20
0.0
 30
0.0
 70
64
 71
34
 72
24
 0
VERTEX
 8
GRIFF_14
 10
6.0076
 20
-0.7079
 30
14.9386
 70
192
 0
VERTEX
 8
GRIFF_14
 10
6.0076
 20
-0.7079
 30
15.7386
 70
192
 0
VERTEX
 8
GRIFF_14
 10
6.3966
 20
-1.1107
 30
14.9386
 70
192
 0
VERTEX
 8
GRIFF_14
 10
6.3966
 20
-1.1107
 30
14.9386
 70
192
 0
VERTEX
 8
GRIFF_14
 10
6.3966
 20
-1.1107
 30
15.7386
 70
192
 0
VERTEX
 8
GRIFF_14
 10
6.3966
 20
-1.1107
 30
15.7386
 70
192
 0
VERTEX
 8
GRIFF_14
 10
6.5675
 20
-0.7177
 30
14.9386
 70
192
 0
VERTEX
 8
GRIFF_14
 10
6.5675
 20
-0.7177
 30
14.9386
 70
192
 0
VERTEX
 8
GRIFF_14
 10
6.5675
 20
-0.7177
 30
15.7386
 70
192
 0
VERTEX
 8
GRIFF_14
 10
6.5675
 20
-0.7177
 30
15.7386
 70
192
 0
VERTEX
 8
GRIFF_14
 10
6.4104
 20
-0.3189
 30
14.9386
 70
192
 0
VERTEX
 8
GRIFF_14
 10
6.4104
 20
-0.3189
 30
14.9386
 70
192
 0
VERTEX
 8
GRIFF_14
 10
6.4104
 20
-0.3189
 30
15.7386
 70
192
 0
VERTEX
 8
GRIFF_14
 10
6.4104
 20
-0.3189
 30
15.7386
 70
192
 0
VERTEX
 8
GRIFF_14
 10
6.0174
 20
-0.148
 30
14.9386
 70
192
 0
VERTEX
 8
GRIFF_14
 10
6.0174
 20
-0.148
 30
14.9386
 70
192
 0
VERTEX
 8
GRIFF_14
 10
6.0174
 20
-0.148
 30
15.7386
 70
192
 0
VERTEX
 8
GRIFF_14
 10
6.0174
 20
-0.148
 30
15.7386
 70
192
 0
VERTEX
 8
GRIFF_14
 10
5.6186
 20
-0.3051
 30
14.9386
 70
192
 0
VERTEX
 8
GRIFF_14
 10
5.6186
 20
-0.3051
 30
14.9386
 70
192
 0
VERTEX
 8
GRIFF_14
 10
5.6186
 20
-0.3051
 30
15.7386
 70
192
 0
VERTEX
 8
GRIFF_14
 10
5.6186
 20
-0.3051
 30
15.7386
 70
192
 0
VERTEX
 8
GRIFF_14
 10
5.4477
 20
-0.6981
 30
14.9386
 70
192
 0
VERTEX
 8
GRIFF_14
 10
5.4477
 20
-0.6981
 30
14.9386
 70
192
 0
VERTEX
 8
GRIFF_14
 10
5.4477
 20
-0.6981
 30
15.7386
 70
192
 0
VERTEX
 8
GRIFF_14
 10
5.4477
 20
-0.6981
 30
15.7386
 70
192
 0
VERTEX
 8
GRIFF_14
 10
5.6048
 20
-1.0969
 30
14.9386
 70
192
 0
VERTEX
 8
GRIFF_14
 10
5.6048
 20
-1.0969
 30
14.9386
 70
192
 0
VERTEX
 8
GRIFF_14
 10
5.6048
 20
-1.0969
 30
15.7386
 70
192
 0
VERTEX
 8
GRIFF_14
 10
5.6048
 20
-1.0969
 30
15.7386
 70
192
 0
VERTEX
 8
GRIFF_14
 10
5.9978
 20
-1.2678
 30
14.9386
 70
192
 0
VERTEX
 8
GRIFF_14
 10
5.9978
 20
-1.2678
 30
14.9386
 70
192
 0
VERTEX
 8
GRIFF_14
 10
5.9978
 20
-1.2678
 30
15.7386
 70
192
 0
VERTEX
 8
GRIFF_14
 10
5.9978
 20
-1.2678
 30
15.7386
 70
192
 0
VERTEX
 8
GRIFF_14
 10
0
 20
0
 30
0
 70
128
 71
1
 72
3
 73
7
 74
7
 0
VERTEX
 8
GRIFF_14
 10
0
 20
0
 30
0
 70
128
 71
4
 72
5
 73
9
 74
8
 0
VERTEX
 8
GRIFF_14
 10
0
 20
0
 30
0
 70
128
 71
6
 72
2
 73
10
 74
10
 0
VERTEX
 8
GRIFF_14
 10
0
 20
0
 30
0
 70
128
 71
1
 72
7
 73
11
 74
11
 0
VERTEX
 8
GRIFF_14
 10
0
 20
0
 30
0
 70
128
 71
8
 72
9
 73
13
 74
12
 0
VERTEX
 8
GRIFF_14
 10
0
 20
0
 30
0
 70
128
 71
10
 72
2
 73
14
 74
14
 0
VERTEX
 8
GRIFF_14
 10
0
 20
0
 30
0
 70
128
 71
1
 72
11
 73
15
 74
15
 0
VERTEX
 8
GRIFF_14
 10
0
 20
0
 30
0
 70
128
 71
12
 72
13
 73
17
 74
16
 0
VERTEX
 8
GRIFF_14
 10
0
 20
0
 30
0
 70
128
 71
14
 72
2
 73
18
 74
18
 0
VERTEX
 8
GRIFF_14
 10
0
 20
0
 30
0
 70
128
 71
1
 72
15
 73
19
 74
19
 0
VERTEX
 8
GRIFF_14
 10
0
 20
0
 30
0
 70
128
 71
16
 72
17
 73
21
 74
20
 0
VERTEX
 8
GRIFF_14
 10
0
 20
0
 30
0
 70
128
 71
18
 72
2
 73
22
 74
22
 0
VERTEX
 8
GRIFF_14
 10
0
 20
0
 30
0
 70
128
 71
1
 72
19
 73
23
 74
23
 0
VERTEX
 8
GRIFF_14
 10
0
 20
0
 30
0
 70
128
 71
20
 72
21
 73
25
 74
24
 0
VERTEX
 8
GRIFF_14
 10
0
 20
0
 30
0
 70
128
 71
22
 72
2
 73
26
 74
26
 0
VERTEX
 8
GRIFF_14
 10
0
 20
0
 30
0
 70
128
 71
1
 72
23
 73
27
 74
27
 0
VERTEX
 8
GRIFF_14
 10
0
 20
0
 30
0
 70
128
 71
24
 72
25
 73
29
 74
28
 0
VERTEX
 8
GRIFF_14
 10
0
 20
0
 30
0
 70
128
 71
26
 72
2
 73
30
 74
30
 0
VERTEX
 8
GRIFF_14
 10
0
 20
0
 30
0
 70
128
 71
1
 72
27
 73
31
 74
31
 0
VERTEX
 8
GRIFF_14
 10
0
 20
0
 30
0
 70
128
 71
28
 72
29
 73
33
 74
32
 0
VERTEX
 8
GRIFF_14
 10
0
 20
0
 30
0
 70
128
 71
30
 72
2
 73
34
 74
34
 0
VERTEX
 8
GRIFF_14
 10
0
 20
0
 30
0
 70
128
 71
1
 72
31
 73
3
 74
3
 0
VERTEX
 8
GRIFF_14
 10
0
 20
0
 30
0
 70
128
 71
32
 72
33
 73
5
 74
4
 0
VERTEX
 8
GRIFF_14
 10
0
 20
0
 30
0
 70
128
 71
34
 72
2
 73
6
 74
6
 0
SEQEND
 0
POLYLINE
 8
ROSETTE
 66
1
 10
0.0
 20
0.0
 30
0.0
 70
64
 71
48
 72
34
 0
VERTEX
 8
ROSETTE
 10
-17.0262
 20
-3.3782
 30
9.6204
 70
192
 0
VERTEX
 8
ROSETTE
 10
-18.8493
 20
1.9167
 30
9.6204
 70
192
 0
VERTEX
 8
ROSETTE
 10
-18.8493
 20
1.9167
 30
9.6204
 70
192
 0
VERTEX
 8
ROSETTE
 10
-18.8493
 20
1.9167
 30
9.9404
 70
192
 0
VERTEX
 8
ROSETTE
 10
-18.8493
 20
1.9167
 30
9.9404
 70
192
 0
VERTEX
 8
ROSETTE
 10
-17.0262
 20
-3.3782
 30
9.6204
 70
192
 0
VERTEX
 8
ROSETTE
 10
-17.0262
 20
-3.3782
 30
9.9404
 70
192
 0
VERTEX
 8
ROSETTE
 10
-17.0262
 20
-3.3782
 30
9.9404
 70
192
 0
VERTEX
 8
ROSETTE
 10
-15.8246
 20
-2.5677
 30
9.6204
 70
192
 0
VERTEX
 8
ROSETTE
 10
-20.0509
 20
1.1062
 30
9.6204
 70
192
 0
VERTEX
 8
ROSETTE
 10
-20.0509
 20
1.1062
 30
9.6204
 70
192
 0
VERTEX
 8
ROSETTE
 10
-20.0509
 20
1.1062
 30
9.9404
 70
192
 0
VERTEX
 8
ROSETTE
 10
-20.0509
 20
1.1062
 30
9.9404
 70
192
 0
VERTEX
 8
ROSETTE
 10
-15.8246
 20
-2.5677
 30
9.6204
 70
192
 0
VERTEX
 8
ROSETTE
 10
-15.8246
 20
-2.5677
 30
9.9404
 70
192
 0
VERTEX
 8
ROSETTE
 10
-15.8246
 20
-2.5677
 30
9.9404
 70
192
 0
VERTEX
 8
ROSETTE
 10
-15.1892
 20
-1.265
 30
9.6204
 70
192
 0
VERTEX
 8
ROSETTE
 10
-20.6863
 20
-0.1965
 30
9.6204
 70
192
 0
VERTEX
 8
ROSETTE
 10
-20.6863
 20
-0.1965
 30
9.6204
 70
192
 0
VERTEX
 8
ROSETTE
 10
-20.6863
 20
-0.1965
 30
9.9404
 70
192
 0
VERTEX
 8
ROSETTE
 10
-20.6863
 20
-0.1965
 30
9.9404
 70
192
 0
VERTEX
 8
ROSETTE
 10
-15.1892
 20
-1.265
 30
9.6204
 70
192
 0
VERTEX
 8
ROSETTE
 10
-15.1892
 20
-1.265
 30
9.9404
 70
192
 0
VERTEX
 8
ROSETTE
 10
-15.1892
 20
-1.265
 30
9.9404
 70
192
 0
VERTEX
 8
ROSETTE
 10
-15.2903
 20
0.1808
 30
9.6204
 70
192
 0
VERTEX
 8
ROSETTE
 10
-20.5852
 20
-1.6423
 30
9.6204
 70
192
 0
VERTEX
 8
ROSETTE
 10
-20.5852
 20
-1.6423
 30
9.6204
 70
192
 0
VERTEX
 8
ROSETTE
 10
-20.5852
 20
-1.6423
 30
9.9404
 70
192
 0
VERTEX
 8
ROSETTE
 10
-20.5852
 20
-1.6423
 30
9.9404
 70
192
 0
VERTEX
 8
ROSETTE
 10
-15.2903
 20
0.1808
 30
9.6204
 70
192
 0
VERTEX
 8
ROSETTE
 10
-15.2903
 20
0.1808
 30
9.9404
 70
192
 0
VERTEX
 8
ROSETTE
 10
-15.2903
 20
0.1808
 30
9.9404
 70
192
 0
VERTEX
 8
ROSETTE
 10
-16.1008
 20
1.3824
 30
9.6204
 70
192
 0
VERTEX
 8
ROSETTE
 10
-19.7747
 20
-2.8439
 30
9.6204
 70
192
 0
VERTEX
 8
ROSETTE
 10
-19.7747
 20
-2.8439
 30
9.6204
 70
192
 0
VERTEX
 8
ROSETTE
 10
-19.7747
 20
-2.8439
 30
9.9404
 70
192
 0
VERTEX
 8
ROSETTE
 10
-19.7747
 20
-2.8439
 30
9.9404
 70
192
 0
VERTEX
 8
ROSETTE
 10
-16.1008
 20
1.3824
 30
9.6204
 70
192
 0
VERTEX
 8
ROSETTE
 10
-16.1008
 20
1.3824
 30
9.9404
 70
192
 0
VERTEX
 8
ROSETTE
 10
-16.1008
 20
1.3824
 30
9.9404
 70
192
 0
VERTEX
 8
ROSETTE
 10
-17.4035
 20
2.0178
 30
9.6204
 70
192
 0
VERTEX
 8
ROSETTE
 10
-18.472
 20
-3.4793
 30
9.6204
 70
192
 0
VERTEX
 8
ROSETTE
 10
-18.472
 20
-3.4793
 30
9.6204
 70
192
 0
VERTEX
 8
ROSETTE
 10
-18.472
 20
-3.4793
 30
9.9404
 70
192
 0
VERTEX
 8
ROSETTE
 10
-18.472
 20
-3.4793
 30
9.9404
 70
192
 0
VERTEX
 8
ROSETTE
 10
-17.4035
 20
2.0178
 30
9.6204
 70
192
 0
VERTEX
 8
ROSETTE
 10
-17.4035
 20
2.0178
 30
9.9404
 70
192
 0
VERTEX
 8
ROSETTE
 10
-17.4035
 20
2.0178
 30
9.9404
 70
192
 0
VERTEX
 8
ROSETTE
 10
0
 20
0
 30
0
 70
128
 71
27
 72
28
 73
36
 74
36
 0
VERTEX
 8
ROSETTE
 10
0
 20
0
 30
0
 70
128
 71
3
 72
4
 73
12
 74
12
 0
VERTEX
 8
ROSETTE
 10
0
 20
0
 30
0
 70
128
 71
35
 72
36
 73
44
 74
44
 0
VERTEX
 8
ROSETTE
 10
0
 20
0
 30
0
 70
128
 71
43
 72
44
 73
7
 74
7
 0
VERTEX
 8
ROSETTE
 10
0
 20
0
 30
0
 70
128
 71
6
 72
7
 73
15
 74
15
 0
VERTEX
 8
ROSETTE
 10
0
 20
0
 30
0
 70
128
 71
11
 72
12
 73
20
 74
20
 0
VERTEX
 8
ROSETTE
 10
0
 20
0
 30
0
 70
128
 71
14
 72
15
 73
23
 74
23
 0
VERTEX
 8
ROSETTE
 10
0
 20
0
 30
0
 70
128
 71
22
 72
23
 73
31
 74
31
 0
VERTEX
 8
ROSETTE
 10
0
 20
0
 30
0
 70
128
 71
30
 72
31
 73
39
 74
39
 0
VERTEX
 8
ROSETTE
 10
0
 20
0
 30
0
 70
128
 71
19
 72
20
 73
28
 74
28
 0
VERTEX
 8
ROSETTE
 10
0
 20
0
 30
0
 70
128
 71
38
 72
39
 73
47
 74
47
 0
VERTEX
 8
ROSETTE
 10
0
 20
0
 30
0
 70
128
 71
46
 72
47
 73
4
 74
4
 0
VERTEX
 8
ROSETTE
 10
0
 20
0
 30
0
 70
128
 71
47
 72
39
 73
31
 74
31
 0
VERTEX
 8
ROSETTE
 10
0
 20
0
 30
0
 70
128
 71
31
 72
23
 73
15
 74
15
 0
VERTEX
 8
ROSETTE
 10
0
 20
0
 30
0
 70
128
 71
4
 72
31
 73
7
 74
7
 0
VERTEX
 8
ROSETTE
 10
0
 20
0
 30
0
 70
128
 71
7
 72
44
 73
36
 74
36
 0
VERTEX
 8
ROSETTE
 10
0
 20
0
 30
0
 70
128
 71
28
 72
20
 73
12
 74
12
 0
VERTEX
 8
ROSETTE
 10
0
 20
0
 30
0
 70
128
 71
27
 72
36
 73
35
 74
35
 0
VERTEX
 8
ROSETTE
 10
0
 20
0
 30
0
 70
128
 71
3
 72
12
 73
11
 74
11
 0
VERTEX
 8
ROSETTE
 10
0
 20
0
 30
0
 70
128
 71
35
 72
44
 73
43
 74
43
 0
VERTEX
 8
ROSETTE
 10
0
 20
0
 30
0
 70
128
 71
43
 72
7
 73
6
 74
6
 0
VERTEX
 8
ROSETTE
 10
0
 20
0
 30
0
 70
128
 71
6
 72
15
 73
14
 74
14
 0
VERTEX
 8
ROSETTE
 10
0
 20
0
 30
0
 70
128
 71
11
 72
20
 73
19
 74
19
 0
VERTEX
 8
ROSETTE
 10
0
 20
0
 30
0
 70
128
 71
14
 72
23
 73
22
 74
22
 0
VERTEX
 8
ROSETTE
 10
0
 20
0
 30
0
 70
128
 71
22
 72
31
 73
30
 74
30
 0
VERTEX
 8
ROSETTE
 10
0
 20
0
 30
0
 70
128
 71
30
 72
39
 73
38
 74
38
 0
VERTEX
 8
ROSETTE
 10
0
 20
0
 30
0
 70
128
 71
19
 72
28
 73
27
 74
27
 0
VERTEX
 8
ROSETTE
 10
0
 20
0
 30
0
 70
128
 71
38
 72
47
 73
46
 74
46
 0
VERTEX
 8
ROSETTE
 10
0
 20
0
 30
0
 70
128
 71
46
 72
4
 73
3
 74
3
 0
VERTEX
 8
ROSETTE
 10
0
 20
0
 30
0
 70
128
 71
47
 72
31
 73
4
 74
4
 0
VERTEX
 8
ROSETTE
 10
0
 20
0
 30
0
 70
128
 71
31
 72
15
 73
7
 74
7
 0
VERTEX
 8
ROSETTE
 10
0
 20
0
 30
0
 70
128
 71
4
 72
7
 73
28
 74
28
 0
VERTEX
 8
ROSETTE
 10
0
 20
0
 30
0
 70
128
 71
7
 72
36
 73
28
 74
28
 0
VERTEX
 8
ROSETTE
 10
0
 20
0
 30
0
 70
128
 71
28
 72
12
 73
4
 74
4
 0
SEQEND
 0
POLYLINE
 8
GRIFF_11
 66
1
 10
0.0
 20
0.0
 30
0.0
 70
64
 71
90
 72
30
 0
VERTEX
 8
GRIFF_11
 10
-16.2384
 20
-0.3384
 30
9.7562
 70
192
 0
VERTEX
 8
GRIFF_11
 10
-18.5055
 20
0.9182
 30
9.7562
 70
192
 0
VERTEX
 8
GRIFF_11
 10
-18.5055
 20
0.9182
 30
9.7562
 70
192
 0
VERTEX
 8
GRIFF_11
 10
-18.5055
 20
0.9182
 30
13.7562
 70
192
 0
VERTEX
 8
GRIFF_11
 10
-18.5055
 20
0.9182
 30
13.7562
 70
192
 0
VERTEX
 8
GRIFF_11
 10
-17.9377
 20
-0.7307
 30
13.7562
 70
192
 0
VERTEX
 8
GRIFF_11
 10
-17.9377
 20
-0.7307
 30
13.7562
 70
192
 0
VERTEX
 8
GRIFF_11
 10
-16.2384
 20
-0.3384
 30
13.7562
 70
192
 0
VERTEX
 8
GRIFF_11
 10
-16.2384
 20
-0.3384
 30
13.7562
 70
192
 0
VERTEX
 8
GRIFF_11
 10
-19.1272
 20
0.5447
 30
9.7562
 70
192
 0
VERTEX
 8
GRIFF_11
 10
-19.1272
 20
0.5447
 30
9.7562
 70
192
 0
VERTEX
 8
GRIFF_11
 10
-19.1272
 20
0.5447
 30
13.7562
 70
192
 0
VERTEX
 8
GRIFF_11
 10
-19.1272
 20
0.5447
 30
13.7562
 70
192
 0
VERTEX
 8
GRIFF_11
 10
-17.9377
 20
-0.7307
 30
13.7562
 70
192
 0
VERTEX
 8
GRIFF_11
 10
-17.9377
 20
-0.7307
 30
13.7562
 70
192
 0
VERTEX
 8
GRIFF_11
 10
-17.9377
 20
-0.7307
 30
13.7562
 70
192
 0
VERTEX
 8
GRIFF_11
 10
-17.9377
 20
-0.7307
 30
13.7562
 70
192
 0
VERTEX
 8
GRIFF_11
 10
-19.5431
 20
-0.0493
 30
9.7562
 70
192
 0
VERTEX
 8
GRIFF_11
 10
-19.5431
 20
-0.0493
 30
9.7562
 70
192
 0
VERTEX
 8
GRIFF_11
 10
-19.5431
 20
-0.0493
 30
13.7562
 70
192
 0
VERTEX
 8
GRIFF_11
 10
-19.5431
 20
-0.0493
 30
13.7562
 70
192
 0
VERTEX
 8
GRIFF_11
 10
-17.9377
 20
-0.7307
 30
13.7562
 70
192
 0
VERTEX
 8
GRIFF_11
 10
-17.9377
 20
-0.7307
 30
13.7562
 70
192
 0
VERTEX
 8
GRIFF_11
 10
-16.5449
 20
0.3188
 30
9.7562
 70
192
 0
VERTEX
 8
GRIFF_11
 10
-16.5449
 20
0.3188
 30
9.7562
 70
192
 0
VERTEX
 8
GRIFF_11
 10
-19.6815
 20
-0.7612
 30
9.7562
 70
192
 0
VERTEX
 8
GRIFF_11
 10
-19.6815
 20
-0.7612
 30
9.7562
 70
192
 0
VERTEX
 8
GRIFF_11
 10
-19.6815
 20
-0.7612
 30
13.7562
 70
192
 0
VERTEX
 8
GRIFF_11
 10
-19.6815
 20
-0.7612
 30
13.7562
 70
192
 0
VERTEX
 8
GRIFF_11
 10
-17.9377
 20
-0.7307
 30
13.7562
 70
192
 0
VERTEX
 8
GRIFF_11
 10
-17.9377
 20
-0.7307
 30
13.7562
 70
192
 0
VERTEX
 8
GRIFF_11
 10
-16.5449
 20
0.3188
 30
13.7562
 70
192
 0
VERTEX
 8
GRIFF_11
 10
-16.5449
 20
0.3188
 30
13.7562
 70
192
 0
VERTEX
 8
GRIFF_11
 10
-19.5183
 20
-1.4678
 30
9.7562
 70
192
 0
VERTEX
 8
GRIFF_11
 10
-19.5183
 20
-1.4678
 30
9.7562
 70
192
 0
VERTEX
 8
GRIFF_11
 10
-19.5183
 20
-1.4678
 30
13.7562
 70
192
 0
VERTEX
 8
GRIFF_11
 10
-19.5183
 20
-1.4678
 30
13.7562
 70
192
 0
VERTEX
 8
GRIFF_11
 10
-17.9377
 20
-0.7307
 30
13.7562
 70
192
 0
VERTEX
 8
GRIFF_11
 10
-17.9377
 20
-0.7307
 30
13.7562
 70
192
 0
VERTEX
 8
GRIFF_11
 10
-17.9377
 20
-0.7307
 30
13.7562
 70
192
 0
VERTEX
 8
GRIFF_11
 10
-17.9377
 20
-0.7307
 30
13.7562
 70
192
 0
VERTEX
 8
GRIFF_11
 10
-19.0819
 20
-2.047
 30
9.7562
 70
192
 0
VERTEX
 8
GRIFF_11
 10
-19.0819
 20
-2.047
 30
9.7562
 70
192
 0
VERTEX
 8
GRIFF_11
 10
-19.0819
 20
-2.047
 30
13.7562
 70
192
 0
VERTEX
 8
GRIFF_11
 10
-19.0819
 20
-2.047
 30
13.7562
 70
192
 0
VERTEX
 8
GRIFF_11
 10
-17.9377
 20
-0.7307
 30
13.7562
 70
192
 0
VERTEX
 8
GRIFF_11
 10
-17.9377
 20
-0.7307
 30
13.7562
 70
192
 0
VERTEX
 8
GRIFF_11
 10
-17.0922
 20
0.7946
 30
9.7562
 70
192
 0
VERTEX
 8
GRIFF_11
 10
-17.0922
 20
0.7946
 30
9.7562
 70
192
 0
VERTEX
 8
GRIFF_11
 10
-18.4476
 20
-2.3985
 30
9.7562
 70
192
 0
VERTEX
 8
GRIFF_11
 10
-18.4476
 20
-2.3985
 30
9.7562
 70
192
 0
VERTEX
 8
GRIFF_11
 10
-18.4476
 20
-2.3985
 30
13.7562
 70
192
 0
VERTEX
 8
GRIFF_11
 10
-18.4476
 20
-2.3985
 30
13.7562
 70
192
 0
VERTEX
 8
GRIFF_11
 10
-17.9377
 20
-0.7307
 30
13.7562
 70
192
 0
VERTEX
 8
GRIFF_11
 10
-17.9377
 20
-0.7307
 30
13.7562
 70
192
 0
VERTEX
 8
GRIFF_11
 10
-17.0922
 20
0.7946
 30
13.7562
 70
192
 0
VERTEX
 8
GRIFF_11
 10
-17.0922
 20
0.7946
 30
13.7562
 70
192
 0
VERTEX
 8
GRIFF_11
 10
-17.7252
 20
-2.4617
 30
9.7562
 70
192
 0
VERTEX
 8
GRIFF_11
 10
-17.7252
 20
-2.4617
 30
9.7562
 70
192
 0
VERTEX
 8
GRIFF_11
 10
-17.7252
 20
-2.4617
 30
13.7562
 70
192
 0
VERTEX
 8
GRIFF_11
 10
-17.7252
 20
-2.4617
 30
13.7562
 70
192
 0
VERTEX
 8
GRIFF_11
 10
-17.9377
 20
-0.7307
 30
13.7562
 70
192
 0
VERTEX
 8
GRIFF_11
 10
-17.9377
 20
-0.7307
 30
13.7562
 70
192
 0
VERTEX
 8
GRIFF_11
 10
-17.9377
 20
-0.7307
 30
13.7562
 70
192
 0
VERTEX
 8
GRIFF_11
 10
-17.9377
 20
-0.7307
 30
13.7562
 70
192
 0
VERTEX
 8
GRIFF_11
 10
-17.0395
 20
-2.2256
 30
9.7562
 70
192
 0
VERTEX
 8
GRIFF_11
 10
-17.0395
 20
-2.2256
 30
9.7562
 70
192
 0
VERTEX
 8
GRIFF_11
 10
-17.0395
 20
-2.2256
 30
13.7562
 70
192
 0
VERTEX
 8
GRIFF_11
 10
-17.0395
 20
-2.2256
 30
13.7562
 70
192
 0
VERTEX
 8
GRIFF_11
 10
-17.9377
 20
-0.7307
 30
13.7562
 70
192
 0
VERTEX
 8
GRIFF_11
 10
-17.9377
 20
-0.7307
 30
13.7562
 70
192
 0
VERTEX
 8
GRIFF_11
 10
-17.7857
 20
1.0066
 30
9.7562
 70
192
 0
VERTEX
 8
GRIFF_11
 10
-17.7857
 20
1.0066
 30
9.7562
 70
192
 0
VERTEX
 8
GRIFF_11
 10
-16.5091
 20
-1.7311
 30
9.7562
 70
192
 0
VERTEX
 8
GRIFF_11
 10
-16.5091
 20
-1.7311
 30
9.7562
 70
192
 0
VERTEX
 8
GRIFF_11
 10
-16.5091
 20
-1.7311
 30
13.7562
 70
192
 0
VERTEX
 8
GRIFF_11
 10
-16.5091
 20
-1.7311
 30
13.7562
 70
192
 0
VERTEX
 8
GRIFF_11
 10
-17.9377
 20
-0.7307
 30
13.7562
 70
192
 0
VERTEX
 8
GRIFF_11
 10
-17.9377
 20
-0.7307
 30
13.7562
 70
192
 0
VERTEX
 8
GRIFF_11
 10
-17.7857
 20
1.0066
 30
13.7562
 70
192
 0
VERTEX
 8
GRIFF_11
 10
-17.7857
 20
1.0066
 30
13.7562
 70
192
 0
VERTEX
 8
GRIFF_11
 10
-16.2258
 20
-1.0635
 30
9.7562
 70
192
 0
VERTEX
 8
GRIFF_11
 10
-16.2258
 20
-1.0635
 30
9.7562
 70
192
 0
VERTEX
 8
GRIFF_11
 10
-16.2258
 20
-1.0635
 30
13.7562
 70
192
 0
VERTEX
 8
GRIFF_11
 10
-16.2258
 20
-1.0635
 30
13.7562
 70
192
 0
VERTEX
 8
GRIFF_11
 10
-17.9377
 20
-0.7307
 30
13.7562
 70
192
 0
VERTEX
 8
GRIFF_11
 10
-17.9377
 20
-0.7307
 30
13.7562
 70
192
 0
VERTEX
 8
GRIFF_11
 10
-17.9377
 20
-0.7307
 30
13.7562
 70
192
 0
VERTEX
 8
GRIFF_11
 10
-17.9377
 20
-0.7307
 30
13.7562
 70
192
 0
VERTEX
 8
GRIFF_11
 10
-16.2384
 20
-0.3384
 30
9.7562
 70
192
 0
VERTEX
 8
GRIFF_11
 10
0
 20
0
 30
0
 70
128
 71
61
 72
70
 73
69
 74
69
 0
VERTEX
 8
GRIFF_11
 10
0
 20
0
 30
0
 70
128
 71
3
 72
4
 73
12
 74
11
 0
VERTEX
 8
GRIFF_11
 10
0
 20
0
 30
0
 70
128
 71
5
 72
14
 73
13
 74
13
 0
VERTEX
 8
GRIFF_11
 10
0
 20
0
 30
0
 70
128
 71
67
 72
68
 73
76
 74
75
 0
VERTEX
 8
GRIFF_11
 10
0
 20
0
 30
0
 70
128
 71
69
 72
78
 73
77
 74
77
 0
VERTEX
 8
GRIFF_11
 10
0
 20
0
 30
0
 70
128
 71
11
 72
12
 73
20
 74
19
 0
VERTEX
 8
GRIFF_11
 10
0
 20
0
 30
0
 70
128
 71
13
 72
22
 73
21
 74
21
 0
VERTEX
 8
GRIFF_11
 10
0
 20
0
 30
0
 70
128
 71
75
 72
76
 73
84
 74
83
 0
VERTEX
 8
GRIFF_11
 10
0
 20
0
 30
0
 70
128
 71
77
 72
86
 73
85
 74
85
 0
VERTEX
 8
GRIFF_11
 10
0
 20
0
 30
0
 70
128
 71
19
 72
20
 73
28
 74
27
 0
VERTEX
 8
GRIFF_11
 10
0
 20
0
 30
0
 70
128
 71
21
 72
30
 73
29
 74
29
 0
VERTEX
 8
GRIFF_11
 10
0
 20
0
 30
0
 70
128
 71
83
 72
84
 73
8
 74
1
 0
VERTEX
 8
GRIFF_11
 10
0
 20
0
 30
0
 70
128
 71
85
 72
16
 73
9
 74
9
 0
VERTEX
 8
GRIFF_11
 10
0
 20
0
 30
0
 70
128
 71
27
 72
28
 73
36
 74
35
 0
VERTEX
 8
GRIFF_11
 10
0
 20
0
 30
0
 70
128
 71
29
 72
38
 73
37
 74
37
 0
VERTEX
 8
GRIFF_11
 10
0
 20
0
 30
0
 70
128
 71
1
 72
8
 73
32
 74
25
 0
VERTEX
 8
GRIFF_11
 10
0
 20
0
 30
0
 70
128
 71
9
 72
40
 73
33
 74
33
 0
VERTEX
 8
GRIFF_11
 10
0
 20
0
 30
0
 70
128
 71
35
 72
36
 73
44
 74
43
 0
VERTEX
 8
GRIFF_11
 10
0
 20
0
 30
0
 70
128
 71
37
 72
46
 73
45
 74
45
 0
VERTEX
 8
GRIFF_11
 10
0
 20
0
 30
0
 70
128
 71
25
 72
32
 73
56
 74
49
 0
VERTEX
 8
GRIFF_11
 10
0
 20
0
 30
0
 70
128
 71
33
 72
64
 73
57
 74
57
 0
VERTEX
 8
GRIFF_11
 10
0
 20
0
 30
0
 70
128
 71
43
 72
44
 73
52
 74
51
 0
VERTEX
 8
GRIFF_11
 10
0
 20
0
 30
0
 70
128
 71
45
 72
54
 73
53
 74
53
 0
VERTEX
 8
GRIFF_11
 10
0
 20
0
 30
0
 70
128
 71
49
 72
56
 73
80
 74
73
 0
VERTEX
 8
GRIFF_11
 10
0
 20
0
 30
0
 70
128
 71
57
 72
88
 73
81
 74
81
 0
VERTEX
 8
GRIFF_11
 10
0
 20
0
 30
0
 70
128
 71
51
 72
52
 73
60
 74
59
 0
VERTEX
 8
GRIFF_11
 10
0
 20
0
 30
0
 70
128
 71
53
 72
62
 73
61
 74
61
 0
VERTEX
 8
GRIFF_11
 10
0
 20
0
 30
0
 70
128
 71
73
 72
80
 73
4
 74
3
 0
VERTEX
 8
GRIFF_11
 10
0
 20
0
 30
0
 70
128
 71
81
 72
6
 73
5
 74
5
 0
VERTEX
 8
GRIFF_11
 10
0
 20
0
 30
0
 70
128
 71
59
 72
60
 73
68
 74
67
 0
SEQEND
 0
POLYLINE
 8
GRIFF_10
 66
1
 10
0.0
 20
0.0
 30
0.0
 70
64
 71
12
 72
6
 0
VERTEX
 8
GRIFF_10
 10
-17.9169
 20
-1.1078
 30
13.4504
 70
192
 0
VERTEX
 8
GRIFF_10
 10
-17.9169
 20
-1.1078
 30
15.0504
 70
192
 0
VERTEX
 8
GRIFF_10
 10
-17.567
 20
-0.9139
 30
13.4504
 70
192
 0
VERTEX
 8
GRIFF_10
 10
-17.567
 20
-0.9139
 30
15.0504
 70
192
 0
VERTEX
 8
GRIFF_10
 10
-17.5601
 20
-0.514
 30
13.4504
 70
192
 0
VERTEX
 8
GRIFF_10
 10
-17.5601
 20
-0.514
 30
15.0504
 70
192
 0
VERTEX
 8
GRIFF_10
 10
-17.9029
 20
-0.308
 30
13.4504
 70
192
 0
VERTEX
 8
GRIFF_10
 10
-17.9029
 20
-0.308
 30
15.0504
 70
192
 0
VERTEX
 8
GRIFF_10
 10
-18.2528
 20
-0.5019
 30
13.4504
 70
192
 0
VERTEX
 8
GRIFF_10
 10
-18.2528
 20
-0.5019
 30
15.0504
 70
192
 0
VERTEX
 8
GRIFF_10
 10
-18.2598
 20
-0.9018
 30
13.4504
 70
192
 0
VERTEX
 8
GRIFF_10
 10
-18.2598
 20
-0.9018
 30
15.0504
 70
192
 0
VERTEX
 8
GRIFF_10
 10
0
 20
0
 30
0
 70
128
 71
1
 72
2
 73
4
 74
3
 0
VERTEX
 8
GRIFF_10
 10
0
 20
0
 30
0
 70
128
 71
3
 72
4
 73
6
 74
5
 0
VERTEX
 8
GRIFF_10
 10
0
 20
0
 30
0
 70
128
 71
5
 72
6
 73
8
 74
7
 0
VERTEX
 8
GRIFF_10
 10
0
 20
0
 30
0
 70
128
 71
7
 72
8
 73
10
 74
9
 0
VERTEX
 8
GRIFF_10
 10
0
 20
0
 30
0
 70
128
 71
9
 72
10
 73
12
 74
11
 0
VERTEX
 8
GRIFF_10
 10
0
 20
0
 30
0
 70
128
 71
11
 72
12
 73
2
 74
1
 0
SEQEND
 0
POLYLINE
 8
GRIFF_9
 66
1
 10
0.0
 20
0.0
 30
0.0
 70
64
 71
12
 72
6
 0
VERTEX
 8
GRIFF_9
 10
-18.1423
 20
-0.4672
 30
15.6102
 70
192
 0
VERTEX
 8
GRIFF_9
 10
-18.8092
 20
0.2233
 30
15.6102
 70
192
 0
VERTEX
 8
GRIFF_9
 10
-17.9679
 20
-0.2988
 30
15.4702
 70
192
 0
VERTEX
 8
GRIFF_9
 10
-18.6347
 20
0.3918
 30
15.4702
 70
192
 0
VERTEX
 8
GRIFF_9
 10
-17.9679
 20
-0.2988
 30
15.1902
 70
192
 0
VERTEX
 8
GRIFF_9
 10
-18.6347
 20
0.3918
 30
15.1902
 70
192
 0
VERTEX
 8
GRIFF_9
 10
-18.1423
 20
-0.4672
 30
15.0502
 70
192
 0
VERTEX
 8
GRIFF_9
 10
-18.8092
 20
0.2233
 30
15.0502
 70
192
 0
VERTEX
 8
GRIFF_9
 10
-18.3167
 20
-0.6357
 30
15.1902
 70
192
 0
VERTEX
 8
GRIFF_9
 10
-18.9836
 20
0.0549
 30
15.1902
 70
192
 0
VERTEX
 8
GRIFF_9
 10
-18.3167
 20
-0.6357
 30
15.4702
 70
192
 0
VERTEX
 8
GRIFF_9
 10
-18.9836
 20
0.0549
 30
15.4702
 70
192
 0
VERTEX
 8
GRIFF_9
 10
0
 20
0
 30
0
 70
128
 71
1
 72
2
 73
4
 74
3
 0
VERTEX
 8
GRIFF_9
 10
0
 20
0
 30
0
 70
128
 71
3
 72
4
 73
6
 74
5
 0
VERTEX
 8
GRIFF_9
 10
0
 20
0
 30
0
 70
128
 71
5
 72
6
 73
8
 74
7
 0
VERTEX
 8
GRIFF_9
 10
0
 20
0
 30
0
 70
128
 71
7
 72
8
 73
10
 74
9
 0
VERTEX
 8
GRIFF_9
 10
0
 20
0
 30
0
 70
128
 71
9
 72
10
 73
12
 74
11
 0
VERTEX
 8
GRIFF_9
 10
0
 20
0
 30
0
 70
128
 71
11
 72
12
 73
2
 74
1
 0
SEQEND
 0
POLYLINE
 8
GRIFF_8
 66
1
 10
0.0
 20
0.0
 30
0.0
 70
64
 71
34
 72
24
 0
VERTEX
 8
GRIFF_8
 10
-18.4535
 20
-0.145
 30
15.3319
 70
192
 0
VERTEX
 8
GRIFF_8
 10
-19.5649
 20
1.0059
 30
15.3319
 70
192
 0
VERTEX
 8
GRIFF_8
 10
-18.4535
 20
-0.145
 30
15.7319
 70
192
 0
VERTEX
 8
GRIFF_8
 10
-18.4535
 20
-0.145
 30
15.7319
 70
192
 0
VERTEX
 8
GRIFF_8
 10
-19.5649
 20
1.0059
 30
15.7319
 70
192
 0
VERTEX
 8
GRIFF_8
 10
-19.5649
 20
1.0059
 30
15.7319
 70
192
 0
VERTEX
 8
GRIFF_8
 10
-18.25
 20
0.0515
 30
15.6147
 70
192
 0
VERTEX
 8
GRIFF_8
 10
-18.25
 20
0.0515
 30
15.6147
 70
192
 0
VERTEX
 8
GRIFF_8
 10
-19.3614
 20
1.2024
 30
15.6147
 70
192
 0
VERTEX
 8
GRIFF_8
 10
-19.3614
 20
1.2024
 30
15.6147
 70
192
 0
VERTEX
 8
GRIFF_8
 10
-18.1657
 20
0.1328
 30
15.3319
 70
192
 0
VERTEX
 8
GRIFF_8
 10
-18.1657
 20
0.1328
 30
15.3319
 70
192
 0
VERTEX
 8
GRIFF_8
 10
-19.2772
 20
1.2838
 30
15.3319
 70
192
 0
VERTEX
 8
GRIFF_8
 10
-19.2772
 20
1.2838
 30
15.3319
 70
192
 0
VERTEX
 8
GRIFF_8
 10
-18.25
 20
0.0515
 30
15.0491
 70
192
 0
VERTEX
 8
GRIFF_8
 10
-18.25
 20
0.0515
 30
15.0491
 70
192
 0
VERTEX
 8
GRIFF_8
 10
-19.3614
 20
1.2024
 30
15.0491
 70
192
 0
VERTEX
 8
GRIFF_8
 10
-19.3614
 20
1.2024
 30
15.0491
 70
192
 0
VERTEX
 8
GRIFF_8
 10
-18.4535
 20
-0.145
 30
14.9319
 70
192
 0
VERTEX
 8
GRIFF_8
 10
-18.4535
 20
-0.145
 30
14.9319
 70
192
 0
VERTEX
 8
GRIFF_8
 10
-19.5649
 20
1.0059
 30
14.9319
 70
192
 0
VERTEX
 8
GRIFF_8
 10
-19.5649
 20
1.0059
 30
14.9319
 70
192
 0
VERTEX
 8
GRIFF_8
 10
-18.6569
 20
-0.3415
 30
15.0491
 70
192
 0
VERTEX
 8
GRIFF_8
 10
-18.6569
 20
-0.3415
 30
15.0491
 70
192
 0
VERTEX
 8
GRIFF_8
 10
-19.7684
 20
0.8094
 30
15.0491
 70
192
 0
VERTEX
 8
GRIFF_8
 10
-19.7684
 20
0.8094
 30
15.0491
 70
192
 0
VERTEX
 8
GRIFF_8
 10
-18.7412
 20
-0.4229
 30
15.3319
 70
192
 0
VERTEX
 8
GRIFF_8
 10
-18.7412
 20
-0.4229
 30
15.3319
 70
192
 0
VERTEX
 8
GRIFF_8
 10
-19.8526
 20
0.7281
 30
15.3319
 70
192
 0
VERTEX
 8
GRIFF_8
 10
-19.8526
 20
0.7281
 30
15.3319
 70
192
 0
VERTEX
 8
GRIFF_8
 10
-18.6569
 20
-0.3415
 30
15.6147
 70
192
 0
VERTEX
 8
GRIFF_8
 10
-18.6569
 20
-0.3415
 30
15.6147
 70
192
 0
VERTEX
 8
GRIFF_8
 10
-19.7684
 20
0.8094
 30
15.6147
 70
192
 0
VERTEX
 8
GRIFF_8
 10
-19.7684
 20
0.8094
 30
15.6147
 70
192
 0
VERTEX
 8
GRIFF_8
 10
0
 20
0
 30
0
 70
128
 71
1
 72
3
 73
7
 74
7
 0
VERTEX
 8
GRIFF_8
 10
0
 20
0
 30
0
 70
128
 71
4
 72
5
 73
9
 74
8
 0
VERTEX
 8
GRIFF_8
 10
0
 20
0
 30
0
 70
128
 71
6
 72
2
 73
10
 74
10
 0
VERTEX
 8
GRIFF_8
 10
0
 20
0
 30
0
 70
128
 71
1
 72
7
 73
11
 74
11
 0
VERTEX
 8
GRIFF_8
 10
0
 20
0
 30
0
 70
128
 71
8
 72
9
 73
13
 74
12
 0
VERTEX
 8
GRIFF_8
 10
0
 20
0
 30
0
 70
128
 71
10
 72
2
 73
14
 74
14
 0
VERTEX
 8
GRIFF_8
 10
0
 20
0
 30
0
 70
128
 71
1
 72
11
 73
15
 74
15
 0
VERTEX
 8
GRIFF_8
 10
0
 20
0
 30
0
 70
128
 71
12
 72
13
 73
17
 74
16
 0
VERTEX
 8
GRIFF_8
 10
0
 20
0
 30
0
 70
128
 71
14
 72
2
 73
18
 74
18
 0
VERTEX
 8
GRIFF_8
 10
0
 20
0
 30
0
 70
128
 71
1
 72
15
 73
19
 74
19
 0
VERTEX
 8
GRIFF_8
 10
0
 20
0
 30
0
 70
128
 71
16
 72
17
 73
21
 74
20
 0
VERTEX
 8
GRIFF_8
 10
0
 20
0
 30
0
 70
128
 71
18
 72
2
 73
22
 74
22
 0
VERTEX
 8
GRIFF_8
 10
0
 20
0
 30
0
 70
128
 71
1
 72
19
 73
23
 74
23
 0
VERTEX
 8
GRIFF_8
 10
0
 20
0
 30
0
 70
128
 71
20
 72
21
 73
25
 74
24
 0
VERTEX
 8
GRIFF_8
 10
0
 20
0
 30
0
 70
128
 71
22
 72
2
 73
26
 74
26
 0
VERTEX
 8
GRIFF_8
 10
0
 20
0
 30
0
 70
128
 71
1
 72
23
 73
27
 74
27
 0
VERTEX
 8
GRIFF_8
 10
0
 20
0
 30
0
 70
128
 71
24
 72
25
 73
29
 74
28
 0
VERTEX
 8
GRIFF_8
 10
0
 20
0
 30
0
 70
128
 71
26
 72
2
 73
30
 74
30
 0
VERTEX
 8
GRIFF_8
 10
0
 20
0
 30
0
 70
128
 71
1
 72
27
 73
31
 74
31
 0
VERTEX
 8
GRIFF_8
 10
0
 20
0
 30
0
 70
128
 71
28
 72
29
 73
33
 74
32
 0
VERTEX
 8
GRIFF_8
 10
0
 20
0
 30
0
 70
128
 71
30
 72
2
 73
34
 74
34
 0
VERTEX
 8
GRIFF_8
 10
0
 20
0
 30
0
 70
128
 71
1
 72
31
 73
3
 74
3
 0
VERTEX
 8
GRIFF_8
 10
0
 20
0
 30
0
 70
128
 71
32
 72
33
 73
5
 74
4
 0
VERTEX
 8
GRIFF_8
 10
0
 20
0
 30
0
 70
128
 71
34
 72
2
 73
6
 74
6
 0
SEQEND
 0
POLYLINE
 8
GRIFF_7
 66
1
 10
0.0
 20
0.0
 30
0.0
 70
64
 71
12
 72
6
 0
VERTEX
 8
GRIFF_7
 10
-17.6581
 20
-0.9686
 30
15.6102
 70
192
 0
VERTEX
 8
GRIFF_7
 10
-16.9913
 20
-1.6592
 30
15.6102
 70
192
 0
VERTEX
 8
GRIFF_7
 10
-17.8326
 20
-1.137
 30
15.4702
 70
192
 0
VERTEX
 8
GRIFF_7
 10
-17.1657
 20
-1.8276
 30
15.4702
 70
192
 0
VERTEX
 8
GRIFF_7
 10
-17.8326
 20
-1.137
 30
15.1902
 70
192
 0
VERTEX
 8
GRIFF_7
 10
-17.1657
 20
-1.8276
 30
15.1902
 70
192
 0
VERTEX
 8
GRIFF_7
 10
-17.6581
 20
-0.9686
 30
15.0502
 70
192
 0
VERTEX
 8
GRIFF_7
 10
-16.9913
 20
-1.6592
 30
15.0502
 70
192
 0
VERTEX
 8
GRIFF_7
 10
-17.4837
 20
-0.8002
 30
15.1902
 70
192
 0
VERTEX
 8
GRIFF_7
 10
-16.8168
 20
-1.4907
 30
15.1902
 70
192
 0
VERTEX
 8
GRIFF_7
 10
-17.4837
 20
-0.8002
 30
15.4702
 70
192
 0
VERTEX
 8
GRIFF_7
 10
-16.8168
 20
-1.4907
 30
15.4702
 70
192
 0
VERTEX
 8
GRIFF_7
 10
0
 20
0
 30
0
 70
128
 71
1
 72
2
 73
4
 74
3
 0
VERTEX
 8
GRIFF_7
 10
0
 20
0
 30
0
 70
128
 71
3
 72
4
 73
6
 74
5
 0
VERTEX
 8
GRIFF_7
 10
0
 20
0
 30
0
 70
128
 71
5
 72
6
 73
8
 74
7
 0
VERTEX
 8
GRIFF_7
 10
0
 20
0
 30
0
 70
128
 71
7
 72
8
 73
10
 74
9
 0
VERTEX
 8
GRIFF_7
 10
0
 20
0
 30
0
 70
128
 71
9
 72
10
 73
12
 74
11
 0
VERTEX
 8
GRIFF_7
 10
0
 20
0
 30
0
 70
128
 71
11
 72
12
 73
2
 74
1
 0
SEQEND
 0
POLYLINE
 8
GRIFF_6
 66
1
 10
0.0
 20
0.0
 30
0.0
 70
64
 71
34
 72
24
 0
VERTEX
 8
GRIFF_6
 10
-17.3571
 20
-1.2803
 30
15.3319
 70
192
 0
VERTEX
 8
GRIFF_6
 10
-16.2457
 20
-2.4312
 30
15.3319
 70
192
 0
VERTEX
 8
GRIFF_6
 10
-17.3571
 20
-1.2803
 30
15.7319
 70
192
 0
VERTEX
 8
GRIFF_6
 10
-17.3571
 20
-1.2803
 30
15.7319
 70
192
 0
VERTEX
 8
GRIFF_6
 10
-16.2457
 20
-2.4312
 30
15.7319
 70
192
 0
VERTEX
 8
GRIFF_6
 10
-16.2457
 20
-2.4312
 30
15.7319
 70
192
 0
VERTEX
 8
GRIFF_6
 10
-17.5606
 20
-1.4768
 30
15.6147
 70
192
 0
VERTEX
 8
GRIFF_6
 10
-17.5606
 20
-1.4768
 30
15.6147
 70
192
 0
VERTEX
 8
GRIFF_6
 10
-16.4492
 20
-2.6277
 30
15.6147
 70
192
 0
VERTEX
 8
GRIFF_6
 10
-16.4492
 20
-2.6277
 30
15.6147
 70
192
 0
VERTEX
 8
GRIFF_6
 10
-17.6449
 20
-1.5582
 30
15.3319
 70
192
 0
VERTEX
 8
GRIFF_6
 10
-17.6449
 20
-1.5582
 30
15.3319
 70
192
 0
VERTEX
 8
GRIFF_6
 10
-16.5334
 20
-2.7091
 30
15.3319
 70
192
 0
VERTEX
 8
GRIFF_6
 10
-16.5334
 20
-2.7091
 30
15.3319
 70
192
 0
VERTEX
 8
GRIFF_6
 10
-17.5606
 20
-1.4768
 30
15.0491
 70
192
 0
VERTEX
 8
GRIFF_6
 10
-17.5606
 20
-1.4768
 30
15.0491
 70
192
 0
VERTEX
 8
GRIFF_6
 10
-16.4492
 20
-2.6277
 30
15.0491
 70
192
 0
VERTEX
 8
GRIFF_6
 10
-16.4492
 20
-2.6277
 30
15.0491
 70
192
 0
VERTEX
 8
GRIFF_6
 10
-17.3571
 20
-1.2803
 30
14.9319
 70
192
 0
VERTEX
 8
GRIFF_6
 10
-17.3571
 20
-1.2803
 30
14.9319
 70
192
 0
VERTEX
 8
GRIFF_6
 10
-16.2457
 20
-2.4312
 30
14.9319
 70
192
 0
VERTEX
 8
GRIFF_6
 10
-16.2457
 20
-2.4312
 30
14.9319
 70
192
 0
VERTEX
 8
GRIFF_6
 10
-17.1537
 20
-1.0838
 30
15.0491
 70
192
 0
VERTEX
 8
GRIFF_6
 10
-17.1537
 20
-1.0838
 30
15.0491
 70
192
 0
VERTEX
 8
GRIFF_6
 10
-16.0422
 20
-2.2348
 30
15.0491
 70
192
 0
VERTEX
 8
GRIFF_6
 10
-16.0422
 20
-2.2348
 30
15.0491
 70
192
 0
VERTEX
 8
GRIFF_6
 10
-17.0694
 20
-1.0024
 30
15.3319
 70
192
 0
VERTEX
 8
GRIFF_6
 10
-17.0694
 20
-1.0024
 30
15.3319
 70
192
 0
VERTEX
 8
GRIFF_6
 10
-15.958
 20
-2.1534
 30
15.3319
 70
192
 0
VERTEX
 8
GRIFF_6
 10
-15.958
 20
-2.1534
 30
15.3319
 70
192
 0
VERTEX
 8
GRIFF_6
 10
-17.1537
 20
-1.0838
 30
15.6147
 70
192
 0
VERTEX
 8
GRIFF_6
 10
-17.1537
 20
-1.0838
 30
15.6147
 70
192
 0
VERTEX
 8
GRIFF_6
 10
-16.0422
 20
-2.2348
 30
15.6147
 70
192
 0
VERTEX
 8
GRIFF_6
 10
-16.0422
 20
-2.2348
 30
15.6147
 70
192
 0
VERTEX
 8
GRIFF_6
 10
0
 20
0
 30
0
 70
128
 71
1
 72
3
 73
7
 74
7
 0
VERTEX
 8
GRIFF_6
 10
0
 20
0
 30
0
 70
128
 71
4
 72
5
 73
9
 74
8
 0
VERTEX
 8
GRIFF_6
 10
0
 20
0
 30
0
 70
128
 71
6
 72
2
 73
10
 74
10
 0
VERTEX
 8
GRIFF_6
 10
0
 20
0
 30
0
 70
128
 71
1
 72
7
 73
11
 74
11
 0
VERTEX
 8
GRIFF_6
 10
0
 20
0
 30
0
 70
128
 71
8
 72
9
 73
13
 74
12
 0
VERTEX
 8
GRIFF_6
 10
0
 20
0
 30
0
 70
128
 71
10
 72
2
 73
14
 74
14
 0
VERTEX
 8
GRIFF_6
 10
0
 20
0
 30
0
 70
128
 71
1
 72
11
 73
15
 74
15
 0
VERTEX
 8
GRIFF_6
 10
0
 20
0
 30
0
 70
128
 71
12
 72
13
 73
17
 74
16
 0
VERTEX
 8
GRIFF_6
 10
0
 20
0
 30
0
 70
128
 71
14
 72
2
 73
18
 74
18
 0
VERTEX
 8
GRIFF_6
 10
0
 20
0
 30
0
 70
128
 71
1
 72
15
 73
19
 74
19
 0
VERTEX
 8
GRIFF_6
 10
0
 20
0
 30
0
 70
128
 71
16
 72
17
 73
21
 74
20
 0
VERTEX
 8
GRIFF_6
 10
0
 20
0
 30
0
 70
128
 71
18
 72
2
 73
22
 74
22
 0
VERTEX
 8
GRIFF_6
 10
0
 20
0
 30
0
 70
128
 71
1
 72
19
 73
23
 74
23
 0
VERTEX
 8
GRIFF_6
 10
0
 20
0
 30
0
 70
128
 71
20
 72
21
 73
25
 74
24
 0
VERTEX
 8
GRIFF_6
 10
0
 20
0
 30
0
 70
128
 71
22
 72
2
 73
26
 74
26
 0
VERTEX
 8
GRIFF_6
 10
0
 20
0
 30
0
 70
128
 71
1
 72
23
 73
27
 74
27
 0
VERTEX
 8
GRIFF_6
 10
0
 20
0
 30
0
 70
128
 71
24
 72
25
 73
29
 74
28
 0
VERTEX
 8
GRIFF_6
 10
0
 20
0
 30
0
 70
128
 71
26
 72
2
 73
30
 74
30
 0
VERTEX
 8
GRIFF_6
 10
0
 20
0
 30
0
 70
128
 71
1
 72
27
 73
31
 74
31
 0
VERTEX
 8
GRIFF_6
 10
0
 20
0
 30
0
 70
128
 71
28
 72
29
 73
33
 74
32
 0
VERTEX
 8
GRIFF_6
 10
0
 20
0
 30
0
 70
128
 71
30
 72
2
 73
34
 74
34
 0
VERTEX
 8
GRIFF_6
 10
0
 20
0
 30
0
 70
128
 71
1
 72
31
 73
3
 74
3
 0
VERTEX
 8
GRIFF_6
 10
0
 20
0
 30
0
 70
128
 71
32
 72
33
 73
5
 74
4
 0
VERTEX
 8
GRIFF_6
 10
0
 20
0
 30
0
 70
128
 71
34
 72
2
 73
6
 74
6
 0
SEQEND
 0
POLYLINE
 8
GRIFF_5
 66
1
 10
0.0
 20
0.0
 30
0.0
 70
64
 71
12
 72
6
 0
VERTEX
 8
GRIFF_5
 10
-18.2171
 20
-0.9837
 30
15.6102
 70
192
 0
VERTEX
 8
GRIFF_5
 10
-18.9077
 20
-1.6506
 30
15.6102
 70
192
 0
VERTEX
 8
GRIFF_5
 10
-18.3856
 20
-0.8093
 30
15.4702
 70
192
 0
VERTEX
 8
GRIFF_5
 10
-19.0761
 20
-1.4762
 30
15.4702
 70
192
 0
VERTEX
 8
GRIFF_5
 10
-18.3856
 20
-0.8093
 30
15.1902
 70
192
 0
VERTEX
 8
GRIFF_5
 10
-19.0761
 20
-1.4762
 30
15.1902
 70
192
 0
VERTEX
 8
GRIFF_5
 10
-18.2171
 20
-0.9837
 30
15.0502
 70
192
 0
VERTEX
 8
GRIFF_5
 10
-18.9077
 20
-1.6506
 30
15.0502
 70
192
 0
VERTEX
 8
GRIFF_5
 10
-18.0487
 20
-1.1581
 30
15.1902
 70
192
 0
VERTEX
 8
GRIFF_5
 10
-18.7392
 20
-1.825
 30
15.1902
 70
192
 0
VERTEX
 8
GRIFF_5
 10
-18.0487
 20
-1.1581
 30
15.4702
 70
192
 0
VERTEX
 8
GRIFF_5
 10
-18.7392
 20
-1.825
 30
15.4702
 70
192
 0
VERTEX
 8
GRIFF_5
 10
0
 20
0
 30
0
 70
128
 71
1
 72
2
 73
4
 74
3
 0
VERTEX
 8
GRIFF_5
 10
0
 20
0
 30
0
 70
128
 71
3
 72
4
 73
6
 74
5
 0
VERTEX
 8
GRIFF_5
 10
0
 20
0
 30
0
 70
128
 71
5
 72
6
 73
8
 74
7
 0
VERTEX
 8
GRIFF_5
 10
0
 20
0
 30
0
 70
128
 71
7
 72
8
 73
10
 74
9
 0
VERTEX
 8
GRIFF_5
 10
0
 20
0
 30
0
 70
128
 71
9
 72
10
 73
12
 74
11
 0
VERTEX
 8
GRIFF_5
 10
0
 20
0
 30
0
 70
128
 71
11
 72
12
 73
2
 74
1
 0
SEQEND
 0
POLYLINE
 8
GRIFF_4
 66
1
 10
0.0
 20
0.0
 30
0.0
 70
64
 71
34
 72
24
 0
VERTEX
 8
GRIFF_4
 10
-18.5288
 20
-1.2847
 30
15.3319
 70
192
 0
VERTEX
 8
GRIFF_4
 10
-19.6798
 20
-2.3962
 30
15.3319
 70
192
 0
VERTEX
 8
GRIFF_4
 10
-18.5288
 20
-1.2847
 30
15.7319
 70
192
 0
VERTEX
 8
GRIFF_4
 10
-18.5288
 20
-1.2847
 30
15.7319
 70
192
 0
VERTEX
 8
GRIFF_4
 10
-19.6798
 20
-2.3962
 30
15.7319
 70
192
 0
VERTEX
 8
GRIFF_4
 10
-19.6798
 20
-2.3962
 30
15.7319
 70
192
 0
VERTEX
 8
GRIFF_4
 10
-18.7253
 20
-1.0812
 30
15.6147
 70
192
 0
VERTEX
 8
GRIFF_4
 10
-18.7253
 20
-1.0812
 30
15.6147
 70
192
 0
VERTEX
 8
GRIFF_4
 10
-19.8762
 20
-2.1927
 30
15.6147
 70
192
 0
VERTEX
 8
GRIFF_4
 10
-19.8762
 20
-2.1927
 30
15.6147
 70
192
 0
VERTEX
 8
GRIFF_4
 10
-18.8067
 20
-0.997
 30
15.3319
 70
192
 0
VERTEX
 8
GRIFF_4
 10
-18.8067
 20
-0.997
 30
15.3319
 70
192
 0
VERTEX
 8
GRIFF_4
 10
-19.9576
 20
-2.1084
 30
15.3319
 70
192
 0
VERTEX
 8
GRIFF_4
 10
-19.9576
 20
-2.1084
 30
15.3319
 70
192
 0
VERTEX
 8
GRIFF_4
 10
-18.7253
 20
-1.0812
 30
15.0491
 70
192
 0
VERTEX
 8
GRIFF_4
 10
-18.7253
 20
-1.0812
 30
15.0491
 70
192
 0
VERTEX
 8
GRIFF_4
 10
-19.8762
 20
-2.1927
 30
15.0491
 70
192
 0
VERTEX
 8
GRIFF_4
 10
-19.8762
 20
-2.1927
 30
15.0491
 70
192
 0
VERTEX
 8
GRIFF_4
 10
-18.5288
 20
-1.2847
 30
14.9319
 70
192
 0
VERTEX
 8
GRIFF_4
 10
-18.5288
 20
-1.2847
 30
14.9319
 70
192
 0
VERTEX
 8
GRIFF_4
 10
-19.6798
 20
-2.3962
 30
14.9319
 70
192
 0
VERTEX
 8
GRIFF_4
 10
-19.6798
 20
-2.3962
 30
14.9319
 70
192
 0
VERTEX
 8
GRIFF_4
 10
-18.3323
 20
-1.4882
 30
15.0491
 70
192
 0
VERTEX
 8
GRIFF_4
 10
-18.3323
 20
-1.4882
 30
15.0491
 70
192
 0
VERTEX
 8
GRIFF_4
 10
-19.4833
 20
-2.5996
 30
15.0491
 70
192
 0
VERTEX
 8
GRIFF_4
 10
-19.4833
 20
-2.5996
 30
15.0491
 70
192
 0
VERTEX
 8
GRIFF_4
 10
-18.2509
 20
-1.5724
 30
15.3319
 70
192
 0
VERTEX
 8
GRIFF_4
 10
-18.2509
 20
-1.5724
 30
15.3319
 70
192
 0
VERTEX
 8
GRIFF_4
 10
-19.4019
 20
-2.6839
 30
15.3319
 70
192
 0
VERTEX
 8
GRIFF_4
 10
-19.4019
 20
-2.6839
 30
15.3319
 70
192
 0
VERTEX
 8
GRIFF_4
 10
-18.3323
 20
-1.4882
 30
15.6147
 70
192
 0
VERTEX
 8
GRIFF_4
 10
-18.3323
 20
-1.4882
 30
15.6147
 70
192
 0
VERTEX
 8
GRIFF_4
 10
-19.4833
 20
-2.5996
 30
15.6147
 70
192
 0
VERTEX
 8
GRIFF_4
 10
-19.4833
 20
-2.5996
 30
15.6147
 70
192
 0
VERTEX
 8
GRIFF_4
 10
0
 20
0
 30
0
 70
128
 71
1
 72
3
 73
7
 74
7
 0
VERTEX
 8
GRIFF_4
 10
0
 20
0
 30
0
 70
128
 71
4
 72
5
 73
9
 74
8
 0
VERTEX
 8
GRIFF_4
 10
0
 20
0
 30
0
 70
128
 71
6
 72
2
 73
10
 74
10
 0
VERTEX
 8
GRIFF_4
 10
0
 20
0
 30
0
 70
128
 71
1
 72
7
 73
11
 74
11
 0
VERTEX
 8
GRIFF_4
 10
0
 20
0
 30
0
 70
128
 71
8
 72
9
 73
13
 74
12
 0
VERTEX
 8
GRIFF_4
 10
0
 20
0
 30
0
 70
128
 71
10
 72
2
 73
14
 74
14
 0
VERTEX
 8
GRIFF_4
 10
0
 20
0
 30
0
 70
128
 71
1
 72
11
 73
15
 74
15
 0
VERTEX
 8
GRIFF_4
 10
0
 20
0
 30
0
 70
128
 71
12
 72
13
 73
17
 74
16
 0
VERTEX
 8
GRIFF_4
 10
0
 20
0
 30
0
 70
128
 71
14
 72
2
 73
18
 74
18
 0
VERTEX
 8
GRIFF_4
 10
0
 20
0
 30
0
 70
128
 71
1
 72
15
 73
19
 74
19
 0
VERTEX
 8
GRIFF_4
 10
0
 20
0
 30
0
 70
128
 71
16
 72
17
 73
21
 74
20
 0
VERTEX
 8
GRIFF_4
 10
0
 20
0
 30
0
 70
128
 71
18
 72
2
 73
22
 74
22
 0
VERTEX
 8
GRIFF_4
 10
0
 20
0
 30
0
 70
128
 71
1
 72
19
 73
23
 74
23
 0
VERTEX
 8
GRIFF_4
 10
0
 20
0
 30
0
 70
128
 71
20
 72
21
 73
25
 74
24
 0
VERTEX
 8
GRIFF_4
 10
0
 20
0
 30
0
 70
128
 71
22
 72
2
 73
26
 74
26
 0
VERTEX
 8
GRIFF_4
 10
0
 20
0
 30
0
 70
128
 71
1
 72
23
 73
27
 74
27
 0
VERTEX
 8
GRIFF_4
 10
0
 20
0
 30
0
 70
128
 71
24
 72
25
 73
29
 74
28
 0
VERTEX
 8
GRIFF_4
 10
0
 20
0
 30
0
 70
128
 71
26
 72
2
 73
30
 74
30
 0
VERTEX
 8
GRIFF_4
 10
0
 20
0
 30
0
 70
128
 71
1
 72
27
 73
31
 74
31
 0
VERTEX
 8
GRIFF_4
 10
0
 20
0
 30
0
 70
128
 71
28
 72
29
 73
33
 74
32
 0
VERTEX
 8
GRIFF_4
 10
0
 20
0
 30
0
 70
128
 71
30
 72
2
 73
34
 74
34
 0
VERTEX
 8
GRIFF_4
 10
0
 20
0
 30
0
 70
128
 71
1
 72
31
 73
3
 74
3
 0
VERTEX
 8
GRIFF_4
 10
0
 20
0
 30
0
 70
128
 71
32
 72
33
 73
5
 74
4
 0
VERTEX
 8
GRIFF_4
 10
0
 20
0
 30
0
 70
128
 71
34
 72
2
 73
6
 74
6
 0
SEQEND
 0
POLYLINE
 8
GRIFF_3
 66
1
 10
0.0
 20
0.0
 30
0.0
 70
64
 71
12
 72
6
 0
VERTEX
 8
GRIFF_3
 10
-17.6446
 20
-0.4309
 30
15.6102
 70
192
 0
VERTEX
 8
GRIFF_3
 10
-16.9541
 20
0.236
 30
15.6102
 70
192
 0
VERTEX
 8
GRIFF_3
 10
-17.4762
 20
-0.6053
 30
15.4702
 70
192
 0
VERTEX
 8
GRIFF_3
 10
-16.7856
 20
0.0616
 30
15.4702
 70
192
 0
VERTEX
 8
GRIFF_3
 10
-17.4762
 20
-0.6053
 30
15.1902
 70
192
 0
VERTEX
 8
GRIFF_3
 10
-16.7856
 20
0.0616
 30
15.1902
 70
192
 0
VERTEX
 8
GRIFF_3
 10
-17.6446
 20
-0.4309
 30
15.0502
 70
192
 0
VERTEX
 8
GRIFF_3
 10
-16.9541
 20
0.236
 30
15.0502
 70
192
 0
VERTEX
 8
GRIFF_3
 10
-17.8131
 20
-0.2564
 30
15.1902
 70
192
 0
VERTEX
 8
GRIFF_3
 10
-17.1225
 20
0.4104
 30
15.1902
 70
192
 0
VERTEX
 8
GRIFF_3
 10
-17.8131
 20
-0.2564
 30
15.4702
 70
192
 0
VERTEX
 8
GRIFF_3
 10
-17.1225
 20
0.4104
 30
15.4702
 70
192
 0
VERTEX
 8
GRIFF_3
 10
0
 20
0
 30
0
 70
128
 71
1
 72
2
 73
4
 74
3
 0
VERTEX
 8
GRIFF_3
 10
0
 20
0
 30
0
 70
128
 71
3
 72
4
 73
6
 74
5
 0
VERTEX
 8
GRIFF_3
 10
0
 20
0
 30
0
 70
128
 71
5
 72
6
 73
8
 74
7
 0
VERTEX
 8
GRIFF_3
 10
0
 20
0
 30
0
 70
128
 71
7
 72
8
 73
10
 74
9
 0
VERTEX
 8
GRIFF_3
 10
0
 20
0
 30
0
 70
128
 71
9
 72
10
 73
12
 74
11
 0
VERTEX
 8
GRIFF_3
 10
0
 20
0
 30
0
 70
128
 71
11
 72
12
 73
2
 74
1
 0
SEQEND
 0
POLYLINE
 8
GRIFF_2
 66
1
 10
0.0
 20
0.0
 30
0.0
 70
64
 71
34
 72
24
 0
VERTEX
 8
GRIFF_2
 10
-17.3329
 20
-0.1299
 30
15.3319
 70
192
 0
VERTEX
 8
GRIFF_2
 10
-16.182
 20
0.9816
 30
15.3319
 70
192
 0
VERTEX
 8
GRIFF_2
 10
-17.3329
 20
-0.1299
 30
15.7319
 70
192
 0
VERTEX
 8
GRIFF_2
 10
-17.3329
 20
-0.1299
 30
15.7319
 70
192
 0
VERTEX
 8
GRIFF_2
 10
-16.182
 20
0.9816
 30
15.7319
 70
192
 0
VERTEX
 8
GRIFF_2
 10
-16.182
 20
0.9816
 30
15.7319
 70
192
 0
VERTEX
 8
GRIFF_2
 10
-17.1365
 20
-0.3333
 30
15.6147
 70
192
 0
VERTEX
 8
GRIFF_2
 10
-17.1365
 20
-0.3333
 30
15.6147
 70
192
 0
VERTEX
 8
GRIFF_2
 10
-15.9855
 20
0.7781
 30
15.6147
 70
192
 0
VERTEX
 8
GRIFF_2
 10
-15.9855
 20
0.7781
 30
15.6147
 70
192
 0
VERTEX
 8
GRIFF_2
 10
-17.0551
 20
-0.4176
 30
15.3319
 70
192
 0
VERTEX
 8
GRIFF_2
 10
-17.0551
 20
-0.4176
 30
15.3319
 70
192
 0
VERTEX
 8
GRIFF_2
 10
-15.9041
 20
0.6938
 30
15.3319
 70
192
 0
VERTEX
 8
GRIFF_2
 10
-15.9041
 20
0.6938
 30
15.3319
 70
192
 0
VERTEX
 8
GRIFF_2
 10
-17.1365
 20
-0.3333
 30
15.0491
 70
192
 0
VERTEX
 8
GRIFF_2
 10
-17.1365
 20
-0.3333
 30
15.0491
 70
192
 0
VERTEX
 8
GRIFF_2
 10
-15.9855
 20
0.7781
 30
15.0491
 70
192
 0
VERTEX
 8
GRIFF_2
 10
-15.9855
 20
0.7781
 30
15.0491
 70
192
 0
VERTEX
 8
GRIFF_2
 10
-17.3329
 20
-0.1299
 30
14.9319
 70
192
 0
VERTEX
 8
GRIFF_2
 10
-17.3329
 20
-0.1299
 30
14.9319
 70
192
 0
VERTEX
 8
GRIFF_2
 10
-16.182
 20
0.9816
 30
14.9319
 70
192
 0
VERTEX
 8
GRIFF_2
 10
-16.182
 20
0.9816
 30
14.9319
 70
192
 0
VERTEX
 8
GRIFF_2
 10
-17.5294
 20
0.0736
 30
15.0491
 70
192
 0
VERTEX
 8
GRIFF_2
 10
-17.5294
 20
0.0736
 30
15.0491
 70
192
 0
VERTEX
 8
GRIFF_2
 10
-16.3785
 20
1.185
 30
15.0491
 70
192
 0
VERTEX
 8
GRIFF_2
 10
-16.3785
 20
1.185
 30
15.0491
 70
192
 0
VERTEX
 8
GRIFF_2
 10
-17.6108
 20
0.1579
 30
15.3319
 70
192
 0
VERTEX
 8
GRIFF_2
 10
-17.6108
 20
0.1579
 30
15.3319
 70
192
 0
VERTEX
 8
GRIFF_2
 10
-16.4599
 20
1.2693
 30
15.3319
 70
192
 0
VERTEX
 8
GRIFF_2
 10
-16.4599
 20
1.2693
 30
15.3319
 70
192
 0
VERTEX
 8
GRIFF_2
 10
-17.5294
 20
0.0736
 30
15.6147
 70
192
 0
VERTEX
 8
GRIFF_2
 10
-17.5294
 20
0.0736
 30
15.6147
 70
192
 0
VERTEX
 8
GRIFF_2
 10
-16.3785
 20
1.185
 30
15.6147
 70
192
 0
VERTEX
 8
GRIFF_2
 10
-16.3785
 20
1.185
 30
15.6147
 70
192
 0
VERTEX
 8
GRIFF_2
 10
0
 20
0
 30
0
 70
128
 71
1
 72
3
 73
7
 74
7
 0
VERTEX
 8
GRIFF_2
 10
0
 20
0
 30
0
 70
128
 71
4
 72
5
 73
9
 74
8
 0
VERTEX
 8
GRIFF_2
 10
0
 20
0
 30
0
 70
128
 71
6
 72
2
 73
10
 74
10
 0
VERTEX
 8
GRIFF_2
 10
0
 20
0
 30
0
 70
128
 71
1
 72
7
 73
11
 74
11
 0
VERTEX
 8
GRIFF_2
 10
0
 20
0
 30
0
 70
128
 71
8
 72
9
 73
13
 74
12
 0
VERTEX
 8
GRIFF_2
 10
0
 20
0
 30
0
 70
128
 71
10
 72
2
 73
14
 74
14
 0
VERTEX
 8
GRIFF_2
 10
0
 20
0
 30
0
 70
128
 71
1
 72
11
 73
15
 74
15
 0
VERTEX
 8
GRIFF_2
 10
0
 20
0
 30
0
 70
128
 71
12
 72
13
 73
17
 74
16
 0
VERTEX
 8
GRIFF_2
 10
0
 20
0
 30
0
 70
128
 71
14
 72
2
 73
18
 74
18
 0
VERTEX
 8
GRIFF_2
 10
0
 20
0
 30
0
 70
128
 71
1
 72
15
 73
19
 74
19
 0
VERTEX
 8
GRIFF_2
 10
0
 20
0
 30
0
 70
128
 71
16
 72
17
 73
21
 74
20
 0
VERTEX
 8
GRIFF_2
 10
0
 20
0
 30
0
 70
128
 71
18
 72
2
 73
22
 74
22
 0
VERTEX
 8
GRIFF_2
 10
0
 20
0
 30
0
 70
128
 71
1
 72
19
 73
23
 74
23
 0
VERTEX
 8
GRIFF_2
 10
0
 20
0
 30
0
 70
128
 71
20
 72
21
 73
25
 74
24
 0
VERTEX
 8
GRIFF_2
 10
0
 20
0
 30
0
 70
128
 71
22
 72
2
 73
26
 74
26
 0
VERTEX
 8
GRIFF_2
 10
0
 20
0
 30
0
 70
128
 71
1
 72
23
 73
27
 74
27
 0
VERTEX
 8
GRIFF_2
 10
0
 20
0
 30
0
 70
128
 71
24
 72
25
 73
29
 74
28
 0
VERTEX
 8
GRIFF_2
 10
0
 20
0
 30
0
 70
128
 71
26
 72
2
 73
30
 74
30
 0
VERTEX
 8
GRIFF_2
 10
0
 20
0
 30
0
 70
128
 71
1
 72
27
 73
31
 74
31
 0
VERTEX
 8
GRIFF_2
 10
0
 20
0
 30
0
 70
128
 71
28
 72
29
 73
33
 74
32
 0
VERTEX
 8
GRIFF_2
 10
0
 20
0
 30
0
 70
128
 71
30
 72
2
 73
34
 74
34
 0
VERTEX
 8
GRIFF_2
 10
0
 20
0
 30
0
 70
128
 71
1
 72
31
 73
3
 74
3
 0
VERTEX
 8
GRIFF_2
 10
0
 20
0
 30
0
 70
128
 71
32
 72
33
 73
5
 74
4
 0
VERTEX
 8
GRIFF_2
 10
0
 20
0
 30
0
 70
128
 71
34
 72
2
 73
6
 74
6
 0
SEQEND
 0
POLYLINE
 8
GRIFF_1
 66
1
 10
0.0
 20
0.0
 30
0.0
 70
64
 71
34
 72
24
 0
VERTEX
 8
GRIFF_1
 10
-17.9099
 20
-0.7079
 30
14.9386
 70
192
 0
VERTEX
 8
GRIFF_1
 10
-17.9099
 20
-0.7079
 30
15.7386
 70
192
 0
VERTEX
 8
GRIFF_1
 10
-17.5209
 20
-1.1107
 30
14.9386
 70
192
 0
VERTEX
 8
GRIFF_1
 10
-17.5209
 20
-1.1107
 30
14.9386
 70
192
 0
VERTEX
 8
GRIFF_1
 10
-17.5209
 20
-1.1107
 30
15.7386
 70
192
 0
VERTEX
 8
GRIFF_1
 10
-17.5209
 20
-1.1107
 30
15.7386
 70
192
 0
VERTEX
 8
GRIFF_1
 10
-17.35
 20
-0.7177
 30
14.9386
 70
192
 0
VERTEX
 8
GRIFF_1
 10
-17.35
 20
-0.7177
 30
14.9386
 70
192
 0
VERTEX
 8
GRIFF_1
 10
-17.35
 20
-0.7177
 30
15.7386
 70
192
 0
VERTEX
 8
GRIFF_1
 10
-17.35
 20
-0.7177
 30
15.7386
 70
192
 0
VERTEX
 8
GRIFF_1
 10
-17.5071
 20
-0.3189
 30
14.9386
 70
192
 0
VERTEX
 8
GRIFF_1
 10
-17.5071
 20
-0.3189
 30
14.9386
 70
192
 0
VERTEX
 8
GRIFF_1
 10
-17.5071
 20
-0.3189
 30
15.7386
 70
192
 0
VERTEX
 8
GRIFF_1
 10
-17.5071
 20
-0.3189
 30
15.7386
 70
192
 0
VERTEX
 8
GRIFF_1
 10
-17.9001
 20
-0.148
 30
14.9386
 70
192
 0
VERTEX
 8
GRIFF_1
 10
-17.9001
 20
-0.148
 30
14.9386
 70
192
 0
VERTEX
 8
GRIFF_1
 10
-17.9001
 20
-0.148
 30
15.7386
 70
192
 0
VERTEX
 8
GRIFF_1
 10
-17.9001
 20
-0.148
 30
15.7386
 70
192
 0
VERTEX
 8
GRIFF_1
 10
-18.2989
 20
-0.3051
 30
14.9386
 70
192
 0
VERTEX
 8
GRIFF_1
 10
-18.2989
 20
-0.3051
 30
14.9386
 70
192
 0
VERTEX
 8
GRIFF_1
 10
-18.2989
 20
-0.3051
 30
15.7386
 70
192
 0
VERTEX
 8
GRIFF_1
 10
-18.2989
 20
-0.3051
 30
15.7386
 70
192
 0
VERTEX
 8
GRIFF_1
 10
-18.4698
 20
-0.6981
 30
14.9386
 70
192
 0
VERTEX
 8
GRIFF_1
 10
-18.4698
 20
-0.6981
 30
14.9386
 70
192
 0
VERTEX
 8
GRIFF_1
 10
-18.4698
 20
-0.6981
 30
15.7386
 70
192
 0
VERTEX
 8
GRIFF_1
 10
-18.4698
 20
-0.6981
 30
15.7386
 70
192
 0
VERTEX
 8
GRIFF_1
 10
-18.3127
 20
-1.0969
 30
14.9386
 70
192
 0
VERTEX
 8
GRIFF_1
 10
-18.3127
 20
-1.0969
 30
14.9386
 70
192
 0
VERTEX
 8
GRIFF_1
 10
-18.3127
 20
-1.0969
 30
15.7386
 70
192
 0
VERTEX
 8
GRIFF_1
 10
-18.3127
 20
-1.0969
 30
15.7386
 70
192
 0
VERTEX
 8
GRIFF_1
 10
-17.9197
 20
-1.2678
 30
14.9386
 70
192
 0
VERTEX
 8
GRIFF_1
 10
-17.9197
 20
-1.2678
 30
14.9386
 70
192
 0
VERTEX
 8
GRIFF_1
 10
-17.9197
 20
-1.2678
 30
15.7386
 70
192
 0
VERTEX
 8
GRIFF_1
 10
-17.9197
 20
-1.2678
 30
15.7386
 70
192
 0
VERTEX
 8
GRIFF_1
 10
0
 20
0
 30
0
 70
128
 71
1
 72
3
 73
7
 74
7
 0
VERTEX
 8
GRIFF_1
 10
0
 20
0
 30
0
 70
128
 71
4
 72
5
 73
9
 74
8
 0
VERTEX
 8
GRIFF_1
 10
0
 20
0
 30
0
 70
128
 71
6
 72
2
 73
10
 74
10
 0
VERTEX
 8
GRIFF_1
 10
0
 20
0
 30
0
 70
128
 71
1
 72
7
 73
11
 74
11
 0
VERTEX
 8
GRIFF_1
 10
0
 20
0
 30
0
 70
128
 71
8
 72
9
 73
13
 74
12
 0
VERTEX
 8
GRIFF_1
 10
0
 20
0
 30
0
 70
128
 71
10
 72
2
 73
14
 74
14
 0
VERTEX
 8
GRIFF_1
 10
0
 20
0
 30
0
 70
128
 71
1
 72
11
 73
15
 74
15
 0
VERTEX
 8
GRIFF_1
 10
0
 20
0
 30
0
 70
128
 71
12
 72
13
 73
17
 74
16
 0
VERTEX
 8
GRIFF_1
 10
0
 20
0
 30
0
 70
128
 71
14
 72
2
 73
18
 74
18
 0
VERTEX
 8
GRIFF_1
 10
0
 20
0
 30
0
 70
128
 71
1
 72
15
 73
19
 74
19
 0
VERTEX
 8
GRIFF_1
 10
0
 20
0
 30
0
 70
128
 71
16
 72
17
 73
21
 74
20
 0
VERTEX
 8
GRIFF_1
 10
0
 20
0
 30
0
 70
128
 71
18
 72
2
 73
22
 74
22
 0
VERTEX
 8
GRIFF_1
 10
0
 20
0
 30
0
 70
128
 71
1
 72
19
 73
23
 74
23
 0
VERTEX
 8
GRIFF_1
 10
0
 20
0
 30
0
 70
128
 71
20
 72
21
 73
25
 74
24
 0
VERTEX
 8
GRIFF_1
 10
0
 20
0
 30
0
 70
128
 71
22
 72
2
 73
26
 74
26
 0
VERTEX
 8
GRIFF_1
 10
0
 20
0
 30
0
 70
128
 71
1
 72
23
 73
27
 74
27
 0
VERTEX
 8
GRIFF_1
 10
0
 20
0
 30
0
 70
128
 71
24
 72
25
 73
29
 74
28
 0
VERTEX
 8
GRIFF_1
 10
0
 20
0
 30
0
 70
128
 71
26
 72
2
 73
30
 74
30
 0
VERTEX
 8
GRIFF_1
 10
0
 20
0
 30
0
 70
128
 71
1
 72
27
 73
31
 74
31
 0
VERTEX
 8
GRIFF_1
 10
0
 20
0
 30
0
 70
128
 71
28
 72
29
 73
33
 74
32
 0
VERTEX
 8
GRIFF_1
 10
0
 20
0
 30
0
 70
128
 71
30
 72
2
 73
34
 74
34
 0
VERTEX
 8
GRIFF_1
 10
0
 20
0
 30
0
 70
128
 71
1
 72
31
 73
3
 74
3
 0
VERTEX
 8
GRIFF_1
 10
0
 20
0
 30
0
 70
128
 71
32
 72
33
 73
5
 74
4
 0
VERTEX
 8
GRIFF_1
 10
0
 20
0
 30
0
 70
128
 71
34
 72
2
 73
6
 74
6
 0
SEQEND
 0
ENDSEC
 0
EOF
