 0
SECTION
 2
HEADER
 9
$ACADVER
 1
AC1009
 0
ENDSEC
 0
SECTION
 2
TABLES
 0
TABLE
 2
LTYPE
 70
1
 0
LTYPE
 2
CONTINUOUS
 70
64
 3
solid line
 72
65
 73
0
 40
0.0
 0
ENDTAB
 0
TABLE
 2
LAYER
 70
6
 0
LAYER
 2
0
 70
0
 62
7
 6
CONTINUOUS
 0
LAYER
 2
250_2500_M
 70
64
 62
7
 6
CONTINUOUS
 0
LAYER
 2
ROSETTE
 70
64
 62
250
 6
CONTINUOUS
 0
LAYER
 2
CYLINDER
 70
64
 62
250
 6
CONTINUOUS
 0
LAYER
 2
K_RPER
 70
64
 62
250
 6
CONTINUOUS
 0
LAYER
 2
AUSLAUF_2
 70
64
 62
250
 6
CONTINUOUS
 0
LAYER
 2
AUSLAUF_1
 70
64
 62
250
 6
CONTINUOUS
 0
LAYER
 2
TUBE
 70
64
 62
250
 6
CONTINUOUS
 0
LAYER
 2
GRIFF_6
 70
64
 62
250
 6
CONTINUOUS
 0
LAYER
 2
GRIFF_5
 70
64
 62
250
 6
CONTINUOUS
 0
LAYER
 2
GRIFF_4
 70
64
 62
250
 6
CONTINUOUS
 0
LAYER
 2
GRIFF_3
 70
64
 62
250
 6
CONTINUOUS
 0
LAYER
 2
GRIFF_2
 70
64
 62
250
 6
CONTINUOUS
 0
LAYER
 2
GRIFF_1
 70
64
 62
250
 6
CONTINUOUS
 0
ENDTAB
 0
ENDSEC
 0
SECTION
 2
BLOCKS
 0
ENDSEC
 0
SECTION
 2
ENTITIES
 0
POLYLINE
 8
ROSETTE
 66
1
 10
0.0
 20
0.0
 30
0.0
 70
64
 71
62
 72
45
 0
VERTEX
 8
ROSETTE
 10
-0.0739
 20
0
 30
10.2475
 70
192
 0
VERTEX
 8
ROSETTE
 10
-0.0739
 20
0
 30
10.5475
 70
192
 0
VERTEX
 8
ROSETTE
 10
-0.0739
 20
-2.5
 30
10.2475
 70
192
 0
VERTEX
 8
ROSETTE
 10
-0.0739
 20
-2.5
 30
10.2475
 70
192
 0
VERTEX
 8
ROSETTE
 10
-0.0739
 20
-2.5
 30
10.5475
 70
192
 0
VERTEX
 8
ROSETTE
 10
-0.0739
 20
-2.5
 30
10.5475
 70
192
 0
VERTEX
 8
ROSETTE
 10
0.9429
 20
-2.2839
 30
10.2475
 70
192
 0
VERTEX
 8
ROSETTE
 10
0.9429
 20
-2.2839
 30
10.2475
 70
192
 0
VERTEX
 8
ROSETTE
 10
0.9429
 20
-2.2839
 30
10.5475
 70
192
 0
VERTEX
 8
ROSETTE
 10
0.9429
 20
-2.2839
 30
10.5475
 70
192
 0
VERTEX
 8
ROSETTE
 10
1.784
 20
-1.6728
 30
10.2475
 70
192
 0
VERTEX
 8
ROSETTE
 10
1.784
 20
-1.6728
 30
10.2475
 70
192
 0
VERTEX
 8
ROSETTE
 10
1.784
 20
-1.6728
 30
10.5475
 70
192
 0
VERTEX
 8
ROSETTE
 10
1.784
 20
-1.6728
 30
10.5475
 70
192
 0
VERTEX
 8
ROSETTE
 10
2.3037
 20
-0.7725
 30
10.2475
 70
192
 0
VERTEX
 8
ROSETTE
 10
2.3037
 20
-0.7725
 30
10.2475
 70
192
 0
VERTEX
 8
ROSETTE
 10
2.3037
 20
-0.7725
 30
10.5475
 70
192
 0
VERTEX
 8
ROSETTE
 10
2.3037
 20
-0.7725
 30
10.5475
 70
192
 0
VERTEX
 8
ROSETTE
 10
2.4124
 20
0.2613
 30
10.2475
 70
192
 0
VERTEX
 8
ROSETTE
 10
2.4124
 20
0.2613
 30
10.2475
 70
192
 0
VERTEX
 8
ROSETTE
 10
2.4124
 20
0.2613
 30
10.5475
 70
192
 0
VERTEX
 8
ROSETTE
 10
2.4124
 20
0.2613
 30
10.5475
 70
192
 0
VERTEX
 8
ROSETTE
 10
2.0912
 20
1.25
 30
10.2475
 70
192
 0
VERTEX
 8
ROSETTE
 10
2.0912
 20
1.25
 30
10.2475
 70
192
 0
VERTEX
 8
ROSETTE
 10
2.0912
 20
1.25
 30
10.5475
 70
192
 0
VERTEX
 8
ROSETTE
 10
2.0912
 20
1.25
 30
10.5475
 70
192
 0
VERTEX
 8
ROSETTE
 10
1.3956
 20
2.0225
 30
10.2475
 70
192
 0
VERTEX
 8
ROSETTE
 10
1.3956
 20
2.0225
 30
10.2475
 70
192
 0
VERTEX
 8
ROSETTE
 10
1.3956
 20
2.0225
 30
10.5475
 70
192
 0
VERTEX
 8
ROSETTE
 10
1.3956
 20
2.0225
 30
10.5475
 70
192
 0
VERTEX
 8
ROSETTE
 10
0.4459
 20
2.4454
 30
10.2475
 70
192
 0
VERTEX
 8
ROSETTE
 10
0.4459
 20
2.4454
 30
10.2475
 70
192
 0
VERTEX
 8
ROSETTE
 10
0.4459
 20
2.4454
 30
10.5475
 70
192
 0
VERTEX
 8
ROSETTE
 10
0.4459
 20
2.4454
 30
10.5475
 70
192
 0
VERTEX
 8
ROSETTE
 10
-0.5937
 20
2.4454
 30
10.2475
 70
192
 0
VERTEX
 8
ROSETTE
 10
-0.5937
 20
2.4454
 30
10.2475
 70
192
 0
VERTEX
 8
ROSETTE
 10
-0.5937
 20
2.4454
 30
10.5475
 70
192
 0
VERTEX
 8
ROSETTE
 10
-0.5937
 20
2.4454
 30
10.5475
 70
192
 0
VERTEX
 8
ROSETTE
 10
-1.5434
 20
2.0225
 30
10.2475
 70
192
 0
VERTEX
 8
ROSETTE
 10
-1.5434
 20
2.0225
 30
10.2475
 70
192
 0
VERTEX
 8
ROSETTE
 10
-1.5434
 20
2.0225
 30
10.5475
 70
192
 0
VERTEX
 8
ROSETTE
 10
-1.5434
 20
2.0225
 30
10.5475
 70
192
 0
VERTEX
 8
ROSETTE
 10
-2.239
 20
1.25
 30
10.2475
 70
192
 0
VERTEX
 8
ROSETTE
 10
-2.239
 20
1.25
 30
10.2475
 70
192
 0
VERTEX
 8
ROSETTE
 10
-2.239
 20
1.25
 30
10.5475
 70
192
 0
VERTEX
 8
ROSETTE
 10
-2.239
 20
1.25
 30
10.5475
 70
192
 0
VERTEX
 8
ROSETTE
 10
-2.5602
 20
0.2613
 30
10.2475
 70
192
 0
VERTEX
 8
ROSETTE
 10
-2.5602
 20
0.2613
 30
10.2475
 70
192
 0
VERTEX
 8
ROSETTE
 10
-2.5602
 20
0.2613
 30
10.5475
 70
192
 0
VERTEX
 8
ROSETTE
 10
-2.5602
 20
0.2613
 30
10.5475
 70
192
 0
VERTEX
 8
ROSETTE
 10
-2.4515
 20
-0.7725
 30
10.2475
 70
192
 0
VERTEX
 8
ROSETTE
 10
-2.4515
 20
-0.7725
 30
10.2475
 70
192
 0
VERTEX
 8
ROSETTE
 10
-2.4515
 20
-0.7725
 30
10.5475
 70
192
 0
VERTEX
 8
ROSETTE
 10
-2.4515
 20
-0.7725
 30
10.5475
 70
192
 0
VERTEX
 8
ROSETTE
 10
-1.9318
 20
-1.6728
 30
10.2475
 70
192
 0
VERTEX
 8
ROSETTE
 10
-1.9318
 20
-1.6728
 30
10.2475
 70
192
 0
VERTEX
 8
ROSETTE
 10
-1.9318
 20
-1.6728
 30
10.5475
 70
192
 0
VERTEX
 8
ROSETTE
 10
-1.9318
 20
-1.6728
 30
10.5475
 70
192
 0
VERTEX
 8
ROSETTE
 10
-1.0907
 20
-2.2839
 30
10.2475
 70
192
 0
VERTEX
 8
ROSETTE
 10
-1.0907
 20
-2.2839
 30
10.2475
 70
192
 0
VERTEX
 8
ROSETTE
 10
-1.0907
 20
-2.2839
 30
10.5475
 70
192
 0
VERTEX
 8
ROSETTE
 10
-1.0907
 20
-2.2839
 30
10.5475
 70
192
 0
VERTEX
 8
ROSETTE
 10
0
 20
0
 30
0
 70
128
 71
1
 72
3
 73
7
 74
7
 0
VERTEX
 8
ROSETTE
 10
0
 20
0
 30
0
 70
128
 71
4
 72
5
 73
9
 74
8
 0
VERTEX
 8
ROSETTE
 10
0
 20
0
 30
0
 70
128
 71
6
 72
2
 73
10
 74
10
 0
VERTEX
 8
ROSETTE
 10
0
 20
0
 30
0
 70
128
 71
1
 72
7
 73
11
 74
11
 0
VERTEX
 8
ROSETTE
 10
0
 20
0
 30
0
 70
128
 71
8
 72
9
 73
13
 74
12
 0
VERTEX
 8
ROSETTE
 10
0
 20
0
 30
0
 70
128
 71
10
 72
2
 73
14
 74
14
 0
VERTEX
 8
ROSETTE
 10
0
 20
0
 30
0
 70
128
 71
1
 72
11
 73
15
 74
15
 0
VERTEX
 8
ROSETTE
 10
0
 20
0
 30
0
 70
128
 71
12
 72
13
 73
17
 74
16
 0
VERTEX
 8
ROSETTE
 10
0
 20
0
 30
0
 70
128
 71
14
 72
2
 73
18
 74
18
 0
VERTEX
 8
ROSETTE
 10
0
 20
0
 30
0
 70
128
 71
1
 72
15
 73
19
 74
19
 0
VERTEX
 8
ROSETTE
 10
0
 20
0
 30
0
 70
128
 71
16
 72
17
 73
21
 74
20
 0
VERTEX
 8
ROSETTE
 10
0
 20
0
 30
0
 70
128
 71
18
 72
2
 73
22
 74
22
 0
VERTEX
 8
ROSETTE
 10
0
 20
0
 30
0
 70
128
 71
1
 72
19
 73
23
 74
23
 0
VERTEX
 8
ROSETTE
 10
0
 20
0
 30
0
 70
128
 71
20
 72
21
 73
25
 74
24
 0
VERTEX
 8
ROSETTE
 10
0
 20
0
 30
0
 70
128
 71
22
 72
2
 73
26
 74
26
 0
VERTEX
 8
ROSETTE
 10
0
 20
0
 30
0
 70
128
 71
1
 72
23
 73
27
 74
27
 0
VERTEX
 8
ROSETTE
 10
0
 20
0
 30
0
 70
128
 71
24
 72
25
 73
29
 74
28
 0
VERTEX
 8
ROSETTE
 10
0
 20
0
 30
0
 70
128
 71
26
 72
2
 73
30
 74
30
 0
VERTEX
 8
ROSETTE
 10
0
 20
0
 30
0
 70
128
 71
1
 72
27
 73
31
 74
31
 0
VERTEX
 8
ROSETTE
 10
0
 20
0
 30
0
 70
128
 71
28
 72
29
 73
33
 74
32
 0
VERTEX
 8
ROSETTE
 10
0
 20
0
 30
0
 70
128
 71
30
 72
2
 73
34
 74
34
 0
VERTEX
 8
ROSETTE
 10
0
 20
0
 30
0
 70
128
 71
1
 72
31
 73
35
 74
35
 0
VERTEX
 8
ROSETTE
 10
0
 20
0
 30
0
 70
128
 71
32
 72
33
 73
37
 74
36
 0
VERTEX
 8
ROSETTE
 10
0
 20
0
 30
0
 70
128
 71
34
 72
2
 73
38
 74
38
 0
VERTEX
 8
ROSETTE
 10
0
 20
0
 30
0
 70
128
 71
1
 72
35
 73
39
 74
39
 0
VERTEX
 8
ROSETTE
 10
0
 20
0
 30
0
 70
128
 71
36
 72
37
 73
41
 74
40
 0
VERTEX
 8
ROSETTE
 10
0
 20
0
 30
0
 70
128
 71
38
 72
2
 73
42
 74
42
 0
VERTEX
 8
ROSETTE
 10
0
 20
0
 30
0
 70
128
 71
1
 72
39
 73
43
 74
43
 0
VERTEX
 8
ROSETTE
 10
0
 20
0
 30
0
 70
128
 71
40
 72
41
 73
45
 74
44
 0
VERTEX
 8
ROSETTE
 10
0
 20
0
 30
0
 70
128
 71
42
 72
2
 73
46
 74
46
 0
VERTEX
 8
ROSETTE
 10
0
 20
0
 30
0
 70
128
 71
1
 72
43
 73
47
 74
47
 0
VERTEX
 8
ROSETTE
 10
0
 20
0
 30
0
 70
128
 71
44
 72
45
 73
49
 74
48
 0
VERTEX
 8
ROSETTE
 10
0
 20
0
 30
0
 70
128
 71
46
 72
2
 73
50
 74
50
 0
VERTEX
 8
ROSETTE
 10
0
 20
0
 30
0
 70
128
 71
1
 72
47
 73
51
 74
51
 0
VERTEX
 8
ROSETTE
 10
0
 20
0
 30
0
 70
128
 71
48
 72
49
 73
53
 74
52
 0
VERTEX
 8
ROSETTE
 10
0
 20
0
 30
0
 70
128
 71
50
 72
2
 73
54
 74
54
 0
VERTEX
 8
ROSETTE
 10
0
 20
0
 30
0
 70
128
 71
1
 72
51
 73
55
 74
55
 0
VERTEX
 8
ROSETTE
 10
0
 20
0
 30
0
 70
128
 71
52
 72
53
 73
57
 74
56
 0
VERTEX
 8
ROSETTE
 10
0
 20
0
 30
0
 70
128
 71
54
 72
2
 73
58
 74
58
 0
VERTEX
 8
ROSETTE
 10
0
 20
0
 30
0
 70
128
 71
1
 72
55
 73
59
 74
59
 0
VERTEX
 8
ROSETTE
 10
0
 20
0
 30
0
 70
128
 71
56
 72
57
 73
61
 74
60
 0
VERTEX
 8
ROSETTE
 10
0
 20
0
 30
0
 70
128
 71
58
 72
2
 73
62
 74
62
 0
VERTEX
 8
ROSETTE
 10
0
 20
0
 30
0
 70
128
 71
1
 72
59
 73
3
 74
3
 0
VERTEX
 8
ROSETTE
 10
0
 20
0
 30
0
 70
128
 71
60
 72
61
 73
5
 74
4
 0
VERTEX
 8
ROSETTE
 10
0
 20
0
 30
0
 70
128
 71
62
 72
2
 73
6
 74
6
 0
SEQEND
 0
POLYLINE
 8
CYLINDER
 66
1
 10
0.0
 20
0.0
 30
0.0
 70
64
 71
61
 72
60
 0
VERTEX
 8
CYLINDER
 10
-0.6637
 20
-1.3246
 30
23.469
 70
192
 0
VERTEX
 8
CYLINDER
 10
-0.0739
 20
0
 30
23.469
 70
192
 0
VERTEX
 8
CYLINDER
 10
-0.0739
 20
-1.45
 30
20.969
 70
192
 0
VERTEX
 8
CYLINDER
 10
-0.0739
 20
-1.5
 30
21.019
 70
192
 0
VERTEX
 8
CYLINDER
 10
-0.0739
 20
-1.5
 30
23.419
 70
192
 0
VERTEX
 8
CYLINDER
 10
-0.0739
 20
-1.45
 30
23.469
 70
192
 0
VERTEX
 8
CYLINDER
 10
0.5159
 20
-1.3246
 30
20.969
 70
192
 0
VERTEX
 8
CYLINDER
 10
0.5362
 20
-1.3703
 30
21.019
 70
192
 0
VERTEX
 8
CYLINDER
 10
0.5362
 20
-1.3703
 30
23.419
 70
192
 0
VERTEX
 8
CYLINDER
 10
0.5159
 20
-1.3246
 30
23.469
 70
192
 0
VERTEX
 8
CYLINDER
 10
1.0037
 20
-0.9702
 30
20.969
 70
192
 0
VERTEX
 8
CYLINDER
 10
1.0408
 20
-1.0037
 30
21.019
 70
192
 0
VERTEX
 8
CYLINDER
 10
1.0408
 20
-1.0037
 30
23.419
 70
192
 0
VERTEX
 8
CYLINDER
 10
1.0037
 20
-0.9702
 30
23.469
 70
192
 0
VERTEX
 8
CYLINDER
 10
1.3051
 20
-0.4481
 30
20.969
 70
192
 0
VERTEX
 8
CYLINDER
 10
1.3527
 20
-0.4635
 30
21.019
 70
192
 0
VERTEX
 8
CYLINDER
 10
1.3527
 20
-0.4635
 30
23.419
 70
192
 0
VERTEX
 8
CYLINDER
 10
1.3051
 20
-0.4481
 30
23.469
 70
192
 0
VERTEX
 8
CYLINDER
 10
1.3681
 20
0.1516
 30
20.969
 70
192
 0
VERTEX
 8
CYLINDER
 10
1.4179
 20
0.1568
 30
21.019
 70
192
 0
VERTEX
 8
CYLINDER
 10
1.4179
 20
0.1568
 30
23.419
 70
192
 0
VERTEX
 8
CYLINDER
 10
1.3681
 20
0.1516
 30
23.469
 70
192
 0
VERTEX
 8
CYLINDER
 10
1.1818
 20
0.725
 30
20.969
 70
192
 0
VERTEX
 8
CYLINDER
 10
1.2251
 20
0.75
 30
21.019
 70
192
 0
VERTEX
 8
CYLINDER
 10
1.2251
 20
0.75
 30
23.419
 70
192
 0
VERTEX
 8
CYLINDER
 10
1.1818
 20
0.725
 30
23.469
 70
192
 0
VERTEX
 8
CYLINDER
 10
0.7784
 20
1.1731
 30
20.969
 70
192
 0
VERTEX
 8
CYLINDER
 10
0.8078
 20
1.2135
 30
21.019
 70
192
 0
VERTEX
 8
CYLINDER
 10
0.8078
 20
1.2135
 30
23.419
 70
192
 0
VERTEX
 8
CYLINDER
 10
0.7784
 20
1.1731
 30
23.469
 70
192
 0
VERTEX
 8
CYLINDER
 10
0.2276
 20
1.4183
 30
20.969
 70
192
 0
VERTEX
 8
CYLINDER
 10
0.238
 20
1.4672
 30
21.019
 70
192
 0
VERTEX
 8
CYLINDER
 10
0.238
 20
1.4672
 30
23.419
 70
192
 0
VERTEX
 8
CYLINDER
 10
0.2276
 20
1.4183
 30
23.469
 70
192
 0
VERTEX
 8
CYLINDER
 10
-0.3754
 20
1.4183
 30
20.969
 70
192
 0
VERTEX
 8
CYLINDER
 10
-0.3858
 20
1.4672
 30
21.019
 70
192
 0
VERTEX
 8
CYLINDER
 10
-0.3858
 20
1.4672
 30
23.419
 70
192
 0
VERTEX
 8
CYLINDER
 10
-0.3754
 20
1.4183
 30
23.469
 70
192
 0
VERTEX
 8
CYLINDER
 10
-0.9262
 20
1.1731
 30
20.969
 70
192
 0
VERTEX
 8
CYLINDER
 10
-0.9556
 20
1.2135
 30
21.019
 70
192
 0
VERTEX
 8
CYLINDER
 10
-0.9556
 20
1.2135
 30
23.419
 70
192
 0
VERTEX
 8
CYLINDER
 10
-0.9262
 20
1.1731
 30
23.469
 70
192
 0
VERTEX
 8
CYLINDER
 10
-1.3296
 20
0.725
 30
20.969
 70
192
 0
VERTEX
 8
CYLINDER
 10
-1.3729
 20
0.75
 30
21.019
 70
192
 0
VERTEX
 8
CYLINDER
 10
-1.3729
 20
0.75
 30
23.419
 70
192
 0
VERTEX
 8
CYLINDER
 10
-1.3296
 20
0.725
 30
23.469
 70
192
 0
VERTEX
 8
CYLINDER
 10
-1.516
 20
0.1516
 30
20.969
 70
192
 0
VERTEX
 8
CYLINDER
 10
-1.5657
 20
0.1568
 30
21.019
 70
192
 0
VERTEX
 8
CYLINDER
 10
-1.5657
 20
0.1568
 30
23.419
 70
192
 0
VERTEX
 8
CYLINDER
 10
-1.516
 20
0.1516
 30
23.469
 70
192
 0
VERTEX
 8
CYLINDER
 10
-1.4529
 20
-0.4481
 30
20.969
 70
192
 0
VERTEX
 8
CYLINDER
 10
-1.5005
 20
-0.4635
 30
21.019
 70
192
 0
VERTEX
 8
CYLINDER
 10
-1.5005
 20
-0.4635
 30
23.419
 70
192
 0
VERTEX
 8
CYLINDER
 10
-1.4529
 20
-0.4481
 30
23.469
 70
192
 0
VERTEX
 8
CYLINDER
 10
-1.1515
 20
-0.9702
 30
20.969
 70
192
 0
VERTEX
 8
CYLINDER
 10
-1.1886
 20
-1.0037
 30
21.019
 70
192
 0
VERTEX
 8
CYLINDER
 10
-1.1886
 20
-1.0037
 30
23.419
 70
192
 0
VERTEX
 8
CYLINDER
 10
-1.1515
 20
-0.9702
 30
23.469
 70
192
 0
VERTEX
 8
CYLINDER
 10
-0.6637
 20
-1.3246
 30
20.969
 70
192
 0
VERTEX
 8
CYLINDER
 10
-0.684
 20
-1.3703
 30
21.019
 70
192
 0
VERTEX
 8
CYLINDER
 10
-0.684
 20
-1.3703
 30
23.419
 70
192
 0
VERTEX
 8
CYLINDER
 10
0
 20
0
 30
0
 70
128
 71
51
 72
52
 73
56
 74
55
 0
VERTEX
 8
CYLINDER
 10
0
 20
0
 30
0
 70
128
 71
3
 72
4
 73
8
 74
7
 0
VERTEX
 8
CYLINDER
 10
0
 20
0
 30
0
 70
128
 71
4
 72
5
 73
9
 74
8
 0
VERTEX
 8
CYLINDER
 10
0
 20
0
 30
0
 70
128
 71
5
 72
6
 73
10
 74
9
 0
VERTEX
 8
CYLINDER
 10
0
 20
0
 30
0
 70
128
 71
6
 72
2
 73
10
 74
10
 0
VERTEX
 8
CYLINDER
 10
0
 20
0
 30
0
 70
128
 71
52
 72
53
 73
57
 74
56
 0
VERTEX
 8
CYLINDER
 10
0
 20
0
 30
0
 70
128
 71
7
 72
8
 73
12
 74
11
 0
VERTEX
 8
CYLINDER
 10
0
 20
0
 30
0
 70
128
 71
8
 72
9
 73
13
 74
12
 0
VERTEX
 8
CYLINDER
 10
0
 20
0
 30
0
 70
128
 71
9
 72
10
 73
14
 74
13
 0
VERTEX
 8
CYLINDER
 10
0
 20
0
 30
0
 70
128
 71
10
 72
2
 73
14
 74
14
 0
VERTEX
 8
CYLINDER
 10
0
 20
0
 30
0
 70
128
 71
53
 72
54
 73
58
 74
57
 0
VERTEX
 8
CYLINDER
 10
0
 20
0
 30
0
 70
128
 71
11
 72
12
 73
16
 74
15
 0
VERTEX
 8
CYLINDER
 10
0
 20
0
 30
0
 70
128
 71
12
 72
13
 73
17
 74
16
 0
VERTEX
 8
CYLINDER
 10
0
 20
0
 30
0
 70
128
 71
13
 72
14
 73
18
 74
17
 0
VERTEX
 8
CYLINDER
 10
0
 20
0
 30
0
 70
128
 71
14
 72
2
 73
18
 74
18
 0
VERTEX
 8
CYLINDER
 10
0
 20
0
 30
0
 70
128
 71
54
 72
2
 73
58
 74
58
 0
VERTEX
 8
CYLINDER
 10
0
 20
0
 30
0
 70
128
 71
15
 72
16
 73
20
 74
19
 0
VERTEX
 8
CYLINDER
 10
0
 20
0
 30
0
 70
128
 71
16
 72
17
 73
21
 74
20
 0
VERTEX
 8
CYLINDER
 10
0
 20
0
 30
0
 70
128
 71
17
 72
18
 73
22
 74
21
 0
VERTEX
 8
CYLINDER
 10
0
 20
0
 30
0
 70
128
 71
18
 72
2
 73
22
 74
22
 0
VERTEX
 8
CYLINDER
 10
0
 20
0
 30
0
 70
128
 71
55
 72
56
 73
60
 74
59
 0
VERTEX
 8
CYLINDER
 10
0
 20
0
 30
0
 70
128
 71
19
 72
20
 73
24
 74
23
 0
VERTEX
 8
CYLINDER
 10
0
 20
0
 30
0
 70
128
 71
20
 72
21
 73
25
 74
24
 0
VERTEX
 8
CYLINDER
 10
0
 20
0
 30
0
 70
128
 71
21
 72
22
 73
26
 74
25
 0
VERTEX
 8
CYLINDER
 10
0
 20
0
 30
0
 70
128
 71
22
 72
2
 73
26
 74
26
 0
VERTEX
 8
CYLINDER
 10
0
 20
0
 30
0
 70
128
 71
56
 72
57
 73
61
 74
60
 0
VERTEX
 8
CYLINDER
 10
0
 20
0
 30
0
 70
128
 71
23
 72
24
 73
28
 74
27
 0
VERTEX
 8
CYLINDER
 10
0
 20
0
 30
0
 70
128
 71
24
 72
25
 73
29
 74
28
 0
VERTEX
 8
CYLINDER
 10
0
 20
0
 30
0
 70
128
 71
25
 72
26
 73
30
 74
29
 0
VERTEX
 8
CYLINDER
 10
0
 20
0
 30
0
 70
128
 71
26
 72
2
 73
30
 74
30
 0
VERTEX
 8
CYLINDER
 10
0
 20
0
 30
0
 70
128
 71
57
 72
58
 73
1
 74
61
 0
VERTEX
 8
CYLINDER
 10
0
 20
0
 30
0
 70
128
 71
27
 72
28
 73
32
 74
31
 0
VERTEX
 8
CYLINDER
 10
0
 20
0
 30
0
 70
128
 71
28
 72
29
 73
33
 74
32
 0
VERTEX
 8
CYLINDER
 10
0
 20
0
 30
0
 70
128
 71
29
 72
30
 73
34
 74
33
 0
VERTEX
 8
CYLINDER
 10
0
 20
0
 30
0
 70
128
 71
30
 72
2
 73
34
 74
34
 0
VERTEX
 8
CYLINDER
 10
0
 20
0
 30
0
 70
128
 71
58
 72
2
 73
1
 74
1
 0
VERTEX
 8
CYLINDER
 10
0
 20
0
 30
0
 70
128
 71
31
 72
32
 73
36
 74
35
 0
VERTEX
 8
CYLINDER
 10
0
 20
0
 30
0
 70
128
 71
32
 72
33
 73
37
 74
36
 0
VERTEX
 8
CYLINDER
 10
0
 20
0
 30
0
 70
128
 71
33
 72
34
 73
38
 74
37
 0
VERTEX
 8
CYLINDER
 10
0
 20
0
 30
0
 70
128
 71
34
 72
2
 73
38
 74
38
 0
VERTEX
 8
CYLINDER
 10
0
 20
0
 30
0
 70
128
 71
59
 72
60
 73
4
 74
3
 0
VERTEX
 8
CYLINDER
 10
0
 20
0
 30
0
 70
128
 71
35
 72
36
 73
40
 74
39
 0
VERTEX
 8
CYLINDER
 10
0
 20
0
 30
0
 70
128
 71
36
 72
37
 73
41
 74
40
 0
VERTEX
 8
CYLINDER
 10
0
 20
0
 30
0
 70
128
 71
37
 72
38
 73
42
 74
41
 0
VERTEX
 8
CYLINDER
 10
0
 20
0
 30
0
 70
128
 71
38
 72
2
 73
42
 74
42
 0
VERTEX
 8
CYLINDER
 10
0
 20
0
 30
0
 70
128
 71
60
 72
61
 73
5
 74
4
 0
VERTEX
 8
CYLINDER
 10
0
 20
0
 30
0
 70
128
 71
39
 72
40
 73
44
 74
43
 0
VERTEX
 8
CYLINDER
 10
0
 20
0
 30
0
 70
128
 71
40
 72
41
 73
45
 74
44
 0
VERTEX
 8
CYLINDER
 10
0
 20
0
 30
0
 70
128
 71
41
 72
42
 73
46
 74
45
 0
VERTEX
 8
CYLINDER
 10
0
 20
0
 30
0
 70
128
 71
42
 72
2
 73
46
 74
46
 0
VERTEX
 8
CYLINDER
 10
0
 20
0
 30
0
 70
128
 71
61
 72
1
 73
6
 74
5
 0
VERTEX
 8
CYLINDER
 10
0
 20
0
 30
0
 70
128
 71
43
 72
44
 73
48
 74
47
 0
VERTEX
 8
CYLINDER
 10
0
 20
0
 30
0
 70
128
 71
44
 72
45
 73
49
 74
48
 0
VERTEX
 8
CYLINDER
 10
0
 20
0
 30
0
 70
128
 71
45
 72
46
 73
50
 74
49
 0
VERTEX
 8
CYLINDER
 10
0
 20
0
 30
0
 70
128
 71
46
 72
2
 73
50
 74
50
 0
VERTEX
 8
CYLINDER
 10
0
 20
0
 30
0
 70
128
 71
1
 72
2
 73
6
 74
6
 0
VERTEX
 8
CYLINDER
 10
0
 20
0
 30
0
 70
128
 71
47
 72
48
 73
52
 74
51
 0
VERTEX
 8
CYLINDER
 10
0
 20
0
 30
0
 70
128
 71
48
 72
49
 73
53
 74
52
 0
VERTEX
 8
CYLINDER
 10
0
 20
0
 30
0
 70
128
 71
49
 72
50
 73
54
 74
53
 0
VERTEX
 8
CYLINDER
 10
0
 20
0
 30
0
 70
128
 71
50
 72
2
 73
54
 74
54
 0
SEQEND
 0
POLYLINE
 8
K_RPER
 66
1
 10
0.0
 20
0.0
 30
0.0
 70
64
 71
61
 72
30
 0
VERTEX
 8
K_RPER
 10
-0.684
 20
-1.3703
 30
20.9851
 70
192
 0
VERTEX
 8
K_RPER
 10
-0.0739
 20
0
 30
20.9851
 70
192
 0
VERTEX
 8
K_RPER
 10
-0.0739
 20
-1.5
 30
10.4851
 70
192
 0
VERTEX
 8
K_RPER
 10
-0.0739
 20
-1.5
 30
10.4851
 70
192
 0
VERTEX
 8
K_RPER
 10
-0.0739
 20
-1.5
 30
20.9851
 70
192
 0
VERTEX
 8
K_RPER
 10
-0.0739
 20
-1.5
 30
20.9851
 70
192
 0
VERTEX
 8
K_RPER
 10
0.5362
 20
-1.3703
 30
10.4851
 70
192
 0
VERTEX
 8
K_RPER
 10
0.5362
 20
-1.3703
 30
10.4851
 70
192
 0
VERTEX
 8
K_RPER
 10
0.5362
 20
-1.3703
 30
20.9851
 70
192
 0
VERTEX
 8
K_RPER
 10
0.5362
 20
-1.3703
 30
20.9851
 70
192
 0
VERTEX
 8
K_RPER
 10
1.0408
 20
-1.0037
 30
10.4851
 70
192
 0
VERTEX
 8
K_RPER
 10
1.0408
 20
-1.0037
 30
10.4851
 70
192
 0
VERTEX
 8
K_RPER
 10
1.0408
 20
-1.0037
 30
20.9851
 70
192
 0
VERTEX
 8
K_RPER
 10
1.0408
 20
-1.0037
 30
20.9851
 70
192
 0
VERTEX
 8
K_RPER
 10
1.3527
 20
-0.4635
 30
10.4851
 70
192
 0
VERTEX
 8
K_RPER
 10
1.3527
 20
-0.4635
 30
10.4851
 70
192
 0
VERTEX
 8
K_RPER
 10
1.3527
 20
-0.4635
 30
20.9851
 70
192
 0
VERTEX
 8
K_RPER
 10
1.3527
 20
-0.4635
 30
20.9851
 70
192
 0
VERTEX
 8
K_RPER
 10
1.4179
 20
0.1568
 30
10.4851
 70
192
 0
VERTEX
 8
K_RPER
 10
1.4179
 20
0.1568
 30
10.4851
 70
192
 0
VERTEX
 8
K_RPER
 10
1.4179
 20
0.1568
 30
20.9851
 70
192
 0
VERTEX
 8
K_RPER
 10
1.4179
 20
0.1568
 30
20.9851
 70
192
 0
VERTEX
 8
K_RPER
 10
1.2251
 20
0.75
 30
10.4851
 70
192
 0
VERTEX
 8
K_RPER
 10
1.2251
 20
0.75
 30
10.4851
 70
192
 0
VERTEX
 8
K_RPER
 10
1.2251
 20
0.75
 30
20.9851
 70
192
 0
VERTEX
 8
K_RPER
 10
1.2251
 20
0.75
 30
20.9851
 70
192
 0
VERTEX
 8
K_RPER
 10
0.8078
 20
1.2135
 30
10.4851
 70
192
 0
VERTEX
 8
K_RPER
 10
0.8078
 20
1.2135
 30
10.4851
 70
192
 0
VERTEX
 8
K_RPER
 10
0.8078
 20
1.2135
 30
20.9851
 70
192
 0
VERTEX
 8
K_RPER
 10
0.8078
 20
1.2135
 30
20.9851
 70
192
 0
VERTEX
 8
K_RPER
 10
0.238
 20
1.4672
 30
10.4851
 70
192
 0
VERTEX
 8
K_RPER
 10
0.238
 20
1.4672
 30
10.4851
 70
192
 0
VERTEX
 8
K_RPER
 10
0.238
 20
1.4672
 30
20.9851
 70
192
 0
VERTEX
 8
K_RPER
 10
0.238
 20
1.4672
 30
20.9851
 70
192
 0
VERTEX
 8
K_RPER
 10
-0.3858
 20
1.4672
 30
10.4851
 70
192
 0
VERTEX
 8
K_RPER
 10
-0.3858
 20
1.4672
 30
10.4851
 70
192
 0
VERTEX
 8
K_RPER
 10
-0.3858
 20
1.4672
 30
20.9851
 70
192
 0
VERTEX
 8
K_RPER
 10
-0.3858
 20
1.4672
 30
20.9851
 70
192
 0
VERTEX
 8
K_RPER
 10
-0.9556
 20
1.2135
 30
10.4851
 70
192
 0
VERTEX
 8
K_RPER
 10
-0.9556
 20
1.2135
 30
10.4851
 70
192
 0
VERTEX
 8
K_RPER
 10
-0.9556
 20
1.2135
 30
20.9851
 70
192
 0
VERTEX
 8
K_RPER
 10
-0.9556
 20
1.2135
 30
20.9851
 70
192
 0
VERTEX
 8
K_RPER
 10
-1.3729
 20
0.75
 30
10.4851
 70
192
 0
VERTEX
 8
K_RPER
 10
-1.3729
 20
0.75
 30
10.4851
 70
192
 0
VERTEX
 8
K_RPER
 10
-1.3729
 20
0.75
 30
20.9851
 70
192
 0
VERTEX
 8
K_RPER
 10
-1.3729
 20
0.75
 30
20.9851
 70
192
 0
VERTEX
 8
K_RPER
 10
-1.5657
 20
0.1568
 30
10.4851
 70
192
 0
VERTEX
 8
K_RPER
 10
-1.5657
 20
0.1568
 30
10.4851
 70
192
 0
VERTEX
 8
K_RPER
 10
-1.5657
 20
0.1568
 30
20.9851
 70
192
 0
VERTEX
 8
K_RPER
 10
-1.5657
 20
0.1568
 30
20.9851
 70
192
 0
VERTEX
 8
K_RPER
 10
-1.5005
 20
-0.4635
 30
10.4851
 70
192
 0
VERTEX
 8
K_RPER
 10
-1.5005
 20
-0.4635
 30
10.4851
 70
192
 0
VERTEX
 8
K_RPER
 10
-1.5005
 20
-0.4635
 30
20.9851
 70
192
 0
VERTEX
 8
K_RPER
 10
-1.5005
 20
-0.4635
 30
20.9851
 70
192
 0
VERTEX
 8
K_RPER
 10
-1.1886
 20
-1.0037
 30
10.4851
 70
192
 0
VERTEX
 8
K_RPER
 10
-1.1886
 20
-1.0037
 30
10.4851
 70
192
 0
VERTEX
 8
K_RPER
 10
-1.1886
 20
-1.0037
 30
20.9851
 70
192
 0
VERTEX
 8
K_RPER
 10
-1.1886
 20
-1.0037
 30
20.9851
 70
192
 0
VERTEX
 8
K_RPER
 10
-0.684
 20
-1.3703
 30
10.4851
 70
192
 0
VERTEX
 8
K_RPER
 10
-0.684
 20
-1.3703
 30
10.4851
 70
192
 0
VERTEX
 8
K_RPER
 10
-0.684
 20
-1.3703
 30
20.9851
 70
192
 0
VERTEX
 8
K_RPER
 10
0
 20
0
 30
0
 70
128
 71
44
 72
45
 73
49
 74
48
 0
VERTEX
 8
K_RPER
 10
0
 20
0
 30
0
 70
128
 71
4
 72
5
 73
9
 74
8
 0
VERTEX
 8
K_RPER
 10
0
 20
0
 30
0
 70
128
 71
6
 72
2
 73
10
 74
10
 0
VERTEX
 8
K_RPER
 10
0
 20
0
 30
0
 70
128
 71
46
 72
2
 73
50
 74
50
 0
VERTEX
 8
K_RPER
 10
0
 20
0
 30
0
 70
128
 71
8
 72
9
 73
13
 74
12
 0
VERTEX
 8
K_RPER
 10
0
 20
0
 30
0
 70
128
 71
10
 72
2
 73
14
 74
14
 0
VERTEX
 8
K_RPER
 10
0
 20
0
 30
0
 70
128
 71
48
 72
49
 73
53
 74
52
 0
VERTEX
 8
K_RPER
 10
0
 20
0
 30
0
 70
128
 71
12
 72
13
 73
17
 74
16
 0
VERTEX
 8
K_RPER
 10
0
 20
0
 30
0
 70
128
 71
14
 72
2
 73
18
 74
18
 0
VERTEX
 8
K_RPER
 10
0
 20
0
 30
0
 70
128
 71
50
 72
2
 73
54
 74
54
 0
VERTEX
 8
K_RPER
 10
0
 20
0
 30
0
 70
128
 71
16
 72
17
 73
21
 74
20
 0
VERTEX
 8
K_RPER
 10
0
 20
0
 30
0
 70
128
 71
18
 72
2
 73
22
 74
22
 0
VERTEX
 8
K_RPER
 10
0
 20
0
 30
0
 70
128
 71
52
 72
53
 73
57
 74
56
 0
VERTEX
 8
K_RPER
 10
0
 20
0
 30
0
 70
128
 71
20
 72
21
 73
25
 74
24
 0
VERTEX
 8
K_RPER
 10
0
 20
0
 30
0
 70
128
 71
22
 72
2
 73
26
 74
26
 0
VERTEX
 8
K_RPER
 10
0
 20
0
 30
0
 70
128
 71
54
 72
2
 73
58
 74
58
 0
VERTEX
 8
K_RPER
 10
0
 20
0
 30
0
 70
128
 71
24
 72
25
 73
29
 74
28
 0
VERTEX
 8
K_RPER
 10
0
 20
0
 30
0
 70
128
 71
26
 72
2
 73
30
 74
30
 0
VERTEX
 8
K_RPER
 10
0
 20
0
 30
0
 70
128
 71
56
 72
57
 73
61
 74
60
 0
VERTEX
 8
K_RPER
 10
0
 20
0
 30
0
 70
128
 71
28
 72
29
 73
33
 74
32
 0
VERTEX
 8
K_RPER
 10
0
 20
0
 30
0
 70
128
 71
30
 72
2
 73
34
 74
34
 0
VERTEX
 8
K_RPER
 10
0
 20
0
 30
0
 70
128
 71
58
 72
2
 73
1
 74
1
 0
VERTEX
 8
K_RPER
 10
0
 20
0
 30
0
 70
128
 71
32
 72
33
 73
37
 74
36
 0
VERTEX
 8
K_RPER
 10
0
 20
0
 30
0
 70
128
 71
34
 72
2
 73
38
 74
38
 0
VERTEX
 8
K_RPER
 10
0
 20
0
 30
0
 70
128
 71
60
 72
61
 73
5
 74
4
 0
VERTEX
 8
K_RPER
 10
0
 20
0
 30
0
 70
128
 71
36
 72
37
 73
41
 74
40
 0
VERTEX
 8
K_RPER
 10
0
 20
0
 30
0
 70
128
 71
38
 72
2
 73
42
 74
42
 0
VERTEX
 8
K_RPER
 10
0
 20
0
 30
0
 70
128
 71
1
 72
2
 73
6
 74
6
 0
VERTEX
 8
K_RPER
 10
0
 20
0
 30
0
 70
128
 71
40
 72
41
 73
45
 74
44
 0
VERTEX
 8
K_RPER
 10
0
 20
0
 30
0
 70
128
 71
42
 72
2
 73
46
 74
46
 0
SEQEND
 0
POLYLINE
 8
AUSLAUF_2
 66
1
 10
0.0
 20
0.0
 30
0.0
 70
64
 71
24
 72
12
 0
VERTEX
 8
AUSLAUF_2
 10
-0.3489
 20
-10.3667
 30
15.4814
 70
192
 0
VERTEX
 8
AUSLAUF_2
 10
-0.0739
 20
-9.9498
 30
16.1275
 70
192
 0
VERTEX
 8
AUSLAUF_2
 10
0.2011
 20
-10.0105
 30
16.1692
 70
192
 0
VERTEX
 8
AUSLAUF_2
 10
0.4024
 20
-10.1766
 30
16.283
 70
192
 0
VERTEX
 8
AUSLAUF_2
 10
0.4761
 20
-10.4034
 30
16.4386
 70
192
 0
VERTEX
 8
AUSLAUF_2
 10
0.4024
 20
-10.6302
 30
16.5941
 70
192
 0
VERTEX
 8
AUSLAUF_2
 10
0.2011
 20
-10.7962
 30
16.7079
 70
192
 0
VERTEX
 8
AUSLAUF_2
 10
-0.0739
 20
-10.8569
 30
16.7496
 70
192
 0
VERTEX
 8
AUSLAUF_2
 10
-0.3489
 20
-10.7962
 30
16.7079
 70
192
 0
VERTEX
 8
AUSLAUF_2
 10
-0.5502
 20
-10.6302
 30
16.5941
 70
192
 0
VERTEX
 8
AUSLAUF_2
 10
-0.6239
 20
-10.4034
 30
16.4386
 70
192
 0
VERTEX
 8
AUSLAUF_2
 10
-0.5502
 20
-10.1766
 30
16.283
 70
192
 0
VERTEX
 8
AUSLAUF_2
 10
-0.3489
 20
-10.0105
 30
16.1692
 70
192
 0
VERTEX
 8
AUSLAUF_2
 10
-0.0739
 20
-10.2999
 30
15.4503
 70
192
 0
VERTEX
 8
AUSLAUF_2
 10
-0.3489
 20
-11.23
 30
15.884
 70
192
 0
VERTEX
 8
AUSLAUF_2
 10
0.4024
 20
-11.0476
 30
15.799
 70
192
 0
VERTEX
 8
AUSLAUF_2
 10
0.2011
 20
-10.3667
 30
15.4814
 70
192
 0
VERTEX
 8
AUSLAUF_2
 10
-0.5502
 20
-11.0476
 30
15.799
 70
192
 0
VERTEX
 8
AUSLAUF_2
 10
0.2011
 20
-11.23
 30
15.884
 70
192
 0
VERTEX
 8
AUSLAUF_2
 10
0.4024
 20
-10.5491
 30
15.5665
 70
192
 0
VERTEX
 8
AUSLAUF_2
 10
-0.0739
 20
-11.2968
 30
15.9152
 70
192
 0
VERTEX
 8
AUSLAUF_2
 10
0.4761
 20
-10.7983
 30
15.6827
 70
192
 0
VERTEX
 8
AUSLAUF_2
 10
-0.5502
 20
-10.5491
 30
15.5665
 70
192
 0
VERTEX
 8
AUSLAUF_2
 10
-0.6239
 20
-10.7983
 30
15.6827
 70
192
 0
VERTEX
 8
AUSLAUF_2
 10
0
 20
0
 30
0
 70
128
 71
9
 72
15
 73
21
 74
8
 0
VERTEX
 8
AUSLAUF_2
 10
0
 20
0
 30
0
 70
128
 71
3
 72
17
 73
14
 74
2
 0
VERTEX
 8
AUSLAUF_2
 10
0
 20
0
 30
0
 70
128
 71
10
 72
18
 73
15
 74
9
 0
VERTEX
 8
AUSLAUF_2
 10
0
 20
0
 30
0
 70
128
 71
4
 72
20
 73
17
 74
3
 0
VERTEX
 8
AUSLAUF_2
 10
0
 20
0
 30
0
 70
128
 71
11
 72
24
 73
18
 74
10
 0
VERTEX
 8
AUSLAUF_2
 10
0
 20
0
 30
0
 70
128
 71
5
 72
22
 73
20
 74
4
 0
VERTEX
 8
AUSLAUF_2
 10
0
 20
0
 30
0
 70
128
 71
12
 72
23
 73
24
 74
11
 0
VERTEX
 8
AUSLAUF_2
 10
0
 20
0
 30
0
 70
128
 71
6
 72
16
 73
22
 74
5
 0
VERTEX
 8
AUSLAUF_2
 10
0
 20
0
 30
0
 70
128
 71
13
 72
1
 73
23
 74
12
 0
VERTEX
 8
AUSLAUF_2
 10
0
 20
0
 30
0
 70
128
 71
7
 72
19
 73
16
 74
6
 0
VERTEX
 8
AUSLAUF_2
 10
0
 20
0
 30
0
 70
128
 71
2
 72
14
 73
1
 74
13
 0
VERTEX
 8
AUSLAUF_2
 10
0
 20
0
 30
0
 70
128
 71
8
 72
21
 73
19
 74
7
 0
SEQEND
 0
POLYLINE
 8
AUSLAUF_1
 66
1
 10
0.0
 20
0.0
 30
0.0
 70
64
 71
72
 72
60
 0
VERTEX
 8
AUSLAUF_1
 10
0.3511
 20
-0.6861
 30
18.4113
 70
192
 0
VERTEX
 8
AUSLAUF_1
 10
0.3511
 20
-8.0178
 30
18.4113
 70
192
 0
VERTEX
 8
AUSLAUF_1
 10
0.3511
 20
-9.5707
 30
18.0753
 70
192
 0
VERTEX
 8
AUSLAUF_1
 10
0.3511
 20
-10.8504
 30
17.0705
 70
192
 0
VERTEX
 8
AUSLAUF_1
 10
0.3511
 20
-11.4655
 30
15.9938
 70
192
 0
VERTEX
 8
AUSLAUF_1
 10
-0.0739
 20
-0.6861
 30
18.5252
 70
192
 0
VERTEX
 8
AUSLAUF_1
 10
-0.0739
 20
-8.0178
 30
18.5252
 70
192
 0
VERTEX
 8
AUSLAUF_1
 10
-0.0739
 20
-9.6189
 30
18.1785
 70
192
 0
VERTEX
 8
AUSLAUF_1
 10
-0.0739
 20
-10.9392
 30
17.1417
 70
192
 0
VERTEX
 8
AUSLAUF_1
 10
-0.0739
 20
-11.5687
 30
16.042
 70
192
 0
VERTEX
 8
AUSLAUF_1
 10
-0.0739
 20
-0.6861
 30
16.8252
 70
192
 0
VERTEX
 8
AUSLAUF_1
 10
-0.0739
 20
-8.0178
 30
16.8252
 70
192
 0
VERTEX
 8
AUSLAUF_1
 10
-0.0739
 20
-8.9
 30
16.6379
 70
192
 0
VERTEX
 8
AUSLAUF_1
 10
-0.0739
 20
-9.6132
 30
16.078
 70
192
 0
VERTEX
 8
AUSLAUF_1
 10
-0.0739
 20
-10.028
 30
15.3235
 70
192
 0
VERTEX
 8
AUSLAUF_1
 10
-0.4989
 20
-0.6861
 30
18.4113
 70
192
 0
VERTEX
 8
AUSLAUF_1
 10
-0.4989
 20
-8.0178
 30
18.4113
 70
192
 0
VERTEX
 8
AUSLAUF_1
 10
-0.4989
 20
-9.5707
 30
18.0753
 70
192
 0
VERTEX
 8
AUSLAUF_1
 10
-0.4989
 20
-10.8504
 30
17.0705
 70
192
 0
VERTEX
 8
AUSLAUF_1
 10
-0.4989
 20
-11.4655
 30
15.9938
 70
192
 0
VERTEX
 8
AUSLAUF_1
 10
-0.81
 20
-0.6861
 30
18.1002
 70
192
 0
VERTEX
 8
AUSLAUF_1
 10
-0.81
 20
-8.0178
 30
18.1002
 70
192
 0
VERTEX
 8
AUSLAUF_1
 10
-0.81
 20
-9.4391
 30
17.7933
 70
192
 0
VERTEX
 8
AUSLAUF_1
 10
-0.81
 20
-10.6077
 30
16.8758
 70
192
 0
VERTEX
 8
AUSLAUF_1
 10
0.3511
 20
-0.6861
 30
16.9391
 70
192
 0
VERTEX
 8
AUSLAUF_1
 10
0.3511
 20
-8.0178
 30
16.9391
 70
192
 0
VERTEX
 8
AUSLAUF_1
 10
0.3511
 20
-8.9482
 30
16.7411
 70
192
 0
VERTEX
 8
AUSLAUF_1
 10
0.3511
 20
-9.702
 30
16.1492
 70
192
 0
VERTEX
 8
AUSLAUF_1
 10
0.3511
 20
-10.1312
 30
15.3716
 70
192
 0
VERTEX
 8
AUSLAUF_1
 10
-0.81
 20
-11.1835
 30
15.8623
 70
192
 0
VERTEX
 8
AUSLAUF_1
 10
-0.9239
 20
-0.6861
 30
17.6752
 70
192
 0
VERTEX
 8
AUSLAUF_1
 10
-0.9239
 20
-8.0178
 30
17.6752
 70
192
 0
VERTEX
 8
AUSLAUF_1
 10
-0.9239
 20
-9.2594
 30
17.4082
 70
192
 0
VERTEX
 8
AUSLAUF_1
 10
-0.9239
 20
-10.2762
 30
16.6099
 70
192
 0
VERTEX
 8
AUSLAUF_1
 10
-0.9239
 20
-10.7983
 30
15.6827
 70
192
 0
VERTEX
 8
AUSLAUF_1
 10
-0.81
 20
-0.6861
 30
17.2502
 70
192
 0
VERTEX
 8
AUSLAUF_1
 10
-0.81
 20
-8.0178
 30
17.2502
 70
192
 0
VERTEX
 8
AUSLAUF_1
 10
-0.81
 20
-9.0797
 30
17.0231
 70
192
 0
VERTEX
 8
AUSLAUF_1
 10
0.6622
 20
-0.6861
 30
17.2502
 70
192
 0
VERTEX
 8
AUSLAUF_1
 10
0.6622
 20
-8.0178
 30
17.2502
 70
192
 0
VERTEX
 8
AUSLAUF_1
 10
0.6622
 20
-9.0797
 30
17.0231
 70
192
 0
VERTEX
 8
AUSLAUF_1
 10
0.6622
 20
-9.9447
 30
16.3439
 70
192
 0
VERTEX
 8
AUSLAUF_1
 10
0.6622
 20
-10.4132
 30
15.5031
 70
192
 0
VERTEX
 8
AUSLAUF_1
 10
-0.81
 20
-9.9447
 30
16.3439
 70
192
 0
VERTEX
 8
AUSLAUF_1
 10
-0.81
 20
-10.4132
 30
15.5031
 70
192
 0
VERTEX
 8
AUSLAUF_1
 10
-0.4989
 20
-0.6861
 30
16.9391
 70
192
 0
VERTEX
 8
AUSLAUF_1
 10
-0.4989
 20
-8.0178
 30
16.9391
 70
192
 0
VERTEX
 8
AUSLAUF_1
 10
-0.4989
 20
-8.9482
 30
16.7411
 70
192
 0
VERTEX
 8
AUSLAUF_1
 10
-0.4989
 20
-9.702
 30
16.1492
 70
192
 0
VERTEX
 8
AUSLAUF_1
 10
-0.4989
 20
-10.1312
 30
15.3716
 70
192
 0
VERTEX
 8
AUSLAUF_1
 10
-0.0739
 20
-10.2999
 30
15.4503
 70
192
 0
VERTEX
 8
AUSLAUF_1
 10
0.2011
 20
-10.3667
 30
15.4814
 70
192
 0
VERTEX
 8
AUSLAUF_1
 10
0.7761
 20
-0.6861
 30
17.6752
 70
192
 0
VERTEX
 8
AUSLAUF_1
 10
0.7761
 20
-8.0178
 30
17.6752
 70
192
 0
VERTEX
 8
AUSLAUF_1
 10
0.7761
 20
-9.2594
 30
17.4082
 70
192
 0
VERTEX
 8
AUSLAUF_1
 10
0.7761
 20
-10.2762
 30
16.6099
 70
192
 0
VERTEX
 8
AUSLAUF_1
 10
0.7761
 20
-10.7983
 30
15.6827
 70
192
 0
VERTEX
 8
AUSLAUF_1
 10
-0.3489
 20
-10.3667
 30
15.4814
 70
192
 0
VERTEX
 8
AUSLAUF_1
 10
0.2011
 20
-11.23
 30
15.884
 70
192
 0
VERTEX
 8
AUSLAUF_1
 10
0.4024
 20
-10.5491
 30
15.5665
 70
192
 0
VERTEX
 8
AUSLAUF_1
 10
-0.0739
 20
-11.2968
 30
15.9152
 70
192
 0
VERTEX
 8
AUSLAUF_1
 10
0.4761
 20
-10.7983
 30
15.6827
 70
192
 0
VERTEX
 8
AUSLAUF_1
 10
-0.3489
 20
-11.23
 30
15.884
 70
192
 0
VERTEX
 8
AUSLAUF_1
 10
-0.5502
 20
-10.5491
 30
15.5665
 70
192
 0
VERTEX
 8
AUSLAUF_1
 10
0.4024
 20
-11.0476
 30
15.799
 70
192
 0
VERTEX
 8
AUSLAUF_1
 10
-0.5502
 20
-11.0476
 30
15.799
 70
192
 0
VERTEX
 8
AUSLAUF_1
 10
0.6622
 20
-0.6861
 30
18.1002
 70
192
 0
VERTEX
 8
AUSLAUF_1
 10
0.6622
 20
-8.0178
 30
18.1002
 70
192
 0
VERTEX
 8
AUSLAUF_1
 10
0.6622
 20
-9.4391
 30
17.7933
 70
192
 0
VERTEX
 8
AUSLAUF_1
 10
0.6622
 20
-10.6077
 30
16.8758
 70
192
 0
VERTEX
 8
AUSLAUF_1
 10
0.6622
 20
-11.1835
 30
15.8623
 70
192
 0
VERTEX
 8
AUSLAUF_1
 10
-0.6239
 20
-10.7983
 30
15.6827
 70
192
 0
VERTEX
 8
AUSLAUF_1
 10
0
 20
0
 30
0
 70
128
 71
67
 72
68
 73
2
 74
1
 0
VERTEX
 8
AUSLAUF_1
 10
0
 20
0
 30
0
 70
128
 71
68
 72
69
 73
3
 74
2
 0
VERTEX
 8
AUSLAUF_1
 10
0
 20
0
 30
0
 70
128
 71
69
 72
70
 73
4
 74
3
 0
VERTEX
 8
AUSLAUF_1
 10
0
 20
0
 30
0
 70
128
 71
70
 72
71
 73
5
 74
4
 0
VERTEX
 8
AUSLAUF_1
 10
0
 20
0
 30
0
 70
128
 71
71
 72
65
 73
59
 74
5
 0
VERTEX
 8
AUSLAUF_1
 10
0
 20
0
 30
0
 70
128
 71
1
 72
2
 73
7
 74
6
 0
VERTEX
 8
AUSLAUF_1
 10
0
 20
0
 30
0
 70
128
 71
2
 72
3
 73
8
 74
7
 0
VERTEX
 8
AUSLAUF_1
 10
0
 20
0
 30
0
 70
128
 71
3
 72
4
 73
9
 74
8
 0
VERTEX
 8
AUSLAUF_1
 10
0
 20
0
 30
0
 70
128
 71
4
 72
5
 73
10
 74
9
 0
VERTEX
 8
AUSLAUF_1
 10
0
 20
0
 30
0
 70
128
 71
5
 72
59
 73
61
 74
10
 0
VERTEX
 8
AUSLAUF_1
 10
0
 20
0
 30
0
 70
128
 71
11
 72
12
 73
26
 74
25
 0
VERTEX
 8
AUSLAUF_1
 10
0
 20
0
 30
0
 70
128
 71
12
 72
13
 73
27
 74
26
 0
VERTEX
 8
AUSLAUF_1
 10
0
 20
0
 30
0
 70
128
 71
13
 72
14
 73
28
 74
27
 0
VERTEX
 8
AUSLAUF_1
 10
0
 20
0
 30
0
 70
128
 71
14
 72
15
 73
29
 74
28
 0
VERTEX
 8
AUSLAUF_1
 10
0
 20
0
 30
0
 70
128
 71
51
 72
52
 73
29
 74
15
 0
VERTEX
 8
AUSLAUF_1
 10
0
 20
0
 30
0
 70
128
 71
6
 72
7
 73
17
 74
16
 0
VERTEX
 8
AUSLAUF_1
 10
0
 20
0
 30
0
 70
128
 71
7
 72
8
 73
18
 74
17
 0
VERTEX
 8
AUSLAUF_1
 10
0
 20
0
 30
0
 70
128
 71
8
 72
9
 73
19
 74
18
 0
VERTEX
 8
AUSLAUF_1
 10
0
 20
0
 30
0
 70
128
 71
9
 72
10
 73
20
 74
19
 0
VERTEX
 8
AUSLAUF_1
 10
0
 20
0
 30
0
 70
128
 71
61
 72
63
 73
20
 74
10
 0
VERTEX
 8
AUSLAUF_1
 10
0
 20
0
 30
0
 70
128
 71
16
 72
17
 73
22
 74
21
 0
VERTEX
 8
AUSLAUF_1
 10
0
 20
0
 30
0
 70
128
 71
17
 72
18
 73
23
 74
22
 0
VERTEX
 8
AUSLAUF_1
 10
0
 20
0
 30
0
 70
128
 71
18
 72
19
 73
24
 74
23
 0
VERTEX
 8
AUSLAUF_1
 10
0
 20
0
 30
0
 70
128
 71
19
 72
20
 73
30
 74
24
 0
VERTEX
 8
AUSLAUF_1
 10
0
 20
0
 30
0
 70
128
 71
63
 72
66
 73
30
 74
20
 0
VERTEX
 8
AUSLAUF_1
 10
0
 20
0
 30
0
 70
128
 71
25
 72
26
 73
40
 74
39
 0
VERTEX
 8
AUSLAUF_1
 10
0
 20
0
 30
0
 70
128
 71
26
 72
27
 73
41
 74
40
 0
VERTEX
 8
AUSLAUF_1
 10
0
 20
0
 30
0
 70
128
 71
27
 72
28
 73
42
 74
41
 0
VERTEX
 8
AUSLAUF_1
 10
0
 20
0
 30
0
 70
128
 71
28
 72
29
 73
43
 74
42
 0
VERTEX
 8
AUSLAUF_1
 10
0
 20
0
 30
0
 70
128
 71
29
 72
52
 73
60
 74
43
 0
VERTEX
 8
AUSLAUF_1
 10
0
 20
0
 30
0
 70
128
 71
21
 72
22
 73
32
 74
31
 0
VERTEX
 8
AUSLAUF_1
 10
0
 20
0
 30
0
 70
128
 71
22
 72
23
 73
33
 74
32
 0
VERTEX
 8
AUSLAUF_1
 10
0
 20
0
 30
0
 70
128
 71
23
 72
24
 73
34
 74
33
 0
VERTEX
 8
AUSLAUF_1
 10
0
 20
0
 30
0
 70
128
 71
24
 72
30
 73
35
 74
34
 0
VERTEX
 8
AUSLAUF_1
 10
0
 20
0
 30
0
 70
128
 71
66
 72
72
 73
35
 74
30
 0
VERTEX
 8
AUSLAUF_1
 10
0
 20
0
 30
0
 70
128
 71
31
 72
32
 73
37
 74
36
 0
VERTEX
 8
AUSLAUF_1
 10
0
 20
0
 30
0
 70
128
 71
32
 72
33
 73
38
 74
37
 0
VERTEX
 8
AUSLAUF_1
 10
0
 20
0
 30
0
 70
128
 71
33
 72
34
 73
44
 74
38
 0
VERTEX
 8
AUSLAUF_1
 10
0
 20
0
 30
0
 70
128
 71
34
 72
35
 73
45
 74
44
 0
VERTEX
 8
AUSLAUF_1
 10
0
 20
0
 30
0
 70
128
 71
72
 72
64
 73
45
 74
35
 0
VERTEX
 8
AUSLAUF_1
 10
0
 20
0
 30
0
 70
128
 71
39
 72
40
 73
54
 74
53
 0
VERTEX
 8
AUSLAUF_1
 10
0
 20
0
 30
0
 70
128
 71
40
 72
41
 73
55
 74
54
 0
VERTEX
 8
AUSLAUF_1
 10
0
 20
0
 30
0
 70
128
 71
41
 72
42
 73
56
 74
55
 0
VERTEX
 8
AUSLAUF_1
 10
0
 20
0
 30
0
 70
128
 71
42
 72
43
 73
57
 74
56
 0
VERTEX
 8
AUSLAUF_1
 10
0
 20
0
 30
0
 70
128
 71
43
 72
60
 73
62
 74
57
 0
VERTEX
 8
AUSLAUF_1
 10
0
 20
0
 30
0
 70
128
 71
36
 72
37
 73
47
 74
46
 0
VERTEX
 8
AUSLAUF_1
 10
0
 20
0
 30
0
 70
128
 71
37
 72
38
 73
48
 74
47
 0
VERTEX
 8
AUSLAUF_1
 10
0
 20
0
 30
0
 70
128
 71
38
 72
44
 73
49
 74
48
 0
VERTEX
 8
AUSLAUF_1
 10
0
 20
0
 30
0
 70
128
 71
44
 72
45
 73
50
 74
49
 0
VERTEX
 8
AUSLAUF_1
 10
0
 20
0
 30
0
 70
128
 71
64
 72
58
 73
50
 74
45
 0
VERTEX
 8
AUSLAUF_1
 10
0
 20
0
 30
0
 70
128
 71
46
 72
47
 73
12
 74
11
 0
VERTEX
 8
AUSLAUF_1
 10
0
 20
0
 30
0
 70
128
 71
47
 72
48
 73
13
 74
12
 0
VERTEX
 8
AUSLAUF_1
 10
0
 20
0
 30
0
 70
128
 71
48
 72
49
 73
14
 74
13
 0
VERTEX
 8
AUSLAUF_1
 10
0
 20
0
 30
0
 70
128
 71
49
 72
50
 73
15
 74
14
 0
VERTEX
 8
AUSLAUF_1
 10
0
 20
0
 30
0
 70
128
 71
50
 72
58
 73
51
 74
15
 0
VERTEX
 8
AUSLAUF_1
 10
0
 20
0
 30
0
 70
128
 71
53
 72
54
 73
68
 74
67
 0
VERTEX
 8
AUSLAUF_1
 10
0
 20
0
 30
0
 70
128
 71
54
 72
55
 73
69
 74
68
 0
VERTEX
 8
AUSLAUF_1
 10
0
 20
0
 30
0
 70
128
 71
55
 72
56
 73
70
 74
69
 0
VERTEX
 8
AUSLAUF_1
 10
0
 20
0
 30
0
 70
128
 71
56
 72
57
 73
71
 74
70
 0
VERTEX
 8
AUSLAUF_1
 10
0
 20
0
 30
0
 70
128
 71
57
 72
62
 73
65
 74
71
 0
SEQEND
 0
POLYLINE
 8
TUBE
 66
1
 10
0.0
 20
0.0
 30
0.0
 70
64
 71
24
 72
7
 0
VERTEX
 8
TUBE
 10
0.5001
 20
-10.7435
 30
15.7256
 70
192
 0
VERTEX
 8
TUBE
 10
0.5001
 20
-10.7435
 30
15.7256
 70
192
 0
VERTEX
 8
TUBE
 10
-0.6399
 20
-10.7435
 30
15.7256
 70
192
 0
VERTEX
 8
TUBE
 10
-0.0699
 20
-10.2269
 30
15.4847
 70
192
 0
VERTEX
 8
TUBE
 10
-0.0699
 20
-10.2269
 30
15.4847
 70
192
 0
VERTEX
 8
TUBE
 10
-0.6399
 20
-10.7435
 30
15.7256
 70
192
 0
VERTEX
 8
TUBE
 10
-0.0699
 20
-11.26
 30
15.9665
 70
192
 0
VERTEX
 8
TUBE
 10
-0.0699
 20
-11.26
 30
15.9665
 70
192
 0
VERTEX
 8
TUBE
 10
0.4237
 20
-11.0018
 30
15.846
 70
192
 0
VERTEX
 8
TUBE
 10
0.4237
 20
-11.0018
 30
15.846
 70
192
 0
VERTEX
 8
TUBE
 10
-0.5636
 20
-10.4852
 30
15.6051
 70
192
 0
VERTEX
 8
TUBE
 10
0.2151
 20
-10.2961
 30
15.517
 70
192
 0
VERTEX
 8
TUBE
 10
0.2151
 20
-10.2961
 30
15.517
 70
192
 0
VERTEX
 8
TUBE
 10
-0.5636
 20
-10.4852
 30
15.6051
 70
192
 0
VERTEX
 8
TUBE
 10
-0.3549
 20
-11.1908
 30
15.9342
 70
192
 0
VERTEX
 8
TUBE
 10
-0.3549
 20
-11.1908
 30
15.9342
 70
192
 0
VERTEX
 8
TUBE
 10
0.2151
 20
-11.1908
 30
15.9342
 70
192
 0
VERTEX
 8
TUBE
 10
0.2151
 20
-11.1908
 30
15.9342
 70
192
 0
VERTEX
 8
TUBE
 10
-0.3549
 20
-10.2961
 30
15.517
 70
192
 0
VERTEX
 8
TUBE
 10
0.4237
 20
-10.4852
 30
15.6051
 70
192
 0
VERTEX
 8
TUBE
 10
0.4237
 20
-10.4852
 30
15.6051
 70
192
 0
VERTEX
 8
TUBE
 10
-0.3549
 20
-10.2961
 30
15.517
 70
192
 0
VERTEX
 8
TUBE
 10
-0.5636
 20
-11.0018
 30
15.846
 70
192
 0
VERTEX
 8
TUBE
 10
-0.5636
 20
-11.0018
 30
15.846
 70
192
 0
VERTEX
 8
TUBE
 10
0
 20
0
 30
0
 70
128
 71
17
 72
9
 73
7
 74
7
 0
VERTEX
 8
TUBE
 10
0
 20
0
 30
0
 70
128
 71
7
 72
9
 73
1
 74
15
 0
VERTEX
 8
TUBE
 10
0
 20
0
 30
0
 70
128
 71
1
 72
20
 73
12
 74
12
 0
VERTEX
 8
TUBE
 10
0
 20
0
 30
0
 70
128
 71
15
 72
1
 73
12
 74
4
 0
VERTEX
 8
TUBE
 10
0
 20
0
 30
0
 70
128
 71
4
 72
19
 73
11
 74
11
 0
VERTEX
 8
TUBE
 10
0
 20
0
 30
0
 70
128
 71
4
 72
11
 73
3
 74
15
 0
VERTEX
 8
TUBE
 10
0
 20
0
 30
0
 70
128
 71
3
 72
23
 73
15
 74
15
 0
SEQEND
 0
POLYLINE
 8
GRIFF_6
 66
1
 10
0.0
 20
0.0
 30
0.0
 70
64
 71
16
 72
8
 0
VERTEX
 8
GRIFF_6
 10
0.0727
 20
-0.4923
 30
22.6654
 70
192
 0
VERTEX
 8
GRIFF_6
 10
0.0727
 20
-0.4923
 30
24.6654
 70
192
 0
VERTEX
 8
GRIFF_6
 10
0.3549
 20
-0.2338
 30
22.6654
 70
192
 0
VERTEX
 8
GRIFF_6
 10
0.3549
 20
-0.2338
 30
24.6654
 70
192
 0
VERTEX
 8
GRIFF_6
 10
0.3716
 20
0.1486
 30
22.6654
 70
192
 0
VERTEX
 8
GRIFF_6
 10
0.3716
 20
0.1486
 30
24.6654
 70
192
 0
VERTEX
 8
GRIFF_6
 10
0.113
 20
0.4307
 30
22.6654
 70
192
 0
VERTEX
 8
GRIFF_6
 10
0.113
 20
0.4307
 30
24.6654
 70
192
 0
VERTEX
 8
GRIFF_6
 10
-0.2693
 20
0.4474
 30
22.6654
 70
192
 0
VERTEX
 8
GRIFF_6
 10
-0.2693
 20
0.4474
 30
24.6654
 70
192
 0
VERTEX
 8
GRIFF_6
 10
-0.5514
 20
0.1889
 30
22.6654
 70
192
 0
VERTEX
 8
GRIFF_6
 10
-0.5514
 20
0.1889
 30
24.6654
 70
192
 0
VERTEX
 8
GRIFF_6
 10
-0.5681
 20
-0.1935
 30
22.6654
 70
192
 0
VERTEX
 8
GRIFF_6
 10
-0.5681
 20
-0.1935
 30
24.6654
 70
192
 0
VERTEX
 8
GRIFF_6
 10
-0.3096
 20
-0.4756
 30
22.6654
 70
192
 0
VERTEX
 8
GRIFF_6
 10
-0.3096
 20
-0.4756
 30
24.6654
 70
192
 0
VERTEX
 8
GRIFF_6
 10
0
 20
0
 30
0
 70
128
 71
1
 72
2
 73
4
 74
3
 0
VERTEX
 8
GRIFF_6
 10
0
 20
0
 30
0
 70
128
 71
3
 72
4
 73
6
 74
5
 0
VERTEX
 8
GRIFF_6
 10
0
 20
0
 30
0
 70
128
 71
5
 72
6
 73
8
 74
7
 0
VERTEX
 8
GRIFF_6
 10
0
 20
0
 30
0
 70
128
 71
7
 72
8
 73
10
 74
9
 0
VERTEX
 8
GRIFF_6
 10
0
 20
0
 30
0
 70
128
 71
9
 72
10
 73
12
 74
11
 0
VERTEX
 8
GRIFF_6
 10
0
 20
0
 30
0
 70
128
 71
11
 72
12
 73
14
 74
13
 0
VERTEX
 8
GRIFF_6
 10
0
 20
0
 30
0
 70
128
 71
13
 72
14
 73
16
 74
15
 0
VERTEX
 8
GRIFF_6
 10
0
 20
0
 30
0
 70
128
 71
15
 72
16
 73
2
 74
1
 0
SEQEND
 0
POLYLINE
 8
GRIFF_5
 66
1
 10
0.0
 20
0.0
 30
0.0
 70
64
 71
33
 72
16
 0
VERTEX
 8
GRIFF_5
 10
-2.889
 20
1.0058
 30
25.2626
 70
192
 0
VERTEX
 8
GRIFF_5
 10
-2.7844
 20
1.2301
 30
25.0151
 70
192
 0
VERTEX
 8
GRIFF_5
 10
-0.5186
 20
0.1736
 30
25.3651
 70
192
 0
VERTEX
 8
GRIFF_5
 10
-0.5186
 20
0.1736
 30
25.3651
 70
192
 0
VERTEX
 8
GRIFF_5
 10
-2.7844
 20
1.2301
 30
25.3651
 70
192
 0
VERTEX
 8
GRIFF_5
 10
-2.7844
 20
1.2301
 30
25.3651
 70
192
 0
VERTEX
 8
GRIFF_5
 10
-0.414
 20
0.3979
 30
25.2626
 70
192
 0
VERTEX
 8
GRIFF_5
 10
-0.414
 20
0.3979
 30
25.2626
 70
192
 0
VERTEX
 8
GRIFF_5
 10
-2.6798
 20
1.4544
 30
25.2626
 70
192
 0
VERTEX
 8
GRIFF_5
 10
-2.6798
 20
1.4544
 30
25.2626
 70
192
 0
VERTEX
 8
GRIFF_5
 10
-0.3707
 20
0.4908
 30
25.0151
 70
192
 0
VERTEX
 8
GRIFF_5
 10
-0.3707
 20
0.4908
 30
25.0151
 70
192
 0
VERTEX
 8
GRIFF_5
 10
-2.6364
 20
1.5473
 30
25.0151
 70
192
 0
VERTEX
 8
GRIFF_5
 10
-2.6364
 20
1.5473
 30
25.0151
 70
192
 0
VERTEX
 8
GRIFF_5
 10
-0.414
 20
0.3979
 30
24.7676
 70
192
 0
VERTEX
 8
GRIFF_5
 10
-0.414
 20
0.3979
 30
24.7676
 70
192
 0
VERTEX
 8
GRIFF_5
 10
-2.6798
 20
1.4544
 30
24.7676
 70
192
 0
VERTEX
 8
GRIFF_5
 10
-2.6798
 20
1.4544
 30
24.7676
 70
192
 0
VERTEX
 8
GRIFF_5
 10
-0.5186
 20
0.1736
 30
24.6651
 70
192
 0
VERTEX
 8
GRIFF_5
 10
-0.5186
 20
0.1736
 30
24.6651
 70
192
 0
VERTEX
 8
GRIFF_5
 10
-2.7844
 20
1.2301
 30
24.6651
 70
192
 0
VERTEX
 8
GRIFF_5
 10
-2.7844
 20
1.2301
 30
24.6651
 70
192
 0
VERTEX
 8
GRIFF_5
 10
-0.6232
 20
-0.0507
 30
24.7676
 70
192
 0
VERTEX
 8
GRIFF_5
 10
-0.6232
 20
-0.0507
 30
24.7676
 70
192
 0
VERTEX
 8
GRIFF_5
 10
-2.889
 20
1.0058
 30
24.7676
 70
192
 0
VERTEX
 8
GRIFF_5
 10
-2.889
 20
1.0058
 30
24.7676
 70
192
 0
VERTEX
 8
GRIFF_5
 10
-0.6665
 20
-0.1437
 30
25.0151
 70
192
 0
VERTEX
 8
GRIFF_5
 10
-0.6665
 20
-0.1437
 30
25.0151
 70
192
 0
VERTEX
 8
GRIFF_5
 10
-2.9323
 20
0.9129
 30
25.0151
 70
192
 0
VERTEX
 8
GRIFF_5
 10
-2.9323
 20
0.9129
 30
25.0151
 70
192
 0
VERTEX
 8
GRIFF_5
 10
-0.6232
 20
-0.0507
 30
25.2626
 70
192
 0
VERTEX
 8
GRIFF_5
 10
-0.6232
 20
-0.0507
 30
25.2626
 70
192
 0
VERTEX
 8
GRIFF_5
 10
-2.889
 20
1.0058
 30
25.2626
 70
192
 0
VERTEX
 8
GRIFF_5
 10
0
 20
0
 30
0
 70
128
 71
24
 72
25
 73
29
 74
28
 0
VERTEX
 8
GRIFF_5
 10
0
 20
0
 30
0
 70
128
 71
4
 72
5
 73
9
 74
8
 0
VERTEX
 8
GRIFF_5
 10
0
 20
0
 30
0
 70
128
 71
6
 72
2
 73
10
 74
10
 0
VERTEX
 8
GRIFF_5
 10
0
 20
0
 30
0
 70
128
 71
26
 72
2
 73
30
 74
30
 0
VERTEX
 8
GRIFF_5
 10
0
 20
0
 30
0
 70
128
 71
8
 72
9
 73
13
 74
12
 0
VERTEX
 8
GRIFF_5
 10
0
 20
0
 30
0
 70
128
 71
10
 72
2
 73
14
 74
14
 0
VERTEX
 8
GRIFF_5
 10
0
 20
0
 30
0
 70
128
 71
28
 72
29
 73
33
 74
32
 0
VERTEX
 8
GRIFF_5
 10
0
 20
0
 30
0
 70
128
 71
12
 72
13
 73
17
 74
16
 0
VERTEX
 8
GRIFF_5
 10
0
 20
0
 30
0
 70
128
 71
14
 72
2
 73
18
 74
18
 0
VERTEX
 8
GRIFF_5
 10
0
 20
0
 30
0
 70
128
 71
30
 72
2
 73
1
 74
1
 0
VERTEX
 8
GRIFF_5
 10
0
 20
0
 30
0
 70
128
 71
16
 72
17
 73
21
 74
20
 0
VERTEX
 8
GRIFF_5
 10
0
 20
0
 30
0
 70
128
 71
18
 72
2
 73
22
 74
22
 0
VERTEX
 8
GRIFF_5
 10
0
 20
0
 30
0
 70
128
 71
32
 72
33
 73
5
 74
4
 0
VERTEX
 8
GRIFF_5
 10
0
 20
0
 30
0
 70
128
 71
20
 72
21
 73
25
 74
24
 0
VERTEX
 8
GRIFF_5
 10
0
 20
0
 30
0
 70
128
 71
22
 72
2
 73
26
 74
26
 0
VERTEX
 8
GRIFF_5
 10
0
 20
0
 30
0
 70
128
 71
1
 72
2
 73
6
 74
6
 0
SEQEND
 0
POLYLINE
 8
GRIFF_4
 66
1
 10
0.0
 20
0.0
 30
0.0
 70
64
 71
33
 72
16
 0
VERTEX
 8
GRIFF_4
 10
2.7006
 20
-1.0545
 30
25.2626
 70
192
 0
VERTEX
 8
GRIFF_4
 10
2.596
 20
-1.2788
 30
25.0151
 70
192
 0
VERTEX
 8
GRIFF_4
 10
0.3303
 20
-0.2223
 30
25.3651
 70
192
 0
VERTEX
 8
GRIFF_4
 10
0.3303
 20
-0.2223
 30
25.3651
 70
192
 0
VERTEX
 8
GRIFF_4
 10
2.596
 20
-1.2788
 30
25.3651
 70
192
 0
VERTEX
 8
GRIFF_4
 10
2.596
 20
-1.2788
 30
25.3651
 70
192
 0
VERTEX
 8
GRIFF_4
 10
0.2257
 20
-0.4466
 30
25.2626
 70
192
 0
VERTEX
 8
GRIFF_4
 10
0.2257
 20
-0.4466
 30
25.2626
 70
192
 0
VERTEX
 8
GRIFF_4
 10
2.4914
 20
-1.5031
 30
25.2626
 70
192
 0
VERTEX
 8
GRIFF_4
 10
2.4914
 20
-1.5031
 30
25.2626
 70
192
 0
VERTEX
 8
GRIFF_4
 10
0.1823
 20
-0.5395
 30
25.0151
 70
192
 0
VERTEX
 8
GRIFF_4
 10
0.1823
 20
-0.5395
 30
25.0151
 70
192
 0
VERTEX
 8
GRIFF_4
 10
2.4481
 20
-1.596
 30
25.0151
 70
192
 0
VERTEX
 8
GRIFF_4
 10
2.4481
 20
-1.596
 30
25.0151
 70
192
 0
VERTEX
 8
GRIFF_4
 10
0.2257
 20
-0.4466
 30
24.7676
 70
192
 0
VERTEX
 8
GRIFF_4
 10
0.2257
 20
-0.4466
 30
24.7676
 70
192
 0
VERTEX
 8
GRIFF_4
 10
2.4914
 20
-1.5031
 30
24.7676
 70
192
 0
VERTEX
 8
GRIFF_4
 10
2.4914
 20
-1.5031
 30
24.7676
 70
192
 0
VERTEX
 8
GRIFF_4
 10
0.3303
 20
-0.2223
 30
24.6651
 70
192
 0
VERTEX
 8
GRIFF_4
 10
0.3303
 20
-0.2223
 30
24.6651
 70
192
 0
VERTEX
 8
GRIFF_4
 10
2.596
 20
-1.2788
 30
24.6651
 70
192
 0
VERTEX
 8
GRIFF_4
 10
2.596
 20
-1.2788
 30
24.6651
 70
192
 0
VERTEX
 8
GRIFF_4
 10
0.4348
 20
0.002
 30
24.7676
 70
192
 0
VERTEX
 8
GRIFF_4
 10
0.4348
 20
0.002
 30
24.7676
 70
192
 0
VERTEX
 8
GRIFF_4
 10
2.7006
 20
-1.0545
 30
24.7676
 70
192
 0
VERTEX
 8
GRIFF_4
 10
2.7006
 20
-1.0545
 30
24.7676
 70
192
 0
VERTEX
 8
GRIFF_4
 10
0.4782
 20
0.0949
 30
25.0151
 70
192
 0
VERTEX
 8
GRIFF_4
 10
0.4782
 20
0.0949
 30
25.0151
 70
192
 0
VERTEX
 8
GRIFF_4
 10
2.7439
 20
-0.9616
 30
25.0151
 70
192
 0
VERTEX
 8
GRIFF_4
 10
2.7439
 20
-0.9616
 30
25.0151
 70
192
 0
VERTEX
 8
GRIFF_4
 10
0.4348
 20
0.002
 30
25.2626
 70
192
 0
VERTEX
 8
GRIFF_4
 10
0.4348
 20
0.002
 30
25.2626
 70
192
 0
VERTEX
 8
GRIFF_4
 10
2.7006
 20
-1.0545
 30
25.2626
 70
192
 0
VERTEX
 8
GRIFF_4
 10
0
 20
0
 30
0
 70
128
 71
24
 72
25
 73
29
 74
28
 0
VERTEX
 8
GRIFF_4
 10
0
 20
0
 30
0
 70
128
 71
4
 72
5
 73
9
 74
8
 0
VERTEX
 8
GRIFF_4
 10
0
 20
0
 30
0
 70
128
 71
6
 72
2
 73
10
 74
10
 0
VERTEX
 8
GRIFF_4
 10
0
 20
0
 30
0
 70
128
 71
26
 72
2
 73
30
 74
30
 0
VERTEX
 8
GRIFF_4
 10
0
 20
0
 30
0
 70
128
 71
8
 72
9
 73
13
 74
12
 0
VERTEX
 8
GRIFF_4
 10
0
 20
0
 30
0
 70
128
 71
10
 72
2
 73
14
 74
14
 0
VERTEX
 8
GRIFF_4
 10
0
 20
0
 30
0
 70
128
 71
28
 72
29
 73
33
 74
32
 0
VERTEX
 8
GRIFF_4
 10
0
 20
0
 30
0
 70
128
 71
12
 72
13
 73
17
 74
16
 0
VERTEX
 8
GRIFF_4
 10
0
 20
0
 30
0
 70
128
 71
14
 72
2
 73
18
 74
18
 0
VERTEX
 8
GRIFF_4
 10
0
 20
0
 30
0
 70
128
 71
30
 72
2
 73
1
 74
1
 0
VERTEX
 8
GRIFF_4
 10
0
 20
0
 30
0
 70
128
 71
16
 72
17
 73
21
 74
20
 0
VERTEX
 8
GRIFF_4
 10
0
 20
0
 30
0
 70
128
 71
18
 72
2
 73
22
 74
22
 0
VERTEX
 8
GRIFF_4
 10
0
 20
0
 30
0
 70
128
 71
32
 72
33
 73
5
 74
4
 0
VERTEX
 8
GRIFF_4
 10
0
 20
0
 30
0
 70
128
 71
20
 72
21
 73
25
 74
24
 0
VERTEX
 8
GRIFF_4
 10
0
 20
0
 30
0
 70
128
 71
22
 72
2
 73
26
 74
26
 0
VERTEX
 8
GRIFF_4
 10
0
 20
0
 30
0
 70
128
 71
1
 72
2
 73
6
 74
6
 0
SEQEND
 0
POLYLINE
 8
GRIFF_3
 66
1
 10
0.0
 20
0.0
 30
0.0
 70
64
 71
33
 72
16
 0
VERTEX
 8
GRIFF_3
 10
-1.177
 20
-2.8769
 30
25.2626
 70
192
 0
VERTEX
 8
GRIFF_3
 10
-1.4013
 20
-2.7723
 30
25.0151
 70
192
 0
VERTEX
 8
GRIFF_3
 10
-0.3447
 20
-0.5066
 30
25.3651
 70
192
 0
VERTEX
 8
GRIFF_3
 10
-0.3447
 20
-0.5066
 30
25.3651
 70
192
 0
VERTEX
 8
GRIFF_3
 10
-1.4013
 20
-2.7723
 30
25.3651
 70
192
 0
VERTEX
 8
GRIFF_3
 10
-1.4013
 20
-2.7723
 30
25.3651
 70
192
 0
VERTEX
 8
GRIFF_3
 10
-0.569
 20
-0.402
 30
25.2626
 70
192
 0
VERTEX
 8
GRIFF_3
 10
-0.569
 20
-0.402
 30
25.2626
 70
192
 0
VERTEX
 8
GRIFF_3
 10
-1.6256
 20
-2.6677
 30
25.2626
 70
192
 0
VERTEX
 8
GRIFF_3
 10
-1.6256
 20
-2.6677
 30
25.2626
 70
192
 0
VERTEX
 8
GRIFF_3
 10
-0.6619
 20
-0.3586
 30
25.0151
 70
192
 0
VERTEX
 8
GRIFF_3
 10
-0.6619
 20
-0.3586
 30
25.0151
 70
192
 0
VERTEX
 8
GRIFF_3
 10
-1.7185
 20
-2.6244
 30
25.0151
 70
192
 0
VERTEX
 8
GRIFF_3
 10
-1.7185
 20
-2.6244
 30
25.0151
 70
192
 0
VERTEX
 8
GRIFF_3
 10
-0.569
 20
-0.402
 30
24.7676
 70
192
 0
VERTEX
 8
GRIFF_3
 10
-0.569
 20
-0.402
 30
24.7676
 70
192
 0
VERTEX
 8
GRIFF_3
 10
-1.6256
 20
-2.6677
 30
24.7676
 70
192
 0
VERTEX
 8
GRIFF_3
 10
-1.6256
 20
-2.6677
 30
24.7676
 70
192
 0
VERTEX
 8
GRIFF_3
 10
-0.3447
 20
-0.5066
 30
24.6651
 70
192
 0
VERTEX
 8
GRIFF_3
 10
-0.3447
 20
-0.5066
 30
24.6651
 70
192
 0
VERTEX
 8
GRIFF_3
 10
-1.4013
 20
-2.7723
 30
24.6651
 70
192
 0
VERTEX
 8
GRIFF_3
 10
-1.4013
 20
-2.7723
 30
24.6651
 70
192
 0
VERTEX
 8
GRIFF_3
 10
-0.1204
 20
-0.6111
 30
24.7676
 70
192
 0
VERTEX
 8
GRIFF_3
 10
-0.1204
 20
-0.6111
 30
24.7676
 70
192
 0
VERTEX
 8
GRIFF_3
 10
-1.177
 20
-2.8769
 30
24.7676
 70
192
 0
VERTEX
 8
GRIFF_3
 10
-1.177
 20
-2.8769
 30
24.7676
 70
192
 0
VERTEX
 8
GRIFF_3
 10
-0.0275
 20
-0.6545
 30
25.0151
 70
192
 0
VERTEX
 8
GRIFF_3
 10
-0.0275
 20
-0.6545
 30
25.0151
 70
192
 0
VERTEX
 8
GRIFF_3
 10
-1.0841
 20
-2.9202
 30
25.0151
 70
192
 0
VERTEX
 8
GRIFF_3
 10
-1.0841
 20
-2.9202
 30
25.0151
 70
192
 0
VERTEX
 8
GRIFF_3
 10
-0.1204
 20
-0.6111
 30
25.2626
 70
192
 0
VERTEX
 8
GRIFF_3
 10
-0.1204
 20
-0.6111
 30
25.2626
 70
192
 0
VERTEX
 8
GRIFF_3
 10
-1.177
 20
-2.8769
 30
25.2626
 70
192
 0
VERTEX
 8
GRIFF_3
 10
0
 20
0
 30
0
 70
128
 71
24
 72
25
 73
29
 74
28
 0
VERTEX
 8
GRIFF_3
 10
0
 20
0
 30
0
 70
128
 71
4
 72
5
 73
9
 74
8
 0
VERTEX
 8
GRIFF_3
 10
0
 20
0
 30
0
 70
128
 71
6
 72
2
 73
10
 74
10
 0
VERTEX
 8
GRIFF_3
 10
0
 20
0
 30
0
 70
128
 71
26
 72
2
 73
30
 74
30
 0
VERTEX
 8
GRIFF_3
 10
0
 20
0
 30
0
 70
128
 71
8
 72
9
 73
13
 74
12
 0
VERTEX
 8
GRIFF_3
 10
0
 20
0
 30
0
 70
128
 71
10
 72
2
 73
14
 74
14
 0
VERTEX
 8
GRIFF_3
 10
0
 20
0
 30
0
 70
128
 71
28
 72
29
 73
33
 74
32
 0
VERTEX
 8
GRIFF_3
 10
0
 20
0
 30
0
 70
128
 71
12
 72
13
 73
17
 74
16
 0
VERTEX
 8
GRIFF_3
 10
0
 20
0
 30
0
 70
128
 71
14
 72
2
 73
18
 74
18
 0
VERTEX
 8
GRIFF_3
 10
0
 20
0
 30
0
 70
128
 71
30
 72
2
 73
1
 74
1
 0
VERTEX
 8
GRIFF_3
 10
0
 20
0
 30
0
 70
128
 71
16
 72
17
 73
21
 74
20
 0
VERTEX
 8
GRIFF_3
 10
0
 20
0
 30
0
 70
128
 71
18
 72
2
 73
22
 74
22
 0
VERTEX
 8
GRIFF_3
 10
0
 20
0
 30
0
 70
128
 71
32
 72
33
 73
5
 74
4
 0
VERTEX
 8
GRIFF_3
 10
0
 20
0
 30
0
 70
128
 71
20
 72
21
 73
25
 74
24
 0
VERTEX
 8
GRIFF_3
 10
0
 20
0
 30
0
 70
128
 71
22
 72
2
 73
26
 74
26
 0
VERTEX
 8
GRIFF_3
 10
0
 20
0
 30
0
 70
128
 71
1
 72
2
 73
6
 74
6
 0
SEQEND
 0
POLYLINE
 8
GRIFF_2
 66
1
 10
0.0
 20
0.0
 30
0.0
 70
64
 71
33
 72
16
 0
VERTEX
 8
GRIFF_2
 10
0.9262
 20
2.8046
 30
25.2626
 70
192
 0
VERTEX
 8
GRIFF_2
 10
1.1505
 20
2.7
 30
25.0151
 70
192
 0
VERTEX
 8
GRIFF_2
 10
0.094
 20
0.4343
 30
25.3651
 70
192
 0
VERTEX
 8
GRIFF_2
 10
0.094
 20
0.4343
 30
25.3651
 70
192
 0
VERTEX
 8
GRIFF_2
 10
1.1505
 20
2.7
 30
25.3651
 70
192
 0
VERTEX
 8
GRIFF_2
 10
1.1505
 20
2.7
 30
25.3651
 70
192
 0
VERTEX
 8
GRIFF_2
 10
0.3183
 20
0.3297
 30
25.2626
 70
192
 0
VERTEX
 8
GRIFF_2
 10
0.3183
 20
0.3297
 30
25.2626
 70
192
 0
VERTEX
 8
GRIFF_2
 10
1.3748
 20
2.5955
 30
25.2626
 70
192
 0
VERTEX
 8
GRIFF_2
 10
1.3748
 20
2.5955
 30
25.2626
 70
192
 0
VERTEX
 8
GRIFF_2
 10
0.4112
 20
0.2864
 30
25.0151
 70
192
 0
VERTEX
 8
GRIFF_2
 10
0.4112
 20
0.2864
 30
25.0151
 70
192
 0
VERTEX
 8
GRIFF_2
 10
1.4677
 20
2.5521
 30
25.0151
 70
192
 0
VERTEX
 8
GRIFF_2
 10
1.4677
 20
2.5521
 30
25.0151
 70
192
 0
VERTEX
 8
GRIFF_2
 10
0.3183
 20
0.3297
 30
24.7676
 70
192
 0
VERTEX
 8
GRIFF_2
 10
0.3183
 20
0.3297
 30
24.7676
 70
192
 0
VERTEX
 8
GRIFF_2
 10
1.3748
 20
2.5955
 30
24.7676
 70
192
 0
VERTEX
 8
GRIFF_2
 10
1.3748
 20
2.5955
 30
24.7676
 70
192
 0
VERTEX
 8
GRIFF_2
 10
0.094
 20
0.4343
 30
24.6651
 70
192
 0
VERTEX
 8
GRIFF_2
 10
0.094
 20
0.4343
 30
24.6651
 70
192
 0
VERTEX
 8
GRIFF_2
 10
1.1505
 20
2.7
 30
24.6651
 70
192
 0
VERTEX
 8
GRIFF_2
 10
1.1505
 20
2.7
 30
24.6651
 70
192
 0
VERTEX
 8
GRIFF_2
 10
-0.1303
 20
0.5389
 30
24.7676
 70
192
 0
VERTEX
 8
GRIFF_2
 10
-0.1303
 20
0.5389
 30
24.7676
 70
192
 0
VERTEX
 8
GRIFF_2
 10
0.9262
 20
2.8046
 30
24.7676
 70
192
 0
VERTEX
 8
GRIFF_2
 10
0.9262
 20
2.8046
 30
24.7676
 70
192
 0
VERTEX
 8
GRIFF_2
 10
-0.2232
 20
0.5822
 30
25.0151
 70
192
 0
VERTEX
 8
GRIFF_2
 10
-0.2232
 20
0.5822
 30
25.0151
 70
192
 0
VERTEX
 8
GRIFF_2
 10
0.8333
 20
2.848
 30
25.0151
 70
192
 0
VERTEX
 8
GRIFF_2
 10
0.8333
 20
2.848
 30
25.0151
 70
192
 0
VERTEX
 8
GRIFF_2
 10
-0.1303
 20
0.5389
 30
25.2626
 70
192
 0
VERTEX
 8
GRIFF_2
 10
-0.1303
 20
0.5389
 30
25.2626
 70
192
 0
VERTEX
 8
GRIFF_2
 10
0.9262
 20
2.8046
 30
25.2626
 70
192
 0
VERTEX
 8
GRIFF_2
 10
0
 20
0
 30
0
 70
128
 71
24
 72
25
 73
29
 74
28
 0
VERTEX
 8
GRIFF_2
 10
0
 20
0
 30
0
 70
128
 71
4
 72
5
 73
9
 74
8
 0
VERTEX
 8
GRIFF_2
 10
0
 20
0
 30
0
 70
128
 71
6
 72
2
 73
10
 74
10
 0
VERTEX
 8
GRIFF_2
 10
0
 20
0
 30
0
 70
128
 71
26
 72
2
 73
30
 74
30
 0
VERTEX
 8
GRIFF_2
 10
0
 20
0
 30
0
 70
128
 71
8
 72
9
 73
13
 74
12
 0
VERTEX
 8
GRIFF_2
 10
0
 20
0
 30
0
 70
128
 71
10
 72
2
 73
14
 74
14
 0
VERTEX
 8
GRIFF_2
 10
0
 20
0
 30
0
 70
128
 71
28
 72
29
 73
33
 74
32
 0
VERTEX
 8
GRIFF_2
 10
0
 20
0
 30
0
 70
128
 71
12
 72
13
 73
17
 74
16
 0
VERTEX
 8
GRIFF_2
 10
0
 20
0
 30
0
 70
128
 71
14
 72
2
 73
18
 74
18
 0
VERTEX
 8
GRIFF_2
 10
0
 20
0
 30
0
 70
128
 71
30
 72
2
 73
1
 74
1
 0
VERTEX
 8
GRIFF_2
 10
0
 20
0
 30
0
 70
128
 71
16
 72
17
 73
21
 74
20
 0
VERTEX
 8
GRIFF_2
 10
0
 20
0
 30
0
 70
128
 71
18
 72
2
 73
22
 74
22
 0
VERTEX
 8
GRIFF_2
 10
0
 20
0
 30
0
 70
128
 71
32
 72
33
 73
5
 74
4
 0
VERTEX
 8
GRIFF_2
 10
0
 20
0
 30
0
 70
128
 71
20
 72
21
 73
25
 74
24
 0
VERTEX
 8
GRIFF_2
 10
0
 20
0
 30
0
 70
128
 71
22
 72
2
 73
26
 74
26
 0
VERTEX
 8
GRIFF_2
 10
0
 20
0
 30
0
 70
128
 71
1
 72
2
 73
6
 74
6
 0
SEQEND
 0
POLYLINE
 8
GRIFF_1
 66
1
 10
0.0
 20
0.0
 30
0.0
 70
64
 71
50
 72
36
 0
VERTEX
 8
GRIFF_1
 10
-0.0983
 20
-0.0224
 30
24.5257
 70
192
 0
VERTEX
 8
GRIFF_1
 10
-0.0983
 20
-0.0224
 30
25.5257
 70
192
 0
VERTEX
 8
GRIFF_1
 10
0.5361
 20
-0.3183
 30
24.5257
 70
192
 0
VERTEX
 8
GRIFF_1
 10
0.5361
 20
-0.3183
 30
24.5257
 70
192
 0
VERTEX
 8
GRIFF_1
 10
0.5361
 20
-0.3183
 30
25.5257
 70
192
 0
VERTEX
 8
GRIFF_1
 10
0.5361
 20
-0.3183
 30
25.5257
 70
192
 0
VERTEX
 8
GRIFF_1
 10
0.5991
 20
0.0386
 30
24.5257
 70
192
 0
VERTEX
 8
GRIFF_1
 10
0.5991
 20
0.0386
 30
24.5257
 70
192
 0
VERTEX
 8
GRIFF_1
 10
0.5991
 20
0.0386
 30
25.5257
 70
192
 0
VERTEX
 8
GRIFF_1
 10
0.5991
 20
0.0386
 30
25.5257
 70
192
 0
VERTEX
 8
GRIFF_1
 10
0.4751
 20
0.3791
 30
24.5257
 70
192
 0
VERTEX
 8
GRIFF_1
 10
0.4751
 20
0.3791
 30
24.5257
 70
192
 0
VERTEX
 8
GRIFF_1
 10
0.4751
 20
0.3791
 30
25.5257
 70
192
 0
VERTEX
 8
GRIFF_1
 10
0.4751
 20
0.3791
 30
25.5257
 70
192
 0
VERTEX
 8
GRIFF_1
 10
0.1975
 20
0.612
 30
24.5257
 70
192
 0
VERTEX
 8
GRIFF_1
 10
0.1975
 20
0.612
 30
24.5257
 70
192
 0
VERTEX
 8
GRIFF_1
 10
0.1975
 20
0.612
 30
25.5257
 70
192
 0
VERTEX
 8
GRIFF_1
 10
0.1975
 20
0.612
 30
25.5257
 70
192
 0
VERTEX
 8
GRIFF_1
 10
-0.1593
 20
0.6749
 30
24.5257
 70
192
 0
VERTEX
 8
GRIFF_1
 10
-0.1593
 20
0.6749
 30
24.5257
 70
192
 0
VERTEX
 8
GRIFF_1
 10
-0.1593
 20
0.6749
 30
25.5257
 70
192
 0
VERTEX
 8
GRIFF_1
 10
-0.1593
 20
0.6749
 30
25.5257
 70
192
 0
VERTEX
 8
GRIFF_1
 10
-0.4998
 20
0.551
 30
24.5257
 70
192
 0
VERTEX
 8
GRIFF_1
 10
-0.4998
 20
0.551
 30
24.5257
 70
192
 0
VERTEX
 8
GRIFF_1
 10
-0.4998
 20
0.551
 30
25.5257
 70
192
 0
VERTEX
 8
GRIFF_1
 10
-0.4998
 20
0.551
 30
25.5257
 70
192
 0
VERTEX
 8
GRIFF_1
 10
-0.7327
 20
0.2734
 30
24.5257
 70
192
 0
VERTEX
 8
GRIFF_1
 10
-0.7327
 20
0.2734
 30
24.5257
 70
192
 0
VERTEX
 8
GRIFF_1
 10
-0.7327
 20
0.2734
 30
25.5257
 70
192
 0
VERTEX
 8
GRIFF_1
 10
-0.7327
 20
0.2734
 30
25.5257
 70
192
 0
VERTEX
 8
GRIFF_1
 10
-0.7956
 20
-0.0835
 30
24.5257
 70
192
 0
VERTEX
 8
GRIFF_1
 10
-0.7956
 20
-0.0835
 30
24.5257
 70
192
 0
VERTEX
 8
GRIFF_1
 10
-0.7956
 20
-0.0835
 30
25.5257
 70
192
 0
VERTEX
 8
GRIFF_1
 10
-0.7956
 20
-0.0835
 30
25.5257
 70
192
 0
VERTEX
 8
GRIFF_1
 10
-0.6717
 20
-0.4239
 30
24.5257
 70
192
 0
VERTEX
 8
GRIFF_1
 10
-0.6717
 20
-0.4239
 30
24.5257
 70
192
 0
VERTEX
 8
GRIFF_1
 10
-0.6717
 20
-0.4239
 30
25.5257
 70
192
 0
VERTEX
 8
GRIFF_1
 10
-0.6717
 20
-0.4239
 30
25.5257
 70
192
 0
VERTEX
 8
GRIFF_1
 10
-0.3941
 20
-0.6569
 30
24.5257
 70
192
 0
VERTEX
 8
GRIFF_1
 10
-0.3941
 20
-0.6569
 30
24.5257
 70
192
 0
VERTEX
 8
GRIFF_1
 10
-0.3941
 20
-0.6569
 30
25.5257
 70
192
 0
VERTEX
 8
GRIFF_1
 10
-0.3941
 20
-0.6569
 30
25.5257
 70
192
 0
VERTEX
 8
GRIFF_1
 10
-0.0373
 20
-0.7198
 30
24.5257
 70
192
 0
VERTEX
 8
GRIFF_1
 10
-0.0373
 20
-0.7198
 30
24.5257
 70
192
 0
VERTEX
 8
GRIFF_1
 10
-0.0373
 20
-0.7198
 30
25.5257
 70
192
 0
VERTEX
 8
GRIFF_1
 10
-0.0373
 20
-0.7198
 30
25.5257
 70
192
 0
VERTEX
 8
GRIFF_1
 10
0.3032
 20
-0.5958
 30
24.5257
 70
192
 0
VERTEX
 8
GRIFF_1
 10
0.3032
 20
-0.5958
 30
24.5257
 70
192
 0
VERTEX
 8
GRIFF_1
 10
0.3032
 20
-0.5958
 30
25.5257
 70
192
 0
VERTEX
 8
GRIFF_1
 10
0.3032
 20
-0.5958
 30
25.5257
 70
192
 0
VERTEX
 8
GRIFF_1
 10
0
 20
0
 30
0
 70
128
 71
1
 72
3
 73
7
 74
7
 0
VERTEX
 8
GRIFF_1
 10
0
 20
0
 30
0
 70
128
 71
4
 72
5
 73
9
 74
8
 0
VERTEX
 8
GRIFF_1
 10
0
 20
0
 30
0
 70
128
 71
6
 72
2
 73
10
 74
10
 0
VERTEX
 8
GRIFF_1
 10
0
 20
0
 30
0
 70
128
 71
1
 72
7
 73
11
 74
11
 0
VERTEX
 8
GRIFF_1
 10
0
 20
0
 30
0
 70
128
 71
8
 72
9
 73
13
 74
12
 0
VERTEX
 8
GRIFF_1
 10
0
 20
0
 30
0
 70
128
 71
10
 72
2
 73
14
 74
14
 0
VERTEX
 8
GRIFF_1
 10
0
 20
0
 30
0
 70
128
 71
1
 72
11
 73
15
 74
15
 0
VERTEX
 8
GRIFF_1
 10
0
 20
0
 30
0
 70
128
 71
12
 72
13
 73
17
 74
16
 0
VERTEX
 8
GRIFF_1
 10
0
 20
0
 30
0
 70
128
 71
14
 72
2
 73
18
 74
18
 0
VERTEX
 8
GRIFF_1
 10
0
 20
0
 30
0
 70
128
 71
1
 72
15
 73
19
 74
19
 0
VERTEX
 8
GRIFF_1
 10
0
 20
0
 30
0
 70
128
 71
16
 72
17
 73
21
 74
20
 0
VERTEX
 8
GRIFF_1
 10
0
 20
0
 30
0
 70
128
 71
18
 72
2
 73
22
 74
22
 0
VERTEX
 8
GRIFF_1
 10
0
 20
0
 30
0
 70
128
 71
1
 72
19
 73
23
 74
23
 0
VERTEX
 8
GRIFF_1
 10
0
 20
0
 30
0
 70
128
 71
20
 72
21
 73
25
 74
24
 0
VERTEX
 8
GRIFF_1
 10
0
 20
0
 30
0
 70
128
 71
22
 72
2
 73
26
 74
26
 0
VERTEX
 8
GRIFF_1
 10
0
 20
0
 30
0
 70
128
 71
1
 72
23
 73
27
 74
27
 0
VERTEX
 8
GRIFF_1
 10
0
 20
0
 30
0
 70
128
 71
24
 72
25
 73
29
 74
28
 0
VERTEX
 8
GRIFF_1
 10
0
 20
0
 30
0
 70
128
 71
26
 72
2
 73
30
 74
30
 0
VERTEX
 8
GRIFF_1
 10
0
 20
0
 30
0
 70
128
 71
1
 72
27
 73
31
 74
31
 0
VERTEX
 8
GRIFF_1
 10
0
 20
0
 30
0
 70
128
 71
28
 72
29
 73
33
 74
32
 0
VERTEX
 8
GRIFF_1
 10
0
 20
0
 30
0
 70
128
 71
30
 72
2
 73
34
 74
34
 0
VERTEX
 8
GRIFF_1
 10
0
 20
0
 30
0
 70
128
 71
1
 72
31
 73
35
 74
35
 0
VERTEX
 8
GRIFF_1
 10
0
 20
0
 30
0
 70
128
 71
32
 72
33
 73
37
 74
36
 0
VERTEX
 8
GRIFF_1
 10
0
 20
0
 30
0
 70
128
 71
34
 72
2
 73
38
 74
38
 0
VERTEX
 8
GRIFF_1
 10
0
 20
0
 30
0
 70
128
 71
1
 72
35
 73
39
 74
39
 0
VERTEX
 8
GRIFF_1
 10
0
 20
0
 30
0
 70
128
 71
36
 72
37
 73
41
 74
40
 0
VERTEX
 8
GRIFF_1
 10
0
 20
0
 30
0
 70
128
 71
38
 72
2
 73
42
 74
42
 0
VERTEX
 8
GRIFF_1
 10
0
 20
0
 30
0
 70
128
 71
1
 72
39
 73
43
 74
43
 0
VERTEX
 8
GRIFF_1
 10
0
 20
0
 30
0
 70
128
 71
40
 72
41
 73
45
 74
44
 0
VERTEX
 8
GRIFF_1
 10
0
 20
0
 30
0
 70
128
 71
42
 72
2
 73
46
 74
46
 0
VERTEX
 8
GRIFF_1
 10
0
 20
0
 30
0
 70
128
 71
1
 72
43
 73
47
 74
47
 0
VERTEX
 8
GRIFF_1
 10
0
 20
0
 30
0
 70
128
 71
44
 72
45
 73
49
 74
48
 0
VERTEX
 8
GRIFF_1
 10
0
 20
0
 30
0
 70
128
 71
46
 72
2
 73
50
 74
50
 0
VERTEX
 8
GRIFF_1
 10
0
 20
0
 30
0
 70
128
 71
1
 72
47
 73
3
 74
3
 0
VERTEX
 8
GRIFF_1
 10
0
 20
0
 30
0
 70
128
 71
48
 72
49
 73
5
 74
4
 0
VERTEX
 8
GRIFF_1
 10
0
 20
0
 30
0
 70
128
 71
50
 72
2
 73
6
 74
6
 0
SEQEND
 0
ENDSEC
 0
EOF
