 0
SECTION
 2
HEADER
 9
$ACADVER
 1
AC1009
 0
ENDSEC
 0
SECTION
 2
TABLES
 0
TABLE
 2
LTYPE
 70
1
 0
LTYPE
 2
CONTINUOUS
 70
64
 3
solid line
 72
65
 73
0
 40
0.0
 0
ENDTAB
 0
TABLE
 2
LAYER
 70
6
 0
LAYER
 2
0
 70
0
 62
7
 6
CONTINUOUS
 0
LAYER
 2
250_3200_M
 70
64
 62
7
 6
CONTINUOUS
 0
LAYER
 2
ZYLINDER
 70
64
 62
250
 6
CONTINUOUS
 0
LAYER
 2
ROSEETENK_RPER_1
 70
64
 62
250
 6
CONTINUOUS
 0
LAYER
 2
ROSETTE_1
 70
64
 62
250
 6
CONTINUOUS
 0
LAYER
 2
ROSEETENK_RPER
 70
64
 62
250
 6
CONTINUOUS
 0
LAYER
 2
ROSETTE
 70
64
 62
250
 6
CONTINUOUS
 0
LAYER
 2
K_RPER_3
 70
64
 62
250
 6
CONTINUOUS
 0
LAYER
 2
K_RPER_1
 70
64
 62
250
 6
CONTINUOUS
 0
LAYER
 2
W_RFEL
 70
64
 62
250
 6
CONTINUOUS
 0
LAYER
 2
GRIFF_20
 70
64
 62
250
 6
CONTINUOUS
 0
LAYER
 2
GRIFF_19
 70
64
 62
250
 6
CONTINUOUS
 0
LAYER
 2
GRIFF_18
 70
64
 62
250
 6
CONTINUOUS
 0
LAYER
 2
GRIFF_17
 70
64
 62
250
 6
CONTINUOUS
 0
LAYER
 2
GRIFF_16
 70
64
 62
250
 6
CONTINUOUS
 0
LAYER
 2
GRIFF_15
 70
64
 62
250
 6
CONTINUOUS
 0
LAYER
 2
GRIFF_14
 70
64
 62
250
 6
CONTINUOUS
 0
LAYER
 2
GRIFF_13
 70
64
 62
250
 6
CONTINUOUS
 0
LAYER
 2
GRIFF_12
 70
64
 62
250
 6
CONTINUOUS
 0
LAYER
 2
GRIFF_11
 70
64
 62
250
 6
CONTINUOUS
 0
LAYER
 2
K_RPER
 70
64
 62
250
 6
CONTINUOUS
 0
LAYER
 2
GRIFF_9
 70
64
 62
250
 6
CONTINUOUS
 0
LAYER
 2
GRIFF_8
 70
64
 62
250
 6
CONTINUOUS
 0
LAYER
 2
GRIFF_7
 70
64
 62
250
 6
CONTINUOUS
 0
LAYER
 2
GRIFF_6
 70
64
 62
250
 6
CONTINUOUS
 0
LAYER
 2
GRIFF_5
 70
64
 62
250
 6
CONTINUOUS
 0
LAYER
 2
GRIFF_4
 70
64
 62
250
 6
CONTINUOUS
 0
LAYER
 2
GRIFF_3
 70
64
 62
250
 6
CONTINUOUS
 0
LAYER
 2
GRIFF_2
 70
64
 62
250
 6
CONTINUOUS
 0
LAYER
 2
GRIFF_1
 70
64
 62
250
 6
CONTINUOUS
 0
LAYER
 2
GRIFF
 70
64
 62
250
 6
CONTINUOUS
 0
ENDTAB
 0
ENDSEC
 0
SECTION
 2
BLOCKS
 0
ENDSEC
 0
SECTION
 2
ENTITIES
 0
POLYLINE
 8
ZYLINDER
 66
1
 10
0.0
 20
0.0
 30
0.0
 70
64
 71
31
 72
30
 0
VERTEX
 8
ZYLINDER
 10
0.0287
 20
0.0208
 30
13.5937
 70
192
 0
VERTEX
 8
ZYLINDER
 10
-0.9129
 20
0.3267
 30
13.6487
 70
192
 0
VERTEX
 8
ZYLINDER
 10
0.0287
 20
-0.9142
 30
13.5937
 70
192
 0
VERTEX
 8
ZYLINDER
 10
0.0287
 20
-0.9692
 30
13.6487
 70
192
 0
VERTEX
 8
ZYLINDER
 10
0.0287
 20
-0.9692
 30
15.7387
 70
192
 0
VERTEX
 8
ZYLINDER
 10
-0.9129
 20
0.3267
 30
15.7387
 70
192
 0
VERTEX
 8
ZYLINDER
 10
0.5783
 20
-0.7356
 30
13.5937
 70
192
 0
VERTEX
 8
ZYLINDER
 10
0.6106
 20
-0.7801
 30
13.6487
 70
192
 0
VERTEX
 8
ZYLINDER
 10
0.6106
 20
-0.7801
 30
15.7387
 70
192
 0
VERTEX
 8
ZYLINDER
 10
-0.8606
 20
-0.2681
 30
13.5937
 70
192
 0
VERTEX
 8
ZYLINDER
 10
0.9179
 20
-0.2681
 30
13.5937
 70
192
 0
VERTEX
 8
ZYLINDER
 10
0.9702
 20
-0.2851
 30
13.6487
 70
192
 0
VERTEX
 8
ZYLINDER
 10
0.9702
 20
-0.2851
 30
15.7387
 70
192
 0
VERTEX
 8
ZYLINDER
 10
-0.9129
 20
-0.2851
 30
13.6487
 70
192
 0
VERTEX
 8
ZYLINDER
 10
0.9179
 20
0.3097
 30
13.5937
 70
192
 0
VERTEX
 8
ZYLINDER
 10
0.9702
 20
0.3267
 30
13.6487
 70
192
 0
VERTEX
 8
ZYLINDER
 10
0.9702
 20
0.3267
 30
15.7387
 70
192
 0
VERTEX
 8
ZYLINDER
 10
-0.9129
 20
-0.2851
 30
15.7387
 70
192
 0
VERTEX
 8
ZYLINDER
 10
0.5783
 20
0.7772
 30
13.5937
 70
192
 0
VERTEX
 8
ZYLINDER
 10
0.6106
 20
0.8217
 30
13.6487
 70
192
 0
VERTEX
 8
ZYLINDER
 10
0.6106
 20
0.8217
 30
15.7387
 70
192
 0
VERTEX
 8
ZYLINDER
 10
-0.5209
 20
-0.7356
 30
13.5937
 70
192
 0
VERTEX
 8
ZYLINDER
 10
0.0287
 20
0.9558
 30
13.5937
 70
192
 0
VERTEX
 8
ZYLINDER
 10
0.0287
 20
1.0108
 30
13.6487
 70
192
 0
VERTEX
 8
ZYLINDER
 10
0.0287
 20
1.0108
 30
15.7387
 70
192
 0
VERTEX
 8
ZYLINDER
 10
-0.5532
 20
-0.7801
 30
13.6487
 70
192
 0
VERTEX
 8
ZYLINDER
 10
-0.5209
 20
0.7772
 30
13.5937
 70
192
 0
VERTEX
 8
ZYLINDER
 10
-0.5532
 20
0.8217
 30
13.6487
 70
192
 0
VERTEX
 8
ZYLINDER
 10
-0.5532
 20
0.8217
 30
15.7387
 70
192
 0
VERTEX
 8
ZYLINDER
 10
-0.5532
 20
-0.7801
 30
15.7387
 70
192
 0
VERTEX
 8
ZYLINDER
 10
-0.8606
 20
0.3097
 30
13.5937
 70
192
 0
VERTEX
 8
ZYLINDER
 10
0
 20
0
 30
0
 70
128
 71
1
 72
3
 73
7
 74
7
 0
VERTEX
 8
ZYLINDER
 10
0
 20
0
 30
0
 70
128
 71
3
 72
4
 73
8
 74
7
 0
VERTEX
 8
ZYLINDER
 10
0
 20
0
 30
0
 70
128
 71
4
 72
5
 73
9
 74
8
 0
VERTEX
 8
ZYLINDER
 10
0
 20
0
 30
0
 70
128
 71
1
 72
27
 73
31
 74
31
 0
VERTEX
 8
ZYLINDER
 10
0
 20
0
 30
0
 70
128
 71
27
 72
28
 73
2
 74
31
 0
VERTEX
 8
ZYLINDER
 10
0
 20
0
 30
0
 70
128
 71
1
 72
7
 73
11
 74
11
 0
VERTEX
 8
ZYLINDER
 10
0
 20
0
 30
0
 70
128
 71
7
 72
8
 73
12
 74
11
 0
VERTEX
 8
ZYLINDER
 10
0
 20
0
 30
0
 70
128
 71
8
 72
9
 73
13
 74
12
 0
VERTEX
 8
ZYLINDER
 10
0
 20
0
 30
0
 70
128
 71
28
 72
29
 73
6
 74
2
 0
VERTEX
 8
ZYLINDER
 10
0
 20
0
 30
0
 70
128
 71
1
 72
31
 73
10
 74
10
 0
VERTEX
 8
ZYLINDER
 10
0
 20
0
 30
0
 70
128
 71
1
 72
11
 73
15
 74
15
 0
VERTEX
 8
ZYLINDER
 10
0
 20
0
 30
0
 70
128
 71
11
 72
12
 73
16
 74
15
 0
VERTEX
 8
ZYLINDER
 10
0
 20
0
 30
0
 70
128
 71
12
 72
13
 73
17
 74
16
 0
VERTEX
 8
ZYLINDER
 10
0
 20
0
 30
0
 70
128
 71
31
 72
2
 73
14
 74
10
 0
VERTEX
 8
ZYLINDER
 10
0
 20
0
 30
0
 70
128
 71
2
 72
6
 73
18
 74
14
 0
VERTEX
 8
ZYLINDER
 10
0
 20
0
 30
0
 70
128
 71
1
 72
15
 73
19
 74
19
 0
VERTEX
 8
ZYLINDER
 10
0
 20
0
 30
0
 70
128
 71
15
 72
16
 73
20
 74
19
 0
VERTEX
 8
ZYLINDER
 10
0
 20
0
 30
0
 70
128
 71
16
 72
17
 73
21
 74
20
 0
VERTEX
 8
ZYLINDER
 10
0
 20
0
 30
0
 70
128
 71
1
 72
10
 73
22
 74
22
 0
VERTEX
 8
ZYLINDER
 10
0
 20
0
 30
0
 70
128
 71
10
 72
14
 73
26
 74
22
 0
VERTEX
 8
ZYLINDER
 10
0
 20
0
 30
0
 70
128
 71
1
 72
19
 73
23
 74
23
 0
VERTEX
 8
ZYLINDER
 10
0
 20
0
 30
0
 70
128
 71
19
 72
20
 73
24
 74
23
 0
VERTEX
 8
ZYLINDER
 10
0
 20
0
 30
0
 70
128
 71
20
 72
21
 73
25
 74
24
 0
VERTEX
 8
ZYLINDER
 10
0
 20
0
 30
0
 70
128
 71
14
 72
18
 73
30
 74
26
 0
VERTEX
 8
ZYLINDER
 10
0
 20
0
 30
0
 70
128
 71
1
 72
22
 73
3
 74
3
 0
VERTEX
 8
ZYLINDER
 10
0
 20
0
 30
0
 70
128
 71
1
 72
23
 73
27
 74
27
 0
VERTEX
 8
ZYLINDER
 10
0
 20
0
 30
0
 70
128
 71
23
 72
24
 73
28
 74
27
 0
VERTEX
 8
ZYLINDER
 10
0
 20
0
 30
0
 70
128
 71
24
 72
25
 73
29
 74
28
 0
VERTEX
 8
ZYLINDER
 10
0
 20
0
 30
0
 70
128
 71
22
 72
26
 73
4
 74
3
 0
VERTEX
 8
ZYLINDER
 10
0
 20
0
 30
0
 70
128
 71
26
 72
30
 73
5
 74
4
 0
SEQEND
 0
POLYLINE
 8
ROSEETENK_RPER_1
 66
1
 10
0.0
 20
0.0
 30
0.0
 70
64
 71
24
 72
12
 0
VERTEX
 8
ROSEETENK_RPER_1
 10
-6.6487
 20
4.1833
 30
15.3298
 70
192
 0
VERTEX
 8
ROSEETENK_RPER_1
 10
-6.6487
 20
0.1833
 30
15.3298
 70
192
 0
VERTEX
 8
ROSEETENK_RPER_1
 10
-5.8587
 20
4.1833
 30
15.5415
 70
192
 0
VERTEX
 8
ROSEETENK_RPER_1
 10
-5.8587
 20
0.1833
 30
15.5415
 70
192
 0
VERTEX
 8
ROSEETENK_RPER_1
 10
-5.2804
 20
4.1833
 30
16.1198
 70
192
 0
VERTEX
 8
ROSEETENK_RPER_1
 10
-5.2804
 20
0.1833
 30
16.1198
 70
192
 0
VERTEX
 8
ROSEETENK_RPER_1
 10
-5.0687
 20
4.1833
 30
16.9098
 70
192
 0
VERTEX
 8
ROSEETENK_RPER_1
 10
-5.0687
 20
0.1833
 30
16.9098
 70
192
 0
VERTEX
 8
ROSEETENK_RPER_1
 10
-5.2804
 20
4.1833
 30
17.6998
 70
192
 0
VERTEX
 8
ROSEETENK_RPER_1
 10
-5.2804
 20
0.1833
 30
17.6998
 70
192
 0
VERTEX
 8
ROSEETENK_RPER_1
 10
-5.8587
 20
4.1833
 30
18.2781
 70
192
 0
VERTEX
 8
ROSEETENK_RPER_1
 10
-5.8587
 20
0.1833
 30
18.2781
 70
192
 0
VERTEX
 8
ROSEETENK_RPER_1
 10
-6.6487
 20
4.1833
 30
18.4898
 70
192
 0
VERTEX
 8
ROSEETENK_RPER_1
 10
-6.6487
 20
0.1833
 30
18.4898
 70
192
 0
VERTEX
 8
ROSEETENK_RPER_1
 10
-7.4387
 20
4.1833
 30
18.2781
 70
192
 0
VERTEX
 8
ROSEETENK_RPER_1
 10
-7.4387
 20
0.1833
 30
18.2781
 70
192
 0
VERTEX
 8
ROSEETENK_RPER_1
 10
-8.017
 20
4.1833
 30
17.6998
 70
192
 0
VERTEX
 8
ROSEETENK_RPER_1
 10
-8.017
 20
0.1833
 30
17.6998
 70
192
 0
VERTEX
 8
ROSEETENK_RPER_1
 10
-8.2287
 20
4.1833
 30
16.9098
 70
192
 0
VERTEX
 8
ROSEETENK_RPER_1
 10
-8.2287
 20
0.1833
 30
16.9098
 70
192
 0
VERTEX
 8
ROSEETENK_RPER_1
 10
-8.017
 20
4.1833
 30
16.1198
 70
192
 0
VERTEX
 8
ROSEETENK_RPER_1
 10
-8.017
 20
0.1833
 30
16.1198
 70
192
 0
VERTEX
 8
ROSEETENK_RPER_1
 10
-7.4387
 20
4.1833
 30
15.5415
 70
192
 0
VERTEX
 8
ROSEETENK_RPER_1
 10
-7.4387
 20
0.1833
 30
15.5415
 70
192
 0
VERTEX
 8
ROSEETENK_RPER_1
 10
0
 20
0
 30
0
 70
128
 71
1
 72
2
 73
4
 74
3
 0
VERTEX
 8
ROSEETENK_RPER_1
 10
0
 20
0
 30
0
 70
128
 71
3
 72
4
 73
6
 74
5
 0
VERTEX
 8
ROSEETENK_RPER_1
 10
0
 20
0
 30
0
 70
128
 71
5
 72
6
 73
8
 74
7
 0
VERTEX
 8
ROSEETENK_RPER_1
 10
0
 20
0
 30
0
 70
128
 71
7
 72
8
 73
10
 74
9
 0
VERTEX
 8
ROSEETENK_RPER_1
 10
0
 20
0
 30
0
 70
128
 71
9
 72
10
 73
12
 74
11
 0
VERTEX
 8
ROSEETENK_RPER_1
 10
0
 20
0
 30
0
 70
128
 71
11
 72
12
 73
14
 74
13
 0
VERTEX
 8
ROSEETENK_RPER_1
 10
0
 20
0
 30
0
 70
128
 71
13
 72
14
 73
16
 74
15
 0
VERTEX
 8
ROSEETENK_RPER_1
 10
0
 20
0
 30
0
 70
128
 71
15
 72
16
 73
18
 74
17
 0
VERTEX
 8
ROSEETENK_RPER_1
 10
0
 20
0
 30
0
 70
128
 71
17
 72
18
 73
20
 74
19
 0
VERTEX
 8
ROSEETENK_RPER_1
 10
0
 20
0
 30
0
 70
128
 71
19
 72
20
 73
22
 74
21
 0
VERTEX
 8
ROSEETENK_RPER_1
 10
0
 20
0
 30
0
 70
128
 71
21
 72
22
 73
24
 74
23
 0
VERTEX
 8
ROSEETENK_RPER_1
 10
0
 20
0
 30
0
 70
128
 71
23
 72
24
 73
2
 74
1
 0
SEQEND
 0
POLYLINE
 8
ROSETTE_1
 66
1
 10
0.0
 20
0.0
 30
0.0
 70
64
 71
60
 72
23
 0
VERTEX
 8
ROSETTE_1
 10
-6.0254
 20
3.7388
 30
19.8525
 70
192
 0
VERTEX
 8
ROSETTE_1
 10
-6.6492
 20
5.7388
 30
13.918
 70
192
 0
VERTEX
 8
ROSETTE_1
 10
-6.6492
 20
5.7388
 30
13.918
 70
192
 0
VERTEX
 8
ROSETTE_1
 10
-6.6492
 20
3.7388
 30
13.918
 70
192
 0
VERTEX
 8
ROSETTE_1
 10
-6.6492
 20
3.7388
 30
13.918
 70
192
 0
VERTEX
 8
ROSETTE_1
 10
-7.2729
 20
5.7388
 30
19.8525
 70
192
 0
VERTEX
 8
ROSETTE_1
 10
-7.2729
 20
5.7388
 30
19.8525
 70
192
 0
VERTEX
 8
ROSETTE_1
 10
-7.2729
 20
3.7388
 30
19.8525
 70
192
 0
VERTEX
 8
ROSETTE_1
 10
-7.2729
 20
3.7388
 30
19.8525
 70
192
 0
VERTEX
 8
ROSETTE_1
 10
-5.4289
 20
5.7388
 30
14.1774
 70
192
 0
VERTEX
 8
ROSETTE_1
 10
-5.4289
 20
5.7388
 30
14.1774
 70
192
 0
VERTEX
 8
ROSETTE_1
 10
-5.4289
 20
3.7388
 30
14.1774
 70
192
 0
VERTEX
 8
ROSETTE_1
 10
-5.4289
 20
3.7388
 30
14.1774
 70
192
 0
VERTEX
 8
ROSETTE_1
 10
-8.4125
 20
5.7388
 30
19.3451
 70
192
 0
VERTEX
 8
ROSETTE_1
 10
-8.4125
 20
5.7388
 30
19.3451
 70
192
 0
VERTEX
 8
ROSETTE_1
 10
-8.4125
 20
3.7388
 30
19.3451
 70
192
 0
VERTEX
 8
ROSETTE_1
 10
-8.4125
 20
3.7388
 30
19.3451
 70
192
 0
VERTEX
 8
ROSETTE_1
 10
-4.4197
 20
5.7388
 30
14.9106
 70
192
 0
VERTEX
 8
ROSETTE_1
 10
-4.4197
 20
5.7388
 30
14.9106
 70
192
 0
VERTEX
 8
ROSETTE_1
 10
-4.4197
 20
3.7388
 30
14.9106
 70
192
 0
VERTEX
 8
ROSETTE_1
 10
-4.4197
 20
3.7388
 30
14.9106
 70
192
 0
VERTEX
 8
ROSETTE_1
 10
-9.2472
 20
5.7388
 30
18.418
 70
192
 0
VERTEX
 8
ROSETTE_1
 10
-9.2472
 20
5.7388
 30
18.418
 70
192
 0
VERTEX
 8
ROSETTE_1
 10
-9.2472
 20
3.7388
 30
18.418
 70
192
 0
VERTEX
 8
ROSETTE_1
 10
-9.2472
 20
3.7388
 30
18.418
 70
192
 0
VERTEX
 8
ROSETTE_1
 10
-3.796
 20
5.7388
 30
15.991
 70
192
 0
VERTEX
 8
ROSETTE_1
 10
-3.796
 20
5.7388
 30
15.991
 70
192
 0
VERTEX
 8
ROSETTE_1
 10
-3.796
 20
3.7388
 30
15.991
 70
192
 0
VERTEX
 8
ROSETTE_1
 10
-3.796
 20
3.7388
 30
15.991
 70
192
 0
VERTEX
 8
ROSETTE_1
 10
-9.6327
 20
5.7388
 30
17.2316
 70
192
 0
VERTEX
 8
ROSETTE_1
 10
-9.6327
 20
5.7388
 30
17.2316
 70
192
 0
VERTEX
 8
ROSETTE_1
 10
-9.6327
 20
3.7388
 30
17.2316
 70
192
 0
VERTEX
 8
ROSETTE_1
 10
-9.6327
 20
3.7388
 30
17.2316
 70
192
 0
VERTEX
 8
ROSETTE_1
 10
-3.6656
 20
5.7388
 30
17.2316
 70
192
 0
VERTEX
 8
ROSETTE_1
 10
-3.6656
 20
5.7388
 30
17.2316
 70
192
 0
VERTEX
 8
ROSETTE_1
 10
-3.6656
 20
3.7388
 30
17.2316
 70
192
 0
VERTEX
 8
ROSETTE_1
 10
-3.6656
 20
3.7388
 30
17.2316
 70
192
 0
VERTEX
 8
ROSETTE_1
 10
-9.5023
 20
5.7388
 30
15.991
 70
192
 0
VERTEX
 8
ROSETTE_1
 10
-9.5023
 20
5.7388
 30
15.991
 70
192
 0
VERTEX
 8
ROSETTE_1
 10
-9.5023
 20
3.7388
 30
15.991
 70
192
 0
VERTEX
 8
ROSETTE_1
 10
-9.5023
 20
3.7388
 30
15.991
 70
192
 0
VERTEX
 8
ROSETTE_1
 10
-4.0511
 20
5.7388
 30
18.418
 70
192
 0
VERTEX
 8
ROSETTE_1
 10
-4.0511
 20
5.7388
 30
18.418
 70
192
 0
VERTEX
 8
ROSETTE_1
 10
-4.0511
 20
3.7388
 30
18.418
 70
192
 0
VERTEX
 8
ROSETTE_1
 10
-4.0511
 20
3.7388
 30
18.418
 70
192
 0
VERTEX
 8
ROSETTE_1
 10
-8.8786
 20
5.7388
 30
14.9106
 70
192
 0
VERTEX
 8
ROSETTE_1
 10
-8.8786
 20
5.7388
 30
14.9106
 70
192
 0
VERTEX
 8
ROSETTE_1
 10
-8.8786
 20
3.7388
 30
14.9106
 70
192
 0
VERTEX
 8
ROSETTE_1
 10
-8.8786
 20
3.7388
 30
14.9106
 70
192
 0
VERTEX
 8
ROSETTE_1
 10
-4.8858
 20
5.7388
 30
19.3451
 70
192
 0
VERTEX
 8
ROSETTE_1
 10
-4.8858
 20
5.7388
 30
19.3451
 70
192
 0
VERTEX
 8
ROSETTE_1
 10
-4.8858
 20
3.7388
 30
19.3451
 70
192
 0
VERTEX
 8
ROSETTE_1
 10
-4.8858
 20
3.7388
 30
19.3451
 70
192
 0
VERTEX
 8
ROSETTE_1
 10
-7.8694
 20
5.7388
 30
14.1774
 70
192
 0
VERTEX
 8
ROSETTE_1
 10
-7.8694
 20
5.7388
 30
14.1774
 70
192
 0
VERTEX
 8
ROSETTE_1
 10
-7.8694
 20
3.7388
 30
14.1774
 70
192
 0
VERTEX
 8
ROSETTE_1
 10
-7.8694
 20
3.7388
 30
14.1774
 70
192
 0
VERTEX
 8
ROSETTE_1
 10
-6.0254
 20
5.7388
 30
19.8525
 70
192
 0
VERTEX
 8
ROSETTE_1
 10
-6.0254
 20
5.7388
 30
19.8525
 70
192
 0
VERTEX
 8
ROSETTE_1
 10
-6.0254
 20
3.7388
 30
19.8525
 70
192
 0
VERTEX
 8
ROSETTE_1
 10
0
 20
0
 30
0
 70
128
 71
35
 72
36
 73
44
 74
43
 0
VERTEX
 8
ROSETTE_1
 10
0
 20
0
 30
0
 70
128
 71
3
 72
4
 73
12
 74
11
 0
VERTEX
 8
ROSETTE_1
 10
0
 20
0
 30
0
 70
128
 71
43
 72
44
 73
52
 74
51
 0
VERTEX
 8
ROSETTE_1
 10
0
 20
0
 30
0
 70
128
 71
51
 72
52
 73
60
 74
59
 0
VERTEX
 8
ROSETTE_1
 10
0
 20
0
 30
0
 70
128
 71
59
 72
60
 73
8
 74
7
 0
VERTEX
 8
ROSETTE_1
 10
0
 20
0
 30
0
 70
128
 71
11
 72
12
 73
20
 74
19
 0
VERTEX
 8
ROSETTE_1
 10
0
 20
0
 30
0
 70
128
 71
7
 72
8
 73
16
 74
15
 0
VERTEX
 8
ROSETTE_1
 10
0
 20
0
 30
0
 70
128
 71
15
 72
16
 73
24
 74
23
 0
VERTEX
 8
ROSETTE_1
 10
0
 20
0
 30
0
 70
128
 71
23
 72
24
 73
32
 74
31
 0
VERTEX
 8
ROSETTE_1
 10
0
 20
0
 30
0
 70
128
 71
19
 72
20
 73
28
 74
27
 0
VERTEX
 8
ROSETTE_1
 10
0
 20
0
 30
0
 70
128
 71
31
 72
32
 73
40
 74
39
 0
VERTEX
 8
ROSETTE_1
 10
0
 20
0
 30
0
 70
128
 71
39
 72
40
 73
48
 74
47
 0
VERTEX
 8
ROSETTE_1
 10
0
 20
0
 30
0
 70
128
 71
47
 72
48
 73
56
 74
55
 0
VERTEX
 8
ROSETTE_1
 10
0
 20
0
 30
0
 70
128
 71
27
 72
28
 73
36
 74
35
 0
VERTEX
 8
ROSETTE_1
 10
0
 20
0
 30
0
 70
128
 71
55
 72
56
 73
4
 74
3
 0
VERTEX
 8
ROSETTE_1
 10
0
 20
0
 30
0
 70
128
 71
52
 72
44
 73
8
 74
60
 0
VERTEX
 8
ROSETTE_1
 10
0
 20
0
 30
0
 70
128
 71
44
 72
36
 73
28
 74
28
 0
VERTEX
 8
ROSETTE_1
 10
0
 20
0
 30
0
 70
128
 71
4
 72
44
 73
28
 74
12
 0
VERTEX
 8
ROSETTE_1
 10
0
 20
0
 30
0
 70
128
 71
44
 72
4
 73
40
 74
8
 0
VERTEX
 8
ROSETTE_1
 10
0
 20
0
 30
0
 70
128
 71
28
 72
20
 73
12
 74
12
 0
VERTEX
 8
ROSETTE_1
 10
0
 20
0
 30
0
 70
128
 71
4
 72
56
 73
48
 74
40
 0
VERTEX
 8
ROSETTE_1
 10
0
 20
0
 30
0
 70
128
 71
8
 72
40
 73
32
 74
24
 0
VERTEX
 8
ROSETTE_1
 10
0
 20
0
 30
0
 70
128
 71
24
 72
16
 73
8
 74
8
 0
SEQEND
 0
POLYLINE
 8
ROSEETENK_RPER
 66
1
 10
0.0
 20
0.0
 30
0.0
 70
64
 71
24
 72
12
 0
VERTEX
 8
ROSEETENK_RPER
 10
6.7579
 20
4.1833
 30
15.3298
 70
192
 0
VERTEX
 8
ROSEETENK_RPER
 10
6.7579
 20
0.1833
 30
15.3298
 70
192
 0
VERTEX
 8
ROSEETENK_RPER
 10
7.5479
 20
4.1833
 30
15.5415
 70
192
 0
VERTEX
 8
ROSEETENK_RPER
 10
7.5479
 20
0.1833
 30
15.5415
 70
192
 0
VERTEX
 8
ROSEETENK_RPER
 10
8.1262
 20
4.1833
 30
16.1198
 70
192
 0
VERTEX
 8
ROSEETENK_RPER
 10
8.1262
 20
0.1833
 30
16.1198
 70
192
 0
VERTEX
 8
ROSEETENK_RPER
 10
8.3379
 20
4.1833
 30
16.9098
 70
192
 0
VERTEX
 8
ROSEETENK_RPER
 10
8.3379
 20
0.1833
 30
16.9098
 70
192
 0
VERTEX
 8
ROSEETENK_RPER
 10
8.1262
 20
4.1833
 30
17.6998
 70
192
 0
VERTEX
 8
ROSEETENK_RPER
 10
8.1262
 20
0.1833
 30
17.6998
 70
192
 0
VERTEX
 8
ROSEETENK_RPER
 10
7.5479
 20
4.1833
 30
18.2781
 70
192
 0
VERTEX
 8
ROSEETENK_RPER
 10
7.5479
 20
0.1833
 30
18.2781
 70
192
 0
VERTEX
 8
ROSEETENK_RPER
 10
6.7579
 20
4.1833
 30
18.4898
 70
192
 0
VERTEX
 8
ROSEETENK_RPER
 10
6.7579
 20
0.1833
 30
18.4898
 70
192
 0
VERTEX
 8
ROSEETENK_RPER
 10
5.9679
 20
4.1833
 30
18.2781
 70
192
 0
VERTEX
 8
ROSEETENK_RPER
 10
5.9679
 20
0.1833
 30
18.2781
 70
192
 0
VERTEX
 8
ROSEETENK_RPER
 10
5.3896
 20
4.1833
 30
17.6998
 70
192
 0
VERTEX
 8
ROSEETENK_RPER
 10
5.3896
 20
0.1833
 30
17.6998
 70
192
 0
VERTEX
 8
ROSEETENK_RPER
 10
5.1779
 20
4.1833
 30
16.9098
 70
192
 0
VERTEX
 8
ROSEETENK_RPER
 10
5.1779
 20
0.1833
 30
16.9098
 70
192
 0
VERTEX
 8
ROSEETENK_RPER
 10
5.3896
 20
4.1833
 30
16.1198
 70
192
 0
VERTEX
 8
ROSEETENK_RPER
 10
5.3896
 20
0.1833
 30
16.1198
 70
192
 0
VERTEX
 8
ROSEETENK_RPER
 10
5.9679
 20
4.1833
 30
15.5415
 70
192
 0
VERTEX
 8
ROSEETENK_RPER
 10
5.9679
 20
0.1833
 30
15.5415
 70
192
 0
VERTEX
 8
ROSEETENK_RPER
 10
0
 20
0
 30
0
 70
128
 71
1
 72
2
 73
4
 74
3
 0
VERTEX
 8
ROSEETENK_RPER
 10
0
 20
0
 30
0
 70
128
 71
3
 72
4
 73
6
 74
5
 0
VERTEX
 8
ROSEETENK_RPER
 10
0
 20
0
 30
0
 70
128
 71
5
 72
6
 73
8
 74
7
 0
VERTEX
 8
ROSEETENK_RPER
 10
0
 20
0
 30
0
 70
128
 71
7
 72
8
 73
10
 74
9
 0
VERTEX
 8
ROSEETENK_RPER
 10
0
 20
0
 30
0
 70
128
 71
9
 72
10
 73
12
 74
11
 0
VERTEX
 8
ROSEETENK_RPER
 10
0
 20
0
 30
0
 70
128
 71
11
 72
12
 73
14
 74
13
 0
VERTEX
 8
ROSEETENK_RPER
 10
0
 20
0
 30
0
 70
128
 71
13
 72
14
 73
16
 74
15
 0
VERTEX
 8
ROSEETENK_RPER
 10
0
 20
0
 30
0
 70
128
 71
15
 72
16
 73
18
 74
17
 0
VERTEX
 8
ROSEETENK_RPER
 10
0
 20
0
 30
0
 70
128
 71
17
 72
18
 73
20
 74
19
 0
VERTEX
 8
ROSEETENK_RPER
 10
0
 20
0
 30
0
 70
128
 71
19
 72
20
 73
22
 74
21
 0
VERTEX
 8
ROSEETENK_RPER
 10
0
 20
0
 30
0
 70
128
 71
21
 72
22
 73
24
 74
23
 0
VERTEX
 8
ROSEETENK_RPER
 10
0
 20
0
 30
0
 70
128
 71
23
 72
24
 73
2
 74
1
 0
SEQEND
 0
POLYLINE
 8
ROSETTE
 66
1
 10
0.0
 20
0.0
 30
0.0
 70
64
 71
60
 72
23
 0
VERTEX
 8
ROSETTE
 10
7.3812
 20
3.7388
 30
19.8525
 70
192
 0
VERTEX
 8
ROSETTE
 10
6.7575
 20
5.7388
 30
13.918
 70
192
 0
VERTEX
 8
ROSETTE
 10
6.7575
 20
5.7388
 30
13.918
 70
192
 0
VERTEX
 8
ROSETTE
 10
6.7575
 20
3.7388
 30
13.918
 70
192
 0
VERTEX
 8
ROSETTE
 10
6.7575
 20
3.7388
 30
13.918
 70
192
 0
VERTEX
 8
ROSETTE
 10
6.1337
 20
5.7388
 30
19.8525
 70
192
 0
VERTEX
 8
ROSETTE
 10
6.1337
 20
5.7388
 30
19.8525
 70
192
 0
VERTEX
 8
ROSETTE
 10
6.1337
 20
3.7388
 30
19.8525
 70
192
 0
VERTEX
 8
ROSETTE
 10
6.1337
 20
3.7388
 30
19.8525
 70
192
 0
VERTEX
 8
ROSETTE
 10
7.9777
 20
5.7388
 30
14.1774
 70
192
 0
VERTEX
 8
ROSETTE
 10
7.9777
 20
5.7388
 30
14.1774
 70
192
 0
VERTEX
 8
ROSETTE
 10
7.9777
 20
3.7388
 30
14.1774
 70
192
 0
VERTEX
 8
ROSETTE
 10
7.9777
 20
3.7388
 30
14.1774
 70
192
 0
VERTEX
 8
ROSETTE
 10
4.9941
 20
5.7388
 30
19.3451
 70
192
 0
VERTEX
 8
ROSETTE
 10
4.9941
 20
5.7388
 30
19.3451
 70
192
 0
VERTEX
 8
ROSETTE
 10
4.9941
 20
3.7388
 30
19.3451
 70
192
 0
VERTEX
 8
ROSETTE
 10
4.9941
 20
3.7388
 30
19.3451
 70
192
 0
VERTEX
 8
ROSETTE
 10
8.9869
 20
5.7388
 30
14.9106
 70
192
 0
VERTEX
 8
ROSETTE
 10
8.9869
 20
5.7388
 30
14.9106
 70
192
 0
VERTEX
 8
ROSETTE
 10
8.9869
 20
3.7388
 30
14.9106
 70
192
 0
VERTEX
 8
ROSETTE
 10
8.9869
 20
3.7388
 30
14.9106
 70
192
 0
VERTEX
 8
ROSETTE
 10
4.1594
 20
5.7388
 30
18.418
 70
192
 0
VERTEX
 8
ROSETTE
 10
4.1594
 20
5.7388
 30
18.418
 70
192
 0
VERTEX
 8
ROSETTE
 10
4.1594
 20
3.7388
 30
18.418
 70
192
 0
VERTEX
 8
ROSETTE
 10
4.1594
 20
3.7388
 30
18.418
 70
192
 0
VERTEX
 8
ROSETTE
 10
9.6106
 20
5.7388
 30
15.991
 70
192
 0
VERTEX
 8
ROSETTE
 10
9.6106
 20
5.7388
 30
15.991
 70
192
 0
VERTEX
 8
ROSETTE
 10
9.6106
 20
3.7388
 30
15.991
 70
192
 0
VERTEX
 8
ROSETTE
 10
9.6106
 20
3.7388
 30
15.991
 70
192
 0
VERTEX
 8
ROSETTE
 10
3.7739
 20
5.7388
 30
17.2316
 70
192
 0
VERTEX
 8
ROSETTE
 10
3.7739
 20
5.7388
 30
17.2316
 70
192
 0
VERTEX
 8
ROSETTE
 10
3.7739
 20
3.7388
 30
17.2316
 70
192
 0
VERTEX
 8
ROSETTE
 10
3.7739
 20
3.7388
 30
17.2316
 70
192
 0
VERTEX
 8
ROSETTE
 10
9.741
 20
5.7388
 30
17.2316
 70
192
 0
VERTEX
 8
ROSETTE
 10
9.741
 20
5.7388
 30
17.2316
 70
192
 0
VERTEX
 8
ROSETTE
 10
9.741
 20
3.7388
 30
17.2316
 70
192
 0
VERTEX
 8
ROSETTE
 10
9.741
 20
3.7388
 30
17.2316
 70
192
 0
VERTEX
 8
ROSETTE
 10
3.9043
 20
5.7388
 30
15.991
 70
192
 0
VERTEX
 8
ROSETTE
 10
3.9043
 20
5.7388
 30
15.991
 70
192
 0
VERTEX
 8
ROSETTE
 10
3.9043
 20
3.7388
 30
15.991
 70
192
 0
VERTEX
 8
ROSETTE
 10
3.9043
 20
3.7388
 30
15.991
 70
192
 0
VERTEX
 8
ROSETTE
 10
9.3555
 20
5.7388
 30
18.418
 70
192
 0
VERTEX
 8
ROSETTE
 10
9.3555
 20
5.7388
 30
18.418
 70
192
 0
VERTEX
 8
ROSETTE
 10
9.3555
 20
3.7388
 30
18.418
 70
192
 0
VERTEX
 8
ROSETTE
 10
9.3555
 20
3.7388
 30
18.418
 70
192
 0
VERTEX
 8
ROSETTE
 10
4.528
 20
5.7388
 30
14.9106
 70
192
 0
VERTEX
 8
ROSETTE
 10
4.528
 20
5.7388
 30
14.9106
 70
192
 0
VERTEX
 8
ROSETTE
 10
4.528
 20
3.7388
 30
14.9106
 70
192
 0
VERTEX
 8
ROSETTE
 10
4.528
 20
3.7388
 30
14.9106
 70
192
 0
VERTEX
 8
ROSETTE
 10
8.5208
 20
5.7388
 30
19.3451
 70
192
 0
VERTEX
 8
ROSETTE
 10
8.5208
 20
5.7388
 30
19.3451
 70
192
 0
VERTEX
 8
ROSETTE
 10
8.5208
 20
3.7388
 30
19.3451
 70
192
 0
VERTEX
 8
ROSETTE
 10
8.5208
 20
3.7388
 30
19.3451
 70
192
 0
VERTEX
 8
ROSETTE
 10
5.5372
 20
5.7388
 30
14.1774
 70
192
 0
VERTEX
 8
ROSETTE
 10
5.5372
 20
5.7388
 30
14.1774
 70
192
 0
VERTEX
 8
ROSETTE
 10
5.5372
 20
3.7388
 30
14.1774
 70
192
 0
VERTEX
 8
ROSETTE
 10
5.5372
 20
3.7388
 30
14.1774
 70
192
 0
VERTEX
 8
ROSETTE
 10
7.3812
 20
5.7388
 30
19.8525
 70
192
 0
VERTEX
 8
ROSETTE
 10
7.3812
 20
5.7388
 30
19.8525
 70
192
 0
VERTEX
 8
ROSETTE
 10
7.3812
 20
3.7388
 30
19.8525
 70
192
 0
VERTEX
 8
ROSETTE
 10
0
 20
0
 30
0
 70
128
 71
35
 72
36
 73
44
 74
43
 0
VERTEX
 8
ROSETTE
 10
0
 20
0
 30
0
 70
128
 71
3
 72
4
 73
12
 74
11
 0
VERTEX
 8
ROSETTE
 10
0
 20
0
 30
0
 70
128
 71
43
 72
44
 73
52
 74
51
 0
VERTEX
 8
ROSETTE
 10
0
 20
0
 30
0
 70
128
 71
51
 72
52
 73
60
 74
59
 0
VERTEX
 8
ROSETTE
 10
0
 20
0
 30
0
 70
128
 71
59
 72
60
 73
8
 74
7
 0
VERTEX
 8
ROSETTE
 10
0
 20
0
 30
0
 70
128
 71
11
 72
12
 73
20
 74
19
 0
VERTEX
 8
ROSETTE
 10
0
 20
0
 30
0
 70
128
 71
7
 72
8
 73
16
 74
15
 0
VERTEX
 8
ROSETTE
 10
0
 20
0
 30
0
 70
128
 71
15
 72
16
 73
24
 74
23
 0
VERTEX
 8
ROSETTE
 10
0
 20
0
 30
0
 70
128
 71
23
 72
24
 73
32
 74
31
 0
VERTEX
 8
ROSETTE
 10
0
 20
0
 30
0
 70
128
 71
19
 72
20
 73
28
 74
27
 0
VERTEX
 8
ROSETTE
 10
0
 20
0
 30
0
 70
128
 71
31
 72
32
 73
40
 74
39
 0
VERTEX
 8
ROSETTE
 10
0
 20
0
 30
0
 70
128
 71
39
 72
40
 73
48
 74
47
 0
VERTEX
 8
ROSETTE
 10
0
 20
0
 30
0
 70
128
 71
47
 72
48
 73
56
 74
55
 0
VERTEX
 8
ROSETTE
 10
0
 20
0
 30
0
 70
128
 71
27
 72
28
 73
36
 74
35
 0
VERTEX
 8
ROSETTE
 10
0
 20
0
 30
0
 70
128
 71
55
 72
56
 73
4
 74
3
 0
VERTEX
 8
ROSETTE
 10
0
 20
0
 30
0
 70
128
 71
8
 72
60
 73
52
 74
44
 0
VERTEX
 8
ROSETTE
 10
0
 20
0
 30
0
 70
128
 71
44
 72
36
 73
28
 74
28
 0
VERTEX
 8
ROSETTE
 10
0
 20
0
 30
0
 70
128
 71
4
 72
44
 73
28
 74
12
 0
VERTEX
 8
ROSETTE
 10
0
 20
0
 30
0
 70
128
 71
44
 72
4
 73
40
 74
8
 0
VERTEX
 8
ROSETTE
 10
0
 20
0
 30
0
 70
128
 71
28
 72
20
 73
12
 74
12
 0
VERTEX
 8
ROSETTE
 10
0
 20
0
 30
0
 70
128
 71
4
 72
56
 73
48
 74
40
 0
VERTEX
 8
ROSETTE
 10
0
 20
0
 30
0
 70
128
 71
8
 72
40
 73
32
 74
24
 0
VERTEX
 8
ROSETTE
 10
0
 20
0
 30
0
 70
128
 71
24
 72
16
 73
8
 74
8
 0
SEQEND
 0
POLYLINE
 8
K_RPER_3
 66
1
 10
0.0
 20
0.0
 30
0.0
 70
64
 71
23
 72
42
 0
VERTEX
 8
K_RPER_3
 10
8.5711
 20
2.221
 30
14.89
 70
192
 0
VERTEX
 8
K_RPER_3
 10
-8.4285
 20
2.221
 30
18.889
 70
192
 0
VERTEX
 8
K_RPER_3
 10
-8.4058
 20
-3.2226
 30
15.5351
 70
192
 0
VERTEX
 8
K_RPER_3
 10
8.5712
 20
-3.3669
 30
15.7223
 70
192
 0
VERTEX
 8
K_RPER_3
 10
8.5711
 20
-3.7383
 30
17.1561
 70
192
 0
VERTEX
 8
K_RPER_3
 10
-8.4021
 20
-3.7095
 30
16.4995
 70
192
 0
VERTEX
 8
K_RPER_3
 10
-8.4276
 20
-2.0386
 30
14.8948
 70
192
 0
VERTEX
 8
K_RPER_3
 10
-8.4276
 20
2.2202
 30
14.89
 70
192
 0
VERTEX
 8
K_RPER_3
 10
8.5517
 20
-3.4716
 30
17.906
 70
192
 0
VERTEX
 8
K_RPER_3
 10
-8.4286
 20
-3.728
 30
17.1698
 70
192
 0
VERTEX
 8
K_RPER_3
 10
8.5707
 20
-1.9315
 30
14.8939
 70
192
 0
VERTEX
 8
K_RPER_3
 10
8.5702
 20
2.2202
 30
18.8889
 70
192
 0
VERTEX
 8
K_RPER_3
 10
-8.4032
 20
-2.0213
 30
18.8837
 70
192
 0
VERTEX
 8
K_RPER_3
 10
-8.4088
 20
-3.5252
 30
17.8085
 70
192
 0
VERTEX
 8
K_RPER_3
 10
8.5702
 20
-2.0702
 30
18.8836
 70
192
 0
VERTEX
 8
K_RPER_3
 10
8.5712
 20
-2.9465
 30
18.5053
 70
192
 0
VERTEX
 8
K_RPER_3
 10
8.5517
 20
-3.028
 30
15.3515
 70
192
 0
VERTEX
 8
K_RPER_3
 10
-8.4284
 20
-3.1238
 30
18.3447
 70
192
 0
VERTEX
 8
K_RPER_3
 10
8.5495
 20
-2.4907
 30
15.0264
 70
192
 0
VERTEX
 8
K_RPER_3
 10
-8.4283
 20
-2.7305
 30
15.1449
 70
192
 0
VERTEX
 8
K_RPER_3
 10
-8.4286
 20
-3.5275
 30
15.9875
 70
192
 0
VERTEX
 8
K_RPER_3
 10
-8.4291
 20
-2.637
 30
18.682
 70
192
 0
VERTEX
 8
K_RPER_3
 10
8.5446
 20
-3.6586
 30
16.2801
 70
192
 0
VERTEX
 8
K_RPER_3
 10
0
 20
0
 30
0
 70
128
 71
13
 72
22
 73
2
 74
2
 0
VERTEX
 8
K_RPER_3
 10
0
 20
0
 30
0
 70
128
 71
5
 72
9
 73
16
 74
16
 0
VERTEX
 8
K_RPER_3
 10
0
 20
0
 30
0
 70
128
 71
4
 72
3
 73
21
 74
21
 0
VERTEX
 8
K_RPER_3
 10
0
 20
0
 30
0
 70
128
 71
1
 72
2
 73
8
 74
8
 0
VERTEX
 8
K_RPER_3
 10
0
 20
0
 30
0
 70
128
 71
19
 72
7
 73
20
 74
20
 0
VERTEX
 8
K_RPER_3
 10
0
 20
0
 30
0
 70
128
 71
1
 72
7
 73
11
 74
11
 0
VERTEX
 8
K_RPER_3
 10
0
 20
0
 30
0
 70
128
 71
9
 72
14
 73
18
 74
18
 0
VERTEX
 8
K_RPER_3
 10
0
 20
0
 30
0
 70
128
 71
5
 72
14
 73
9
 74
9
 0
VERTEX
 8
K_RPER_3
 10
0
 20
0
 30
0
 70
128
 71
17
 72
3
 73
4
 74
4
 0
VERTEX
 8
K_RPER_3
 10
0
 20
0
 30
0
 70
128
 71
1
 72
4
 73
5
 74
5
 0
VERTEX
 8
K_RPER_3
 10
0
 20
0
 30
0
 70
128
 71
17
 72
20
 73
3
 74
3
 0
VERTEX
 8
K_RPER_3
 10
0
 20
0
 30
0
 70
128
 71
16
 72
22
 73
15
 74
15
 0
VERTEX
 8
K_RPER_3
 10
0
 20
0
 30
0
 70
128
 71
7
 72
2
 73
20
 74
20
 0
VERTEX
 8
K_RPER_3
 10
0
 20
0
 30
0
 70
128
 71
5
 72
10
 73
14
 74
14
 0
VERTEX
 8
K_RPER_3
 10
0
 20
0
 30
0
 70
128
 71
9
 72
18
 73
16
 74
16
 0
VERTEX
 8
K_RPER_3
 10
0
 20
0
 30
0
 70
128
 71
1
 72
16
 73
15
 74
15
 0
VERTEX
 8
K_RPER_3
 10
0
 20
0
 30
0
 70
128
 71
1
 72
5
 73
16
 74
16
 0
VERTEX
 8
K_RPER_3
 10
0
 20
0
 30
0
 70
128
 71
19
 72
20
 73
17
 74
17
 0
VERTEX
 8
K_RPER_3
 10
0
 20
0
 30
0
 70
128
 71
1
 72
8
 73
7
 74
7
 0
VERTEX
 8
K_RPER_3
 10
0
 20
0
 30
0
 70
128
 71
8
 72
2
 73
7
 74
7
 0
VERTEX
 8
K_RPER_3
 10
0
 20
0
 30
0
 70
128
 71
4
 72
23
 73
5
 74
5
 0
VERTEX
 8
K_RPER_3
 10
0
 20
0
 30
0
 70
128
 71
10
 72
2
 73
18
 74
18
 0
VERTEX
 8
K_RPER_3
 10
0
 20
0
 30
0
 70
128
 71
23
 72
21
 73
6
 74
6
 0
VERTEX
 8
K_RPER_3
 10
0
 20
0
 30
0
 70
128
 71
15
 72
2
 73
12
 74
12
 0
VERTEX
 8
K_RPER_3
 10
0
 20
0
 30
0
 70
128
 71
16
 72
18
 73
22
 74
22
 0
VERTEX
 8
K_RPER_3
 10
0
 20
0
 30
0
 70
128
 71
11
 72
17
 73
4
 74
4
 0
VERTEX
 8
K_RPER_3
 10
0
 20
0
 30
0
 70
128
 71
12
 72
2
 73
1
 74
1
 0
VERTEX
 8
K_RPER_3
 10
0
 20
0
 30
0
 70
128
 71
11
 72
19
 73
17
 74
17
 0
VERTEX
 8
K_RPER_3
 10
0
 20
0
 30
0
 70
128
 71
14
 72
10
 73
18
 74
18
 0
VERTEX
 8
K_RPER_3
 10
0
 20
0
 30
0
 70
128
 71
1
 72
15
 73
12
 74
12
 0
VERTEX
 8
K_RPER_3
 10
0
 20
0
 30
0
 70
128
 71
21
 72
2
 73
10
 74
10
 0
VERTEX
 8
K_RPER_3
 10
0
 20
0
 30
0
 70
128
 71
5
 72
6
 73
10
 74
10
 0
VERTEX
 8
K_RPER_3
 10
0
 20
0
 30
0
 70
128
 71
23
 72
6
 73
5
 74
5
 0
VERTEX
 8
K_RPER_3
 10
0
 20
0
 30
0
 70
128
 71
15
 72
22
 73
13
 74
13
 0
VERTEX
 8
K_RPER_3
 10
0
 20
0
 30
0
 70
128
 71
4
 72
21
 73
23
 74
23
 0
VERTEX
 8
K_RPER_3
 10
0
 20
0
 30
0
 70
128
 71
1
 72
11
 73
4
 74
4
 0
VERTEX
 8
K_RPER_3
 10
0
 20
0
 30
0
 70
128
 71
11
 72
7
 73
19
 74
19
 0
VERTEX
 8
K_RPER_3
 10
0
 20
0
 30
0
 70
128
 71
15
 72
13
 73
2
 74
2
 0
VERTEX
 8
K_RPER_3
 10
0
 20
0
 30
0
 70
128
 71
18
 72
2
 73
22
 74
22
 0
VERTEX
 8
K_RPER_3
 10
0
 20
0
 30
0
 70
128
 71
20
 72
2
 73
21
 74
21
 0
VERTEX
 8
K_RPER_3
 10
0
 20
0
 30
0
 70
128
 71
20
 72
21
 73
3
 74
3
 0
VERTEX
 8
K_RPER_3
 10
0
 20
0
 30
0
 70
128
 71
6
 72
21
 73
10
 74
10
 0
SEQEND
 0
POLYLINE
 8
K_RPER_1
 66
1
 10
0.0
 20
0.0
 30
0.0
 70
64
 71
61
 72
30
 0
VERTEX
 8
K_RPER_1
 10
13.5672
 20
-1.7386
 30
16.8895
 70
192
 0
VERTEX
 8
K_RPER_1
 10
8.5672
 20
-3.5657
 30
16.076
 70
192
 0
VERTEX
 8
K_RPER_1
 10
13.5672
 20
-3.7386
 30
16.8895
 70
192
 0
VERTEX
 8
K_RPER_1
 10
13.5672
 20
-3.7386
 30
16.8895
 70
192
 0
VERTEX
 8
K_RPER_1
 10
8.5672
 20
-3.7386
 30
16.8895
 70
192
 0
VERTEX
 8
K_RPER_1
 10
8.5672
 20
-3.7386
 30
16.8895
 70
192
 0
VERTEX
 8
K_RPER_1
 10
13.5672
 20
-3.5657
 30
17.703
 70
192
 0
VERTEX
 8
K_RPER_1
 10
13.5672
 20
-3.5657
 30
17.703
 70
192
 0
VERTEX
 8
K_RPER_1
 10
8.5672
 20
-3.5657
 30
17.703
 70
192
 0
VERTEX
 8
K_RPER_1
 10
8.5672
 20
-3.5657
 30
17.703
 70
192
 0
VERTEX
 8
K_RPER_1
 10
13.5672
 20
-3.0769
 30
18.3758
 70
192
 0
VERTEX
 8
K_RPER_1
 10
13.5672
 20
-3.0769
 30
18.3758
 70
192
 0
VERTEX
 8
K_RPER_1
 10
8.5672
 20
-3.0769
 30
18.3758
 70
192
 0
VERTEX
 8
K_RPER_1
 10
8.5672
 20
-3.0769
 30
18.3758
 70
192
 0
VERTEX
 8
K_RPER_1
 10
13.5672
 20
-2.3566
 30
18.7916
 70
192
 0
VERTEX
 8
K_RPER_1
 10
13.5672
 20
-2.3566
 30
18.7916
 70
192
 0
VERTEX
 8
K_RPER_1
 10
8.5672
 20
-2.3566
 30
18.7916
 70
192
 0
VERTEX
 8
K_RPER_1
 10
8.5672
 20
-2.3566
 30
18.7916
 70
192
 0
VERTEX
 8
K_RPER_1
 10
13.5672
 20
-1.5295
 30
18.8785
 70
192
 0
VERTEX
 8
K_RPER_1
 10
13.5672
 20
-1.5295
 30
18.8785
 70
192
 0
VERTEX
 8
K_RPER_1
 10
8.5672
 20
-1.5295
 30
18.8785
 70
192
 0
VERTEX
 8
K_RPER_1
 10
8.5672
 20
-1.5295
 30
18.8785
 70
192
 0
VERTEX
 8
K_RPER_1
 10
13.5672
 20
-0.7386
 30
18.6215
 70
192
 0
VERTEX
 8
K_RPER_1
 10
13.5672
 20
-0.7386
 30
18.6215
 70
192
 0
VERTEX
 8
K_RPER_1
 10
8.5672
 20
-0.7386
 30
18.6215
 70
192
 0
VERTEX
 8
K_RPER_1
 10
8.5672
 20
-0.7386
 30
18.6215
 70
192
 0
VERTEX
 8
K_RPER_1
 10
13.5672
 20
-0.1206
 30
18.0651
 70
192
 0
VERTEX
 8
K_RPER_1
 10
13.5672
 20
-0.1206
 30
18.0651
 70
192
 0
VERTEX
 8
K_RPER_1
 10
8.5672
 20
-0.1206
 30
18.0651
 70
192
 0
VERTEX
 8
K_RPER_1
 10
8.5672
 20
-0.1206
 30
18.0651
 70
192
 0
VERTEX
 8
K_RPER_1
 10
13.5672
 20
0.2177
 30
17.3053
 70
192
 0
VERTEX
 8
K_RPER_1
 10
13.5672
 20
0.2177
 30
17.3053
 70
192
 0
VERTEX
 8
K_RPER_1
 10
8.5672
 20
0.2177
 30
17.3053
 70
192
 0
VERTEX
 8
K_RPER_1
 10
8.5672
 20
0.2177
 30
17.3053
 70
192
 0
VERTEX
 8
K_RPER_1
 10
13.5672
 20
0.2177
 30
16.4737
 70
192
 0
VERTEX
 8
K_RPER_1
 10
13.5672
 20
0.2177
 30
16.4737
 70
192
 0
VERTEX
 8
K_RPER_1
 10
8.5672
 20
0.2177
 30
16.4737
 70
192
 0
VERTEX
 8
K_RPER_1
 10
8.5672
 20
0.2177
 30
16.4737
 70
192
 0
VERTEX
 8
K_RPER_1
 10
13.5672
 20
-0.1206
 30
15.7139
 70
192
 0
VERTEX
 8
K_RPER_1
 10
13.5672
 20
-0.1206
 30
15.7139
 70
192
 0
VERTEX
 8
K_RPER_1
 10
8.5672
 20
-0.1206
 30
15.7139
 70
192
 0
VERTEX
 8
K_RPER_1
 10
8.5672
 20
-0.1206
 30
15.7139
 70
192
 0
VERTEX
 8
K_RPER_1
 10
13.5672
 20
-0.7386
 30
15.1574
 70
192
 0
VERTEX
 8
K_RPER_1
 10
13.5672
 20
-0.7386
 30
15.1574
 70
192
 0
VERTEX
 8
K_RPER_1
 10
8.5672
 20
-0.7386
 30
15.1574
 70
192
 0
VERTEX
 8
K_RPER_1
 10
8.5672
 20
-0.7386
 30
15.1574
 70
192
 0
VERTEX
 8
K_RPER_1
 10
13.5672
 20
-1.5295
 30
14.9004
 70
192
 0
VERTEX
 8
K_RPER_1
 10
13.5672
 20
-1.5295
 30
14.9004
 70
192
 0
VERTEX
 8
K_RPER_1
 10
8.5672
 20
-1.5295
 30
14.9004
 70
192
 0
VERTEX
 8
K_RPER_1
 10
8.5672
 20
-1.5295
 30
14.9004
 70
192
 0
VERTEX
 8
K_RPER_1
 10
13.5672
 20
-2.3566
 30
14.9874
 70
192
 0
VERTEX
 8
K_RPER_1
 10
13.5672
 20
-2.3566
 30
14.9874
 70
192
 0
VERTEX
 8
K_RPER_1
 10
8.5672
 20
-2.3566
 30
14.9874
 70
192
 0
VERTEX
 8
K_RPER_1
 10
8.5672
 20
-2.3566
 30
14.9874
 70
192
 0
VERTEX
 8
K_RPER_1
 10
13.5672
 20
-3.0769
 30
15.4032
 70
192
 0
VERTEX
 8
K_RPER_1
 10
13.5672
 20
-3.0769
 30
15.4032
 70
192
 0
VERTEX
 8
K_RPER_1
 10
8.5672
 20
-3.0769
 30
15.4032
 70
192
 0
VERTEX
 8
K_RPER_1
 10
8.5672
 20
-3.0769
 30
15.4032
 70
192
 0
VERTEX
 8
K_RPER_1
 10
13.5672
 20
-3.5657
 30
16.076
 70
192
 0
VERTEX
 8
K_RPER_1
 10
13.5672
 20
-3.5657
 30
16.076
 70
192
 0
VERTEX
 8
K_RPER_1
 10
8.5672
 20
-3.5657
 30
16.076
 70
192
 0
VERTEX
 8
K_RPER_1
 10
0
 20
0
 30
0
 70
128
 71
1
 72
3
 73
7
 74
7
 0
VERTEX
 8
K_RPER_1
 10
0
 20
0
 30
0
 70
128
 71
4
 72
5
 73
9
 74
8
 0
VERTEX
 8
K_RPER_1
 10
0
 20
0
 30
0
 70
128
 71
1
 72
43
 73
47
 74
47
 0
VERTEX
 8
K_RPER_1
 10
0
 20
0
 30
0
 70
128
 71
1
 72
7
 73
11
 74
11
 0
VERTEX
 8
K_RPER_1
 10
0
 20
0
 30
0
 70
128
 71
8
 72
9
 73
13
 74
12
 0
VERTEX
 8
K_RPER_1
 10
0
 20
0
 30
0
 70
128
 71
44
 72
45
 73
49
 74
48
 0
VERTEX
 8
K_RPER_1
 10
0
 20
0
 30
0
 70
128
 71
1
 72
11
 73
15
 74
15
 0
VERTEX
 8
K_RPER_1
 10
0
 20
0
 30
0
 70
128
 71
12
 72
13
 73
17
 74
16
 0
VERTEX
 8
K_RPER_1
 10
0
 20
0
 30
0
 70
128
 71
1
 72
47
 73
51
 74
51
 0
VERTEX
 8
K_RPER_1
 10
0
 20
0
 30
0
 70
128
 71
1
 72
15
 73
19
 74
19
 0
VERTEX
 8
K_RPER_1
 10
0
 20
0
 30
0
 70
128
 71
16
 72
17
 73
21
 74
20
 0
VERTEX
 8
K_RPER_1
 10
0
 20
0
 30
0
 70
128
 71
48
 72
49
 73
53
 74
52
 0
VERTEX
 8
K_RPER_1
 10
0
 20
0
 30
0
 70
128
 71
1
 72
19
 73
23
 74
23
 0
VERTEX
 8
K_RPER_1
 10
0
 20
0
 30
0
 70
128
 71
20
 72
21
 73
25
 74
24
 0
VERTEX
 8
K_RPER_1
 10
0
 20
0
 30
0
 70
128
 71
1
 72
51
 73
55
 74
55
 0
VERTEX
 8
K_RPER_1
 10
0
 20
0
 30
0
 70
128
 71
1
 72
23
 73
27
 74
27
 0
VERTEX
 8
K_RPER_1
 10
0
 20
0
 30
0
 70
128
 71
24
 72
25
 73
29
 74
28
 0
VERTEX
 8
K_RPER_1
 10
0
 20
0
 30
0
 70
128
 71
52
 72
53
 73
57
 74
56
 0
VERTEX
 8
K_RPER_1
 10
0
 20
0
 30
0
 70
128
 71
1
 72
27
 73
31
 74
31
 0
VERTEX
 8
K_RPER_1
 10
0
 20
0
 30
0
 70
128
 71
28
 72
29
 73
33
 74
32
 0
VERTEX
 8
K_RPER_1
 10
0
 20
0
 30
0
 70
128
 71
1
 72
55
 73
59
 74
59
 0
VERTEX
 8
K_RPER_1
 10
0
 20
0
 30
0
 70
128
 71
1
 72
31
 73
35
 74
35
 0
VERTEX
 8
K_RPER_1
 10
0
 20
0
 30
0
 70
128
 71
32
 72
33
 73
37
 74
36
 0
VERTEX
 8
K_RPER_1
 10
0
 20
0
 30
0
 70
128
 71
56
 72
57
 73
61
 74
60
 0
VERTEX
 8
K_RPER_1
 10
0
 20
0
 30
0
 70
128
 71
1
 72
35
 73
39
 74
39
 0
VERTEX
 8
K_RPER_1
 10
0
 20
0
 30
0
 70
128
 71
36
 72
37
 73
41
 74
40
 0
VERTEX
 8
K_RPER_1
 10
0
 20
0
 30
0
 70
128
 71
1
 72
59
 73
3
 74
3
 0
VERTEX
 8
K_RPER_1
 10
0
 20
0
 30
0
 70
128
 71
1
 72
39
 73
43
 74
43
 0
VERTEX
 8
K_RPER_1
 10
0
 20
0
 30
0
 70
128
 71
40
 72
41
 73
45
 74
44
 0
VERTEX
 8
K_RPER_1
 10
0
 20
0
 30
0
 70
128
 71
60
 72
61
 73
5
 74
4
 0
SEQEND
 0
POLYLINE
 8
W_RFEL
 66
1
 10
0.0
 20
0.0
 30
0.0
 70
64
 71
32
 72
27
 0
VERTEX
 8
W_RFEL
 10
10.7733
 20
-1.0671
 30
19.1818
 70
192
 0
VERTEX
 8
W_RFEL
 10
10.7733
 20
-1.5113
 30
19.2442
 70
192
 0
VERTEX
 8
W_RFEL
 10
11.1733
 20
-1.5113
 30
19.2442
 70
192
 0
VERTEX
 8
W_RFEL
 10
11.1733
 20
-1.0671
 30
19.1818
 70
192
 0
VERTEX
 8
W_RFEL
 10
10.7733
 20
-2.4038
 30
19.1821
 70
192
 0
VERTEX
 8
W_RFEL
 10
11.1733
 20
-2.4038
 30
19.1821
 70
192
 0
VERTEX
 8
W_RFEL
 10
10.7733
 20
-1.9597
 30
19.2443
 70
192
 0
VERTEX
 8
W_RFEL
 10
11.1733
 20
-1.9597
 30
19.2443
 70
192
 0
VERTEX
 8
W_RFEL
 10
10.7733
 20
-2.4855
 30
17.4021
 70
192
 0
VERTEX
 8
W_RFEL
 10
11.1733
 20
-2.4855
 30
17.4021
 70
192
 0
VERTEX
 8
W_RFEL
 10
11.3233
 20
-2.3355
 30
17.4021
 70
192
 0
VERTEX
 8
W_RFEL
 10
11.3233
 20
-1.9355
 30
17.4021
 70
192
 0
VERTEX
 8
W_RFEL
 10
11.3233
 20
-1.5355
 30
17.4021
 70
192
 0
VERTEX
 8
W_RFEL
 10
11.3233
 20
-1.1355
 30
17.4021
 70
192
 0
VERTEX
 8
W_RFEL
 10
11.1733
 20
-0.9855
 30
17.4021
 70
192
 0
VERTEX
 8
W_RFEL
 10
10.7733
 20
-0.9855
 30
17.4021
 70
192
 0
VERTEX
 8
W_RFEL
 10
10.6233
 20
-1.1355
 30
17.4021
 70
192
 0
VERTEX
 8
W_RFEL
 10
10.6233
 20
-1.5355
 30
17.4021
 70
192
 0
VERTEX
 8
W_RFEL
 10
10.6233
 20
-1.9355
 30
17.4021
 70
192
 0
VERTEX
 8
W_RFEL
 10
10.6233
 20
-2.3355
 30
17.4021
 70
192
 0
VERTEX
 8
W_RFEL
 10
10.7733
 20
-2.5288
 30
18.9979
 70
192
 0
VERTEX
 8
W_RFEL
 10
11.1733
 20
-2.5288
 30
18.9979
 70
192
 0
VERTEX
 8
W_RFEL
 10
11.3233
 20
-2.3727
 30
19.0353
 70
192
 0
VERTEX
 8
W_RFEL
 10
11.3233
 20
-1.9493
 30
19.0947
 70
192
 0
VERTEX
 8
W_RFEL
 10
11.3233
 20
-1.5217
 30
19.0946
 70
192
 0
VERTEX
 8
W_RFEL
 10
11.3233
 20
-1.0983
 30
19.0351
 70
192
 0
VERTEX
 8
W_RFEL
 10
11.1733
 20
-0.9423
 30
18.9977
 70
192
 0
VERTEX
 8
W_RFEL
 10
10.7733
 20
-0.9423
 30
18.9977
 70
192
 0
VERTEX
 8
W_RFEL
 10
10.6233
 20
-1.0983
 30
19.0351
 70
192
 0
VERTEX
 8
W_RFEL
 10
10.6233
 20
-1.5217
 30
19.0946
 70
192
 0
VERTEX
 8
W_RFEL
 10
10.6233
 20
-1.9493
 30
19.0947
 70
192
 0
VERTEX
 8
W_RFEL
 10
10.6233
 20
-2.3727
 30
19.0353
 70
192
 0
VERTEX
 8
W_RFEL
 10
0
 20
0
 30
0
 70
128
 71
31
 72
7
 73
5
 74
32
 0
VERTEX
 8
W_RFEL
 10
0
 20
0
 30
0
 70
128
 71
9
 72
21
 73
22
 74
10
 0
VERTEX
 8
W_RFEL
 10
0
 20
0
 30
0
 70
128
 71
21
 72
5
 73
6
 74
22
 0
VERTEX
 8
W_RFEL
 10
0
 20
0
 30
0
 70
128
 71
20
 72
32
 73
21
 74
9
 0
VERTEX
 8
W_RFEL
 10
0
 20
0
 30
0
 70
128
 71
10
 72
22
 73
23
 74
11
 0
VERTEX
 8
W_RFEL
 10
0
 20
0
 30
0
 70
128
 71
22
 72
6
 73
23
 74
23
 0
VERTEX
 8
W_RFEL
 10
0
 20
0
 30
0
 70
128
 71
32
 72
5
 73
21
 74
21
 0
VERTEX
 8
W_RFEL
 10
0
 20
0
 30
0
 70
128
 71
11
 72
23
 73
24
 74
12
 0
VERTEX
 8
W_RFEL
 10
0
 20
0
 30
0
 70
128
 71
23
 72
6
 73
8
 74
24
 0
VERTEX
 8
W_RFEL
 10
0
 20
0
 30
0
 70
128
 71
2
 72
1
 73
4
 74
3
 0
VERTEX
 8
W_RFEL
 10
0
 20
0
 30
0
 70
128
 71
12
 72
24
 73
25
 74
13
 0
VERTEX
 8
W_RFEL
 10
0
 20
0
 30
0
 70
128
 71
24
 72
8
 73
3
 74
25
 0
VERTEX
 8
W_RFEL
 10
0
 20
0
 30
0
 70
128
 71
19
 72
31
 73
32
 74
20
 0
VERTEX
 8
W_RFEL
 10
0
 20
0
 30
0
 70
128
 71
13
 72
25
 73
26
 74
14
 0
VERTEX
 8
W_RFEL
 10
0
 20
0
 30
0
 70
128
 71
25
 72
3
 73
4
 74
26
 0
VERTEX
 8
W_RFEL
 10
0
 20
0
 30
0
 70
128
 71
7
 72
2
 73
3
 74
8
 0
VERTEX
 8
W_RFEL
 10
0
 20
0
 30
0
 70
128
 71
14
 72
26
 73
27
 74
15
 0
VERTEX
 8
W_RFEL
 10
0
 20
0
 30
0
 70
128
 71
26
 72
4
 73
27
 74
27
 0
VERTEX
 8
W_RFEL
 10
0
 20
0
 30
0
 70
128
 71
18
 72
30
 73
31
 74
19
 0
VERTEX
 8
W_RFEL
 10
0
 20
0
 30
0
 70
128
 71
15
 72
27
 73
28
 74
16
 0
VERTEX
 8
W_RFEL
 10
0
 20
0
 30
0
 70
128
 71
27
 72
4
 73
1
 74
28
 0
VERTEX
 8
W_RFEL
 10
0
 20
0
 30
0
 70
128
 71
30
 72
2
 73
7
 74
31
 0
VERTEX
 8
W_RFEL
 10
0
 20
0
 30
0
 70
128
 71
16
 72
28
 73
29
 74
17
 0
VERTEX
 8
W_RFEL
 10
0
 20
0
 30
0
 70
128
 71
28
 72
1
 73
29
 74
29
 0
VERTEX
 8
W_RFEL
 10
0
 20
0
 30
0
 70
128
 71
5
 72
7
 73
8
 74
6
 0
VERTEX
 8
W_RFEL
 10
0
 20
0
 30
0
 70
128
 71
17
 72
29
 73
30
 74
18
 0
VERTEX
 8
W_RFEL
 10
0
 20
0
 30
0
 70
128
 71
29
 72
1
 73
2
 74
30
 0
SEQEND
 0
POLYLINE
 8
GRIFF_20
 66
1
 10
0.0
 20
0.0
 30
0.0
 70
64
 71
12
 72
6
 0
VERTEX
 8
GRIFF_20
 10
13.1026
 20
-1.7389
 30
16.4729
 70
192
 0
VERTEX
 8
GRIFF_20
 10
15.1026
 20
-1.7389
 30
16.4729
 70
192
 0
VERTEX
 8
GRIFF_20
 10
13.1026
 20
-1.3058
 30
16.7229
 70
192
 0
VERTEX
 8
GRIFF_20
 10
15.1026
 20
-1.3058
 30
16.7229
 70
192
 0
VERTEX
 8
GRIFF_20
 10
13.1026
 20
-1.3058
 30
17.2229
 70
192
 0
VERTEX
 8
GRIFF_20
 10
15.1026
 20
-1.3058
 30
17.2229
 70
192
 0
VERTEX
 8
GRIFF_20
 10
13.1026
 20
-1.7389
 30
17.4729
 70
192
 0
VERTEX
 8
GRIFF_20
 10
15.1026
 20
-1.7389
 30
17.4729
 70
192
 0
VERTEX
 8
GRIFF_20
 10
13.1026
 20
-2.1719
 30
17.2229
 70
192
 0
VERTEX
 8
GRIFF_20
 10
15.1026
 20
-2.1719
 30
17.2229
 70
192
 0
VERTEX
 8
GRIFF_20
 10
13.1026
 20
-2.1719
 30
16.7229
 70
192
 0
VERTEX
 8
GRIFF_20
 10
15.1026
 20
-2.1719
 30
16.7229
 70
192
 0
VERTEX
 8
GRIFF_20
 10
0
 20
0
 30
0
 70
128
 71
1
 72
2
 73
4
 74
3
 0
VERTEX
 8
GRIFF_20
 10
0
 20
0
 30
0
 70
128
 71
3
 72
4
 73
6
 74
5
 0
VERTEX
 8
GRIFF_20
 10
0
 20
0
 30
0
 70
128
 71
5
 72
6
 73
8
 74
7
 0
VERTEX
 8
GRIFF_20
 10
0
 20
0
 30
0
 70
128
 71
7
 72
8
 73
10
 74
9
 0
VERTEX
 8
GRIFF_20
 10
0
 20
0
 30
0
 70
128
 71
9
 72
10
 73
12
 74
11
 0
VERTEX
 8
GRIFF_20
 10
0
 20
0
 30
0
 70
128
 71
11
 72
12
 73
2
 74
1
 0
SEQEND
 0
POLYLINE
 8
GRIFF_19
 66
1
 10
0.0
 20
0.0
 30
0.0
 70
64
 71
12
 72
6
 0
VERTEX
 8
GRIFF_19
 10
15.8023
 20
-2.0346
 30
17.2686
 70
192
 0
VERTEX
 8
GRIFF_19
 10
15.8023
 20
-2.8831
 30
18.1171
 70
192
 0
VERTEX
 8
GRIFF_19
 10
15.6273
 20
-1.8202
 30
17.4829
 70
192
 0
VERTEX
 8
GRIFF_19
 10
15.6273
 20
-2.6688
 30
18.3314
 70
192
 0
VERTEX
 8
GRIFF_19
 10
15.2773
 20
-1.8202
 30
17.4829
 70
192
 0
VERTEX
 8
GRIFF_19
 10
15.2773
 20
-2.6688
 30
18.3314
 70
192
 0
VERTEX
 8
GRIFF_19
 10
15.1023
 20
-2.0346
 30
17.2686
 70
192
 0
VERTEX
 8
GRIFF_19
 10
15.1023
 20
-2.8831
 30
18.1171
 70
192
 0
VERTEX
 8
GRIFF_19
 10
15.2773
 20
-2.2489
 30
17.0543
 70
192
 0
VERTEX
 8
GRIFF_19
 10
15.2773
 20
-3.0974
 30
17.9028
 70
192
 0
VERTEX
 8
GRIFF_19
 10
15.6273
 20
-2.2489
 30
17.0543
 70
192
 0
VERTEX
 8
GRIFF_19
 10
15.6273
 20
-3.0974
 30
17.9028
 70
192
 0
VERTEX
 8
GRIFF_19
 10
0
 20
0
 30
0
 70
128
 71
1
 72
2
 73
4
 74
3
 0
VERTEX
 8
GRIFF_19
 10
0
 20
0
 30
0
 70
128
 71
3
 72
4
 73
6
 74
5
 0
VERTEX
 8
GRIFF_19
 10
0
 20
0
 30
0
 70
128
 71
5
 72
6
 73
8
 74
7
 0
VERTEX
 8
GRIFF_19
 10
0
 20
0
 30
0
 70
128
 71
7
 72
8
 73
10
 74
9
 0
VERTEX
 8
GRIFF_19
 10
0
 20
0
 30
0
 70
128
 71
9
 72
10
 73
12
 74
11
 0
VERTEX
 8
GRIFF_19
 10
0
 20
0
 30
0
 70
128
 71
11
 72
12
 73
2
 74
1
 0
SEQEND
 0
POLYLINE
 8
GRIFF_18
 66
1
 10
0.0
 20
0.0
 30
0.0
 70
64
 71
34
 72
24
 0
VERTEX
 8
GRIFF_18
 10
15.4545
 20
-2.4305
 30
17.6645
 70
192
 0
VERTEX
 8
GRIFF_18
 10
15.4545
 20
-3.8447
 30
19.0787
 70
192
 0
VERTEX
 8
GRIFF_18
 10
15.9545
 20
-2.4305
 30
17.6645
 70
192
 0
VERTEX
 8
GRIFF_18
 10
15.9545
 20
-2.4305
 30
17.6645
 70
192
 0
VERTEX
 8
GRIFF_18
 10
15.9545
 20
-3.8447
 30
19.0787
 70
192
 0
VERTEX
 8
GRIFF_18
 10
15.9545
 20
-3.8447
 30
19.0787
 70
192
 0
VERTEX
 8
GRIFF_18
 10
15.808
 20
-2.1805
 30
17.9145
 70
192
 0
VERTEX
 8
GRIFF_18
 10
15.808
 20
-2.1805
 30
17.9145
 70
192
 0
VERTEX
 8
GRIFF_18
 10
15.808
 20
-3.5947
 30
19.3287
 70
192
 0
VERTEX
 8
GRIFF_18
 10
15.808
 20
-3.5947
 30
19.3287
 70
192
 0
VERTEX
 8
GRIFF_18
 10
15.4545
 20
-2.0769
 30
18.018
 70
192
 0
VERTEX
 8
GRIFF_18
 10
15.4545
 20
-2.0769
 30
18.018
 70
192
 0
VERTEX
 8
GRIFF_18
 10
15.4545
 20
-3.4911
 30
19.4323
 70
192
 0
VERTEX
 8
GRIFF_18
 10
15.4545
 20
-3.4911
 30
19.4323
 70
192
 0
VERTEX
 8
GRIFF_18
 10
15.1009
 20
-2.1805
 30
17.9145
 70
192
 0
VERTEX
 8
GRIFF_18
 10
15.1009
 20
-2.1805
 30
17.9145
 70
192
 0
VERTEX
 8
GRIFF_18
 10
15.1009
 20
-3.5947
 30
19.3287
 70
192
 0
VERTEX
 8
GRIFF_18
 10
15.1009
 20
-3.5947
 30
19.3287
 70
192
 0
VERTEX
 8
GRIFF_18
 10
14.9545
 20
-2.4305
 30
17.6645
 70
192
 0
VERTEX
 8
GRIFF_18
 10
14.9545
 20
-2.4305
 30
17.6645
 70
192
 0
VERTEX
 8
GRIFF_18
 10
14.9545
 20
-3.8447
 30
19.0787
 70
192
 0
VERTEX
 8
GRIFF_18
 10
14.9545
 20
-3.8447
 30
19.0787
 70
192
 0
VERTEX
 8
GRIFF_18
 10
15.1009
 20
-2.6805
 30
17.4145
 70
192
 0
VERTEX
 8
GRIFF_18
 10
15.1009
 20
-2.6805
 30
17.4145
 70
192
 0
VERTEX
 8
GRIFF_18
 10
15.1009
 20
-4.0947
 30
18.8287
 70
192
 0
VERTEX
 8
GRIFF_18
 10
15.1009
 20
-4.0947
 30
18.8287
 70
192
 0
VERTEX
 8
GRIFF_18
 10
15.4545
 20
-2.784
 30
17.3109
 70
192
 0
VERTEX
 8
GRIFF_18
 10
15.4545
 20
-2.784
 30
17.3109
 70
192
 0
VERTEX
 8
GRIFF_18
 10
15.4545
 20
-4.1982
 30
18.7251
 70
192
 0
VERTEX
 8
GRIFF_18
 10
15.4545
 20
-4.1982
 30
18.7251
 70
192
 0
VERTEX
 8
GRIFF_18
 10
15.808
 20
-2.6805
 30
17.4145
 70
192
 0
VERTEX
 8
GRIFF_18
 10
15.808
 20
-2.6805
 30
17.4145
 70
192
 0
VERTEX
 8
GRIFF_18
 10
15.808
 20
-4.0947
 30
18.8287
 70
192
 0
VERTEX
 8
GRIFF_18
 10
15.808
 20
-4.0947
 30
18.8287
 70
192
 0
VERTEX
 8
GRIFF_18
 10
0
 20
0
 30
0
 70
128
 71
1
 72
3
 73
7
 74
7
 0
VERTEX
 8
GRIFF_18
 10
0
 20
0
 30
0
 70
128
 71
4
 72
5
 73
9
 74
8
 0
VERTEX
 8
GRIFF_18
 10
0
 20
0
 30
0
 70
128
 71
6
 72
2
 73
10
 74
10
 0
VERTEX
 8
GRIFF_18
 10
0
 20
0
 30
0
 70
128
 71
1
 72
7
 73
11
 74
11
 0
VERTEX
 8
GRIFF_18
 10
0
 20
0
 30
0
 70
128
 71
8
 72
9
 73
13
 74
12
 0
VERTEX
 8
GRIFF_18
 10
0
 20
0
 30
0
 70
128
 71
10
 72
2
 73
14
 74
14
 0
VERTEX
 8
GRIFF_18
 10
0
 20
0
 30
0
 70
128
 71
1
 72
11
 73
15
 74
15
 0
VERTEX
 8
GRIFF_18
 10
0
 20
0
 30
0
 70
128
 71
12
 72
13
 73
17
 74
16
 0
VERTEX
 8
GRIFF_18
 10
0
 20
0
 30
0
 70
128
 71
14
 72
2
 73
18
 74
18
 0
VERTEX
 8
GRIFF_18
 10
0
 20
0
 30
0
 70
128
 71
1
 72
15
 73
19
 74
19
 0
VERTEX
 8
GRIFF_18
 10
0
 20
0
 30
0
 70
128
 71
16
 72
17
 73
21
 74
20
 0
VERTEX
 8
GRIFF_18
 10
0
 20
0
 30
0
 70
128
 71
18
 72
2
 73
22
 74
22
 0
VERTEX
 8
GRIFF_18
 10
0
 20
0
 30
0
 70
128
 71
1
 72
19
 73
23
 74
23
 0
VERTEX
 8
GRIFF_18
 10
0
 20
0
 30
0
 70
128
 71
20
 72
21
 73
25
 74
24
 0
VERTEX
 8
GRIFF_18
 10
0
 20
0
 30
0
 70
128
 71
22
 72
2
 73
26
 74
26
 0
VERTEX
 8
GRIFF_18
 10
0
 20
0
 30
0
 70
128
 71
1
 72
23
 73
27
 74
27
 0
VERTEX
 8
GRIFF_18
 10
0
 20
0
 30
0
 70
128
 71
24
 72
25
 73
29
 74
28
 0
VERTEX
 8
GRIFF_18
 10
0
 20
0
 30
0
 70
128
 71
26
 72
2
 73
30
 74
30
 0
VERTEX
 8
GRIFF_18
 10
0
 20
0
 30
0
 70
128
 71
1
 72
27
 73
31
 74
31
 0
VERTEX
 8
GRIFF_18
 10
0
 20
0
 30
0
 70
128
 71
28
 72
29
 73
33
 74
32
 0
VERTEX
 8
GRIFF_18
 10
0
 20
0
 30
0
 70
128
 71
30
 72
2
 73
34
 74
34
 0
VERTEX
 8
GRIFF_18
 10
0
 20
0
 30
0
 70
128
 71
1
 72
31
 73
3
 74
3
 0
VERTEX
 8
GRIFF_18
 10
0
 20
0
 30
0
 70
128
 71
32
 72
33
 73
5
 74
4
 0
VERTEX
 8
GRIFF_18
 10
0
 20
0
 30
0
 70
128
 71
34
 72
2
 73
6
 74
6
 0
SEQEND
 0
POLYLINE
 8
GRIFF_17
 66
1
 10
0.0
 20
0.0
 30
0.0
 70
64
 71
12
 72
6
 0
VERTEX
 8
GRIFF_17
 10
15.8023
 20
-1.4185
 30
16.6525
 70
192
 0
VERTEX
 8
GRIFF_17
 10
15.8023
 20
-0.57
 30
15.804
 70
192
 0
VERTEX
 8
GRIFF_17
 10
15.6273
 20
-1.6328
 30
16.4382
 70
192
 0
VERTEX
 8
GRIFF_17
 10
15.6273
 20
-0.7843
 30
15.5897
 70
192
 0
VERTEX
 8
GRIFF_17
 10
15.2773
 20
-1.6328
 30
16.4382
 70
192
 0
VERTEX
 8
GRIFF_17
 10
15.2773
 20
-0.7843
 30
15.5897
 70
192
 0
VERTEX
 8
GRIFF_17
 10
15.1023
 20
-1.4185
 30
16.6525
 70
192
 0
VERTEX
 8
GRIFF_17
 10
15.1023
 20
-0.57
 30
15.804
 70
192
 0
VERTEX
 8
GRIFF_17
 10
15.2773
 20
-1.2042
 30
16.8669
 70
192
 0
VERTEX
 8
GRIFF_17
 10
15.2773
 20
-0.3557
 30
16.0183
 70
192
 0
VERTEX
 8
GRIFF_17
 10
15.6273
 20
-1.2042
 30
16.8669
 70
192
 0
VERTEX
 8
GRIFF_17
 10
15.6273
 20
-0.3557
 30
16.0183
 70
192
 0
VERTEX
 8
GRIFF_17
 10
0
 20
0
 30
0
 70
128
 71
1
 72
2
 73
4
 74
3
 0
VERTEX
 8
GRIFF_17
 10
0
 20
0
 30
0
 70
128
 71
3
 72
4
 73
6
 74
5
 0
VERTEX
 8
GRIFF_17
 10
0
 20
0
 30
0
 70
128
 71
5
 72
6
 73
8
 74
7
 0
VERTEX
 8
GRIFF_17
 10
0
 20
0
 30
0
 70
128
 71
7
 72
8
 73
10
 74
9
 0
VERTEX
 8
GRIFF_17
 10
0
 20
0
 30
0
 70
128
 71
9
 72
10
 73
12
 74
11
 0
VERTEX
 8
GRIFF_17
 10
0
 20
0
 30
0
 70
128
 71
11
 72
12
 73
2
 74
1
 0
SEQEND
 0
POLYLINE
 8
GRIFF_16
 66
1
 10
0.0
 20
0.0
 30
0.0
 70
64
 71
34
 72
24
 0
VERTEX
 8
GRIFF_16
 10
15.4545
 20
-1.0355
 30
16.2695
 70
192
 0
VERTEX
 8
GRIFF_16
 10
15.4545
 20
0.3787
 30
14.8553
 70
192
 0
VERTEX
 8
GRIFF_16
 10
15.9545
 20
-1.0355
 30
16.2695
 70
192
 0
VERTEX
 8
GRIFF_16
 10
15.9545
 20
-1.0355
 30
16.2695
 70
192
 0
VERTEX
 8
GRIFF_16
 10
15.9545
 20
0.3787
 30
14.8553
 70
192
 0
VERTEX
 8
GRIFF_16
 10
15.9545
 20
0.3787
 30
14.8553
 70
192
 0
VERTEX
 8
GRIFF_16
 10
15.808
 20
-1.2855
 30
16.0195
 70
192
 0
VERTEX
 8
GRIFF_16
 10
15.808
 20
-1.2855
 30
16.0195
 70
192
 0
VERTEX
 8
GRIFF_16
 10
15.808
 20
0.1287
 30
14.6053
 70
192
 0
VERTEX
 8
GRIFF_16
 10
15.808
 20
0.1287
 30
14.6053
 70
192
 0
VERTEX
 8
GRIFF_16
 10
15.4545
 20
-1.3891
 30
15.916
 70
192
 0
VERTEX
 8
GRIFF_16
 10
15.4545
 20
-1.3891
 30
15.916
 70
192
 0
VERTEX
 8
GRIFF_16
 10
15.4545
 20
0.0251
 30
14.5018
 70
192
 0
VERTEX
 8
GRIFF_16
 10
15.4545
 20
0.0251
 30
14.5018
 70
192
 0
VERTEX
 8
GRIFF_16
 10
15.1009
 20
-1.2855
 30
16.0195
 70
192
 0
VERTEX
 8
GRIFF_16
 10
15.1009
 20
-1.2855
 30
16.0195
 70
192
 0
VERTEX
 8
GRIFF_16
 10
15.1009
 20
0.1287
 30
14.6053
 70
192
 0
VERTEX
 8
GRIFF_16
 10
15.1009
 20
0.1287
 30
14.6053
 70
192
 0
VERTEX
 8
GRIFF_16
 10
14.9545
 20
-1.0355
 30
16.2695
 70
192
 0
VERTEX
 8
GRIFF_16
 10
14.9545
 20
-1.0355
 30
16.2695
 70
192
 0
VERTEX
 8
GRIFF_16
 10
14.9545
 20
0.3787
 30
14.8553
 70
192
 0
VERTEX
 8
GRIFF_16
 10
14.9545
 20
0.3787
 30
14.8553
 70
192
 0
VERTEX
 8
GRIFF_16
 10
15.1009
 20
-0.7855
 30
16.5195
 70
192
 0
VERTEX
 8
GRIFF_16
 10
15.1009
 20
-0.7855
 30
16.5195
 70
192
 0
VERTEX
 8
GRIFF_16
 10
15.1009
 20
0.6287
 30
15.1053
 70
192
 0
VERTEX
 8
GRIFF_16
 10
15.1009
 20
0.6287
 30
15.1053
 70
192
 0
VERTEX
 8
GRIFF_16
 10
15.4545
 20
-0.682
 30
16.6231
 70
192
 0
VERTEX
 8
GRIFF_16
 10
15.4545
 20
-0.682
 30
16.6231
 70
192
 0
VERTEX
 8
GRIFF_16
 10
15.4545
 20
0.7322
 30
15.2089
 70
192
 0
VERTEX
 8
GRIFF_16
 10
15.4545
 20
0.7322
 30
15.2089
 70
192
 0
VERTEX
 8
GRIFF_16
 10
15.808
 20
-0.7855
 30
16.5195
 70
192
 0
VERTEX
 8
GRIFF_16
 10
15.808
 20
-0.7855
 30
16.5195
 70
192
 0
VERTEX
 8
GRIFF_16
 10
15.808
 20
0.6287
 30
15.1053
 70
192
 0
VERTEX
 8
GRIFF_16
 10
15.808
 20
0.6287
 30
15.1053
 70
192
 0
VERTEX
 8
GRIFF_16
 10
0
 20
0
 30
0
 70
128
 71
1
 72
3
 73
7
 74
7
 0
VERTEX
 8
GRIFF_16
 10
0
 20
0
 30
0
 70
128
 71
4
 72
5
 73
9
 74
8
 0
VERTEX
 8
GRIFF_16
 10
0
 20
0
 30
0
 70
128
 71
6
 72
2
 73
10
 74
10
 0
VERTEX
 8
GRIFF_16
 10
0
 20
0
 30
0
 70
128
 71
1
 72
7
 73
11
 74
11
 0
VERTEX
 8
GRIFF_16
 10
0
 20
0
 30
0
 70
128
 71
8
 72
9
 73
13
 74
12
 0
VERTEX
 8
GRIFF_16
 10
0
 20
0
 30
0
 70
128
 71
10
 72
2
 73
14
 74
14
 0
VERTEX
 8
GRIFF_16
 10
0
 20
0
 30
0
 70
128
 71
1
 72
11
 73
15
 74
15
 0
VERTEX
 8
GRIFF_16
 10
0
 20
0
 30
0
 70
128
 71
12
 72
13
 73
17
 74
16
 0
VERTEX
 8
GRIFF_16
 10
0
 20
0
 30
0
 70
128
 71
14
 72
2
 73
18
 74
18
 0
VERTEX
 8
GRIFF_16
 10
0
 20
0
 30
0
 70
128
 71
1
 72
15
 73
19
 74
19
 0
VERTEX
 8
GRIFF_16
 10
0
 20
0
 30
0
 70
128
 71
16
 72
17
 73
21
 74
20
 0
VERTEX
 8
GRIFF_16
 10
0
 20
0
 30
0
 70
128
 71
18
 72
2
 73
22
 74
22
 0
VERTEX
 8
GRIFF_16
 10
0
 20
0
 30
0
 70
128
 71
1
 72
19
 73
23
 74
23
 0
VERTEX
 8
GRIFF_16
 10
0
 20
0
 30
0
 70
128
 71
20
 72
21
 73
25
 74
24
 0
VERTEX
 8
GRIFF_16
 10
0
 20
0
 30
0
 70
128
 71
22
 72
2
 73
26
 74
26
 0
VERTEX
 8
GRIFF_16
 10
0
 20
0
 30
0
 70
128
 71
1
 72
23
 73
27
 74
27
 0
VERTEX
 8
GRIFF_16
 10
0
 20
0
 30
0
 70
128
 71
24
 72
25
 73
29
 74
28
 0
VERTEX
 8
GRIFF_16
 10
0
 20
0
 30
0
 70
128
 71
26
 72
2
 73
30
 74
30
 0
VERTEX
 8
GRIFF_16
 10
0
 20
0
 30
0
 70
128
 71
1
 72
27
 73
31
 74
31
 0
VERTEX
 8
GRIFF_16
 10
0
 20
0
 30
0
 70
128
 71
28
 72
29
 73
33
 74
32
 0
VERTEX
 8
GRIFF_16
 10
0
 20
0
 30
0
 70
128
 71
30
 72
2
 73
34
 74
34
 0
VERTEX
 8
GRIFF_16
 10
0
 20
0
 30
0
 70
128
 71
1
 72
31
 73
3
 74
3
 0
VERTEX
 8
GRIFF_16
 10
0
 20
0
 30
0
 70
128
 71
32
 72
33
 73
5
 74
4
 0
VERTEX
 8
GRIFF_16
 10
0
 20
0
 30
0
 70
128
 71
34
 72
2
 73
6
 74
6
 0
SEQEND
 0
POLYLINE
 8
GRIFF_15
 66
1
 10
0.0
 20
0.0
 30
0.0
 70
64
 71
12
 72
6
 0
VERTEX
 8
GRIFF_15
 10
15.8023
 20
-2.1168
 30
16.6215
 70
192
 0
VERTEX
 8
GRIFF_15
 10
15.8023
 20
-2.9653
 30
15.7729
 70
192
 0
VERTEX
 8
GRIFF_15
 10
15.6273
 20
-2.3311
 30
16.8358
 70
192
 0
VERTEX
 8
GRIFF_15
 10
15.6273
 20
-3.1797
 30
15.9873
 70
192
 0
VERTEX
 8
GRIFF_15
 10
15.2773
 20
-2.3311
 30
16.8358
 70
192
 0
VERTEX
 8
GRIFF_15
 10
15.2773
 20
-3.1797
 30
15.9873
 70
192
 0
VERTEX
 8
GRIFF_15
 10
15.1023
 20
-2.1168
 30
16.6215
 70
192
 0
VERTEX
 8
GRIFF_15
 10
15.1023
 20
-2.9653
 30
15.7729
 70
192
 0
VERTEX
 8
GRIFF_15
 10
15.2773
 20
-1.9025
 30
16.4071
 70
192
 0
VERTEX
 8
GRIFF_15
 10
15.2773
 20
-2.751
 30
15.5586
 70
192
 0
VERTEX
 8
GRIFF_15
 10
15.6273
 20
-1.9025
 30
16.4071
 70
192
 0
VERTEX
 8
GRIFF_15
 10
15.6273
 20
-2.751
 30
15.5586
 70
192
 0
VERTEX
 8
GRIFF_15
 10
0
 20
0
 30
0
 70
128
 71
1
 72
2
 73
4
 74
3
 0
VERTEX
 8
GRIFF_15
 10
0
 20
0
 30
0
 70
128
 71
3
 72
4
 73
6
 74
5
 0
VERTEX
 8
GRIFF_15
 10
0
 20
0
 30
0
 70
128
 71
5
 72
6
 73
8
 74
7
 0
VERTEX
 8
GRIFF_15
 10
0
 20
0
 30
0
 70
128
 71
7
 72
8
 73
10
 74
9
 0
VERTEX
 8
GRIFF_15
 10
0
 20
0
 30
0
 70
128
 71
9
 72
10
 73
12
 74
11
 0
VERTEX
 8
GRIFF_15
 10
0
 20
0
 30
0
 70
128
 71
11
 72
12
 73
2
 74
1
 0
SEQEND
 0
POLYLINE
 8
GRIFF_14
 66
1
 10
0.0
 20
0.0
 30
0.0
 70
64
 71
34
 72
24
 0
VERTEX
 8
GRIFF_14
 10
15.4545
 20
-2.4998
 30
16.2385
 70
192
 0
VERTEX
 8
GRIFF_14
 10
15.4545
 20
-3.914
 30
14.8243
 70
192
 0
VERTEX
 8
GRIFF_14
 10
15.9545
 20
-2.4998
 30
16.2385
 70
192
 0
VERTEX
 8
GRIFF_14
 10
15.9545
 20
-2.4998
 30
16.2385
 70
192
 0
VERTEX
 8
GRIFF_14
 10
15.9545
 20
-3.914
 30
14.8243
 70
192
 0
VERTEX
 8
GRIFF_14
 10
15.9545
 20
-3.914
 30
14.8243
 70
192
 0
VERTEX
 8
GRIFF_14
 10
15.808
 20
-2.7498
 30
16.4885
 70
192
 0
VERTEX
 8
GRIFF_14
 10
15.808
 20
-2.7498
 30
16.4885
 70
192
 0
VERTEX
 8
GRIFF_14
 10
15.808
 20
-4.164
 30
15.0743
 70
192
 0
VERTEX
 8
GRIFF_14
 10
15.808
 20
-4.164
 30
15.0743
 70
192
 0
VERTEX
 8
GRIFF_14
 10
15.4545
 20
-2.8533
 30
16.592
 70
192
 0
VERTEX
 8
GRIFF_14
 10
15.4545
 20
-2.8533
 30
16.592
 70
192
 0
VERTEX
 8
GRIFF_14
 10
15.4545
 20
-4.2676
 30
15.1778
 70
192
 0
VERTEX
 8
GRIFF_14
 10
15.4545
 20
-4.2676
 30
15.1778
 70
192
 0
VERTEX
 8
GRIFF_14
 10
15.1009
 20
-2.7498
 30
16.4885
 70
192
 0
VERTEX
 8
GRIFF_14
 10
15.1009
 20
-2.7498
 30
16.4885
 70
192
 0
VERTEX
 8
GRIFF_14
 10
15.1009
 20
-4.164
 30
15.0743
 70
192
 0
VERTEX
 8
GRIFF_14
 10
15.1009
 20
-4.164
 30
15.0743
 70
192
 0
VERTEX
 8
GRIFF_14
 10
14.9545
 20
-2.4998
 30
16.2385
 70
192
 0
VERTEX
 8
GRIFF_14
 10
14.9545
 20
-2.4998
 30
16.2385
 70
192
 0
VERTEX
 8
GRIFF_14
 10
14.9545
 20
-3.914
 30
14.8243
 70
192
 0
VERTEX
 8
GRIFF_14
 10
14.9545
 20
-3.914
 30
14.8243
 70
192
 0
VERTEX
 8
GRIFF_14
 10
15.1009
 20
-2.2498
 30
15.9885
 70
192
 0
VERTEX
 8
GRIFF_14
 10
15.1009
 20
-2.2498
 30
15.9885
 70
192
 0
VERTEX
 8
GRIFF_14
 10
15.1009
 20
-3.664
 30
14.5743
 70
192
 0
VERTEX
 8
GRIFF_14
 10
15.1009
 20
-3.664
 30
14.5743
 70
192
 0
VERTEX
 8
GRIFF_14
 10
15.4545
 20
-2.1462
 30
15.8849
 70
192
 0
VERTEX
 8
GRIFF_14
 10
15.4545
 20
-2.1462
 30
15.8849
 70
192
 0
VERTEX
 8
GRIFF_14
 10
15.4545
 20
-3.5605
 30
14.4707
 70
192
 0
VERTEX
 8
GRIFF_14
 10
15.4545
 20
-3.5605
 30
14.4707
 70
192
 0
VERTEX
 8
GRIFF_14
 10
15.808
 20
-2.2498
 30
15.9885
 70
192
 0
VERTEX
 8
GRIFF_14
 10
15.808
 20
-2.2498
 30
15.9885
 70
192
 0
VERTEX
 8
GRIFF_14
 10
15.808
 20
-3.664
 30
14.5743
 70
192
 0
VERTEX
 8
GRIFF_14
 10
15.808
 20
-3.664
 30
14.5743
 70
192
 0
VERTEX
 8
GRIFF_14
 10
0
 20
0
 30
0
 70
128
 71
1
 72
3
 73
7
 74
7
 0
VERTEX
 8
GRIFF_14
 10
0
 20
0
 30
0
 70
128
 71
4
 72
5
 73
9
 74
8
 0
VERTEX
 8
GRIFF_14
 10
0
 20
0
 30
0
 70
128
 71
6
 72
2
 73
10
 74
10
 0
VERTEX
 8
GRIFF_14
 10
0
 20
0
 30
0
 70
128
 71
1
 72
7
 73
11
 74
11
 0
VERTEX
 8
GRIFF_14
 10
0
 20
0
 30
0
 70
128
 71
8
 72
9
 73
13
 74
12
 0
VERTEX
 8
GRIFF_14
 10
0
 20
0
 30
0
 70
128
 71
10
 72
2
 73
14
 74
14
 0
VERTEX
 8
GRIFF_14
 10
0
 20
0
 30
0
 70
128
 71
1
 72
11
 73
15
 74
15
 0
VERTEX
 8
GRIFF_14
 10
0
 20
0
 30
0
 70
128
 71
12
 72
13
 73
17
 74
16
 0
VERTEX
 8
GRIFF_14
 10
0
 20
0
 30
0
 70
128
 71
14
 72
2
 73
18
 74
18
 0
VERTEX
 8
GRIFF_14
 10
0
 20
0
 30
0
 70
128
 71
1
 72
15
 73
19
 74
19
 0
VERTEX
 8
GRIFF_14
 10
0
 20
0
 30
0
 70
128
 71
16
 72
17
 73
21
 74
20
 0
VERTEX
 8
GRIFF_14
 10
0
 20
0
 30
0
 70
128
 71
18
 72
2
 73
22
 74
22
 0
VERTEX
 8
GRIFF_14
 10
0
 20
0
 30
0
 70
128
 71
1
 72
19
 73
23
 74
23
 0
VERTEX
 8
GRIFF_14
 10
0
 20
0
 30
0
 70
128
 71
20
 72
21
 73
25
 74
24
 0
VERTEX
 8
GRIFF_14
 10
0
 20
0
 30
0
 70
128
 71
22
 72
2
 73
26
 74
26
 0
VERTEX
 8
GRIFF_14
 10
0
 20
0
 30
0
 70
128
 71
1
 72
23
 73
27
 74
27
 0
VERTEX
 8
GRIFF_14
 10
0
 20
0
 30
0
 70
128
 71
24
 72
25
 73
29
 74
28
 0
VERTEX
 8
GRIFF_14
 10
0
 20
0
 30
0
 70
128
 71
26
 72
2
 73
30
 74
30
 0
VERTEX
 8
GRIFF_14
 10
0
 20
0
 30
0
 70
128
 71
1
 72
27
 73
31
 74
31
 0
VERTEX
 8
GRIFF_14
 10
0
 20
0
 30
0
 70
128
 71
28
 72
29
 73
33
 74
32
 0
VERTEX
 8
GRIFF_14
 10
0
 20
0
 30
0
 70
128
 71
30
 72
2
 73
34
 74
34
 0
VERTEX
 8
GRIFF_14
 10
0
 20
0
 30
0
 70
128
 71
1
 72
31
 73
3
 74
3
 0
VERTEX
 8
GRIFF_14
 10
0
 20
0
 30
0
 70
128
 71
32
 72
33
 73
5
 74
4
 0
VERTEX
 8
GRIFF_14
 10
0
 20
0
 30
0
 70
128
 71
34
 72
2
 73
6
 74
6
 0
SEQEND
 0
POLYLINE
 8
GRIFF_13
 66
1
 10
0.0
 20
0.0
 30
0.0
 70
64
 71
12
 72
6
 0
VERTEX
 8
GRIFF_13
 10
15.8023
 20
-1.4134
 30
17.3249
 70
192
 0
VERTEX
 8
GRIFF_13
 10
15.8023
 20
-0.5648
 30
18.1734
 70
192
 0
VERTEX
 8
GRIFF_13
 10
15.6273
 20
-1.199
 30
17.1106
 70
192
 0
VERTEX
 8
GRIFF_13
 10
15.6273
 20
-0.3505
 30
17.9591
 70
192
 0
VERTEX
 8
GRIFF_13
 10
15.2773
 20
-1.199
 30
17.1106
 70
192
 0
VERTEX
 8
GRIFF_13
 10
15.2773
 20
-0.3505
 30
17.9591
 70
192
 0
VERTEX
 8
GRIFF_13
 10
15.1023
 20
-1.4134
 30
17.3249
 70
192
 0
VERTEX
 8
GRIFF_13
 10
15.1023
 20
-0.5648
 30
18.1734
 70
192
 0
VERTEX
 8
GRIFF_13
 10
15.2773
 20
-1.6277
 30
17.5392
 70
192
 0
VERTEX
 8
GRIFF_13
 10
15.2773
 20
-0.7792
 30
18.3877
 70
192
 0
VERTEX
 8
GRIFF_13
 10
15.6273
 20
-1.6277
 30
17.5392
 70
192
 0
VERTEX
 8
GRIFF_13
 10
15.6273
 20
-0.7792
 30
18.3877
 70
192
 0
VERTEX
 8
GRIFF_13
 10
0
 20
0
 30
0
 70
128
 71
1
 72
2
 73
4
 74
3
 0
VERTEX
 8
GRIFF_13
 10
0
 20
0
 30
0
 70
128
 71
3
 72
4
 73
6
 74
5
 0
VERTEX
 8
GRIFF_13
 10
0
 20
0
 30
0
 70
128
 71
5
 72
6
 73
8
 74
7
 0
VERTEX
 8
GRIFF_13
 10
0
 20
0
 30
0
 70
128
 71
7
 72
8
 73
10
 74
9
 0
VERTEX
 8
GRIFF_13
 10
0
 20
0
 30
0
 70
128
 71
9
 72
10
 73
12
 74
11
 0
VERTEX
 8
GRIFF_13
 10
0
 20
0
 30
0
 70
128
 71
11
 72
12
 73
2
 74
1
 0
SEQEND
 0
POLYLINE
 8
GRIFF_12
 66
1
 10
0.0
 20
0.0
 30
0.0
 70
64
 71
34
 72
24
 0
VERTEX
 8
GRIFF_12
 10
15.4545
 20
-1.0304
 30
17.7079
 70
192
 0
VERTEX
 8
GRIFF_12
 10
15.4545
 20
0.3838
 30
19.1221
 70
192
 0
VERTEX
 8
GRIFF_12
 10
15.9545
 20
-1.0304
 30
17.7079
 70
192
 0
VERTEX
 8
GRIFF_12
 10
15.9545
 20
-1.0304
 30
17.7079
 70
192
 0
VERTEX
 8
GRIFF_12
 10
15.9545
 20
0.3838
 30
19.1221
 70
192
 0
VERTEX
 8
GRIFF_12
 10
15.9545
 20
0.3838
 30
19.1221
 70
192
 0
VERTEX
 8
GRIFF_12
 10
15.808
 20
-0.7804
 30
17.4579
 70
192
 0
VERTEX
 8
GRIFF_12
 10
15.808
 20
-0.7804
 30
17.4579
 70
192
 0
VERTEX
 8
GRIFF_12
 10
15.808
 20
0.6338
 30
18.8721
 70
192
 0
VERTEX
 8
GRIFF_12
 10
15.808
 20
0.6338
 30
18.8721
 70
192
 0
VERTEX
 8
GRIFF_12
 10
15.4545
 20
-0.6768
 30
17.3543
 70
192
 0
VERTEX
 8
GRIFF_12
 10
15.4545
 20
-0.6768
 30
17.3543
 70
192
 0
VERTEX
 8
GRIFF_12
 10
15.4545
 20
0.7374
 30
18.7685
 70
192
 0
VERTEX
 8
GRIFF_12
 10
15.4545
 20
0.7374
 30
18.7685
 70
192
 0
VERTEX
 8
GRIFF_12
 10
15.1009
 20
-0.7804
 30
17.4579
 70
192
 0
VERTEX
 8
GRIFF_12
 10
15.1009
 20
-0.7804
 30
17.4579
 70
192
 0
VERTEX
 8
GRIFF_12
 10
15.1009
 20
0.6338
 30
18.8721
 70
192
 0
VERTEX
 8
GRIFF_12
 10
15.1009
 20
0.6338
 30
18.8721
 70
192
 0
VERTEX
 8
GRIFF_12
 10
14.9545
 20
-1.0304
 30
17.7079
 70
192
 0
VERTEX
 8
GRIFF_12
 10
14.9545
 20
-1.0304
 30
17.7079
 70
192
 0
VERTEX
 8
GRIFF_12
 10
14.9545
 20
0.3838
 30
19.1221
 70
192
 0
VERTEX
 8
GRIFF_12
 10
14.9545
 20
0.3838
 30
19.1221
 70
192
 0
VERTEX
 8
GRIFF_12
 10
15.1009
 20
-1.2804
 30
17.9579
 70
192
 0
VERTEX
 8
GRIFF_12
 10
15.1009
 20
-1.2804
 30
17.9579
 70
192
 0
VERTEX
 8
GRIFF_12
 10
15.1009
 20
0.1338
 30
19.3721
 70
192
 0
VERTEX
 8
GRIFF_12
 10
15.1009
 20
0.1338
 30
19.3721
 70
192
 0
VERTEX
 8
GRIFF_12
 10
15.4545
 20
-1.3839
 30
18.0614
 70
192
 0
VERTEX
 8
GRIFF_12
 10
15.4545
 20
-1.3839
 30
18.0614
 70
192
 0
VERTEX
 8
GRIFF_12
 10
15.4545
 20
0.0303
 30
19.4756
 70
192
 0
VERTEX
 8
GRIFF_12
 10
15.4545
 20
0.0303
 30
19.4756
 70
192
 0
VERTEX
 8
GRIFF_12
 10
15.808
 20
-1.2804
 30
17.9579
 70
192
 0
VERTEX
 8
GRIFF_12
 10
15.808
 20
-1.2804
 30
17.9579
 70
192
 0
VERTEX
 8
GRIFF_12
 10
15.808
 20
0.1338
 30
19.3721
 70
192
 0
VERTEX
 8
GRIFF_12
 10
15.808
 20
0.1338
 30
19.3721
 70
192
 0
VERTEX
 8
GRIFF_12
 10
0
 20
0
 30
0
 70
128
 71
1
 72
3
 73
7
 74
7
 0
VERTEX
 8
GRIFF_12
 10
0
 20
0
 30
0
 70
128
 71
4
 72
5
 73
9
 74
8
 0
VERTEX
 8
GRIFF_12
 10
0
 20
0
 30
0
 70
128
 71
6
 72
2
 73
10
 74
10
 0
VERTEX
 8
GRIFF_12
 10
0
 20
0
 30
0
 70
128
 71
1
 72
7
 73
11
 74
11
 0
VERTEX
 8
GRIFF_12
 10
0
 20
0
 30
0
 70
128
 71
8
 72
9
 73
13
 74
12
 0
VERTEX
 8
GRIFF_12
 10
0
 20
0
 30
0
 70
128
 71
10
 72
2
 73
14
 74
14
 0
VERTEX
 8
GRIFF_12
 10
0
 20
0
 30
0
 70
128
 71
1
 72
11
 73
15
 74
15
 0
VERTEX
 8
GRIFF_12
 10
0
 20
0
 30
0
 70
128
 71
12
 72
13
 73
17
 74
16
 0
VERTEX
 8
GRIFF_12
 10
0
 20
0
 30
0
 70
128
 71
14
 72
2
 73
18
 74
18
 0
VERTEX
 8
GRIFF_12
 10
0
 20
0
 30
0
 70
128
 71
1
 72
15
 73
19
 74
19
 0
VERTEX
 8
GRIFF_12
 10
0
 20
0
 30
0
 70
128
 71
16
 72
17
 73
21
 74
20
 0
VERTEX
 8
GRIFF_12
 10
0
 20
0
 30
0
 70
128
 71
18
 72
2
 73
22
 74
22
 0
VERTEX
 8
GRIFF_12
 10
0
 20
0
 30
0
 70
128
 71
1
 72
19
 73
23
 74
23
 0
VERTEX
 8
GRIFF_12
 10
0
 20
0
 30
0
 70
128
 71
20
 72
21
 73
25
 74
24
 0
VERTEX
 8
GRIFF_12
 10
0
 20
0
 30
0
 70
128
 71
22
 72
2
 73
26
 74
26
 0
VERTEX
 8
GRIFF_12
 10
0
 20
0
 30
0
 70
128
 71
1
 72
23
 73
27
 74
27
 0
VERTEX
 8
GRIFF_12
 10
0
 20
0
 30
0
 70
128
 71
24
 72
25
 73
29
 74
28
 0
VERTEX
 8
GRIFF_12
 10
0
 20
0
 30
0
 70
128
 71
26
 72
2
 73
30
 74
30
 0
VERTEX
 8
GRIFF_12
 10
0
 20
0
 30
0
 70
128
 71
1
 72
27
 73
31
 74
31
 0
VERTEX
 8
GRIFF_12
 10
0
 20
0
 30
0
 70
128
 71
28
 72
29
 73
33
 74
32
 0
VERTEX
 8
GRIFF_12
 10
0
 20
0
 30
0
 70
128
 71
30
 72
2
 73
34
 74
34
 0
VERTEX
 8
GRIFF_12
 10
0
 20
0
 30
0
 70
128
 71
1
 72
31
 73
3
 74
3
 0
VERTEX
 8
GRIFF_12
 10
0
 20
0
 30
0
 70
128
 71
32
 72
33
 73
5
 74
4
 0
VERTEX
 8
GRIFF_12
 10
0
 20
0
 30
0
 70
128
 71
34
 72
2
 73
6
 74
6
 0
SEQEND
 0
POLYLINE
 8
GRIFF_11
 66
1
 10
0.0
 20
0.0
 30
0.0
 70
64
 71
42
 72
30
 0
VERTEX
 8
GRIFF_11
 10
14.9629
 20
-1.7389
 30
16.9729
 70
192
 0
VERTEX
 8
GRIFF_11
 10
15.9629
 20
-1.7389
 30
16.9729
 70
192
 0
VERTEX
 8
GRIFF_11
 10
14.9629
 20
-1.2439
 30
16.4779
 70
192
 0
VERTEX
 8
GRIFF_11
 10
14.9629
 20
-1.2439
 30
16.4779
 70
192
 0
VERTEX
 8
GRIFF_11
 10
15.9629
 20
-1.2439
 30
16.4779
 70
192
 0
VERTEX
 8
GRIFF_11
 10
15.9629
 20
-1.2439
 30
16.4779
 70
192
 0
VERTEX
 8
GRIFF_11
 10
14.9629
 20
-1.0475
 30
16.8634
 70
192
 0
VERTEX
 8
GRIFF_11
 10
14.9629
 20
-1.0475
 30
16.8634
 70
192
 0
VERTEX
 8
GRIFF_11
 10
15.9629
 20
-1.0475
 30
16.8634
 70
192
 0
VERTEX
 8
GRIFF_11
 10
15.9629
 20
-1.0475
 30
16.8634
 70
192
 0
VERTEX
 8
GRIFF_11
 10
14.9629
 20
-1.1152
 30
17.2907
 70
192
 0
VERTEX
 8
GRIFF_11
 10
14.9629
 20
-1.1152
 30
17.2907
 70
192
 0
VERTEX
 8
GRIFF_11
 10
15.9629
 20
-1.1152
 30
17.2907
 70
192
 0
VERTEX
 8
GRIFF_11
 10
15.9629
 20
-1.1152
 30
17.2907
 70
192
 0
VERTEX
 8
GRIFF_11
 10
14.9629
 20
-1.4211
 30
17.5966
 70
192
 0
VERTEX
 8
GRIFF_11
 10
14.9629
 20
-1.4211
 30
17.5966
 70
192
 0
VERTEX
 8
GRIFF_11
 10
15.9629
 20
-1.4211
 30
17.5966
 70
192
 0
VERTEX
 8
GRIFF_11
 10
15.9629
 20
-1.4211
 30
17.5966
 70
192
 0
VERTEX
 8
GRIFF_11
 10
14.9629
 20
-1.8484
 30
17.6643
 70
192
 0
VERTEX
 8
GRIFF_11
 10
14.9629
 20
-1.8484
 30
17.6643
 70
192
 0
VERTEX
 8
GRIFF_11
 10
15.9629
 20
-1.8484
 30
17.6643
 70
192
 0
VERTEX
 8
GRIFF_11
 10
15.9629
 20
-1.8484
 30
17.6643
 70
192
 0
VERTEX
 8
GRIFF_11
 10
14.9629
 20
-2.2338
 30
17.4678
 70
192
 0
VERTEX
 8
GRIFF_11
 10
14.9629
 20
-2.2338
 30
17.4678
 70
192
 0
VERTEX
 8
GRIFF_11
 10
15.9629
 20
-2.2338
 30
17.4678
 70
192
 0
VERTEX
 8
GRIFF_11
 10
15.9629
 20
-2.2338
 30
17.4678
 70
192
 0
VERTEX
 8
GRIFF_11
 10
14.9629
 20
-2.4302
 30
17.0824
 70
192
 0
VERTEX
 8
GRIFF_11
 10
14.9629
 20
-2.4302
 30
17.0824
 70
192
 0
VERTEX
 8
GRIFF_11
 10
15.9629
 20
-2.4302
 30
17.0824
 70
192
 0
VERTEX
 8
GRIFF_11
 10
15.9629
 20
-2.4302
 30
17.0824
 70
192
 0
VERTEX
 8
GRIFF_11
 10
14.9629
 20
-2.3626
 30
16.6551
 70
192
 0
VERTEX
 8
GRIFF_11
 10
14.9629
 20
-2.3626
 30
16.6551
 70
192
 0
VERTEX
 8
GRIFF_11
 10
15.9629
 20
-2.3626
 30
16.6551
 70
192
 0
VERTEX
 8
GRIFF_11
 10
15.9629
 20
-2.3626
 30
16.6551
 70
192
 0
VERTEX
 8
GRIFF_11
 10
14.9629
 20
-2.0567
 30
16.3492
 70
192
 0
VERTEX
 8
GRIFF_11
 10
14.9629
 20
-2.0567
 30
16.3492
 70
192
 0
VERTEX
 8
GRIFF_11
 10
15.9629
 20
-2.0567
 30
16.3492
 70
192
 0
VERTEX
 8
GRIFF_11
 10
15.9629
 20
-2.0567
 30
16.3492
 70
192
 0
VERTEX
 8
GRIFF_11
 10
14.9629
 20
-1.6294
 30
16.2815
 70
192
 0
VERTEX
 8
GRIFF_11
 10
14.9629
 20
-1.6294
 30
16.2815
 70
192
 0
VERTEX
 8
GRIFF_11
 10
15.9629
 20
-1.6294
 30
16.2815
 70
192
 0
VERTEX
 8
GRIFF_11
 10
15.9629
 20
-1.6294
 30
16.2815
 70
192
 0
VERTEX
 8
GRIFF_11
 10
0
 20
0
 30
0
 70
128
 71
1
 72
3
 73
7
 74
7
 0
VERTEX
 8
GRIFF_11
 10
0
 20
0
 30
0
 70
128
 71
4
 72
5
 73
9
 74
8
 0
VERTEX
 8
GRIFF_11
 10
0
 20
0
 30
0
 70
128
 71
6
 72
2
 73
10
 74
10
 0
VERTEX
 8
GRIFF_11
 10
0
 20
0
 30
0
 70
128
 71
1
 72
7
 73
11
 74
11
 0
VERTEX
 8
GRIFF_11
 10
0
 20
0
 30
0
 70
128
 71
8
 72
9
 73
13
 74
12
 0
VERTEX
 8
GRIFF_11
 10
0
 20
0
 30
0
 70
128
 71
10
 72
2
 73
14
 74
14
 0
VERTEX
 8
GRIFF_11
 10
0
 20
0
 30
0
 70
128
 71
1
 72
11
 73
15
 74
15
 0
VERTEX
 8
GRIFF_11
 10
0
 20
0
 30
0
 70
128
 71
12
 72
13
 73
17
 74
16
 0
VERTEX
 8
GRIFF_11
 10
0
 20
0
 30
0
 70
128
 71
14
 72
2
 73
18
 74
18
 0
VERTEX
 8
GRIFF_11
 10
0
 20
0
 30
0
 70
128
 71
1
 72
15
 73
19
 74
19
 0
VERTEX
 8
GRIFF_11
 10
0
 20
0
 30
0
 70
128
 71
16
 72
17
 73
21
 74
20
 0
VERTEX
 8
GRIFF_11
 10
0
 20
0
 30
0
 70
128
 71
18
 72
2
 73
22
 74
22
 0
VERTEX
 8
GRIFF_11
 10
0
 20
0
 30
0
 70
128
 71
1
 72
19
 73
23
 74
23
 0
VERTEX
 8
GRIFF_11
 10
0
 20
0
 30
0
 70
128
 71
20
 72
21
 73
25
 74
24
 0
VERTEX
 8
GRIFF_11
 10
0
 20
0
 30
0
 70
128
 71
22
 72
2
 73
26
 74
26
 0
VERTEX
 8
GRIFF_11
 10
0
 20
0
 30
0
 70
128
 71
1
 72
23
 73
27
 74
27
 0
VERTEX
 8
GRIFF_11
 10
0
 20
0
 30
0
 70
128
 71
24
 72
25
 73
29
 74
28
 0
VERTEX
 8
GRIFF_11
 10
0
 20
0
 30
0
 70
128
 71
26
 72
2
 73
30
 74
30
 0
VERTEX
 8
GRIFF_11
 10
0
 20
0
 30
0
 70
128
 71
1
 72
27
 73
31
 74
31
 0
VERTEX
 8
GRIFF_11
 10
0
 20
0
 30
0
 70
128
 71
28
 72
29
 73
33
 74
32
 0
VERTEX
 8
GRIFF_11
 10
0
 20
0
 30
0
 70
128
 71
30
 72
2
 73
34
 74
34
 0
VERTEX
 8
GRIFF_11
 10
0
 20
0
 30
0
 70
128
 71
1
 72
31
 73
35
 74
35
 0
VERTEX
 8
GRIFF_11
 10
0
 20
0
 30
0
 70
128
 71
32
 72
33
 73
37
 74
36
 0
VERTEX
 8
GRIFF_11
 10
0
 20
0
 30
0
 70
128
 71
34
 72
2
 73
38
 74
38
 0
VERTEX
 8
GRIFF_11
 10
0
 20
0
 30
0
 70
128
 71
1
 72
35
 73
39
 74
39
 0
VERTEX
 8
GRIFF_11
 10
0
 20
0
 30
0
 70
128
 71
36
 72
37
 73
41
 74
40
 0
VERTEX
 8
GRIFF_11
 10
0
 20
0
 30
0
 70
128
 71
38
 72
2
 73
42
 74
42
 0
VERTEX
 8
GRIFF_11
 10
0
 20
0
 30
0
 70
128
 71
1
 72
39
 73
3
 74
3
 0
VERTEX
 8
GRIFF_11
 10
0
 20
0
 30
0
 70
128
 71
40
 72
41
 73
5
 74
4
 0
VERTEX
 8
GRIFF_11
 10
0
 20
0
 30
0
 70
128
 71
42
 72
2
 73
6
 74
6
 0
SEQEND
 0
POLYLINE
 8
K_RPER
 66
1
 10
0.0
 20
0.0
 30
0.0
 70
64
 71
61
 72
30
 0
VERTEX
 8
K_RPER
 10
-13.4401
 20
-3.5657
 30
16.076
 70
192
 0
VERTEX
 8
K_RPER
 10
-13.4401
 20
-1.7386
 30
16.8895
 70
192
 0
VERTEX
 8
K_RPER
 10
-8.4401
 20
-3.7386
 30
16.8895
 70
192
 0
VERTEX
 8
K_RPER
 10
-8.4401
 20
-3.7386
 30
16.8895
 70
192
 0
VERTEX
 8
K_RPER
 10
-13.4401
 20
-3.7386
 30
16.8895
 70
192
 0
VERTEX
 8
K_RPER
 10
-13.4401
 20
-3.7386
 30
16.8895
 70
192
 0
VERTEX
 8
K_RPER
 10
-8.4401
 20
-3.5657
 30
17.703
 70
192
 0
VERTEX
 8
K_RPER
 10
-8.4401
 20
-3.5657
 30
17.703
 70
192
 0
VERTEX
 8
K_RPER
 10
-13.4401
 20
-3.5657
 30
17.703
 70
192
 0
VERTEX
 8
K_RPER
 10
-13.4401
 20
-3.5657
 30
17.703
 70
192
 0
VERTEX
 8
K_RPER
 10
-8.4401
 20
-3.0769
 30
18.3758
 70
192
 0
VERTEX
 8
K_RPER
 10
-8.4401
 20
-3.0769
 30
18.3758
 70
192
 0
VERTEX
 8
K_RPER
 10
-13.4401
 20
-3.0769
 30
18.3758
 70
192
 0
VERTEX
 8
K_RPER
 10
-13.4401
 20
-3.0769
 30
18.3758
 70
192
 0
VERTEX
 8
K_RPER
 10
-8.4401
 20
-2.3566
 30
18.7916
 70
192
 0
VERTEX
 8
K_RPER
 10
-8.4401
 20
-2.3566
 30
18.7916
 70
192
 0
VERTEX
 8
K_RPER
 10
-13.4401
 20
-2.3566
 30
18.7916
 70
192
 0
VERTEX
 8
K_RPER
 10
-13.4401
 20
-2.3566
 30
18.7916
 70
192
 0
VERTEX
 8
K_RPER
 10
-8.4401
 20
-1.5295
 30
18.8785
 70
192
 0
VERTEX
 8
K_RPER
 10
-8.4401
 20
-1.5295
 30
18.8785
 70
192
 0
VERTEX
 8
K_RPER
 10
-13.4401
 20
-1.5295
 30
18.8785
 70
192
 0
VERTEX
 8
K_RPER
 10
-13.4401
 20
-1.5295
 30
18.8785
 70
192
 0
VERTEX
 8
K_RPER
 10
-8.4401
 20
-0.7386
 30
18.6215
 70
192
 0
VERTEX
 8
K_RPER
 10
-8.4401
 20
-0.7386
 30
18.6215
 70
192
 0
VERTEX
 8
K_RPER
 10
-13.4401
 20
-0.7386
 30
18.6215
 70
192
 0
VERTEX
 8
K_RPER
 10
-13.4401
 20
-0.7386
 30
18.6215
 70
192
 0
VERTEX
 8
K_RPER
 10
-8.4401
 20
-0.1206
 30
18.0651
 70
192
 0
VERTEX
 8
K_RPER
 10
-8.4401
 20
-0.1206
 30
18.0651
 70
192
 0
VERTEX
 8
K_RPER
 10
-13.4401
 20
-0.1206
 30
18.0651
 70
192
 0
VERTEX
 8
K_RPER
 10
-13.4401
 20
-0.1206
 30
18.0651
 70
192
 0
VERTEX
 8
K_RPER
 10
-8.4401
 20
0.2177
 30
17.3053
 70
192
 0
VERTEX
 8
K_RPER
 10
-8.4401
 20
0.2177
 30
17.3053
 70
192
 0
VERTEX
 8
K_RPER
 10
-13.4401
 20
0.2177
 30
17.3053
 70
192
 0
VERTEX
 8
K_RPER
 10
-13.4401
 20
0.2177
 30
17.3053
 70
192
 0
VERTEX
 8
K_RPER
 10
-8.4401
 20
0.2177
 30
16.4737
 70
192
 0
VERTEX
 8
K_RPER
 10
-8.4401
 20
0.2177
 30
16.4737
 70
192
 0
VERTEX
 8
K_RPER
 10
-13.4401
 20
0.2177
 30
16.4737
 70
192
 0
VERTEX
 8
K_RPER
 10
-13.4401
 20
0.2177
 30
16.4737
 70
192
 0
VERTEX
 8
K_RPER
 10
-8.4401
 20
-0.1206
 30
15.7139
 70
192
 0
VERTEX
 8
K_RPER
 10
-8.4401
 20
-0.1206
 30
15.7139
 70
192
 0
VERTEX
 8
K_RPER
 10
-13.4401
 20
-0.1206
 30
15.7139
 70
192
 0
VERTEX
 8
K_RPER
 10
-13.4401
 20
-0.1206
 30
15.7139
 70
192
 0
VERTEX
 8
K_RPER
 10
-8.4401
 20
-0.7386
 30
15.1574
 70
192
 0
VERTEX
 8
K_RPER
 10
-8.4401
 20
-0.7386
 30
15.1574
 70
192
 0
VERTEX
 8
K_RPER
 10
-13.4401
 20
-0.7386
 30
15.1574
 70
192
 0
VERTEX
 8
K_RPER
 10
-13.4401
 20
-0.7386
 30
15.1574
 70
192
 0
VERTEX
 8
K_RPER
 10
-8.4401
 20
-1.5295
 30
14.9004
 70
192
 0
VERTEX
 8
K_RPER
 10
-8.4401
 20
-1.5295
 30
14.9004
 70
192
 0
VERTEX
 8
K_RPER
 10
-13.4401
 20
-1.5295
 30
14.9004
 70
192
 0
VERTEX
 8
K_RPER
 10
-13.4401
 20
-1.5295
 30
14.9004
 70
192
 0
VERTEX
 8
K_RPER
 10
-8.4401
 20
-2.3566
 30
14.9874
 70
192
 0
VERTEX
 8
K_RPER
 10
-8.4401
 20
-2.3566
 30
14.9874
 70
192
 0
VERTEX
 8
K_RPER
 10
-13.4401
 20
-2.3566
 30
14.9874
 70
192
 0
VERTEX
 8
K_RPER
 10
-13.4401
 20
-2.3566
 30
14.9874
 70
192
 0
VERTEX
 8
K_RPER
 10
-8.4401
 20
-3.0769
 30
15.4032
 70
192
 0
VERTEX
 8
K_RPER
 10
-8.4401
 20
-3.0769
 30
15.4032
 70
192
 0
VERTEX
 8
K_RPER
 10
-13.4401
 20
-3.0769
 30
15.4032
 70
192
 0
VERTEX
 8
K_RPER
 10
-13.4401
 20
-3.0769
 30
15.4032
 70
192
 0
VERTEX
 8
K_RPER
 10
-8.4401
 20
-3.5657
 30
16.076
 70
192
 0
VERTEX
 8
K_RPER
 10
-8.4401
 20
-3.5657
 30
16.076
 70
192
 0
VERTEX
 8
K_RPER
 10
-13.4401
 20
-3.5657
 30
16.076
 70
192
 0
VERTEX
 8
K_RPER
 10
0
 20
0
 30
0
 70
128
 71
44
 72
45
 73
49
 74
48
 0
VERTEX
 8
K_RPER
 10
0
 20
0
 30
0
 70
128
 71
4
 72
5
 73
9
 74
8
 0
VERTEX
 8
K_RPER
 10
0
 20
0
 30
0
 70
128
 71
6
 72
2
 73
10
 74
10
 0
VERTEX
 8
K_RPER
 10
0
 20
0
 30
0
 70
128
 71
46
 72
2
 73
50
 74
50
 0
VERTEX
 8
K_RPER
 10
0
 20
0
 30
0
 70
128
 71
8
 72
9
 73
13
 74
12
 0
VERTEX
 8
K_RPER
 10
0
 20
0
 30
0
 70
128
 71
10
 72
2
 73
14
 74
14
 0
VERTEX
 8
K_RPER
 10
0
 20
0
 30
0
 70
128
 71
48
 72
49
 73
53
 74
52
 0
VERTEX
 8
K_RPER
 10
0
 20
0
 30
0
 70
128
 71
12
 72
13
 73
17
 74
16
 0
VERTEX
 8
K_RPER
 10
0
 20
0
 30
0
 70
128
 71
14
 72
2
 73
18
 74
18
 0
VERTEX
 8
K_RPER
 10
0
 20
0
 30
0
 70
128
 71
50
 72
2
 73
54
 74
54
 0
VERTEX
 8
K_RPER
 10
0
 20
0
 30
0
 70
128
 71
16
 72
17
 73
21
 74
20
 0
VERTEX
 8
K_RPER
 10
0
 20
0
 30
0
 70
128
 71
18
 72
2
 73
22
 74
22
 0
VERTEX
 8
K_RPER
 10
0
 20
0
 30
0
 70
128
 71
52
 72
53
 73
57
 74
56
 0
VERTEX
 8
K_RPER
 10
0
 20
0
 30
0
 70
128
 71
20
 72
21
 73
25
 74
24
 0
VERTEX
 8
K_RPER
 10
0
 20
0
 30
0
 70
128
 71
22
 72
2
 73
26
 74
26
 0
VERTEX
 8
K_RPER
 10
0
 20
0
 30
0
 70
128
 71
54
 72
2
 73
58
 74
58
 0
VERTEX
 8
K_RPER
 10
0
 20
0
 30
0
 70
128
 71
24
 72
25
 73
29
 74
28
 0
VERTEX
 8
K_RPER
 10
0
 20
0
 30
0
 70
128
 71
26
 72
2
 73
30
 74
30
 0
VERTEX
 8
K_RPER
 10
0
 20
0
 30
0
 70
128
 71
56
 72
57
 73
61
 74
60
 0
VERTEX
 8
K_RPER
 10
0
 20
0
 30
0
 70
128
 71
28
 72
29
 73
33
 74
32
 0
VERTEX
 8
K_RPER
 10
0
 20
0
 30
0
 70
128
 71
30
 72
2
 73
34
 74
34
 0
VERTEX
 8
K_RPER
 10
0
 20
0
 30
0
 70
128
 71
58
 72
2
 73
1
 74
1
 0
VERTEX
 8
K_RPER
 10
0
 20
0
 30
0
 70
128
 71
32
 72
33
 73
37
 74
36
 0
VERTEX
 8
K_RPER
 10
0
 20
0
 30
0
 70
128
 71
34
 72
2
 73
38
 74
38
 0
VERTEX
 8
K_RPER
 10
0
 20
0
 30
0
 70
128
 71
60
 72
61
 73
5
 74
4
 0
VERTEX
 8
K_RPER
 10
0
 20
0
 30
0
 70
128
 71
36
 72
37
 73
41
 74
40
 0
VERTEX
 8
K_RPER
 10
0
 20
0
 30
0
 70
128
 71
38
 72
2
 73
42
 74
42
 0
VERTEX
 8
K_RPER
 10
0
 20
0
 30
0
 70
128
 71
1
 72
2
 73
6
 74
6
 0
VERTEX
 8
K_RPER
 10
0
 20
0
 30
0
 70
128
 71
40
 72
41
 73
45
 74
44
 0
VERTEX
 8
K_RPER
 10
0
 20
0
 30
0
 70
128
 71
42
 72
2
 73
46
 74
46
 0
SEQEND
 0
POLYLINE
 8
GRIFF_9
 66
1
 10
0.0
 20
0.0
 30
0.0
 70
64
 71
12
 72
6
 0
VERTEX
 8
GRIFF_9
 10
-12.8354
 20
-1.7396
 30
16.4848
 70
192
 0
VERTEX
 8
GRIFF_9
 10
-14.8354
 20
-1.7396
 30
16.4848
 70
192
 0
VERTEX
 8
GRIFF_9
 10
-12.8354
 20
-2.1726
 30
16.7348
 70
192
 0
VERTEX
 8
GRIFF_9
 10
-14.8354
 20
-2.1726
 30
16.7348
 70
192
 0
VERTEX
 8
GRIFF_9
 10
-12.8354
 20
-2.1726
 30
17.2348
 70
192
 0
VERTEX
 8
GRIFF_9
 10
-14.8354
 20
-2.1726
 30
17.2348
 70
192
 0
VERTEX
 8
GRIFF_9
 10
-12.8354
 20
-1.7396
 30
17.4848
 70
192
 0
VERTEX
 8
GRIFF_9
 10
-14.8354
 20
-1.7396
 30
17.4848
 70
192
 0
VERTEX
 8
GRIFF_9
 10
-12.8354
 20
-1.3066
 30
17.2348
 70
192
 0
VERTEX
 8
GRIFF_9
 10
-14.8354
 20
-1.3066
 30
17.2348
 70
192
 0
VERTEX
 8
GRIFF_9
 10
-12.8354
 20
-1.3066
 30
16.7348
 70
192
 0
VERTEX
 8
GRIFF_9
 10
-14.8354
 20
-1.3066
 30
16.7348
 70
192
 0
VERTEX
 8
GRIFF_9
 10
0
 20
0
 30
0
 70
128
 71
1
 72
2
 73
4
 74
3
 0
VERTEX
 8
GRIFF_9
 10
0
 20
0
 30
0
 70
128
 71
3
 72
4
 73
6
 74
5
 0
VERTEX
 8
GRIFF_9
 10
0
 20
0
 30
0
 70
128
 71
5
 72
6
 73
8
 74
7
 0
VERTEX
 8
GRIFF_9
 10
0
 20
0
 30
0
 70
128
 71
7
 72
8
 73
10
 74
9
 0
VERTEX
 8
GRIFF_9
 10
0
 20
0
 30
0
 70
128
 71
9
 72
10
 73
12
 74
11
 0
VERTEX
 8
GRIFF_9
 10
0
 20
0
 30
0
 70
128
 71
11
 72
12
 73
2
 74
1
 0
SEQEND
 0
POLYLINE
 8
GRIFF_8
 66
1
 10
0.0
 20
0.0
 30
0.0
 70
64
 71
12
 72
6
 0
VERTEX
 8
GRIFF_8
 10
-15.5351
 20
-1.4439
 30
17.2806
 70
192
 0
VERTEX
 8
GRIFF_8
 10
-15.5351
 20
-0.5953
 30
18.1291
 70
192
 0
VERTEX
 8
GRIFF_8
 10
-15.3601
 20
-1.6582
 30
17.4949
 70
192
 0
VERTEX
 8
GRIFF_8
 10
-15.3601
 20
-0.8097
 30
18.3434
 70
192
 0
VERTEX
 8
GRIFF_8
 10
-15.0101
 20
-1.6582
 30
17.4949
 70
192
 0
VERTEX
 8
GRIFF_8
 10
-15.0101
 20
-0.8097
 30
18.3434
 70
192
 0
VERTEX
 8
GRIFF_8
 10
-14.8351
 20
-1.4439
 30
17.2806
 70
192
 0
VERTEX
 8
GRIFF_8
 10
-14.8351
 20
-0.5953
 30
18.1291
 70
192
 0
VERTEX
 8
GRIFF_8
 10
-15.0101
 20
-1.2295
 30
17.0662
 70
192
 0
VERTEX
 8
GRIFF_8
 10
-15.0101
 20
-0.381
 30
17.9147
 70
192
 0
VERTEX
 8
GRIFF_8
 10
-15.3601
 20
-1.2295
 30
17.0662
 70
192
 0
VERTEX
 8
GRIFF_8
 10
-15.3601
 20
-0.381
 30
17.9147
 70
192
 0
VERTEX
 8
GRIFF_8
 10
0
 20
0
 30
0
 70
128
 71
1
 72
2
 73
4
 74
3
 0
VERTEX
 8
GRIFF_8
 10
0
 20
0
 30
0
 70
128
 71
3
 72
4
 73
6
 74
5
 0
VERTEX
 8
GRIFF_8
 10
0
 20
0
 30
0
 70
128
 71
5
 72
6
 73
8
 74
7
 0
VERTEX
 8
GRIFF_8
 10
0
 20
0
 30
0
 70
128
 71
7
 72
8
 73
10
 74
9
 0
VERTEX
 8
GRIFF_8
 10
0
 20
0
 30
0
 70
128
 71
9
 72
10
 73
12
 74
11
 0
VERTEX
 8
GRIFF_8
 10
0
 20
0
 30
0
 70
128
 71
11
 72
12
 73
2
 74
1
 0
SEQEND
 0
POLYLINE
 8
GRIFF_7
 66
1
 10
0.0
 20
0.0
 30
0.0
 70
64
 71
34
 72
24
 0
VERTEX
 8
GRIFF_7
 10
-15.1872
 20
-1.048
 30
17.6765
 70
192
 0
VERTEX
 8
GRIFF_7
 10
-15.1872
 20
0.3662
 30
19.0907
 70
192
 0
VERTEX
 8
GRIFF_7
 10
-15.6872
 20
-1.048
 30
17.6765
 70
192
 0
VERTEX
 8
GRIFF_7
 10
-15.6872
 20
-1.048
 30
17.6765
 70
192
 0
VERTEX
 8
GRIFF_7
 10
-15.6872
 20
0.3662
 30
19.0907
 70
192
 0
VERTEX
 8
GRIFF_7
 10
-15.6872
 20
0.3662
 30
19.0907
 70
192
 0
VERTEX
 8
GRIFF_7
 10
-15.5408
 20
-1.298
 30
17.9265
 70
192
 0
VERTEX
 8
GRIFF_7
 10
-15.5408
 20
-1.298
 30
17.9265
 70
192
 0
VERTEX
 8
GRIFF_7
 10
-15.5408
 20
0.1162
 30
19.3407
 70
192
 0
VERTEX
 8
GRIFF_7
 10
-15.5408
 20
0.1162
 30
19.3407
 70
192
 0
VERTEX
 8
GRIFF_7
 10
-15.1872
 20
-1.4015
 30
18.03
 70
192
 0
VERTEX
 8
GRIFF_7
 10
-15.1872
 20
-1.4015
 30
18.03
 70
192
 0
VERTEX
 8
GRIFF_7
 10
-15.1872
 20
0.0127
 30
19.4442
 70
192
 0
VERTEX
 8
GRIFF_7
 10
-15.1872
 20
0.0127
 30
19.4442
 70
192
 0
VERTEX
 8
GRIFF_7
 10
-14.8337
 20
-1.298
 30
17.9265
 70
192
 0
VERTEX
 8
GRIFF_7
 10
-14.8337
 20
-1.298
 30
17.9265
 70
192
 0
VERTEX
 8
GRIFF_7
 10
-14.8337
 20
0.1162
 30
19.3407
 70
192
 0
VERTEX
 8
GRIFF_7
 10
-14.8337
 20
0.1162
 30
19.3407
 70
192
 0
VERTEX
 8
GRIFF_7
 10
-14.6872
 20
-1.048
 30
17.6765
 70
192
 0
VERTEX
 8
GRIFF_7
 10
-14.6872
 20
-1.048
 30
17.6765
 70
192
 0
VERTEX
 8
GRIFF_7
 10
-14.6872
 20
0.3662
 30
19.0907
 70
192
 0
VERTEX
 8
GRIFF_7
 10
-14.6872
 20
0.3662
 30
19.0907
 70
192
 0
VERTEX
 8
GRIFF_7
 10
-14.8337
 20
-0.798
 30
17.4265
 70
192
 0
VERTEX
 8
GRIFF_7
 10
-14.8337
 20
-0.798
 30
17.4265
 70
192
 0
VERTEX
 8
GRIFF_7
 10
-14.8337
 20
0.6162
 30
18.8407
 70
192
 0
VERTEX
 8
GRIFF_7
 10
-14.8337
 20
0.6162
 30
18.8407
 70
192
 0
VERTEX
 8
GRIFF_7
 10
-15.1872
 20
-0.6944
 30
17.3229
 70
192
 0
VERTEX
 8
GRIFF_7
 10
-15.1872
 20
-0.6944
 30
17.3229
 70
192
 0
VERTEX
 8
GRIFF_7
 10
-15.1872
 20
0.7198
 30
18.7371
 70
192
 0
VERTEX
 8
GRIFF_7
 10
-15.1872
 20
0.7198
 30
18.7371
 70
192
 0
VERTEX
 8
GRIFF_7
 10
-15.5408
 20
-0.798
 30
17.4265
 70
192
 0
VERTEX
 8
GRIFF_7
 10
-15.5408
 20
-0.798
 30
17.4265
 70
192
 0
VERTEX
 8
GRIFF_7
 10
-15.5408
 20
0.6162
 30
18.8407
 70
192
 0
VERTEX
 8
GRIFF_7
 10
-15.5408
 20
0.6162
 30
18.8407
 70
192
 0
VERTEX
 8
GRIFF_7
 10
0
 20
0
 30
0
 70
128
 71
1
 72
3
 73
7
 74
7
 0
VERTEX
 8
GRIFF_7
 10
0
 20
0
 30
0
 70
128
 71
4
 72
5
 73
9
 74
8
 0
VERTEX
 8
GRIFF_7
 10
0
 20
0
 30
0
 70
128
 71
6
 72
2
 73
10
 74
10
 0
VERTEX
 8
GRIFF_7
 10
0
 20
0
 30
0
 70
128
 71
1
 72
7
 73
11
 74
11
 0
VERTEX
 8
GRIFF_7
 10
0
 20
0
 30
0
 70
128
 71
8
 72
9
 73
13
 74
12
 0
VERTEX
 8
GRIFF_7
 10
0
 20
0
 30
0
 70
128
 71
10
 72
2
 73
14
 74
14
 0
VERTEX
 8
GRIFF_7
 10
0
 20
0
 30
0
 70
128
 71
1
 72
11
 73
15
 74
15
 0
VERTEX
 8
GRIFF_7
 10
0
 20
0
 30
0
 70
128
 71
12
 72
13
 73
17
 74
16
 0
VERTEX
 8
GRIFF_7
 10
0
 20
0
 30
0
 70
128
 71
14
 72
2
 73
18
 74
18
 0
VERTEX
 8
GRIFF_7
 10
0
 20
0
 30
0
 70
128
 71
1
 72
15
 73
19
 74
19
 0
VERTEX
 8
GRIFF_7
 10
0
 20
0
 30
0
 70
128
 71
16
 72
17
 73
21
 74
20
 0
VERTEX
 8
GRIFF_7
 10
0
 20
0
 30
0
 70
128
 71
18
 72
2
 73
22
 74
22
 0
VERTEX
 8
GRIFF_7
 10
0
 20
0
 30
0
 70
128
 71
1
 72
19
 73
23
 74
23
 0
VERTEX
 8
GRIFF_7
 10
0
 20
0
 30
0
 70
128
 71
20
 72
21
 73
25
 74
24
 0
VERTEX
 8
GRIFF_7
 10
0
 20
0
 30
0
 70
128
 71
22
 72
2
 73
26
 74
26
 0
VERTEX
 8
GRIFF_7
 10
0
 20
0
 30
0
 70
128
 71
1
 72
23
 73
27
 74
27
 0
VERTEX
 8
GRIFF_7
 10
0
 20
0
 30
0
 70
128
 71
24
 72
25
 73
29
 74
28
 0
VERTEX
 8
GRIFF_7
 10
0
 20
0
 30
0
 70
128
 71
26
 72
2
 73
30
 74
30
 0
VERTEX
 8
GRIFF_7
 10
0
 20
0
 30
0
 70
128
 71
1
 72
27
 73
31
 74
31
 0
VERTEX
 8
GRIFF_7
 10
0
 20
0
 30
0
 70
128
 71
28
 72
29
 73
33
 74
32
 0
VERTEX
 8
GRIFF_7
 10
0
 20
0
 30
0
 70
128
 71
30
 72
2
 73
34
 74
34
 0
VERTEX
 8
GRIFF_7
 10
0
 20
0
 30
0
 70
128
 71
1
 72
31
 73
3
 74
3
 0
VERTEX
 8
GRIFF_7
 10
0
 20
0
 30
0
 70
128
 71
32
 72
33
 73
5
 74
4
 0
VERTEX
 8
GRIFF_7
 10
0
 20
0
 30
0
 70
128
 71
34
 72
2
 73
6
 74
6
 0
SEQEND
 0
POLYLINE
 8
GRIFF_6
 66
1
 10
0.0
 20
0.0
 30
0.0
 70
64
 71
12
 72
6
 0
VERTEX
 8
GRIFF_6
 10
-15.5351
 20
-2.0599
 30
16.6645
 70
192
 0
VERTEX
 8
GRIFF_6
 10
-15.5351
 20
-2.9084
 30
15.816
 70
192
 0
VERTEX
 8
GRIFF_6
 10
-15.3601
 20
-1.8456
 30
16.4502
 70
192
 0
VERTEX
 8
GRIFF_6
 10
-15.3601
 20
-2.6941
 30
15.6016
 70
192
 0
VERTEX
 8
GRIFF_6
 10
-15.0101
 20
-1.8456
 30
16.4502
 70
192
 0
VERTEX
 8
GRIFF_6
 10
-15.0101
 20
-2.6941
 30
15.6016
 70
192
 0
VERTEX
 8
GRIFF_6
 10
-14.8351
 20
-2.0599
 30
16.6645
 70
192
 0
VERTEX
 8
GRIFF_6
 10
-14.8351
 20
-2.9084
 30
15.816
 70
192
 0
VERTEX
 8
GRIFF_6
 10
-15.0101
 20
-2.2742
 30
16.8788
 70
192
 0
VERTEX
 8
GRIFF_6
 10
-15.0101
 20
-3.1228
 30
16.0303
 70
192
 0
VERTEX
 8
GRIFF_6
 10
-15.3601
 20
-2.2742
 30
16.8788
 70
192
 0
VERTEX
 8
GRIFF_6
 10
-15.3601
 20
-3.1228
 30
16.0303
 70
192
 0
VERTEX
 8
GRIFF_6
 10
0
 20
0
 30
0
 70
128
 71
1
 72
2
 73
4
 74
3
 0
VERTEX
 8
GRIFF_6
 10
0
 20
0
 30
0
 70
128
 71
3
 72
4
 73
6
 74
5
 0
VERTEX
 8
GRIFF_6
 10
0
 20
0
 30
0
 70
128
 71
5
 72
6
 73
8
 74
7
 0
VERTEX
 8
GRIFF_6
 10
0
 20
0
 30
0
 70
128
 71
7
 72
8
 73
10
 74
9
 0
VERTEX
 8
GRIFF_6
 10
0
 20
0
 30
0
 70
128
 71
9
 72
10
 73
12
 74
11
 0
VERTEX
 8
GRIFF_6
 10
0
 20
0
 30
0
 70
128
 71
11
 72
12
 73
2
 74
1
 0
SEQEND
 0
POLYLINE
 8
GRIFF_5
 66
1
 10
0.0
 20
0.0
 30
0.0
 70
64
 71
34
 72
24
 0
VERTEX
 8
GRIFF_5
 10
-15.1872
 20
-2.4429
 30
16.2815
 70
192
 0
VERTEX
 8
GRIFF_5
 10
-15.1872
 20
-3.8571
 30
14.8673
 70
192
 0
VERTEX
 8
GRIFF_5
 10
-15.6872
 20
-2.4429
 30
16.2815
 70
192
 0
VERTEX
 8
GRIFF_5
 10
-15.6872
 20
-2.4429
 30
16.2815
 70
192
 0
VERTEX
 8
GRIFF_5
 10
-15.6872
 20
-3.8571
 30
14.8673
 70
192
 0
VERTEX
 8
GRIFF_5
 10
-15.6872
 20
-3.8571
 30
14.8673
 70
192
 0
VERTEX
 8
GRIFF_5
 10
-15.5408
 20
-2.1929
 30
16.0315
 70
192
 0
VERTEX
 8
GRIFF_5
 10
-15.5408
 20
-2.1929
 30
16.0315
 70
192
 0
VERTEX
 8
GRIFF_5
 10
-15.5408
 20
-3.6071
 30
14.6173
 70
192
 0
VERTEX
 8
GRIFF_5
 10
-15.5408
 20
-3.6071
 30
14.6173
 70
192
 0
VERTEX
 8
GRIFF_5
 10
-15.1872
 20
-2.0894
 30
15.928
 70
192
 0
VERTEX
 8
GRIFF_5
 10
-15.1872
 20
-2.0894
 30
15.928
 70
192
 0
VERTEX
 8
GRIFF_5
 10
-15.1872
 20
-3.5036
 30
14.5137
 70
192
 0
VERTEX
 8
GRIFF_5
 10
-15.1872
 20
-3.5036
 30
14.5137
 70
192
 0
VERTEX
 8
GRIFF_5
 10
-14.8337
 20
-2.1929
 30
16.0315
 70
192
 0
VERTEX
 8
GRIFF_5
 10
-14.8337
 20
-2.1929
 30
16.0315
 70
192
 0
VERTEX
 8
GRIFF_5
 10
-14.8337
 20
-3.6071
 30
14.6173
 70
192
 0
VERTEX
 8
GRIFF_5
 10
-14.8337
 20
-3.6071
 30
14.6173
 70
192
 0
VERTEX
 8
GRIFF_5
 10
-14.6872
 20
-2.4429
 30
16.2815
 70
192
 0
VERTEX
 8
GRIFF_5
 10
-14.6872
 20
-2.4429
 30
16.2815
 70
192
 0
VERTEX
 8
GRIFF_5
 10
-14.6872
 20
-3.8571
 30
14.8673
 70
192
 0
VERTEX
 8
GRIFF_5
 10
-14.6872
 20
-3.8571
 30
14.8673
 70
192
 0
VERTEX
 8
GRIFF_5
 10
-14.8337
 20
-2.6929
 30
16.5315
 70
192
 0
VERTEX
 8
GRIFF_5
 10
-14.8337
 20
-2.6929
 30
16.5315
 70
192
 0
VERTEX
 8
GRIFF_5
 10
-14.8337
 20
-4.1071
 30
15.1173
 70
192
 0
VERTEX
 8
GRIFF_5
 10
-14.8337
 20
-4.1071
 30
15.1173
 70
192
 0
VERTEX
 8
GRIFF_5
 10
-15.1872
 20
-2.7965
 30
16.6351
 70
192
 0
VERTEX
 8
GRIFF_5
 10
-15.1872
 20
-2.7965
 30
16.6351
 70
192
 0
VERTEX
 8
GRIFF_5
 10
-15.1872
 20
-4.2107
 30
15.2209
 70
192
 0
VERTEX
 8
GRIFF_5
 10
-15.1872
 20
-4.2107
 30
15.2209
 70
192
 0
VERTEX
 8
GRIFF_5
 10
-15.5408
 20
-2.6929
 30
16.5315
 70
192
 0
VERTEX
 8
GRIFF_5
 10
-15.5408
 20
-2.6929
 30
16.5315
 70
192
 0
VERTEX
 8
GRIFF_5
 10
-15.5408
 20
-4.1071
 30
15.1173
 70
192
 0
VERTEX
 8
GRIFF_5
 10
-15.5408
 20
-4.1071
 30
15.1173
 70
192
 0
VERTEX
 8
GRIFF_5
 10
0
 20
0
 30
0
 70
128
 71
1
 72
3
 73
7
 74
7
 0
VERTEX
 8
GRIFF_5
 10
0
 20
0
 30
0
 70
128
 71
4
 72
5
 73
9
 74
8
 0
VERTEX
 8
GRIFF_5
 10
0
 20
0
 30
0
 70
128
 71
6
 72
2
 73
10
 74
10
 0
VERTEX
 8
GRIFF_5
 10
0
 20
0
 30
0
 70
128
 71
1
 72
7
 73
11
 74
11
 0
VERTEX
 8
GRIFF_5
 10
0
 20
0
 30
0
 70
128
 71
8
 72
9
 73
13
 74
12
 0
VERTEX
 8
GRIFF_5
 10
0
 20
0
 30
0
 70
128
 71
10
 72
2
 73
14
 74
14
 0
VERTEX
 8
GRIFF_5
 10
0
 20
0
 30
0
 70
128
 71
1
 72
11
 73
15
 74
15
 0
VERTEX
 8
GRIFF_5
 10
0
 20
0
 30
0
 70
128
 71
12
 72
13
 73
17
 74
16
 0
VERTEX
 8
GRIFF_5
 10
0
 20
0
 30
0
 70
128
 71
14
 72
2
 73
18
 74
18
 0
VERTEX
 8
GRIFF_5
 10
0
 20
0
 30
0
 70
128
 71
1
 72
15
 73
19
 74
19
 0
VERTEX
 8
GRIFF_5
 10
0
 20
0
 30
0
 70
128
 71
16
 72
17
 73
21
 74
20
 0
VERTEX
 8
GRIFF_5
 10
0
 20
0
 30
0
 70
128
 71
18
 72
2
 73
22
 74
22
 0
VERTEX
 8
GRIFF_5
 10
0
 20
0
 30
0
 70
128
 71
1
 72
19
 73
23
 74
23
 0
VERTEX
 8
GRIFF_5
 10
0
 20
0
 30
0
 70
128
 71
20
 72
21
 73
25
 74
24
 0
VERTEX
 8
GRIFF_5
 10
0
 20
0
 30
0
 70
128
 71
22
 72
2
 73
26
 74
26
 0
VERTEX
 8
GRIFF_5
 10
0
 20
0
 30
0
 70
128
 71
1
 72
23
 73
27
 74
27
 0
VERTEX
 8
GRIFF_5
 10
0
 20
0
 30
0
 70
128
 71
24
 72
25
 73
29
 74
28
 0
VERTEX
 8
GRIFF_5
 10
0
 20
0
 30
0
 70
128
 71
26
 72
2
 73
30
 74
30
 0
VERTEX
 8
GRIFF_5
 10
0
 20
0
 30
0
 70
128
 71
1
 72
27
 73
31
 74
31
 0
VERTEX
 8
GRIFF_5
 10
0
 20
0
 30
0
 70
128
 71
28
 72
29
 73
33
 74
32
 0
VERTEX
 8
GRIFF_5
 10
0
 20
0
 30
0
 70
128
 71
30
 72
2
 73
34
 74
34
 0
VERTEX
 8
GRIFF_5
 10
0
 20
0
 30
0
 70
128
 71
1
 72
31
 73
3
 74
3
 0
VERTEX
 8
GRIFF_5
 10
0
 20
0
 30
0
 70
128
 71
32
 72
33
 73
5
 74
4
 0
VERTEX
 8
GRIFF_5
 10
0
 20
0
 30
0
 70
128
 71
34
 72
2
 73
6
 74
6
 0
SEQEND
 0
POLYLINE
 8
GRIFF_4
 66
1
 10
0.0
 20
0.0
 30
0.0
 70
64
 71
12
 72
6
 0
VERTEX
 8
GRIFF_4
 10
-15.5351
 20
-1.3616
 30
16.6334
 70
192
 0
VERTEX
 8
GRIFF_4
 10
-15.5351
 20
-0.5131
 30
15.7849
 70
192
 0
VERTEX
 8
GRIFF_4
 10
-15.3601
 20
-1.1473
 30
16.8478
 70
192
 0
VERTEX
 8
GRIFF_4
 10
-15.3601
 20
-0.2988
 30
15.9992
 70
192
 0
VERTEX
 8
GRIFF_4
 10
-15.0101
 20
-1.1473
 30
16.8478
 70
192
 0
VERTEX
 8
GRIFF_4
 10
-15.0101
 20
-0.2988
 30
15.9992
 70
192
 0
VERTEX
 8
GRIFF_4
 10
-14.8351
 20
-1.3616
 30
16.6334
 70
192
 0
VERTEX
 8
GRIFF_4
 10
-14.8351
 20
-0.5131
 30
15.7849
 70
192
 0
VERTEX
 8
GRIFF_4
 10
-15.0101
 20
-1.576
 30
16.4191
 70
192
 0
VERTEX
 8
GRIFF_4
 10
-15.0101
 20
-0.7274
 30
15.5706
 70
192
 0
VERTEX
 8
GRIFF_4
 10
-15.3601
 20
-1.576
 30
16.4191
 70
192
 0
VERTEX
 8
GRIFF_4
 10
-15.3601
 20
-0.7274
 30
15.5706
 70
192
 0
VERTEX
 8
GRIFF_4
 10
0
 20
0
 30
0
 70
128
 71
1
 72
2
 73
4
 74
3
 0
VERTEX
 8
GRIFF_4
 10
0
 20
0
 30
0
 70
128
 71
3
 72
4
 73
6
 74
5
 0
VERTEX
 8
GRIFF_4
 10
0
 20
0
 30
0
 70
128
 71
5
 72
6
 73
8
 74
7
 0
VERTEX
 8
GRIFF_4
 10
0
 20
0
 30
0
 70
128
 71
7
 72
8
 73
10
 74
9
 0
VERTEX
 8
GRIFF_4
 10
0
 20
0
 30
0
 70
128
 71
9
 72
10
 73
12
 74
11
 0
VERTEX
 8
GRIFF_4
 10
0
 20
0
 30
0
 70
128
 71
11
 72
12
 73
2
 74
1
 0
SEQEND
 0
POLYLINE
 8
GRIFF_3
 66
1
 10
0.0
 20
0.0
 30
0.0
 70
64
 71
34
 72
24
 0
VERTEX
 8
GRIFF_3
 10
-15.1872
 20
-0.9786
 30
16.2504
 70
192
 0
VERTEX
 8
GRIFF_3
 10
-15.1872
 20
0.4356
 30
14.8362
 70
192
 0
VERTEX
 8
GRIFF_3
 10
-15.6872
 20
-0.9786
 30
16.2504
 70
192
 0
VERTEX
 8
GRIFF_3
 10
-15.6872
 20
-0.9786
 30
16.2504
 70
192
 0
VERTEX
 8
GRIFF_3
 10
-15.6872
 20
0.4356
 30
14.8362
 70
192
 0
VERTEX
 8
GRIFF_3
 10
-15.6872
 20
0.4356
 30
14.8362
 70
192
 0
VERTEX
 8
GRIFF_3
 10
-15.5408
 20
-0.7286
 30
16.5004
 70
192
 0
VERTEX
 8
GRIFF_3
 10
-15.5408
 20
-0.7286
 30
16.5004
 70
192
 0
VERTEX
 8
GRIFF_3
 10
-15.5408
 20
0.6856
 30
15.0862
 70
192
 0
VERTEX
 8
GRIFF_3
 10
-15.5408
 20
0.6856
 30
15.0862
 70
192
 0
VERTEX
 8
GRIFF_3
 10
-15.1872
 20
-0.6251
 30
16.604
 70
192
 0
VERTEX
 8
GRIFF_3
 10
-15.1872
 20
-0.6251
 30
16.604
 70
192
 0
VERTEX
 8
GRIFF_3
 10
-15.1872
 20
0.7891
 30
15.1898
 70
192
 0
VERTEX
 8
GRIFF_3
 10
-15.1872
 20
0.7891
 30
15.1898
 70
192
 0
VERTEX
 8
GRIFF_3
 10
-14.8337
 20
-0.7286
 30
16.5004
 70
192
 0
VERTEX
 8
GRIFF_3
 10
-14.8337
 20
-0.7286
 30
16.5004
 70
192
 0
VERTEX
 8
GRIFF_3
 10
-14.8337
 20
0.6856
 30
15.0862
 70
192
 0
VERTEX
 8
GRIFF_3
 10
-14.8337
 20
0.6856
 30
15.0862
 70
192
 0
VERTEX
 8
GRIFF_3
 10
-14.6872
 20
-0.9786
 30
16.2504
 70
192
 0
VERTEX
 8
GRIFF_3
 10
-14.6872
 20
-0.9786
 30
16.2504
 70
192
 0
VERTEX
 8
GRIFF_3
 10
-14.6872
 20
0.4356
 30
14.8362
 70
192
 0
VERTEX
 8
GRIFF_3
 10
-14.6872
 20
0.4356
 30
14.8362
 70
192
 0
VERTEX
 8
GRIFF_3
 10
-14.8337
 20
-1.2286
 30
16.0004
 70
192
 0
VERTEX
 8
GRIFF_3
 10
-14.8337
 20
-1.2286
 30
16.0004
 70
192
 0
VERTEX
 8
GRIFF_3
 10
-14.8337
 20
0.1856
 30
14.5862
 70
192
 0
VERTEX
 8
GRIFF_3
 10
-14.8337
 20
0.1856
 30
14.5862
 70
192
 0
VERTEX
 8
GRIFF_3
 10
-15.1872
 20
-1.3322
 30
15.8969
 70
192
 0
VERTEX
 8
GRIFF_3
 10
-15.1872
 20
-1.3322
 30
15.8969
 70
192
 0
VERTEX
 8
GRIFF_3
 10
-15.1872
 20
0.082
 30
14.4827
 70
192
 0
VERTEX
 8
GRIFF_3
 10
-15.1872
 20
0.082
 30
14.4827
 70
192
 0
VERTEX
 8
GRIFF_3
 10
-15.5408
 20
-1.2286
 30
16.0004
 70
192
 0
VERTEX
 8
GRIFF_3
 10
-15.5408
 20
-1.2286
 30
16.0004
 70
192
 0
VERTEX
 8
GRIFF_3
 10
-15.5408
 20
0.1856
 30
14.5862
 70
192
 0
VERTEX
 8
GRIFF_3
 10
-15.5408
 20
0.1856
 30
14.5862
 70
192
 0
VERTEX
 8
GRIFF_3
 10
0
 20
0
 30
0
 70
128
 71
1
 72
3
 73
7
 74
7
 0
VERTEX
 8
GRIFF_3
 10
0
 20
0
 30
0
 70
128
 71
4
 72
5
 73
9
 74
8
 0
VERTEX
 8
GRIFF_3
 10
0
 20
0
 30
0
 70
128
 71
6
 72
2
 73
10
 74
10
 0
VERTEX
 8
GRIFF_3
 10
0
 20
0
 30
0
 70
128
 71
1
 72
7
 73
11
 74
11
 0
VERTEX
 8
GRIFF_3
 10
0
 20
0
 30
0
 70
128
 71
8
 72
9
 73
13
 74
12
 0
VERTEX
 8
GRIFF_3
 10
0
 20
0
 30
0
 70
128
 71
10
 72
2
 73
14
 74
14
 0
VERTEX
 8
GRIFF_3
 10
0
 20
0
 30
0
 70
128
 71
1
 72
11
 73
15
 74
15
 0
VERTEX
 8
GRIFF_3
 10
0
 20
0
 30
0
 70
128
 71
12
 72
13
 73
17
 74
16
 0
VERTEX
 8
GRIFF_3
 10
0
 20
0
 30
0
 70
128
 71
14
 72
2
 73
18
 74
18
 0
VERTEX
 8
GRIFF_3
 10
0
 20
0
 30
0
 70
128
 71
1
 72
15
 73
19
 74
19
 0
VERTEX
 8
GRIFF_3
 10
0
 20
0
 30
0
 70
128
 71
16
 72
17
 73
21
 74
20
 0
VERTEX
 8
GRIFF_3
 10
0
 20
0
 30
0
 70
128
 71
18
 72
2
 73
22
 74
22
 0
VERTEX
 8
GRIFF_3
 10
0
 20
0
 30
0
 70
128
 71
1
 72
19
 73
23
 74
23
 0
VERTEX
 8
GRIFF_3
 10
0
 20
0
 30
0
 70
128
 71
20
 72
21
 73
25
 74
24
 0
VERTEX
 8
GRIFF_3
 10
0
 20
0
 30
0
 70
128
 71
22
 72
2
 73
26
 74
26
 0
VERTEX
 8
GRIFF_3
 10
0
 20
0
 30
0
 70
128
 71
1
 72
23
 73
27
 74
27
 0
VERTEX
 8
GRIFF_3
 10
0
 20
0
 30
0
 70
128
 71
24
 72
25
 73
29
 74
28
 0
VERTEX
 8
GRIFF_3
 10
0
 20
0
 30
0
 70
128
 71
26
 72
2
 73
30
 74
30
 0
VERTEX
 8
GRIFF_3
 10
0
 20
0
 30
0
 70
128
 71
1
 72
27
 73
31
 74
31
 0
VERTEX
 8
GRIFF_3
 10
0
 20
0
 30
0
 70
128
 71
28
 72
29
 73
33
 74
32
 0
VERTEX
 8
GRIFF_3
 10
0
 20
0
 30
0
 70
128
 71
30
 72
2
 73
34
 74
34
 0
VERTEX
 8
GRIFF_3
 10
0
 20
0
 30
0
 70
128
 71
1
 72
31
 73
3
 74
3
 0
VERTEX
 8
GRIFF_3
 10
0
 20
0
 30
0
 70
128
 71
32
 72
33
 73
5
 74
4
 0
VERTEX
 8
GRIFF_3
 10
0
 20
0
 30
0
 70
128
 71
34
 72
2
 73
6
 74
6
 0
SEQEND
 0
POLYLINE
 8
GRIFF_2
 66
1
 10
0.0
 20
0.0
 30
0.0
 70
64
 71
12
 72
6
 0
VERTEX
 8
GRIFF_2
 10
-15.5351
 20
-2.0651
 30
17.3369
 70
192
 0
VERTEX
 8
GRIFF_2
 10
-15.5351
 20
-2.9136
 30
18.1854
 70
192
 0
VERTEX
 8
GRIFF_2
 10
-15.3601
 20
-2.2794
 30
17.1225
 70
192
 0
VERTEX
 8
GRIFF_2
 10
-15.3601
 20
-3.1279
 30
17.971
 70
192
 0
VERTEX
 8
GRIFF_2
 10
-15.0101
 20
-2.2794
 30
17.1225
 70
192
 0
VERTEX
 8
GRIFF_2
 10
-15.0101
 20
-3.1279
 30
17.971
 70
192
 0
VERTEX
 8
GRIFF_2
 10
-14.8351
 20
-2.0651
 30
17.3369
 70
192
 0
VERTEX
 8
GRIFF_2
 10
-14.8351
 20
-2.9136
 30
18.1854
 70
192
 0
VERTEX
 8
GRIFF_2
 10
-15.0101
 20
-1.8507
 30
17.5512
 70
192
 0
VERTEX
 8
GRIFF_2
 10
-15.0101
 20
-2.6993
 30
18.3997
 70
192
 0
VERTEX
 8
GRIFF_2
 10
-15.3601
 20
-1.8507
 30
17.5512
 70
192
 0
VERTEX
 8
GRIFF_2
 10
-15.3601
 20
-2.6993
 30
18.3997
 70
192
 0
VERTEX
 8
GRIFF_2
 10
0
 20
0
 30
0
 70
128
 71
1
 72
2
 73
4
 74
3
 0
VERTEX
 8
GRIFF_2
 10
0
 20
0
 30
0
 70
128
 71
3
 72
4
 73
6
 74
5
 0
VERTEX
 8
GRIFF_2
 10
0
 20
0
 30
0
 70
128
 71
5
 72
6
 73
8
 74
7
 0
VERTEX
 8
GRIFF_2
 10
0
 20
0
 30
0
 70
128
 71
7
 72
8
 73
10
 74
9
 0
VERTEX
 8
GRIFF_2
 10
0
 20
0
 30
0
 70
128
 71
9
 72
10
 73
12
 74
11
 0
VERTEX
 8
GRIFF_2
 10
0
 20
0
 30
0
 70
128
 71
11
 72
12
 73
2
 74
1
 0
SEQEND
 0
POLYLINE
 8
GRIFF_1
 66
1
 10
0.0
 20
0.0
 30
0.0
 70
64
 71
34
 72
24
 0
VERTEX
 8
GRIFF_1
 10
-15.1872
 20
-2.4481
 30
17.7198
 70
192
 0
VERTEX
 8
GRIFF_1
 10
-15.1872
 20
-3.8623
 30
19.1341
 70
192
 0
VERTEX
 8
GRIFF_1
 10
-15.6872
 20
-2.4481
 30
17.7198
 70
192
 0
VERTEX
 8
GRIFF_1
 10
-15.6872
 20
-2.4481
 30
17.7198
 70
192
 0
VERTEX
 8
GRIFF_1
 10
-15.6872
 20
-3.8623
 30
19.1341
 70
192
 0
VERTEX
 8
GRIFF_1
 10
-15.6872
 20
-3.8623
 30
19.1341
 70
192
 0
VERTEX
 8
GRIFF_1
 10
-15.5408
 20
-2.6981
 30
17.4698
 70
192
 0
VERTEX
 8
GRIFF_1
 10
-15.5408
 20
-2.6981
 30
17.4698
 70
192
 0
VERTEX
 8
GRIFF_1
 10
-15.5408
 20
-4.1123
 30
18.8841
 70
192
 0
VERTEX
 8
GRIFF_1
 10
-15.5408
 20
-4.1123
 30
18.8841
 70
192
 0
VERTEX
 8
GRIFF_1
 10
-15.1872
 20
-2.8016
 30
17.3663
 70
192
 0
VERTEX
 8
GRIFF_1
 10
-15.1872
 20
-2.8016
 30
17.3663
 70
192
 0
VERTEX
 8
GRIFF_1
 10
-15.1872
 20
-4.2158
 30
18.7805
 70
192
 0
VERTEX
 8
GRIFF_1
 10
-15.1872
 20
-4.2158
 30
18.7805
 70
192
 0
VERTEX
 8
GRIFF_1
 10
-14.8337
 20
-2.6981
 30
17.4698
 70
192
 0
VERTEX
 8
GRIFF_1
 10
-14.8337
 20
-2.6981
 30
17.4698
 70
192
 0
VERTEX
 8
GRIFF_1
 10
-14.8337
 20
-4.1123
 30
18.8841
 70
192
 0
VERTEX
 8
GRIFF_1
 10
-14.8337
 20
-4.1123
 30
18.8841
 70
192
 0
VERTEX
 8
GRIFF_1
 10
-14.6872
 20
-2.4481
 30
17.7198
 70
192
 0
VERTEX
 8
GRIFF_1
 10
-14.6872
 20
-2.4481
 30
17.7198
 70
192
 0
VERTEX
 8
GRIFF_1
 10
-14.6872
 20
-3.8623
 30
19.1341
 70
192
 0
VERTEX
 8
GRIFF_1
 10
-14.6872
 20
-3.8623
 30
19.1341
 70
192
 0
VERTEX
 8
GRIFF_1
 10
-14.8337
 20
-2.1981
 30
17.9698
 70
192
 0
VERTEX
 8
GRIFF_1
 10
-14.8337
 20
-2.1981
 30
17.9698
 70
192
 0
VERTEX
 8
GRIFF_1
 10
-14.8337
 20
-3.6123
 30
19.3841
 70
192
 0
VERTEX
 8
GRIFF_1
 10
-14.8337
 20
-3.6123
 30
19.3841
 70
192
 0
VERTEX
 8
GRIFF_1
 10
-15.1872
 20
-2.0945
 30
18.0734
 70
192
 0
VERTEX
 8
GRIFF_1
 10
-15.1872
 20
-2.0945
 30
18.0734
 70
192
 0
VERTEX
 8
GRIFF_1
 10
-15.1872
 20
-3.5087
 30
19.4876
 70
192
 0
VERTEX
 8
GRIFF_1
 10
-15.1872
 20
-3.5087
 30
19.4876
 70
192
 0
VERTEX
 8
GRIFF_1
 10
-15.5408
 20
-2.1981
 30
17.9698
 70
192
 0
VERTEX
 8
GRIFF_1
 10
-15.5408
 20
-2.1981
 30
17.9698
 70
192
 0
VERTEX
 8
GRIFF_1
 10
-15.5408
 20
-3.6123
 30
19.3841
 70
192
 0
VERTEX
 8
GRIFF_1
 10
-15.5408
 20
-3.6123
 30
19.3841
 70
192
 0
VERTEX
 8
GRIFF_1
 10
0
 20
0
 30
0
 70
128
 71
1
 72
3
 73
7
 74
7
 0
VERTEX
 8
GRIFF_1
 10
0
 20
0
 30
0
 70
128
 71
4
 72
5
 73
9
 74
8
 0
VERTEX
 8
GRIFF_1
 10
0
 20
0
 30
0
 70
128
 71
6
 72
2
 73
10
 74
10
 0
VERTEX
 8
GRIFF_1
 10
0
 20
0
 30
0
 70
128
 71
1
 72
7
 73
11
 74
11
 0
VERTEX
 8
GRIFF_1
 10
0
 20
0
 30
0
 70
128
 71
8
 72
9
 73
13
 74
12
 0
VERTEX
 8
GRIFF_1
 10
0
 20
0
 30
0
 70
128
 71
10
 72
2
 73
14
 74
14
 0
VERTEX
 8
GRIFF_1
 10
0
 20
0
 30
0
 70
128
 71
1
 72
11
 73
15
 74
15
 0
VERTEX
 8
GRIFF_1
 10
0
 20
0
 30
0
 70
128
 71
12
 72
13
 73
17
 74
16
 0
VERTEX
 8
GRIFF_1
 10
0
 20
0
 30
0
 70
128
 71
14
 72
2
 73
18
 74
18
 0
VERTEX
 8
GRIFF_1
 10
0
 20
0
 30
0
 70
128
 71
1
 72
15
 73
19
 74
19
 0
VERTEX
 8
GRIFF_1
 10
0
 20
0
 30
0
 70
128
 71
16
 72
17
 73
21
 74
20
 0
VERTEX
 8
GRIFF_1
 10
0
 20
0
 30
0
 70
128
 71
18
 72
2
 73
22
 74
22
 0
VERTEX
 8
GRIFF_1
 10
0
 20
0
 30
0
 70
128
 71
1
 72
19
 73
23
 74
23
 0
VERTEX
 8
GRIFF_1
 10
0
 20
0
 30
0
 70
128
 71
20
 72
21
 73
25
 74
24
 0
VERTEX
 8
GRIFF_1
 10
0
 20
0
 30
0
 70
128
 71
22
 72
2
 73
26
 74
26
 0
VERTEX
 8
GRIFF_1
 10
0
 20
0
 30
0
 70
128
 71
1
 72
23
 73
27
 74
27
 0
VERTEX
 8
GRIFF_1
 10
0
 20
0
 30
0
 70
128
 71
24
 72
25
 73
29
 74
28
 0
VERTEX
 8
GRIFF_1
 10
0
 20
0
 30
0
 70
128
 71
26
 72
2
 73
30
 74
30
 0
VERTEX
 8
GRIFF_1
 10
0
 20
0
 30
0
 70
128
 71
1
 72
27
 73
31
 74
31
 0
VERTEX
 8
GRIFF_1
 10
0
 20
0
 30
0
 70
128
 71
28
 72
29
 73
33
 74
32
 0
VERTEX
 8
GRIFF_1
 10
0
 20
0
 30
0
 70
128
 71
30
 72
2
 73
34
 74
34
 0
VERTEX
 8
GRIFF_1
 10
0
 20
0
 30
0
 70
128
 71
1
 72
31
 73
3
 74
3
 0
VERTEX
 8
GRIFF_1
 10
0
 20
0
 30
0
 70
128
 71
32
 72
33
 73
5
 74
4
 0
VERTEX
 8
GRIFF_1
 10
0
 20
0
 30
0
 70
128
 71
34
 72
2
 73
6
 74
6
 0
SEQEND
 0
POLYLINE
 8
GRIFF
 66
1
 10
0.0
 20
0.0
 30
0.0
 70
64
 71
42
 72
30
 0
VERTEX
 8
GRIFF
 10
-14.6957
 20
-1.7396
 30
16.9848
 70
192
 0
VERTEX
 8
GRIFF
 10
-15.6957
 20
-1.7396
 30
16.9848
 70
192
 0
VERTEX
 8
GRIFF
 10
-14.6957
 20
-2.2346
 30
16.4899
 70
192
 0
VERTEX
 8
GRIFF
 10
-14.6957
 20
-2.2346
 30
16.4899
 70
192
 0
VERTEX
 8
GRIFF
 10
-15.6957
 20
-2.2346
 30
16.4899
 70
192
 0
VERTEX
 8
GRIFF
 10
-15.6957
 20
-2.2346
 30
16.4899
 70
192
 0
VERTEX
 8
GRIFF
 10
-14.6957
 20
-2.431
 30
16.8753
 70
192
 0
VERTEX
 8
GRIFF
 10
-14.6957
 20
-2.431
 30
16.8753
 70
192
 0
VERTEX
 8
GRIFF
 10
-15.6957
 20
-2.431
 30
16.8753
 70
192
 0
VERTEX
 8
GRIFF
 10
-15.6957
 20
-2.431
 30
16.8753
 70
192
 0
VERTEX
 8
GRIFF
 10
-14.6957
 20
-2.3633
 30
17.3026
 70
192
 0
VERTEX
 8
GRIFF
 10
-14.6957
 20
-2.3633
 30
17.3026
 70
192
 0
VERTEX
 8
GRIFF
 10
-15.6957
 20
-2.3633
 30
17.3026
 70
192
 0
VERTEX
 8
GRIFF
 10
-15.6957
 20
-2.3633
 30
17.3026
 70
192
 0
VERTEX
 8
GRIFF
 10
-14.6957
 20
-2.0574
 30
17.6085
 70
192
 0
VERTEX
 8
GRIFF
 10
-14.6957
 20
-2.0574
 30
17.6085
 70
192
 0
VERTEX
 8
GRIFF
 10
-15.6957
 20
-2.0574
 30
17.6085
 70
192
 0
VERTEX
 8
GRIFF
 10
-15.6957
 20
-2.0574
 30
17.6085
 70
192
 0
VERTEX
 8
GRIFF
 10
-14.6957
 20
-1.6301
 30
17.6762
 70
192
 0
VERTEX
 8
GRIFF
 10
-14.6957
 20
-1.6301
 30
17.6762
 70
192
 0
VERTEX
 8
GRIFF
 10
-15.6957
 20
-1.6301
 30
17.6762
 70
192
 0
VERTEX
 8
GRIFF
 10
-15.6957
 20
-1.6301
 30
17.6762
 70
192
 0
VERTEX
 8
GRIFF
 10
-14.6957
 20
-1.2446
 30
17.4798
 70
192
 0
VERTEX
 8
GRIFF
 10
-14.6957
 20
-1.2446
 30
17.4798
 70
192
 0
VERTEX
 8
GRIFF
 10
-15.6957
 20
-1.2446
 30
17.4798
 70
192
 0
VERTEX
 8
GRIFF
 10
-15.6957
 20
-1.2446
 30
17.4798
 70
192
 0
VERTEX
 8
GRIFF
 10
-14.6957
 20
-1.0482
 30
17.0943
 70
192
 0
VERTEX
 8
GRIFF
 10
-14.6957
 20
-1.0482
 30
17.0943
 70
192
 0
VERTEX
 8
GRIFF
 10
-15.6957
 20
-1.0482
 30
17.0943
 70
192
 0
VERTEX
 8
GRIFF
 10
-15.6957
 20
-1.0482
 30
17.0943
 70
192
 0
VERTEX
 8
GRIFF
 10
-14.6957
 20
-1.1159
 30
16.667
 70
192
 0
VERTEX
 8
GRIFF
 10
-14.6957
 20
-1.1159
 30
16.667
 70
192
 0
VERTEX
 8
GRIFF
 10
-15.6957
 20
-1.1159
 30
16.667
 70
192
 0
VERTEX
 8
GRIFF
 10
-15.6957
 20
-1.1159
 30
16.667
 70
192
 0
VERTEX
 8
GRIFF
 10
-14.6957
 20
-1.4218
 30
16.3611
 70
192
 0
VERTEX
 8
GRIFF
 10
-14.6957
 20
-1.4218
 30
16.3611
 70
192
 0
VERTEX
 8
GRIFF
 10
-15.6957
 20
-1.4218
 30
16.3611
 70
192
 0
VERTEX
 8
GRIFF
 10
-15.6957
 20
-1.4218
 30
16.3611
 70
192
 0
VERTEX
 8
GRIFF
 10
-14.6957
 20
-1.8491
 30
16.2935
 70
192
 0
VERTEX
 8
GRIFF
 10
-14.6957
 20
-1.8491
 30
16.2935
 70
192
 0
VERTEX
 8
GRIFF
 10
-15.6957
 20
-1.8491
 30
16.2935
 70
192
 0
VERTEX
 8
GRIFF
 10
-15.6957
 20
-1.8491
 30
16.2935
 70
192
 0
VERTEX
 8
GRIFF
 10
0
 20
0
 30
0
 70
128
 71
1
 72
3
 73
7
 74
7
 0
VERTEX
 8
GRIFF
 10
0
 20
0
 30
0
 70
128
 71
4
 72
5
 73
9
 74
8
 0
VERTEX
 8
GRIFF
 10
0
 20
0
 30
0
 70
128
 71
6
 72
2
 73
10
 74
10
 0
VERTEX
 8
GRIFF
 10
0
 20
0
 30
0
 70
128
 71
1
 72
7
 73
11
 74
11
 0
VERTEX
 8
GRIFF
 10
0
 20
0
 30
0
 70
128
 71
8
 72
9
 73
13
 74
12
 0
VERTEX
 8
GRIFF
 10
0
 20
0
 30
0
 70
128
 71
10
 72
2
 73
14
 74
14
 0
VERTEX
 8
GRIFF
 10
0
 20
0
 30
0
 70
128
 71
1
 72
11
 73
15
 74
15
 0
VERTEX
 8
GRIFF
 10
0
 20
0
 30
0
 70
128
 71
12
 72
13
 73
17
 74
16
 0
VERTEX
 8
GRIFF
 10
0
 20
0
 30
0
 70
128
 71
14
 72
2
 73
18
 74
18
 0
VERTEX
 8
GRIFF
 10
0
 20
0
 30
0
 70
128
 71
1
 72
15
 73
19
 74
19
 0
VERTEX
 8
GRIFF
 10
0
 20
0
 30
0
 70
128
 71
16
 72
17
 73
21
 74
20
 0
VERTEX
 8
GRIFF
 10
0
 20
0
 30
0
 70
128
 71
18
 72
2
 73
22
 74
22
 0
VERTEX
 8
GRIFF
 10
0
 20
0
 30
0
 70
128
 71
1
 72
19
 73
23
 74
23
 0
VERTEX
 8
GRIFF
 10
0
 20
0
 30
0
 70
128
 71
20
 72
21
 73
25
 74
24
 0
VERTEX
 8
GRIFF
 10
0
 20
0
 30
0
 70
128
 71
22
 72
2
 73
26
 74
26
 0
VERTEX
 8
GRIFF
 10
0
 20
0
 30
0
 70
128
 71
1
 72
23
 73
27
 74
27
 0
VERTEX
 8
GRIFF
 10
0
 20
0
 30
0
 70
128
 71
24
 72
25
 73
29
 74
28
 0
VERTEX
 8
GRIFF
 10
0
 20
0
 30
0
 70
128
 71
26
 72
2
 73
30
 74
30
 0
VERTEX
 8
GRIFF
 10
0
 20
0
 30
0
 70
128
 71
1
 72
27
 73
31
 74
31
 0
VERTEX
 8
GRIFF
 10
0
 20
0
 30
0
 70
128
 71
28
 72
29
 73
33
 74
32
 0
VERTEX
 8
GRIFF
 10
0
 20
0
 30
0
 70
128
 71
30
 72
2
 73
34
 74
34
 0
VERTEX
 8
GRIFF
 10
0
 20
0
 30
0
 70
128
 71
1
 72
31
 73
35
 74
35
 0
VERTEX
 8
GRIFF
 10
0
 20
0
 30
0
 70
128
 71
32
 72
33
 73
37
 74
36
 0
VERTEX
 8
GRIFF
 10
0
 20
0
 30
0
 70
128
 71
34
 72
2
 73
38
 74
38
 0
VERTEX
 8
GRIFF
 10
0
 20
0
 30
0
 70
128
 71
1
 72
35
 73
39
 74
39
 0
VERTEX
 8
GRIFF
 10
0
 20
0
 30
0
 70
128
 71
36
 72
37
 73
41
 74
40
 0
VERTEX
 8
GRIFF
 10
0
 20
0
 30
0
 70
128
 71
38
 72
2
 73
42
 74
42
 0
VERTEX
 8
GRIFF
 10
0
 20
0
 30
0
 70
128
 71
1
 72
39
 73
3
 74
3
 0
VERTEX
 8
GRIFF
 10
0
 20
0
 30
0
 70
128
 71
40
 72
41
 73
5
 74
4
 0
VERTEX
 8
GRIFF
 10
0
 20
0
 30
0
 70
128
 71
42
 72
2
 73
6
 74
6
 0
SEQEND
 0
ENDSEC
 0
EOF
