 0
SECTION
 2
HEADER
 9
$ACADVER
 1
AC1009
 0
ENDSEC
 0
SECTION
 2
TABLES
 0
TABLE
 2
LTYPE
 70
1
 0
LTYPE
 2
CONTINUOUS
 70
64
 3
solid line
 72
65
 73
0
 40
0.0
 0
ENDTAB
 0
TABLE
 2
LAYER
 70
6
 0
LAYER
 2
0
 70
0
 62
7
 6
CONTINUOUS
 0
LAYER
 2
250_4370_M
 70
64
 62
7
 6
CONTINUOUS
 0
LAYER
 2
ROSETTE
 70
64
 62
250
 6
CONTINUOUS
 0
LAYER
 2
K_RPER_1
 70
64
 62
250
 6
CONTINUOUS
 0
LAYER
 2
K_RPER
 70
64
 62
250
 6
CONTINUOUS
 0
LAYER
 2
GRIFF_10
 70
64
 62
250
 6
CONTINUOUS
 0
LAYER
 2
GRIFF_9
 70
64
 62
250
 6
CONTINUOUS
 0
LAYER
 2
GRIFF_8
 70
64
 62
250
 6
CONTINUOUS
 0
LAYER
 2
GRIFF_7
 70
64
 62
250
 6
CONTINUOUS
 0
LAYER
 2
GRIFF_6
 70
64
 62
250
 6
CONTINUOUS
 0
LAYER
 2
GRIFF_5
 70
64
 62
250
 6
CONTINUOUS
 0
LAYER
 2
GRIFF_4
 70
64
 62
250
 6
CONTINUOUS
 0
LAYER
 2
GRIFF_3
 70
64
 62
250
 6
CONTINUOUS
 0
LAYER
 2
GRIFF_2
 70
64
 62
250
 6
CONTINUOUS
 0
LAYER
 2
GRIFF_1
 70
64
 62
250
 6
CONTINUOUS
 0
ENDTAB
 0
ENDSEC
 0
SECTION
 2
BLOCKS
 0
ENDSEC
 0
SECTION
 2
ENTITIES
 0
POLYLINE
 8
ROSETTE
 66
1
 10
0.0
 20
0.0
 30
0.0
 70
64
 71
60
 72
23
 0
VERTEX
 8
ROSETTE
 10
0.8106
 20
-0.2187
 30
21.3851
 70
192
 0
VERTEX
 8
ROSETTE
 10
-0.021
 20
0.2813
 30
13.4726
 70
192
 0
VERTEX
 8
ROSETTE
 10
-0.021
 20
0.2813
 30
13.4726
 70
192
 0
VERTEX
 8
ROSETTE
 10
-0.021
 20
-0.2187
 30
13.4726
 70
192
 0
VERTEX
 8
ROSETTE
 10
-0.021
 20
-0.2187
 30
13.4726
 70
192
 0
VERTEX
 8
ROSETTE
 10
-0.8526
 20
0.2813
 30
21.3851
 70
192
 0
VERTEX
 8
ROSETTE
 10
-0.8526
 20
0.2813
 30
21.3851
 70
192
 0
VERTEX
 8
ROSETTE
 10
-0.8526
 20
-0.2187
 30
21.3851
 70
192
 0
VERTEX
 8
ROSETTE
 10
-0.8526
 20
-0.2187
 30
21.3851
 70
192
 0
VERTEX
 8
ROSETTE
 10
1.6059
 20
0.2813
 30
13.8184
 70
192
 0
VERTEX
 8
ROSETTE
 10
1.6059
 20
0.2813
 30
13.8184
 70
192
 0
VERTEX
 8
ROSETTE
 10
1.6059
 20
-0.2187
 30
13.8184
 70
192
 0
VERTEX
 8
ROSETTE
 10
1.6059
 20
-0.2187
 30
13.8184
 70
192
 0
VERTEX
 8
ROSETTE
 10
-2.3721
 20
0.2813
 30
20.7086
 70
192
 0
VERTEX
 8
ROSETTE
 10
-2.3721
 20
0.2813
 30
20.7086
 70
192
 0
VERTEX
 8
ROSETTE
 10
-2.3721
 20
-0.2187
 30
20.7086
 70
192
 0
VERTEX
 8
ROSETTE
 10
-2.3721
 20
-0.2187
 30
20.7086
 70
192
 0
VERTEX
 8
ROSETTE
 10
2.9516
 20
0.2813
 30
14.796
 70
192
 0
VERTEX
 8
ROSETTE
 10
2.9516
 20
0.2813
 30
14.796
 70
192
 0
VERTEX
 8
ROSETTE
 10
2.9516
 20
-0.2187
 30
14.796
 70
192
 0
VERTEX
 8
ROSETTE
 10
2.9516
 20
-0.2187
 30
14.796
 70
192
 0
VERTEX
 8
ROSETTE
 10
-3.4851
 20
0.2813
 30
19.4726
 70
192
 0
VERTEX
 8
ROSETTE
 10
-3.4851
 20
0.2813
 30
19.4726
 70
192
 0
VERTEX
 8
ROSETTE
 10
-3.4851
 20
-0.2187
 30
19.4726
 70
192
 0
VERTEX
 8
ROSETTE
 10
-3.4851
 20
-0.2187
 30
19.4726
 70
192
 0
VERTEX
 8
ROSETTE
 10
3.7832
 20
0.2813
 30
16.2365
 70
192
 0
VERTEX
 8
ROSETTE
 10
3.7832
 20
0.2813
 30
16.2365
 70
192
 0
VERTEX
 8
ROSETTE
 10
3.7832
 20
-0.2187
 30
16.2365
 70
192
 0
VERTEX
 8
ROSETTE
 10
3.7832
 20
-0.2187
 30
16.2365
 70
192
 0
VERTEX
 8
ROSETTE
 10
-3.9991
 20
0.2813
 30
17.8907
 70
192
 0
VERTEX
 8
ROSETTE
 10
-3.9991
 20
0.2813
 30
17.8907
 70
192
 0
VERTEX
 8
ROSETTE
 10
-3.9991
 20
-0.2187
 30
17.8907
 70
192
 0
VERTEX
 8
ROSETTE
 10
-3.9991
 20
-0.2187
 30
17.8907
 70
192
 0
VERTEX
 8
ROSETTE
 10
3.9571
 20
0.2813
 30
17.8907
 70
192
 0
VERTEX
 8
ROSETTE
 10
3.9571
 20
0.2813
 30
17.8907
 70
192
 0
VERTEX
 8
ROSETTE
 10
3.9571
 20
-0.2187
 30
17.8907
 70
192
 0
VERTEX
 8
ROSETTE
 10
3.9571
 20
-0.2187
 30
17.8907
 70
192
 0
VERTEX
 8
ROSETTE
 10
-3.8252
 20
0.2813
 30
16.2365
 70
192
 0
VERTEX
 8
ROSETTE
 10
-3.8252
 20
0.2813
 30
16.2365
 70
192
 0
VERTEX
 8
ROSETTE
 10
-3.8252
 20
-0.2187
 30
16.2365
 70
192
 0
VERTEX
 8
ROSETTE
 10
-3.8252
 20
-0.2187
 30
16.2365
 70
192
 0
VERTEX
 8
ROSETTE
 10
3.4431
 20
0.2813
 30
19.4726
 70
192
 0
VERTEX
 8
ROSETTE
 10
3.4431
 20
0.2813
 30
19.4726
 70
192
 0
VERTEX
 8
ROSETTE
 10
3.4431
 20
-0.2187
 30
19.4726
 70
192
 0
VERTEX
 8
ROSETTE
 10
3.4431
 20
-0.2187
 30
19.4726
 70
192
 0
VERTEX
 8
ROSETTE
 10
-2.9936
 20
0.2813
 30
14.796
 70
192
 0
VERTEX
 8
ROSETTE
 10
-2.9936
 20
0.2813
 30
14.796
 70
192
 0
VERTEX
 8
ROSETTE
 10
-2.9936
 20
-0.2187
 30
14.796
 70
192
 0
VERTEX
 8
ROSETTE
 10
-2.9936
 20
-0.2187
 30
14.796
 70
192
 0
VERTEX
 8
ROSETTE
 10
2.3301
 20
0.2813
 30
20.7086
 70
192
 0
VERTEX
 8
ROSETTE
 10
2.3301
 20
0.2813
 30
20.7086
 70
192
 0
VERTEX
 8
ROSETTE
 10
2.3301
 20
-0.2187
 30
20.7086
 70
192
 0
VERTEX
 8
ROSETTE
 10
2.3301
 20
-0.2187
 30
20.7086
 70
192
 0
VERTEX
 8
ROSETTE
 10
-1.6479
 20
0.2813
 30
13.8184
 70
192
 0
VERTEX
 8
ROSETTE
 10
-1.6479
 20
0.2813
 30
13.8184
 70
192
 0
VERTEX
 8
ROSETTE
 10
-1.6479
 20
-0.2187
 30
13.8184
 70
192
 0
VERTEX
 8
ROSETTE
 10
-1.6479
 20
-0.2187
 30
13.8184
 70
192
 0
VERTEX
 8
ROSETTE
 10
0.8106
 20
0.2813
 30
21.3851
 70
192
 0
VERTEX
 8
ROSETTE
 10
0.8106
 20
0.2813
 30
21.3851
 70
192
 0
VERTEX
 8
ROSETTE
 10
0.8106
 20
-0.2187
 30
21.3851
 70
192
 0
VERTEX
 8
ROSETTE
 10
0
 20
0
 30
0
 70
128
 71
35
 72
36
 73
44
 74
43
 0
VERTEX
 8
ROSETTE
 10
0
 20
0
 30
0
 70
128
 71
3
 72
4
 73
12
 74
11
 0
VERTEX
 8
ROSETTE
 10
0
 20
0
 30
0
 70
128
 71
43
 72
44
 73
52
 74
51
 0
VERTEX
 8
ROSETTE
 10
0
 20
0
 30
0
 70
128
 71
51
 72
52
 73
60
 74
59
 0
VERTEX
 8
ROSETTE
 10
0
 20
0
 30
0
 70
128
 71
59
 72
60
 73
8
 74
7
 0
VERTEX
 8
ROSETTE
 10
0
 20
0
 30
0
 70
128
 71
11
 72
12
 73
20
 74
19
 0
VERTEX
 8
ROSETTE
 10
0
 20
0
 30
0
 70
128
 71
7
 72
8
 73
16
 74
15
 0
VERTEX
 8
ROSETTE
 10
0
 20
0
 30
0
 70
128
 71
15
 72
16
 73
24
 74
23
 0
VERTEX
 8
ROSETTE
 10
0
 20
0
 30
0
 70
128
 71
23
 72
24
 73
32
 74
31
 0
VERTEX
 8
ROSETTE
 10
0
 20
0
 30
0
 70
128
 71
19
 72
20
 73
28
 74
27
 0
VERTEX
 8
ROSETTE
 10
0
 20
0
 30
0
 70
128
 71
31
 72
32
 73
40
 74
39
 0
VERTEX
 8
ROSETTE
 10
0
 20
0
 30
0
 70
128
 71
39
 72
40
 73
48
 74
47
 0
VERTEX
 8
ROSETTE
 10
0
 20
0
 30
0
 70
128
 71
47
 72
48
 73
56
 74
55
 0
VERTEX
 8
ROSETTE
 10
0
 20
0
 30
0
 70
128
 71
27
 72
28
 73
36
 74
35
 0
VERTEX
 8
ROSETTE
 10
0
 20
0
 30
0
 70
128
 71
55
 72
56
 73
4
 74
3
 0
VERTEX
 8
ROSETTE
 10
0
 20
0
 30
0
 70
128
 71
8
 72
60
 73
52
 74
24
 0
VERTEX
 8
ROSETTE
 10
0
 20
0
 30
0
 70
128
 71
8
 72
24
 73
16
 74
16
 0
VERTEX
 8
ROSETTE
 10
0
 20
0
 30
0
 70
128
 71
28
 72
52
 73
44
 74
36
 0
VERTEX
 8
ROSETTE
 10
0
 20
0
 30
0
 70
128
 71
24
 72
52
 73
28
 74
12
 0
VERTEX
 8
ROSETTE
 10
0
 20
0
 30
0
 70
128
 71
28
 72
20
 73
12
 74
12
 0
VERTEX
 8
ROSETTE
 10
0
 20
0
 30
0
 70
128
 71
24
 72
12
 73
4
 74
40
 0
VERTEX
 8
ROSETTE
 10
0
 20
0
 30
0
 70
128
 71
4
 72
56
 73
48
 74
40
 0
VERTEX
 8
ROSETTE
 10
0
 20
0
 30
0
 70
128
 71
40
 72
32
 73
24
 74
24
 0
SEQEND
 0
POLYLINE
 8
K_RPER_1
 66
1
 10
0.0
 20
0.0
 30
0.0
 70
64
 71
48
 72
17
 0
VERTEX
 8
K_RPER_1
 10
-0.021
 20
0.0927
 30
19.9726
 70
192
 0
VERTEX
 8
K_RPER_1
 10
-0.021
 20
0.0927
 30
14.9726
 70
192
 0
VERTEX
 8
K_RPER_1
 10
-0.021
 20
0.0927
 30
14.9726
 70
192
 0
VERTEX
 8
K_RPER_1
 10
-0.021
 20
-0.3836
 30
14.9726
 70
192
 0
VERTEX
 8
K_RPER_1
 10
-0.021
 20
-0.3836
 30
14.9726
 70
192
 0
VERTEX
 8
K_RPER_1
 10
-0.021
 20
0.0927
 30
19.9726
 70
192
 0
VERTEX
 8
K_RPER_1
 10
-0.021
 20
-0.3836
 30
19.9726
 70
192
 0
VERTEX
 8
K_RPER_1
 10
-0.021
 20
-0.3836
 30
19.9726
 70
192
 0
VERTEX
 8
K_RPER_1
 10
-1.271
 20
0.0927
 30
19.6376
 70
192
 0
VERTEX
 8
K_RPER_1
 10
1.229
 20
0.0927
 30
15.3075
 70
192
 0
VERTEX
 8
K_RPER_1
 10
1.229
 20
0.0927
 30
15.3075
 70
192
 0
VERTEX
 8
K_RPER_1
 10
1.229
 20
-0.3836
 30
15.3075
 70
192
 0
VERTEX
 8
K_RPER_1
 10
1.229
 20
-0.3836
 30
15.3075
 70
192
 0
VERTEX
 8
K_RPER_1
 10
-1.271
 20
0.0927
 30
19.6376
 70
192
 0
VERTEX
 8
K_RPER_1
 10
-1.271
 20
-0.3836
 30
19.6376
 70
192
 0
VERTEX
 8
K_RPER_1
 10
-1.271
 20
-0.3836
 30
19.6376
 70
192
 0
VERTEX
 8
K_RPER_1
 10
-2.1861
 20
0.0927
 30
18.7226
 70
192
 0
VERTEX
 8
K_RPER_1
 10
2.1441
 20
0.0927
 30
16.2226
 70
192
 0
VERTEX
 8
K_RPER_1
 10
2.1441
 20
0.0927
 30
16.2226
 70
192
 0
VERTEX
 8
K_RPER_1
 10
2.1441
 20
-0.3836
 30
16.2226
 70
192
 0
VERTEX
 8
K_RPER_1
 10
2.1441
 20
-0.3836
 30
16.2226
 70
192
 0
VERTEX
 8
K_RPER_1
 10
-2.1861
 20
0.0927
 30
18.7226
 70
192
 0
VERTEX
 8
K_RPER_1
 10
-2.1861
 20
-0.3836
 30
18.7226
 70
192
 0
VERTEX
 8
K_RPER_1
 10
-2.1861
 20
-0.3836
 30
18.7226
 70
192
 0
VERTEX
 8
K_RPER_1
 10
-2.521
 20
0.0927
 30
17.4726
 70
192
 0
VERTEX
 8
K_RPER_1
 10
2.479
 20
0.0927
 30
17.4726
 70
192
 0
VERTEX
 8
K_RPER_1
 10
2.479
 20
0.0927
 30
17.4726
 70
192
 0
VERTEX
 8
K_RPER_1
 10
2.479
 20
-0.3836
 30
17.4726
 70
192
 0
VERTEX
 8
K_RPER_1
 10
2.479
 20
-0.3836
 30
17.4726
 70
192
 0
VERTEX
 8
K_RPER_1
 10
-2.521
 20
0.0927
 30
17.4726
 70
192
 0
VERTEX
 8
K_RPER_1
 10
-2.521
 20
-0.3836
 30
17.4726
 70
192
 0
VERTEX
 8
K_RPER_1
 10
-2.521
 20
-0.3836
 30
17.4726
 70
192
 0
VERTEX
 8
K_RPER_1
 10
-2.1861
 20
0.0927
 30
16.2226
 70
192
 0
VERTEX
 8
K_RPER_1
 10
2.1441
 20
0.0927
 30
18.7226
 70
192
 0
VERTEX
 8
K_RPER_1
 10
2.1441
 20
0.0927
 30
18.7226
 70
192
 0
VERTEX
 8
K_RPER_1
 10
2.1441
 20
-0.3836
 30
18.7226
 70
192
 0
VERTEX
 8
K_RPER_1
 10
2.1441
 20
-0.3836
 30
18.7226
 70
192
 0
VERTEX
 8
K_RPER_1
 10
-2.1861
 20
0.0927
 30
16.2226
 70
192
 0
VERTEX
 8
K_RPER_1
 10
-2.1861
 20
-0.3836
 30
16.2226
 70
192
 0
VERTEX
 8
K_RPER_1
 10
-2.1861
 20
-0.3836
 30
16.2226
 70
192
 0
VERTEX
 8
K_RPER_1
 10
-1.271
 20
0.0927
 30
15.3075
 70
192
 0
VERTEX
 8
K_RPER_1
 10
1.229
 20
0.0927
 30
19.6376
 70
192
 0
VERTEX
 8
K_RPER_1
 10
1.229
 20
0.0927
 30
19.6376
 70
192
 0
VERTEX
 8
K_RPER_1
 10
1.229
 20
-0.3836
 30
19.6376
 70
192
 0
VERTEX
 8
K_RPER_1
 10
1.229
 20
-0.3836
 30
19.6376
 70
192
 0
VERTEX
 8
K_RPER_1
 10
-1.271
 20
0.0927
 30
15.3075
 70
192
 0
VERTEX
 8
K_RPER_1
 10
-1.271
 20
-0.3836
 30
15.3075
 70
192
 0
VERTEX
 8
K_RPER_1
 10
-1.271
 20
-0.3836
 30
15.3075
 70
192
 0
VERTEX
 8
K_RPER_1
 10
0
 20
0
 30
0
 70
128
 71
27
 72
28
 73
36
 74
35
 0
VERTEX
 8
K_RPER_1
 10
0
 20
0
 30
0
 70
128
 71
3
 72
4
 73
12
 74
11
 0
VERTEX
 8
K_RPER_1
 10
0
 20
0
 30
0
 70
128
 71
35
 72
36
 73
44
 74
43
 0
VERTEX
 8
K_RPER_1
 10
0
 20
0
 30
0
 70
128
 71
43
 72
44
 73
7
 74
6
 0
VERTEX
 8
K_RPER_1
 10
0
 20
0
 30
0
 70
128
 71
6
 72
7
 73
15
 74
14
 0
VERTEX
 8
K_RPER_1
 10
0
 20
0
 30
0
 70
128
 71
11
 72
12
 73
20
 74
19
 0
VERTEX
 8
K_RPER_1
 10
0
 20
0
 30
0
 70
128
 71
14
 72
15
 73
23
 74
22
 0
VERTEX
 8
K_RPER_1
 10
0
 20
0
 30
0
 70
128
 71
22
 72
23
 73
31
 74
30
 0
VERTEX
 8
K_RPER_1
 10
0
 20
0
 30
0
 70
128
 71
30
 72
31
 73
39
 74
38
 0
VERTEX
 8
K_RPER_1
 10
0
 20
0
 30
0
 70
128
 71
19
 72
20
 73
28
 74
27
 0
VERTEX
 8
K_RPER_1
 10
0
 20
0
 30
0
 70
128
 71
38
 72
39
 73
47
 74
46
 0
VERTEX
 8
K_RPER_1
 10
0
 20
0
 30
0
 70
128
 71
46
 72
47
 73
4
 74
3
 0
VERTEX
 8
K_RPER_1
 10
0
 20
0
 30
0
 70
128
 71
20
 72
44
 73
36
 74
28
 0
VERTEX
 8
K_RPER_1
 10
0
 20
0
 30
0
 70
128
 71
44
 72
20
 73
47
 74
23
 0
VERTEX
 8
K_RPER_1
 10
0
 20
0
 30
0
 70
128
 71
7
 72
44
 73
23
 74
15
 0
VERTEX
 8
K_RPER_1
 10
0
 20
0
 30
0
 70
128
 71
47
 72
20
 73
12
 74
4
 0
VERTEX
 8
K_RPER_1
 10
0
 20
0
 30
0
 70
128
 71
23
 72
47
 73
39
 74
31
 0
SEQEND
 0
POLYLINE
 8
K_RPER
 66
1
 10
0.0
 20
0.0
 30
0.0
 70
64
 71
25
 72
24
 0
VERTEX
 8
K_RPER
 10
-0.0238
 20
-3.823
 30
17.4753
 70
192
 0
VERTEX
 8
K_RPER
 10
2.1762
 20
-3.823
 30
17.4753
 70
192
 0
VERTEX
 8
K_RPER
 10
1.8815
 20
-3.823
 30
16.3753
 70
192
 0
VERTEX
 8
K_RPER
 10
1.0762
 20
-3.823
 30
15.57
 70
192
 0
VERTEX
 8
K_RPER
 10
-0.0238
 20
-3.823
 30
15.2753
 70
192
 0
VERTEX
 8
K_RPER
 10
-1.1238
 20
-3.823
 30
15.57
 70
192
 0
VERTEX
 8
K_RPER
 10
-1.929
 20
-3.823
 30
16.3753
 70
192
 0
VERTEX
 8
K_RPER
 10
-2.2238
 20
-3.823
 30
17.4753
 70
192
 0
VERTEX
 8
K_RPER
 10
-1.929
 20
-3.823
 30
18.5753
 70
192
 0
VERTEX
 8
K_RPER
 10
-1.1238
 20
-3.823
 30
19.3805
 70
192
 0
VERTEX
 8
K_RPER
 10
-0.0238
 20
-3.823
 30
19.6753
 70
192
 0
VERTEX
 8
K_RPER
 10
1.0762
 20
-3.823
 30
19.3805
 70
192
 0
VERTEX
 8
K_RPER
 10
1.8815
 20
-3.823
 30
18.5753
 70
192
 0
VERTEX
 8
K_RPER
 10
2.1762
 20
0.0415
 30
17.4753
 70
192
 0
VERTEX
 8
K_RPER
 10
1.8815
 20
0.0415
 30
16.3753
 70
192
 0
VERTEX
 8
K_RPER
 10
1.0762
 20
0.0415
 30
15.57
 70
192
 0
VERTEX
 8
K_RPER
 10
-0.0238
 20
0.0415
 30
15.2753
 70
192
 0
VERTEX
 8
K_RPER
 10
-1.1238
 20
0.0415
 30
15.57
 70
192
 0
VERTEX
 8
K_RPER
 10
-1.929
 20
0.0415
 30
16.3753
 70
192
 0
VERTEX
 8
K_RPER
 10
-2.2238
 20
0.0415
 30
17.4753
 70
192
 0
VERTEX
 8
K_RPER
 10
-1.929
 20
0.0415
 30
18.5753
 70
192
 0
VERTEX
 8
K_RPER
 10
-1.1238
 20
0.0415
 30
19.3805
 70
192
 0
VERTEX
 8
K_RPER
 10
-0.0238
 20
0.0415
 30
19.6753
 70
192
 0
VERTEX
 8
K_RPER
 10
1.0762
 20
0.0415
 30
19.3805
 70
192
 0
VERTEX
 8
K_RPER
 10
1.8815
 20
0.0415
 30
18.5753
 70
192
 0
VERTEX
 8
K_RPER
 10
0
 20
0
 30
0
 70
128
 71
1
 72
2
 73
3
 74
3
 0
VERTEX
 8
K_RPER
 10
0
 20
0
 30
0
 70
128
 71
15
 72
3
 73
2
 74
14
 0
VERTEX
 8
K_RPER
 10
0
 20
0
 30
0
 70
128
 71
1
 72
3
 73
4
 74
4
 0
VERTEX
 8
K_RPER
 10
0
 20
0
 30
0
 70
128
 71
16
 72
4
 73
3
 74
15
 0
VERTEX
 8
K_RPER
 10
0
 20
0
 30
0
 70
128
 71
1
 72
4
 73
5
 74
5
 0
VERTEX
 8
K_RPER
 10
0
 20
0
 30
0
 70
128
 71
17
 72
5
 73
4
 74
16
 0
VERTEX
 8
K_RPER
 10
0
 20
0
 30
0
 70
128
 71
1
 72
5
 73
6
 74
6
 0
VERTEX
 8
K_RPER
 10
0
 20
0
 30
0
 70
128
 71
18
 72
6
 73
5
 74
17
 0
VERTEX
 8
K_RPER
 10
0
 20
0
 30
0
 70
128
 71
1
 72
6
 73
7
 74
7
 0
VERTEX
 8
K_RPER
 10
0
 20
0
 30
0
 70
128
 71
19
 72
7
 73
6
 74
18
 0
VERTEX
 8
K_RPER
 10
0
 20
0
 30
0
 70
128
 71
1
 72
7
 73
8
 74
8
 0
VERTEX
 8
K_RPER
 10
0
 20
0
 30
0
 70
128
 71
20
 72
8
 73
7
 74
19
 0
VERTEX
 8
K_RPER
 10
0
 20
0
 30
0
 70
128
 71
1
 72
8
 73
9
 74
9
 0
VERTEX
 8
K_RPER
 10
0
 20
0
 30
0
 70
128
 71
21
 72
9
 73
8
 74
20
 0
VERTEX
 8
K_RPER
 10
0
 20
0
 30
0
 70
128
 71
1
 72
9
 73
10
 74
10
 0
VERTEX
 8
K_RPER
 10
0
 20
0
 30
0
 70
128
 71
22
 72
10
 73
9
 74
21
 0
VERTEX
 8
K_RPER
 10
0
 20
0
 30
0
 70
128
 71
1
 72
10
 73
11
 74
11
 0
VERTEX
 8
K_RPER
 10
0
 20
0
 30
0
 70
128
 71
23
 72
11
 73
10
 74
22
 0
VERTEX
 8
K_RPER
 10
0
 20
0
 30
0
 70
128
 71
1
 72
11
 73
12
 74
12
 0
VERTEX
 8
K_RPER
 10
0
 20
0
 30
0
 70
128
 71
24
 72
12
 73
11
 74
23
 0
VERTEX
 8
K_RPER
 10
0
 20
0
 30
0
 70
128
 71
1
 72
12
 73
13
 74
13
 0
VERTEX
 8
K_RPER
 10
0
 20
0
 30
0
 70
128
 71
25
 72
13
 73
12
 74
24
 0
VERTEX
 8
K_RPER
 10
0
 20
0
 30
0
 70
128
 71
1
 72
13
 73
2
 74
2
 0
VERTEX
 8
K_RPER
 10
0
 20
0
 30
0
 70
128
 71
14
 72
2
 73
13
 74
25
 0
SEQEND
 0
POLYLINE
 8
GRIFF_10
 66
1
 10
0.0
 20
0.0
 30
0.0
 70
64
 71
12
 72
6
 0
VERTEX
 8
GRIFF_10
 10
-0.038
 20
-3.1708
 30
16.9886
 70
192
 0
VERTEX
 8
GRIFF_10
 10
-0.038
 20
-5.1708
 30
16.9886
 70
192
 0
VERTEX
 8
GRIFF_10
 10
0.395
 20
-3.1708
 30
17.2386
 70
192
 0
VERTEX
 8
GRIFF_10
 10
0.395
 20
-5.1708
 30
17.2386
 70
192
 0
VERTEX
 8
GRIFF_10
 10
0.395
 20
-3.1708
 30
17.7386
 70
192
 0
VERTEX
 8
GRIFF_10
 10
0.395
 20
-5.1708
 30
17.7386
 70
192
 0
VERTEX
 8
GRIFF_10
 10
-0.038
 20
-3.1708
 30
17.9886
 70
192
 0
VERTEX
 8
GRIFF_10
 10
-0.038
 20
-5.1708
 30
17.9886
 70
192
 0
VERTEX
 8
GRIFF_10
 10
-0.471
 20
-3.1708
 30
17.7386
 70
192
 0
VERTEX
 8
GRIFF_10
 10
-0.471
 20
-5.1708
 30
17.7386
 70
192
 0
VERTEX
 8
GRIFF_10
 10
-0.471
 20
-3.1708
 30
17.2386
 70
192
 0
VERTEX
 8
GRIFF_10
 10
-0.471
 20
-5.1708
 30
17.2386
 70
192
 0
VERTEX
 8
GRIFF_10
 10
0
 20
0
 30
0
 70
128
 71
1
 72
2
 73
4
 74
3
 0
VERTEX
 8
GRIFF_10
 10
0
 20
0
 30
0
 70
128
 71
3
 72
4
 73
6
 74
5
 0
VERTEX
 8
GRIFF_10
 10
0
 20
0
 30
0
 70
128
 71
5
 72
6
 73
8
 74
7
 0
VERTEX
 8
GRIFF_10
 10
0
 20
0
 30
0
 70
128
 71
7
 72
8
 73
10
 74
9
 0
VERTEX
 8
GRIFF_10
 10
0
 20
0
 30
0
 70
128
 71
9
 72
10
 73
12
 74
11
 0
VERTEX
 8
GRIFF_10
 10
0
 20
0
 30
0
 70
128
 71
11
 72
12
 73
2
 74
1
 0
SEQEND
 0
POLYLINE
 8
GRIFF_9
 66
1
 10
0.0
 20
0.0
 30
0.0
 70
64
 71
12
 72
6
 0
VERTEX
 8
GRIFF_9
 10
-0.3337
 20
-5.8705
 30
17.7844
 70
192
 0
VERTEX
 8
GRIFF_9
 10
-1.1823
 20
-5.8705
 30
18.6329
 70
192
 0
VERTEX
 8
GRIFF_9
 10
-0.1194
 20
-5.6955
 30
17.9987
 70
192
 0
VERTEX
 8
GRIFF_9
 10
-0.9679
 20
-5.6955
 30
18.8472
 70
192
 0
VERTEX
 8
GRIFF_9
 10
-0.1194
 20
-5.3455
 30
17.9987
 70
192
 0
VERTEX
 8
GRIFF_9
 10
-0.9679
 20
-5.3455
 30
18.8472
 70
192
 0
VERTEX
 8
GRIFF_9
 10
-0.3337
 20
-5.1705
 30
17.7844
 70
192
 0
VERTEX
 8
GRIFF_9
 10
-1.1823
 20
-5.1705
 30
18.6329
 70
192
 0
VERTEX
 8
GRIFF_9
 10
-0.5481
 20
-5.3455
 30
17.57
 70
192
 0
VERTEX
 8
GRIFF_9
 10
-1.3966
 20
-5.3455
 30
18.4186
 70
192
 0
VERTEX
 8
GRIFF_9
 10
-0.5481
 20
-5.6955
 30
17.57
 70
192
 0
VERTEX
 8
GRIFF_9
 10
-1.3966
 20
-5.6955
 30
18.4186
 70
192
 0
VERTEX
 8
GRIFF_9
 10
0
 20
0
 30
0
 70
128
 71
1
 72
2
 73
4
 74
3
 0
VERTEX
 8
GRIFF_9
 10
0
 20
0
 30
0
 70
128
 71
3
 72
4
 73
6
 74
5
 0
VERTEX
 8
GRIFF_9
 10
0
 20
0
 30
0
 70
128
 71
5
 72
6
 73
8
 74
7
 0
VERTEX
 8
GRIFF_9
 10
0
 20
0
 30
0
 70
128
 71
7
 72
8
 73
10
 74
9
 0
VERTEX
 8
GRIFF_9
 10
0
 20
0
 30
0
 70
128
 71
9
 72
10
 73
12
 74
11
 0
VERTEX
 8
GRIFF_9
 10
0
 20
0
 30
0
 70
128
 71
11
 72
12
 73
2
 74
1
 0
SEQEND
 0
POLYLINE
 8
GRIFF_8
 66
1
 10
0.0
 20
0.0
 30
0.0
 70
64
 71
34
 72
24
 0
VERTEX
 8
GRIFF_8
 10
-0.7297
 20
-5.5227
 30
18.1803
 70
192
 0
VERTEX
 8
GRIFF_8
 10
-2.1439
 20
-5.5227
 30
19.5945
 70
192
 0
VERTEX
 8
GRIFF_8
 10
-0.7297
 20
-6.0227
 30
18.1803
 70
192
 0
VERTEX
 8
GRIFF_8
 10
-0.7297
 20
-6.0227
 30
18.1803
 70
192
 0
VERTEX
 8
GRIFF_8
 10
-2.1439
 20
-6.0227
 30
19.5945
 70
192
 0
VERTEX
 8
GRIFF_8
 10
-2.1439
 20
-6.0227
 30
19.5945
 70
192
 0
VERTEX
 8
GRIFF_8
 10
-0.4797
 20
-5.8762
 30
18.4303
 70
192
 0
VERTEX
 8
GRIFF_8
 10
-0.4797
 20
-5.8762
 30
18.4303
 70
192
 0
VERTEX
 8
GRIFF_8
 10
-1.8939
 20
-5.8762
 30
19.8445
 70
192
 0
VERTEX
 8
GRIFF_8
 10
-1.8939
 20
-5.8762
 30
19.8445
 70
192
 0
VERTEX
 8
GRIFF_8
 10
-0.3761
 20
-5.5227
 30
18.5338
 70
192
 0
VERTEX
 8
GRIFF_8
 10
-0.3761
 20
-5.5227
 30
18.5338
 70
192
 0
VERTEX
 8
GRIFF_8
 10
-1.7903
 20
-5.5227
 30
19.948
 70
192
 0
VERTEX
 8
GRIFF_8
 10
-1.7903
 20
-5.5227
 30
19.948
 70
192
 0
VERTEX
 8
GRIFF_8
 10
-0.4797
 20
-5.1691
 30
18.4303
 70
192
 0
VERTEX
 8
GRIFF_8
 10
-0.4797
 20
-5.1691
 30
18.4303
 70
192
 0
VERTEX
 8
GRIFF_8
 10
-1.8939
 20
-5.1691
 30
19.8445
 70
192
 0
VERTEX
 8
GRIFF_8
 10
-1.8939
 20
-5.1691
 30
19.8445
 70
192
 0
VERTEX
 8
GRIFF_8
 10
-0.7297
 20
-5.0227
 30
18.1803
 70
192
 0
VERTEX
 8
GRIFF_8
 10
-0.7297
 20
-5.0227
 30
18.1803
 70
192
 0
VERTEX
 8
GRIFF_8
 10
-2.1439
 20
-5.0227
 30
19.5945
 70
192
 0
VERTEX
 8
GRIFF_8
 10
-2.1439
 20
-5.0227
 30
19.5945
 70
192
 0
VERTEX
 8
GRIFF_8
 10
-0.9797
 20
-5.1691
 30
17.9303
 70
192
 0
VERTEX
 8
GRIFF_8
 10
-0.9797
 20
-5.1691
 30
17.9303
 70
192
 0
VERTEX
 8
GRIFF_8
 10
-2.3939
 20
-5.1691
 30
19.3445
 70
192
 0
VERTEX
 8
GRIFF_8
 10
-2.3939
 20
-5.1691
 30
19.3445
 70
192
 0
VERTEX
 8
GRIFF_8
 10
-1.0832
 20
-5.5227
 30
17.8267
 70
192
 0
VERTEX
 8
GRIFF_8
 10
-1.0832
 20
-5.5227
 30
17.8267
 70
192
 0
VERTEX
 8
GRIFF_8
 10
-2.4974
 20
-5.5227
 30
19.2409
 70
192
 0
VERTEX
 8
GRIFF_8
 10
-2.4974
 20
-5.5227
 30
19.2409
 70
192
 0
VERTEX
 8
GRIFF_8
 10
-0.9797
 20
-5.8762
 30
17.9303
 70
192
 0
VERTEX
 8
GRIFF_8
 10
-0.9797
 20
-5.8762
 30
17.9303
 70
192
 0
VERTEX
 8
GRIFF_8
 10
-2.3939
 20
-5.8762
 30
19.3445
 70
192
 0
VERTEX
 8
GRIFF_8
 10
-2.3939
 20
-5.8762
 30
19.3445
 70
192
 0
VERTEX
 8
GRIFF_8
 10
0
 20
0
 30
0
 70
128
 71
1
 72
3
 73
7
 74
7
 0
VERTEX
 8
GRIFF_8
 10
0
 20
0
 30
0
 70
128
 71
4
 72
5
 73
9
 74
8
 0
VERTEX
 8
GRIFF_8
 10
0
 20
0
 30
0
 70
128
 71
6
 72
2
 73
10
 74
10
 0
VERTEX
 8
GRIFF_8
 10
0
 20
0
 30
0
 70
128
 71
1
 72
7
 73
11
 74
11
 0
VERTEX
 8
GRIFF_8
 10
0
 20
0
 30
0
 70
128
 71
8
 72
9
 73
13
 74
12
 0
VERTEX
 8
GRIFF_8
 10
0
 20
0
 30
0
 70
128
 71
10
 72
2
 73
14
 74
14
 0
VERTEX
 8
GRIFF_8
 10
0
 20
0
 30
0
 70
128
 71
1
 72
11
 73
15
 74
15
 0
VERTEX
 8
GRIFF_8
 10
0
 20
0
 30
0
 70
128
 71
12
 72
13
 73
17
 74
16
 0
VERTEX
 8
GRIFF_8
 10
0
 20
0
 30
0
 70
128
 71
14
 72
2
 73
18
 74
18
 0
VERTEX
 8
GRIFF_8
 10
0
 20
0
 30
0
 70
128
 71
1
 72
15
 73
19
 74
19
 0
VERTEX
 8
GRIFF_8
 10
0
 20
0
 30
0
 70
128
 71
16
 72
17
 73
21
 74
20
 0
VERTEX
 8
GRIFF_8
 10
0
 20
0
 30
0
 70
128
 71
18
 72
2
 73
22
 74
22
 0
VERTEX
 8
GRIFF_8
 10
0
 20
0
 30
0
 70
128
 71
1
 72
19
 73
23
 74
23
 0
VERTEX
 8
GRIFF_8
 10
0
 20
0
 30
0
 70
128
 71
20
 72
21
 73
25
 74
24
 0
VERTEX
 8
GRIFF_8
 10
0
 20
0
 30
0
 70
128
 71
22
 72
2
 73
26
 74
26
 0
VERTEX
 8
GRIFF_8
 10
0
 20
0
 30
0
 70
128
 71
1
 72
23
 73
27
 74
27
 0
VERTEX
 8
GRIFF_8
 10
0
 20
0
 30
0
 70
128
 71
24
 72
25
 73
29
 74
28
 0
VERTEX
 8
GRIFF_8
 10
0
 20
0
 30
0
 70
128
 71
26
 72
2
 73
30
 74
30
 0
VERTEX
 8
GRIFF_8
 10
0
 20
0
 30
0
 70
128
 71
1
 72
27
 73
31
 74
31
 0
VERTEX
 8
GRIFF_8
 10
0
 20
0
 30
0
 70
128
 71
28
 72
29
 73
33
 74
32
 0
VERTEX
 8
GRIFF_8
 10
0
 20
0
 30
0
 70
128
 71
30
 72
2
 73
34
 74
34
 0
VERTEX
 8
GRIFF_8
 10
0
 20
0
 30
0
 70
128
 71
1
 72
31
 73
3
 74
3
 0
VERTEX
 8
GRIFF_8
 10
0
 20
0
 30
0
 70
128
 71
32
 72
33
 73
5
 74
4
 0
VERTEX
 8
GRIFF_8
 10
0
 20
0
 30
0
 70
128
 71
34
 72
2
 73
6
 74
6
 0
SEQEND
 0
POLYLINE
 8
GRIFF_7
 66
1
 10
0.0
 20
0.0
 30
0.0
 70
64
 71
12
 72
6
 0
VERTEX
 8
GRIFF_7
 10
0.2823
 20
-5.8705
 30
17.1683
 70
192
 0
VERTEX
 8
GRIFF_7
 10
1.1308
 20
-5.8705
 30
16.3198
 70
192
 0
VERTEX
 8
GRIFF_7
 10
0.068
 20
-5.6955
 30
16.954
 70
192
 0
VERTEX
 8
GRIFF_7
 10
0.9165
 20
-5.6955
 30
16.1054
 70
192
 0
VERTEX
 8
GRIFF_7
 10
0.068
 20
-5.3455
 30
16.954
 70
192
 0
VERTEX
 8
GRIFF_7
 10
0.9165
 20
-5.3455
 30
16.1054
 70
192
 0
VERTEX
 8
GRIFF_7
 10
0.2823
 20
-5.1705
 30
17.1683
 70
192
 0
VERTEX
 8
GRIFF_7
 10
1.1308
 20
-5.1705
 30
16.3198
 70
192
 0
VERTEX
 8
GRIFF_7
 10
0.4966
 20
-5.3455
 30
17.3826
 70
192
 0
VERTEX
 8
GRIFF_7
 10
1.3452
 20
-5.3455
 30
16.5341
 70
192
 0
VERTEX
 8
GRIFF_7
 10
0.4966
 20
-5.6955
 30
17.3826
 70
192
 0
VERTEX
 8
GRIFF_7
 10
1.3452
 20
-5.6955
 30
16.5341
 70
192
 0
VERTEX
 8
GRIFF_7
 10
0
 20
0
 30
0
 70
128
 71
1
 72
2
 73
4
 74
3
 0
VERTEX
 8
GRIFF_7
 10
0
 20
0
 30
0
 70
128
 71
3
 72
4
 73
6
 74
5
 0
VERTEX
 8
GRIFF_7
 10
0
 20
0
 30
0
 70
128
 71
5
 72
6
 73
8
 74
7
 0
VERTEX
 8
GRIFF_7
 10
0
 20
0
 30
0
 70
128
 71
7
 72
8
 73
10
 74
9
 0
VERTEX
 8
GRIFF_7
 10
0
 20
0
 30
0
 70
128
 71
9
 72
10
 73
12
 74
11
 0
VERTEX
 8
GRIFF_7
 10
0
 20
0
 30
0
 70
128
 71
11
 72
12
 73
2
 74
1
 0
SEQEND
 0
POLYLINE
 8
GRIFF_6
 66
1
 10
0.0
 20
0.0
 30
0.0
 70
64
 71
34
 72
24
 0
VERTEX
 8
GRIFF_6
 10
0.6653
 20
-5.5227
 30
16.7853
 70
192
 0
VERTEX
 8
GRIFF_6
 10
2.0795
 20
-5.5227
 30
15.3711
 70
192
 0
VERTEX
 8
GRIFF_6
 10
0.6653
 20
-6.0227
 30
16.7853
 70
192
 0
VERTEX
 8
GRIFF_6
 10
0.6653
 20
-6.0227
 30
16.7853
 70
192
 0
VERTEX
 8
GRIFF_6
 10
2.0795
 20
-6.0227
 30
15.3711
 70
192
 0
VERTEX
 8
GRIFF_6
 10
2.0795
 20
-6.0227
 30
15.3711
 70
192
 0
VERTEX
 8
GRIFF_6
 10
0.4153
 20
-5.8762
 30
16.5353
 70
192
 0
VERTEX
 8
GRIFF_6
 10
0.4153
 20
-5.8762
 30
16.5353
 70
192
 0
VERTEX
 8
GRIFF_6
 10
1.8295
 20
-5.8762
 30
15.1211
 70
192
 0
VERTEX
 8
GRIFF_6
 10
1.8295
 20
-5.8762
 30
15.1211
 70
192
 0
VERTEX
 8
GRIFF_6
 10
0.3117
 20
-5.5227
 30
16.4318
 70
192
 0
VERTEX
 8
GRIFF_6
 10
0.3117
 20
-5.5227
 30
16.4318
 70
192
 0
VERTEX
 8
GRIFF_6
 10
1.726
 20
-5.5227
 30
15.0175
 70
192
 0
VERTEX
 8
GRIFF_6
 10
1.726
 20
-5.5227
 30
15.0175
 70
192
 0
VERTEX
 8
GRIFF_6
 10
0.4153
 20
-5.1691
 30
16.5353
 70
192
 0
VERTEX
 8
GRIFF_6
 10
0.4153
 20
-5.1691
 30
16.5353
 70
192
 0
VERTEX
 8
GRIFF_6
 10
1.8295
 20
-5.1691
 30
15.1211
 70
192
 0
VERTEX
 8
GRIFF_6
 10
1.8295
 20
-5.1691
 30
15.1211
 70
192
 0
VERTEX
 8
GRIFF_6
 10
0.6653
 20
-5.0227
 30
16.7853
 70
192
 0
VERTEX
 8
GRIFF_6
 10
0.6653
 20
-5.0227
 30
16.7853
 70
192
 0
VERTEX
 8
GRIFF_6
 10
2.0795
 20
-5.0227
 30
15.3711
 70
192
 0
VERTEX
 8
GRIFF_6
 10
2.0795
 20
-5.0227
 30
15.3711
 70
192
 0
VERTEX
 8
GRIFF_6
 10
0.9153
 20
-5.1691
 30
17.0353
 70
192
 0
VERTEX
 8
GRIFF_6
 10
0.9153
 20
-5.1691
 30
17.0353
 70
192
 0
VERTEX
 8
GRIFF_6
 10
2.3295
 20
-5.1691
 30
15.6211
 70
192
 0
VERTEX
 8
GRIFF_6
 10
2.3295
 20
-5.1691
 30
15.6211
 70
192
 0
VERTEX
 8
GRIFF_6
 10
1.0188
 20
-5.5227
 30
17.1389
 70
192
 0
VERTEX
 8
GRIFF_6
 10
1.0188
 20
-5.5227
 30
17.1389
 70
192
 0
VERTEX
 8
GRIFF_6
 10
2.4331
 20
-5.5227
 30
15.7247
 70
192
 0
VERTEX
 8
GRIFF_6
 10
2.4331
 20
-5.5227
 30
15.7247
 70
192
 0
VERTEX
 8
GRIFF_6
 10
0.9153
 20
-5.8762
 30
17.0353
 70
192
 0
VERTEX
 8
GRIFF_6
 10
0.9153
 20
-5.8762
 30
17.0353
 70
192
 0
VERTEX
 8
GRIFF_6
 10
2.3295
 20
-5.8762
 30
15.6211
 70
192
 0
VERTEX
 8
GRIFF_6
 10
2.3295
 20
-5.8762
 30
15.6211
 70
192
 0
VERTEX
 8
GRIFF_6
 10
0
 20
0
 30
0
 70
128
 71
1
 72
3
 73
7
 74
7
 0
VERTEX
 8
GRIFF_6
 10
0
 20
0
 30
0
 70
128
 71
4
 72
5
 73
9
 74
8
 0
VERTEX
 8
GRIFF_6
 10
0
 20
0
 30
0
 70
128
 71
6
 72
2
 73
10
 74
10
 0
VERTEX
 8
GRIFF_6
 10
0
 20
0
 30
0
 70
128
 71
1
 72
7
 73
11
 74
11
 0
VERTEX
 8
GRIFF_6
 10
0
 20
0
 30
0
 70
128
 71
8
 72
9
 73
13
 74
12
 0
VERTEX
 8
GRIFF_6
 10
0
 20
0
 30
0
 70
128
 71
10
 72
2
 73
14
 74
14
 0
VERTEX
 8
GRIFF_6
 10
0
 20
0
 30
0
 70
128
 71
1
 72
11
 73
15
 74
15
 0
VERTEX
 8
GRIFF_6
 10
0
 20
0
 30
0
 70
128
 71
12
 72
13
 73
17
 74
16
 0
VERTEX
 8
GRIFF_6
 10
0
 20
0
 30
0
 70
128
 71
14
 72
2
 73
18
 74
18
 0
VERTEX
 8
GRIFF_6
 10
0
 20
0
 30
0
 70
128
 71
1
 72
15
 73
19
 74
19
 0
VERTEX
 8
GRIFF_6
 10
0
 20
0
 30
0
 70
128
 71
16
 72
17
 73
21
 74
20
 0
VERTEX
 8
GRIFF_6
 10
0
 20
0
 30
0
 70
128
 71
18
 72
2
 73
22
 74
22
 0
VERTEX
 8
GRIFF_6
 10
0
 20
0
 30
0
 70
128
 71
1
 72
19
 73
23
 74
23
 0
VERTEX
 8
GRIFF_6
 10
0
 20
0
 30
0
 70
128
 71
20
 72
21
 73
25
 74
24
 0
VERTEX
 8
GRIFF_6
 10
0
 20
0
 30
0
 70
128
 71
22
 72
2
 73
26
 74
26
 0
VERTEX
 8
GRIFF_6
 10
0
 20
0
 30
0
 70
128
 71
1
 72
23
 73
27
 74
27
 0
VERTEX
 8
GRIFF_6
 10
0
 20
0
 30
0
 70
128
 71
24
 72
25
 73
29
 74
28
 0
VERTEX
 8
GRIFF_6
 10
0
 20
0
 30
0
 70
128
 71
26
 72
2
 73
30
 74
30
 0
VERTEX
 8
GRIFF_6
 10
0
 20
0
 30
0
 70
128
 71
1
 72
27
 73
31
 74
31
 0
VERTEX
 8
GRIFF_6
 10
0
 20
0
 30
0
 70
128
 71
28
 72
29
 73
33
 74
32
 0
VERTEX
 8
GRIFF_6
 10
0
 20
0
 30
0
 70
128
 71
30
 72
2
 73
34
 74
34
 0
VERTEX
 8
GRIFF_6
 10
0
 20
0
 30
0
 70
128
 71
1
 72
31
 73
3
 74
3
 0
VERTEX
 8
GRIFF_6
 10
0
 20
0
 30
0
 70
128
 71
32
 72
33
 73
5
 74
4
 0
VERTEX
 8
GRIFF_6
 10
0
 20
0
 30
0
 70
128
 71
34
 72
2
 73
6
 74
6
 0
SEQEND
 0
POLYLINE
 8
GRIFF_5
 66
1
 10
0.0
 20
0.0
 30
0.0
 70
64
 71
12
 72
6
 0
VERTEX
 8
GRIFF_5
 10
-0.416
 20
-5.8705
 30
17.1372
 70
192
 0
VERTEX
 8
GRIFF_5
 10
-1.2645
 20
-5.8705
 30
16.2887
 70
192
 0
VERTEX
 8
GRIFF_5
 10
-0.6303
 20
-5.6955
 30
17.3516
 70
192
 0
VERTEX
 8
GRIFF_5
 10
-1.4788
 20
-5.6955
 30
16.503
 70
192
 0
VERTEX
 8
GRIFF_5
 10
-0.6303
 20
-5.3455
 30
17.3516
 70
192
 0
VERTEX
 8
GRIFF_5
 10
-1.4788
 20
-5.3455
 30
16.503
 70
192
 0
VERTEX
 8
GRIFF_5
 10
-0.416
 20
-5.1705
 30
17.1372
 70
192
 0
VERTEX
 8
GRIFF_5
 10
-1.2645
 20
-5.1705
 30
16.2887
 70
192
 0
VERTEX
 8
GRIFF_5
 10
-0.2016
 20
-5.3455
 30
16.9229
 70
192
 0
VERTEX
 8
GRIFF_5
 10
-1.0502
 20
-5.3455
 30
16.0744
 70
192
 0
VERTEX
 8
GRIFF_5
 10
-0.2017
 20
-5.6955
 30
16.9229
 70
192
 0
VERTEX
 8
GRIFF_5
 10
-1.0502
 20
-5.6955
 30
16.0744
 70
192
 0
VERTEX
 8
GRIFF_5
 10
0
 20
0
 30
0
 70
128
 71
1
 72
2
 73
4
 74
3
 0
VERTEX
 8
GRIFF_5
 10
0
 20
0
 30
0
 70
128
 71
3
 72
4
 73
6
 74
5
 0
VERTEX
 8
GRIFF_5
 10
0
 20
0
 30
0
 70
128
 71
5
 72
6
 73
8
 74
7
 0
VERTEX
 8
GRIFF_5
 10
0
 20
0
 30
0
 70
128
 71
7
 72
8
 73
10
 74
9
 0
VERTEX
 8
GRIFF_5
 10
0
 20
0
 30
0
 70
128
 71
9
 72
10
 73
12
 74
11
 0
VERTEX
 8
GRIFF_5
 10
0
 20
0
 30
0
 70
128
 71
11
 72
12
 73
2
 74
1
 0
SEQEND
 0
POLYLINE
 8
GRIFF_4
 66
1
 10
0.0
 20
0.0
 30
0.0
 70
64
 71
34
 72
24
 0
VERTEX
 8
GRIFF_4
 10
-0.799
 20
-5.5227
 30
16.7542
 70
192
 0
VERTEX
 8
GRIFF_4
 10
-2.2132
 20
-5.5227
 30
15.34
 70
192
 0
VERTEX
 8
GRIFF_4
 10
-0.799
 20
-6.0227
 30
16.7542
 70
192
 0
VERTEX
 8
GRIFF_4
 10
-0.799
 20
-6.0227
 30
16.7542
 70
192
 0
VERTEX
 8
GRIFF_4
 10
-2.2132
 20
-6.0227
 30
15.34
 70
192
 0
VERTEX
 8
GRIFF_4
 10
-2.2132
 20
-6.0227
 30
15.34
 70
192
 0
VERTEX
 8
GRIFF_4
 10
-1.049
 20
-5.8762
 30
17.0042
 70
192
 0
VERTEX
 8
GRIFF_4
 10
-1.049
 20
-5.8762
 30
17.0042
 70
192
 0
VERTEX
 8
GRIFF_4
 10
-2.4632
 20
-5.8762
 30
15.59
 70
192
 0
VERTEX
 8
GRIFF_4
 10
-2.4632
 20
-5.8762
 30
15.59
 70
192
 0
VERTEX
 8
GRIFF_4
 10
-1.1525
 20
-5.5227
 30
17.1078
 70
192
 0
VERTEX
 8
GRIFF_4
 10
-1.1525
 20
-5.5227
 30
17.1078
 70
192
 0
VERTEX
 8
GRIFF_4
 10
-2.5667
 20
-5.5226
 30
15.6936
 70
192
 0
VERTEX
 8
GRIFF_4
 10
-2.5667
 20
-5.5226
 30
15.6936
 70
192
 0
VERTEX
 8
GRIFF_4
 10
-1.049
 20
-5.1691
 30
17.0042
 70
192
 0
VERTEX
 8
GRIFF_4
 10
-1.049
 20
-5.1691
 30
17.0042
 70
192
 0
VERTEX
 8
GRIFF_4
 10
-2.4632
 20
-5.1691
 30
15.59
 70
192
 0
VERTEX
 8
GRIFF_4
 10
-2.4632
 20
-5.1691
 30
15.59
 70
192
 0
VERTEX
 8
GRIFF_4
 10
-0.799
 20
-5.0227
 30
16.7542
 70
192
 0
VERTEX
 8
GRIFF_4
 10
-0.799
 20
-5.0227
 30
16.7542
 70
192
 0
VERTEX
 8
GRIFF_4
 10
-2.2132
 20
-5.0227
 30
15.34
 70
192
 0
VERTEX
 8
GRIFF_4
 10
-2.2132
 20
-5.0227
 30
15.34
 70
192
 0
VERTEX
 8
GRIFF_4
 10
-0.549
 20
-5.1691
 30
16.5042
 70
192
 0
VERTEX
 8
GRIFF_4
 10
-0.549
 20
-5.1691
 30
16.5042
 70
192
 0
VERTEX
 8
GRIFF_4
 10
-1.9632
 20
-5.1691
 30
15.09
 70
192
 0
VERTEX
 8
GRIFF_4
 10
-1.9632
 20
-5.1691
 30
15.09
 70
192
 0
VERTEX
 8
GRIFF_4
 10
-0.4454
 20
-5.5227
 30
16.4007
 70
192
 0
VERTEX
 8
GRIFF_4
 10
-0.4454
 20
-5.5227
 30
16.4007
 70
192
 0
VERTEX
 8
GRIFF_4
 10
-1.8596
 20
-5.5227
 30
14.9865
 70
192
 0
VERTEX
 8
GRIFF_4
 10
-1.8596
 20
-5.5227
 30
14.9865
 70
192
 0
VERTEX
 8
GRIFF_4
 10
-0.549
 20
-5.8762
 30
16.5042
 70
192
 0
VERTEX
 8
GRIFF_4
 10
-0.549
 20
-5.8762
 30
16.5042
 70
192
 0
VERTEX
 8
GRIFF_4
 10
-1.9632
 20
-5.8762
 30
15.09
 70
192
 0
VERTEX
 8
GRIFF_4
 10
-1.9632
 20
-5.8762
 30
15.09
 70
192
 0
VERTEX
 8
GRIFF_4
 10
0
 20
0
 30
0
 70
128
 71
1
 72
3
 73
7
 74
7
 0
VERTEX
 8
GRIFF_4
 10
0
 20
0
 30
0
 70
128
 71
4
 72
5
 73
9
 74
8
 0
VERTEX
 8
GRIFF_4
 10
0
 20
0
 30
0
 70
128
 71
6
 72
2
 73
10
 74
10
 0
VERTEX
 8
GRIFF_4
 10
0
 20
0
 30
0
 70
128
 71
1
 72
7
 73
11
 74
11
 0
VERTEX
 8
GRIFF_4
 10
0
 20
0
 30
0
 70
128
 71
8
 72
9
 73
13
 74
12
 0
VERTEX
 8
GRIFF_4
 10
0
 20
0
 30
0
 70
128
 71
10
 72
2
 73
14
 74
14
 0
VERTEX
 8
GRIFF_4
 10
0
 20
0
 30
0
 70
128
 71
1
 72
11
 73
15
 74
15
 0
VERTEX
 8
GRIFF_4
 10
0
 20
0
 30
0
 70
128
 71
12
 72
13
 73
17
 74
16
 0
VERTEX
 8
GRIFF_4
 10
0
 20
0
 30
0
 70
128
 71
14
 72
2
 73
18
 74
18
 0
VERTEX
 8
GRIFF_4
 10
0
 20
0
 30
0
 70
128
 71
1
 72
15
 73
19
 74
19
 0
VERTEX
 8
GRIFF_4
 10
0
 20
0
 30
0
 70
128
 71
16
 72
17
 73
21
 74
20
 0
VERTEX
 8
GRIFF_4
 10
0
 20
0
 30
0
 70
128
 71
18
 72
2
 73
22
 74
22
 0
VERTEX
 8
GRIFF_4
 10
0
 20
0
 30
0
 70
128
 71
1
 72
19
 73
23
 74
23
 0
VERTEX
 8
GRIFF_4
 10
0
 20
0
 30
0
 70
128
 71
20
 72
21
 73
25
 74
24
 0
VERTEX
 8
GRIFF_4
 10
0
 20
0
 30
0
 70
128
 71
22
 72
2
 73
26
 74
26
 0
VERTEX
 8
GRIFF_4
 10
0
 20
0
 30
0
 70
128
 71
1
 72
23
 73
27
 74
27
 0
VERTEX
 8
GRIFF_4
 10
0
 20
0
 30
0
 70
128
 71
24
 72
25
 73
29
 74
28
 0
VERTEX
 8
GRIFF_4
 10
0
 20
0
 30
0
 70
128
 71
26
 72
2
 73
30
 74
30
 0
VERTEX
 8
GRIFF_4
 10
0
 20
0
 30
0
 70
128
 71
1
 72
27
 73
31
 74
31
 0
VERTEX
 8
GRIFF_4
 10
0
 20
0
 30
0
 70
128
 71
28
 72
29
 73
33
 74
32
 0
VERTEX
 8
GRIFF_4
 10
0
 20
0
 30
0
 70
128
 71
30
 72
2
 73
34
 74
34
 0
VERTEX
 8
GRIFF_4
 10
0
 20
0
 30
0
 70
128
 71
1
 72
31
 73
3
 74
3
 0
VERTEX
 8
GRIFF_4
 10
0
 20
0
 30
0
 70
128
 71
32
 72
33
 73
5
 74
4
 0
VERTEX
 8
GRIFF_4
 10
0
 20
0
 30
0
 70
128
 71
34
 72
2
 73
6
 74
6
 0
SEQEND
 0
POLYLINE
 8
GRIFF_3
 66
1
 10
0.0
 20
0.0
 30
0.0
 70
64
 71
12
 72
6
 0
VERTEX
 8
GRIFF_3
 10
0.2874
 20
-5.8705
 30
17.8407
 70
192
 0
VERTEX
 8
GRIFF_3
 10
1.136
 20
-5.8705
 30
18.6892
 70
192
 0
VERTEX
 8
GRIFF_3
 10
0.5018
 20
-5.6955
 30
17.6263
 70
192
 0
VERTEX
 8
GRIFF_3
 10
1.3503
 20
-5.6955
 30
18.4748
 70
192
 0
VERTEX
 8
GRIFF_3
 10
0.5018
 20
-5.3455
 30
17.6263
 70
192
 0
VERTEX
 8
GRIFF_3
 10
1.3503
 20
-5.3455
 30
18.4748
 70
192
 0
VERTEX
 8
GRIFF_3
 10
0.2874
 20
-5.1705
 30
17.8407
 70
192
 0
VERTEX
 8
GRIFF_3
 10
1.136
 20
-5.1705
 30
18.6892
 70
192
 0
VERTEX
 8
GRIFF_3
 10
0.0731
 20
-5.3455
 30
18.055
 70
192
 0
VERTEX
 8
GRIFF_3
 10
0.9216
 20
-5.3455
 30
18.9035
 70
192
 0
VERTEX
 8
GRIFF_3
 10
0.0731
 20
-5.6955
 30
18.055
 70
192
 0
VERTEX
 8
GRIFF_3
 10
0.9216
 20
-5.6955
 30
18.9035
 70
192
 0
VERTEX
 8
GRIFF_3
 10
0
 20
0
 30
0
 70
128
 71
1
 72
2
 73
4
 74
3
 0
VERTEX
 8
GRIFF_3
 10
0
 20
0
 30
0
 70
128
 71
3
 72
4
 73
6
 74
5
 0
VERTEX
 8
GRIFF_3
 10
0
 20
0
 30
0
 70
128
 71
5
 72
6
 73
8
 74
7
 0
VERTEX
 8
GRIFF_3
 10
0
 20
0
 30
0
 70
128
 71
7
 72
8
 73
10
 74
9
 0
VERTEX
 8
GRIFF_3
 10
0
 20
0
 30
0
 70
128
 71
9
 72
10
 73
12
 74
11
 0
VERTEX
 8
GRIFF_3
 10
0
 20
0
 30
0
 70
128
 71
11
 72
12
 73
2
 74
1
 0
SEQEND
 0
POLYLINE
 8
GRIFF_2
 66
1
 10
0.0
 20
0.0
 30
0.0
 70
64
 71
34
 72
24
 0
VERTEX
 8
GRIFF_2
 10
0.6704
 20
-5.5227
 30
18.2236
 70
192
 0
VERTEX
 8
GRIFF_2
 10
2.0846
 20
-5.5227
 30
19.6379
 70
192
 0
VERTEX
 8
GRIFF_2
 10
0.6704
 20
-6.0227
 30
18.2236
 70
192
 0
VERTEX
 8
GRIFF_2
 10
0.6704
 20
-6.0227
 30
18.2236
 70
192
 0
VERTEX
 8
GRIFF_2
 10
2.0846
 20
-6.0227
 30
19.6379
 70
192
 0
VERTEX
 8
GRIFF_2
 10
2.0846
 20
-6.0227
 30
19.6379
 70
192
 0
VERTEX
 8
GRIFF_2
 10
0.9204
 20
-5.8762
 30
17.9736
 70
192
 0
VERTEX
 8
GRIFF_2
 10
0.9204
 20
-5.8762
 30
17.9736
 70
192
 0
VERTEX
 8
GRIFF_2
 10
2.3346
 20
-5.8762
 30
19.3879
 70
192
 0
VERTEX
 8
GRIFF_2
 10
2.3346
 20
-5.8762
 30
19.3879
 70
192
 0
VERTEX
 8
GRIFF_2
 10
1.024
 20
-5.5227
 30
17.8701
 70
192
 0
VERTEX
 8
GRIFF_2
 10
1.024
 20
-5.5227
 30
17.8701
 70
192
 0
VERTEX
 8
GRIFF_2
 10
2.4382
 20
-5.5227
 30
19.2843
 70
192
 0
VERTEX
 8
GRIFF_2
 10
2.4382
 20
-5.5227
 30
19.2843
 70
192
 0
VERTEX
 8
GRIFF_2
 10
0.9204
 20
-5.1691
 30
17.9736
 70
192
 0
VERTEX
 8
GRIFF_2
 10
0.9204
 20
-5.1691
 30
17.9736
 70
192
 0
VERTEX
 8
GRIFF_2
 10
2.3347
 20
-5.1691
 30
19.3879
 70
192
 0
VERTEX
 8
GRIFF_2
 10
2.3347
 20
-5.1691
 30
19.3879
 70
192
 0
VERTEX
 8
GRIFF_2
 10
0.6704
 20
-5.0227
 30
18.2236
 70
192
 0
VERTEX
 8
GRIFF_2
 10
0.6704
 20
-5.0227
 30
18.2236
 70
192
 0
VERTEX
 8
GRIFF_2
 10
2.0846
 20
-5.0227
 30
19.6379
 70
192
 0
VERTEX
 8
GRIFF_2
 10
2.0846
 20
-5.0227
 30
19.6379
 70
192
 0
VERTEX
 8
GRIFF_2
 10
0.4204
 20
-5.1691
 30
18.4736
 70
192
 0
VERTEX
 8
GRIFF_2
 10
0.4204
 20
-5.1691
 30
18.4736
 70
192
 0
VERTEX
 8
GRIFF_2
 10
1.8346
 20
-5.1691
 30
19.8879
 70
192
 0
VERTEX
 8
GRIFF_2
 10
1.8346
 20
-5.1691
 30
19.8879
 70
192
 0
VERTEX
 8
GRIFF_2
 10
0.3169
 20
-5.5227
 30
18.5772
 70
192
 0
VERTEX
 8
GRIFF_2
 10
0.3169
 20
-5.5227
 30
18.5772
 70
192
 0
VERTEX
 8
GRIFF_2
 10
1.7311
 20
-5.5227
 30
19.9914
 70
192
 0
VERTEX
 8
GRIFF_2
 10
1.7311
 20
-5.5227
 30
19.9914
 70
192
 0
VERTEX
 8
GRIFF_2
 10
0.4204
 20
-5.8762
 30
18.4736
 70
192
 0
VERTEX
 8
GRIFF_2
 10
0.4204
 20
-5.8762
 30
18.4736
 70
192
 0
VERTEX
 8
GRIFF_2
 10
1.8346
 20
-5.8762
 30
19.8879
 70
192
 0
VERTEX
 8
GRIFF_2
 10
1.8346
 20
-5.8762
 30
19.8879
 70
192
 0
VERTEX
 8
GRIFF_2
 10
0
 20
0
 30
0
 70
128
 71
1
 72
3
 73
7
 74
7
 0
VERTEX
 8
GRIFF_2
 10
0
 20
0
 30
0
 70
128
 71
4
 72
5
 73
9
 74
8
 0
VERTEX
 8
GRIFF_2
 10
0
 20
0
 30
0
 70
128
 71
6
 72
2
 73
10
 74
10
 0
VERTEX
 8
GRIFF_2
 10
0
 20
0
 30
0
 70
128
 71
1
 72
7
 73
11
 74
11
 0
VERTEX
 8
GRIFF_2
 10
0
 20
0
 30
0
 70
128
 71
8
 72
9
 73
13
 74
12
 0
VERTEX
 8
GRIFF_2
 10
0
 20
0
 30
0
 70
128
 71
10
 72
2
 73
14
 74
14
 0
VERTEX
 8
GRIFF_2
 10
0
 20
0
 30
0
 70
128
 71
1
 72
11
 73
15
 74
15
 0
VERTEX
 8
GRIFF_2
 10
0
 20
0
 30
0
 70
128
 71
12
 72
13
 73
17
 74
16
 0
VERTEX
 8
GRIFF_2
 10
0
 20
0
 30
0
 70
128
 71
14
 72
2
 73
18
 74
18
 0
VERTEX
 8
GRIFF_2
 10
0
 20
0
 30
0
 70
128
 71
1
 72
15
 73
19
 74
19
 0
VERTEX
 8
GRIFF_2
 10
0
 20
0
 30
0
 70
128
 71
16
 72
17
 73
21
 74
20
 0
VERTEX
 8
GRIFF_2
 10
0
 20
0
 30
0
 70
128
 71
18
 72
2
 73
22
 74
22
 0
VERTEX
 8
GRIFF_2
 10
0
 20
0
 30
0
 70
128
 71
1
 72
19
 73
23
 74
23
 0
VERTEX
 8
GRIFF_2
 10
0
 20
0
 30
0
 70
128
 71
20
 72
21
 73
25
 74
24
 0
VERTEX
 8
GRIFF_2
 10
0
 20
0
 30
0
 70
128
 71
22
 72
2
 73
26
 74
26
 0
VERTEX
 8
GRIFF_2
 10
0
 20
0
 30
0
 70
128
 71
1
 72
23
 73
27
 74
27
 0
VERTEX
 8
GRIFF_2
 10
0
 20
0
 30
0
 70
128
 71
24
 72
25
 73
29
 74
28
 0
VERTEX
 8
GRIFF_2
 10
0
 20
0
 30
0
 70
128
 71
26
 72
2
 73
30
 74
30
 0
VERTEX
 8
GRIFF_2
 10
0
 20
0
 30
0
 70
128
 71
1
 72
27
 73
31
 74
31
 0
VERTEX
 8
GRIFF_2
 10
0
 20
0
 30
0
 70
128
 71
28
 72
29
 73
33
 74
32
 0
VERTEX
 8
GRIFF_2
 10
0
 20
0
 30
0
 70
128
 71
30
 72
2
 73
34
 74
34
 0
VERTEX
 8
GRIFF_2
 10
0
 20
0
 30
0
 70
128
 71
1
 72
31
 73
3
 74
3
 0
VERTEX
 8
GRIFF_2
 10
0
 20
0
 30
0
 70
128
 71
32
 72
33
 73
5
 74
4
 0
VERTEX
 8
GRIFF_2
 10
0
 20
0
 30
0
 70
128
 71
34
 72
2
 73
6
 74
6
 0
SEQEND
 0
POLYLINE
 8
GRIFF_1
 66
1
 10
0.0
 20
0.0
 30
0.0
 70
64
 71
42
 72
30
 0
VERTEX
 8
GRIFF_1
 10
-0.038
 20
-5.0311
 30
17.4886
 70
192
 0
VERTEX
 8
GRIFF_1
 10
-0.038
 20
-6.0311
 30
17.4886
 70
192
 0
VERTEX
 8
GRIFF_1
 10
0.4569
 20
-5.0311
 30
16.9937
 70
192
 0
VERTEX
 8
GRIFF_1
 10
0.4569
 20
-5.0311
 30
16.9937
 70
192
 0
VERTEX
 8
GRIFF_1
 10
0.4569
 20
-6.0311
 30
16.9937
 70
192
 0
VERTEX
 8
GRIFF_1
 10
0.4569
 20
-6.0311
 30
16.9937
 70
192
 0
VERTEX
 8
GRIFF_1
 10
0.6533
 20
-5.0311
 30
17.3791
 70
192
 0
VERTEX
 8
GRIFF_1
 10
0.6533
 20
-5.0311
 30
17.3791
 70
192
 0
VERTEX
 8
GRIFF_1
 10
0.6533
 20
-6.0311
 30
17.3791
 70
192
 0
VERTEX
 8
GRIFF_1
 10
0.6533
 20
-6.0311
 30
17.3791
 70
192
 0
VERTEX
 8
GRIFF_1
 10
0.5857
 20
-5.0311
 30
17.8064
 70
192
 0
VERTEX
 8
GRIFF_1
 10
0.5857
 20
-5.0311
 30
17.8064
 70
192
 0
VERTEX
 8
GRIFF_1
 10
0.5857
 20
-6.0311
 30
17.8064
 70
192
 0
VERTEX
 8
GRIFF_1
 10
0.5857
 20
-6.0311
 30
17.8064
 70
192
 0
VERTEX
 8
GRIFF_1
 10
0.2798
 20
-5.0311
 30
18.1123
 70
192
 0
VERTEX
 8
GRIFF_1
 10
0.2798
 20
-5.0311
 30
18.1123
 70
192
 0
VERTEX
 8
GRIFF_1
 10
0.2798
 20
-6.0311
 30
18.1123
 70
192
 0
VERTEX
 8
GRIFF_1
 10
0.2798
 20
-6.0311
 30
18.1123
 70
192
 0
VERTEX
 8
GRIFF_1
 10
-0.1475
 20
-5.0311
 30
18.18
 70
192
 0
VERTEX
 8
GRIFF_1
 10
-0.1475
 20
-5.0311
 30
18.18
 70
192
 0
VERTEX
 8
GRIFF_1
 10
-0.1475
 20
-6.0311
 30
18.18
 70
192
 0
VERTEX
 8
GRIFF_1
 10
-0.1475
 20
-6.0311
 30
18.18
 70
192
 0
VERTEX
 8
GRIFF_1
 10
-0.533
 20
-5.0311
 30
17.9836
 70
192
 0
VERTEX
 8
GRIFF_1
 10
-0.533
 20
-5.0311
 30
17.9836
 70
192
 0
VERTEX
 8
GRIFF_1
 10
-0.533
 20
-6.0311
 30
17.9836
 70
192
 0
VERTEX
 8
GRIFF_1
 10
-0.533
 20
-6.0311
 30
17.9836
 70
192
 0
VERTEX
 8
GRIFF_1
 10
-0.7294
 20
-5.0311
 30
17.5981
 70
192
 0
VERTEX
 8
GRIFF_1
 10
-0.7294
 20
-5.0311
 30
17.5981
 70
192
 0
VERTEX
 8
GRIFF_1
 10
-0.7294
 20
-6.0311
 30
17.5981
 70
192
 0
VERTEX
 8
GRIFF_1
 10
-0.7294
 20
-6.0311
 30
17.5981
 70
192
 0
VERTEX
 8
GRIFF_1
 10
-0.6617
 20
-5.0311
 30
17.1708
 70
192
 0
VERTEX
 8
GRIFF_1
 10
-0.6617
 20
-5.0311
 30
17.1708
 70
192
 0
VERTEX
 8
GRIFF_1
 10
-0.6617
 20
-6.0311
 30
17.1708
 70
192
 0
VERTEX
 8
GRIFF_1
 10
-0.6617
 20
-6.0311
 30
17.1708
 70
192
 0
VERTEX
 8
GRIFF_1
 10
-0.3558
 20
-5.0311
 30
16.8649
 70
192
 0
VERTEX
 8
GRIFF_1
 10
-0.3558
 20
-5.0311
 30
16.8649
 70
192
 0
VERTEX
 8
GRIFF_1
 10
-0.3558
 20
-6.0311
 30
16.8649
 70
192
 0
VERTEX
 8
GRIFF_1
 10
-0.3558
 20
-6.0311
 30
16.8649
 70
192
 0
VERTEX
 8
GRIFF_1
 10
0.0715
 20
-5.0311
 30
16.7973
 70
192
 0
VERTEX
 8
GRIFF_1
 10
0.0715
 20
-5.0311
 30
16.7973
 70
192
 0
VERTEX
 8
GRIFF_1
 10
0.0715
 20
-6.0311
 30
16.7973
 70
192
 0
VERTEX
 8
GRIFF_1
 10
0.0715
 20
-6.0311
 30
16.7973
 70
192
 0
VERTEX
 8
GRIFF_1
 10
0
 20
0
 30
0
 70
128
 71
1
 72
3
 73
7
 74
7
 0
VERTEX
 8
GRIFF_1
 10
0
 20
0
 30
0
 70
128
 71
4
 72
5
 73
9
 74
8
 0
VERTEX
 8
GRIFF_1
 10
0
 20
0
 30
0
 70
128
 71
6
 72
2
 73
10
 74
10
 0
VERTEX
 8
GRIFF_1
 10
0
 20
0
 30
0
 70
128
 71
1
 72
7
 73
11
 74
11
 0
VERTEX
 8
GRIFF_1
 10
0
 20
0
 30
0
 70
128
 71
8
 72
9
 73
13
 74
12
 0
VERTEX
 8
GRIFF_1
 10
0
 20
0
 30
0
 70
128
 71
10
 72
2
 73
14
 74
14
 0
VERTEX
 8
GRIFF_1
 10
0
 20
0
 30
0
 70
128
 71
1
 72
11
 73
15
 74
15
 0
VERTEX
 8
GRIFF_1
 10
0
 20
0
 30
0
 70
128
 71
12
 72
13
 73
17
 74
16
 0
VERTEX
 8
GRIFF_1
 10
0
 20
0
 30
0
 70
128
 71
14
 72
2
 73
18
 74
18
 0
VERTEX
 8
GRIFF_1
 10
0
 20
0
 30
0
 70
128
 71
1
 72
15
 73
19
 74
19
 0
VERTEX
 8
GRIFF_1
 10
0
 20
0
 30
0
 70
128
 71
16
 72
17
 73
21
 74
20
 0
VERTEX
 8
GRIFF_1
 10
0
 20
0
 30
0
 70
128
 71
18
 72
2
 73
22
 74
22
 0
VERTEX
 8
GRIFF_1
 10
0
 20
0
 30
0
 70
128
 71
1
 72
19
 73
23
 74
23
 0
VERTEX
 8
GRIFF_1
 10
0
 20
0
 30
0
 70
128
 71
20
 72
21
 73
25
 74
24
 0
VERTEX
 8
GRIFF_1
 10
0
 20
0
 30
0
 70
128
 71
22
 72
2
 73
26
 74
26
 0
VERTEX
 8
GRIFF_1
 10
0
 20
0
 30
0
 70
128
 71
1
 72
23
 73
27
 74
27
 0
VERTEX
 8
GRIFF_1
 10
0
 20
0
 30
0
 70
128
 71
24
 72
25
 73
29
 74
28
 0
VERTEX
 8
GRIFF_1
 10
0
 20
0
 30
0
 70
128
 71
26
 72
2
 73
30
 74
30
 0
VERTEX
 8
GRIFF_1
 10
0
 20
0
 30
0
 70
128
 71
1
 72
27
 73
31
 74
31
 0
VERTEX
 8
GRIFF_1
 10
0
 20
0
 30
0
 70
128
 71
28
 72
29
 73
33
 74
32
 0
VERTEX
 8
GRIFF_1
 10
0
 20
0
 30
0
 70
128
 71
30
 72
2
 73
34
 74
34
 0
VERTEX
 8
GRIFF_1
 10
0
 20
0
 30
0
 70
128
 71
1
 72
31
 73
35
 74
35
 0
VERTEX
 8
GRIFF_1
 10
0
 20
0
 30
0
 70
128
 71
32
 72
33
 73
37
 74
36
 0
VERTEX
 8
GRIFF_1
 10
0
 20
0
 30
0
 70
128
 71
34
 72
2
 73
38
 74
38
 0
VERTEX
 8
GRIFF_1
 10
0
 20
0
 30
0
 70
128
 71
1
 72
35
 73
39
 74
39
 0
VERTEX
 8
GRIFF_1
 10
0
 20
0
 30
0
 70
128
 71
36
 72
37
 73
41
 74
40
 0
VERTEX
 8
GRIFF_1
 10
0
 20
0
 30
0
 70
128
 71
38
 72
2
 73
42
 74
42
 0
VERTEX
 8
GRIFF_1
 10
0
 20
0
 30
0
 70
128
 71
1
 72
39
 73
3
 74
3
 0
VERTEX
 8
GRIFF_1
 10
0
 20
0
 30
0
 70
128
 71
40
 72
41
 73
5
 74
4
 0
VERTEX
 8
GRIFF_1
 10
0
 20
0
 30
0
 70
128
 71
42
 72
2
 73
6
 74
6
 0
SEQEND
 0
ENDSEC
 0
EOF
