 0
SECTION
 2
HEADER
 9
$ACADVER
 1
AC1009
 0
ENDSEC
 0
SECTION
 2
TABLES
 0
TABLE
 2
LTYPE
 70
1
 0
LTYPE
 2
CONTINUOUS
 70
64
 3
solid line
 72
65
 73
0
 40
0.0
 0
ENDTAB
 0
TABLE
 2
LAYER
 70
6
 0
LAYER
 2
0
 70
0
 62
7
 6
CONTINUOUS
 0
LAYER
 2
390_6610_M
 70
64
 62
7
 6
CONTINUOUS
 0
LAYER
 2
CUBE
 70
64
 62
250
 6
CONTINUOUS
 0
LAYER
 2
CUBE_1
 70
64
 62
250
 6
CONTINUOUS
 0
LAYER
 2
CUBE_2
 70
64
 62
250
 6
CONTINUOUS
 0
LAYER
 2
CUBE_3
 70
64
 62
250
 6
CONTINUOUS
 0
LAYER
 2
D_SE_INSTANCE_17_1
 70
64
 62
251
 6
CONTINUOUS
 0
LAYER
 2
D_SE_INSTANCE_16_1
 70
64
 62
251
 6
CONTINUOUS
 0
LAYER
 2
D_SE_INSTANCE_15_1
 70
64
 62
251
 6
CONTINUOUS
 0
LAYER
 2
D_SE_INSTANCE_14_1
 70
64
 62
251
 6
CONTINUOUS
 0
LAYER
 2
D_SE_INSTANCE_13_1
 70
64
 62
251
 6
CONTINUOUS
 0
LAYER
 2
D_SE_INSTANCE_12_1
 70
64
 62
251
 6
CONTINUOUS
 0
LAYER
 2
D_SE_INSTANCE_11_1
 70
64
 62
251
 6
CONTINUOUS
 0
LAYER
 2
D_SE_INSTANCE_10_1
 70
64
 62
251
 6
CONTINUOUS
 0
LAYER
 2
D_SE_INSTANCE_4_1
 70
64
 62
251
 6
CONTINUOUS
 0
LAYER
 2
D_SE_INSTANCE_9_1
 70
64
 62
251
 6
CONTINUOUS
 0
LAYER
 2
D_SE_INSTANCE_8_1
 70
64
 62
251
 6
CONTINUOUS
 0
LAYER
 2
D_SE_INSTANCE_7_1
 70
64
 62
251
 6
CONTINUOUS
 0
LAYER
 2
D_SE_INSTANCE_6_1
 70
64
 62
251
 6
CONTINUOUS
 0
LAYER
 2
D_SE_INSTANCE_5_1
 70
64
 62
251
 6
CONTINUOUS
 0
LAYER
 2
D_SE_INSTANCE_3_1
 70
64
 62
251
 6
CONTINUOUS
 0
LAYER
 2
D_SE_INSTANCE_2_1
 70
64
 62
251
 6
CONTINUOUS
 0
LAYER
 2
D_SE_INSTANCE_1_1
 70
64
 62
251
 6
CONTINUOUS
 0
LAYER
 2
D_SE_INSTANCE
 70
64
 62
251
 6
CONTINUOUS
 0
LAYER
 2
D_SE_INSTANC321
 70
64
 62
251
 6
CONTINUOUS
 0
LAYER
 2
D_SE_INST12
 70
64
 62
251
 6
CONTINUOUS
 0
LAYER
 2
D_SE_INSTA31
 70
64
 62
251
 6
CONTINUOUS
 0
LAYER
 2
D_SE_IN13
 70
64
 62
251
 6
CONTINUOUS
 0
LAYER
 2
D_SE_IN46
 70
64
 62
251
 6
CONTINUOUS
 0
LAYER
 2
D_SE_INS64
 70
64
 62
251
 6
CONTINUOUS
 0
LAYER
 2
D_SE_INS45
 70
64
 62
251
 6
CONTINUOUS
 0
LAYER
 2
D_SE_INSTA54
 70
64
 62
251
 6
CONTINUOUS
 0
LAYER
 2
D_SE_IN65
 70
64
 62
251
 6
CONTINUOUS
 0
LAYER
 2
D_SE_INSTANCE_1
 70
64
 62
251
 6
CONTINUOUS
 0
LAYER
 2
D_SE_IN64
 70
64
 62
251
 6
CONTINUOUS
 0
LAYER
 2
D_SE_INSTANCE_10_2
 70
64
 62
251
 6
CONTINUOUS
 0
LAYER
 2
D_SE_INSTANCE_8_2
 70
64
 62
251
 6
CONTINUOUS
 0
LAYER
 2
D_SE_INSTANCE_7_2
 70
64
 62
251
 6
CONTINUOUS
 0
LAYER
 2
D_SE_INSTANCE_6_2
 70
64
 62
251
 6
CONTINUOUS
 0
LAYER
 2
D_SE_INSTANCE_5_2
 70
64
 62
251
 6
CONTINUOUS
 0
LAYER
 2
D_SE_INSTANCE_4_2
 70
64
 62
251
 6
CONTINUOUS
 0
LAYER
 2
D_SE_INSTANCE_3_2
 70
64
 62
251
 6
CONTINUOUS
 0
LAYER
 2
D_SE_INSTANCE_2_2
 70
64
 62
251
 6
CONTINUOUS
 0
LAYER
 2
D_SE_INSTANCE_1_2
 70
64
 62
251
 6
CONTINUOUS
 0
LAYER
 2
D_SE_INSTANCE_2
 70
64
 62
251
 6
CONTINUOUS
 0
LAYER
 2
D_SE_INSTANCE_9_2
 70
64
 62
251
 6
CONTINUOUS
 0
LAYER
 2
D_SE_INSTANCE_10_3
 70
64
 62
251
 6
CONTINUOUS
 0
LAYER
 2
D_SE_INSTANCE_8_3
 70
64
 62
251
 6
CONTINUOUS
 0
LAYER
 2
D_SE_INSTANCE_7_3
 70
64
 62
251
 6
CONTINUOUS
 0
LAYER
 2
D_SE_INSTANCE_6_3
 70
64
 62
251
 6
CONTINUOUS
 0
LAYER
 2
D_SE_INSTANCE_5_3
 70
64
 62
251
 6
CONTINUOUS
 0
LAYER
 2
D_SE_INSTANCE_4_3
 70
64
 62
251
 6
CONTINUOUS
 0
LAYER
 2
D_SE_INSTANCE_3_3
 70
64
 62
251
 6
CONTINUOUS
 0
LAYER
 2
D_SE_INSTANCE_2_3
 70
64
 62
251
 6
CONTINUOUS
 0
LAYER
 2
D_SE_INSTANCE_1_3
 70
64
 62
251
 6
CONTINUOUS
 0
LAYER
 2
D_SE_INSTANCE_3
 70
64
 62
251
 6
CONTINUOUS
 0
LAYER
 2
D_SE_INSTANCE_9_3
 70
64
 62
251
 6
CONTINUOUS
 0
LAYER
 2
D_SE_INSTANCE_10_4
 70
64
 62
251
 6
CONTINUOUS
 0
LAYER
 2
D_SE_INSTANCE_8_4
 70
64
 62
251
 6
CONTINUOUS
 0
LAYER
 2
D_SE_INSTANCE_7_4
 70
64
 62
251
 6
CONTINUOUS
 0
LAYER
 2
D_SE_INSTANCE_6_4
 70
64
 62
251
 6
CONTINUOUS
 0
LAYER
 2
D_SE_INSTANCE_5_4
 70
64
 62
251
 6
CONTINUOUS
 0
LAYER
 2
D_SE_INSTANCE_4_4
 70
64
 62
251
 6
CONTINUOUS
 0
LAYER
 2
D_SE_INSTANCE_3_4
 70
64
 62
251
 6
CONTINUOUS
 0
LAYER
 2
D_SE_INSTANCE_2_4
 70
64
 62
251
 6
CONTINUOUS
 0
LAYER
 2
D_SE_INSTANCE_1_4
 70
64
 62
251
 6
CONTINUOUS
 0
LAYER
 2
D_SE_INSTANCE_4
 70
64
 62
251
 6
CONTINUOUS
 0
LAYER
 2
D_SE_INSTANCE_9_4
 70
64
 62
251
 6
CONTINUOUS
 0
LAYER
 2
D_SE_INSTANCE_10_5
 70
64
 62
251
 6
CONTINUOUS
 0
LAYER
 2
D_SE_INSTANCE_8_5
 70
64
 62
251
 6
CONTINUOUS
 0
LAYER
 2
D_SE_INSTANCE_7_5
 70
64
 62
251
 6
CONTINUOUS
 0
LAYER
 2
D_SE_INSTANCE_6_5
 70
64
 62
251
 6
CONTINUOUS
 0
LAYER
 2
D_SE_INSTANCE_5_5
 70
64
 62
251
 6
CONTINUOUS
 0
LAYER
 2
D_SE_INSTANCE_4_5
 70
64
 62
251
 6
CONTINUOUS
 0
LAYER
 2
D_SE_INSTANCE_3_5
 70
64
 62
251
 6
CONTINUOUS
 0
LAYER
 2
D_SE_INSTANCE_2_5
 70
64
 62
251
 6
CONTINUOUS
 0
LAYER
 2
D_SE_INSTANCE_1_5
 70
64
 62
251
 6
CONTINUOUS
 0
LAYER
 2
D_SE_INSTANCE_5
 70
64
 62
251
 6
CONTINUOUS
 0
LAYER
 2
D_SE_INSTANCE_9_5
 70
64
 62
251
 6
CONTINUOUS
 0
LAYER
 2
D_SE_INSTANCE_10_6
 70
64
 62
251
 6
CONTINUOUS
 0
LAYER
 2
D_SE_INSTANCE_8_6
 70
64
 62
251
 6
CONTINUOUS
 0
LAYER
 2
D_SE_INSTANCE_7_6
 70
64
 62
251
 6
CONTINUOUS
 0
LAYER
 2
D_SE_INSTANCE_6_6
 70
64
 62
251
 6
CONTINUOUS
 0
LAYER
 2
D_SE_INSTANCE_5_6
 70
64
 62
251
 6
CONTINUOUS
 0
LAYER
 2
D_SE_INSTANCE_4_6
 70
64
 62
251
 6
CONTINUOUS
 0
LAYER
 2
D_SE_INSTANCE_3_6
 70
64
 62
251
 6
CONTINUOUS
 0
LAYER
 2
D_SE_INSTANCE_2_6
 70
64
 62
251
 6
CONTINUOUS
 0
LAYER
 2
D_SE_INSTANCE_1_6
 70
64
 62
251
 6
CONTINUOUS
 0
LAYER
 2
D_SE_INSTANCE_6
 70
64
 62
251
 6
CONTINUOUS
 0
LAYER
 2
D_SE_INSTANCE_9_6
 70
64
 62
251
 6
CONTINUOUS
 0
LAYER
 2
D_SE_INSTANCE_10_7
 70
64
 62
251
 6
CONTINUOUS
 0
LAYER
 2
D_SE_INSTANCE_8_7
 70
64
 62
251
 6
CONTINUOUS
 0
LAYER
 2
D_SE_INSTANCE_7_7
 70
64
 62
251
 6
CONTINUOUS
 0
LAYER
 2
D_SE_INSTANCE_6_7
 70
64
 62
251
 6
CONTINUOUS
 0
LAYER
 2
D_SE_INSTANCE_5_7
 70
64
 62
251
 6
CONTINUOUS
 0
LAYER
 2
D_SE_INSTANCE_4_7
 70
64
 62
251
 6
CONTINUOUS
 0
LAYER
 2
D_SE_INSTANCE_3_7
 70
64
 62
251
 6
CONTINUOUS
 0
LAYER
 2
D_SE_INSTANCE_2_7
 70
64
 62
251
 6
CONTINUOUS
 0
LAYER
 2
D_SE_INSTANCE_1_7
 70
64
 62
251
 6
CONTINUOUS
 0
LAYER
 2
D_SE_INSTANCE_7
 70
64
 62
251
 6
CONTINUOUS
 0
LAYER
 2
D_SE_INSTANCE_9_7
 70
64
 62
251
 6
CONTINUOUS
 0
LAYER
 2
D_SE_INSTANCE_10_8
 70
64
 62
251
 6
CONTINUOUS
 0
LAYER
 2
D_SE_INSTANCE_8_8
 70
64
 62
251
 6
CONTINUOUS
 0
LAYER
 2
D_SE_INSTANCE_7_8
 70
64
 62
251
 6
CONTINUOUS
 0
LAYER
 2
D_SE_INSTANCE_6_8
 70
64
 62
251
 6
CONTINUOUS
 0
LAYER
 2
D_SE_INSTANCE_5_8
 70
64
 62
251
 6
CONTINUOUS
 0
LAYER
 2
D_SE_INSTANCE_4_8
 70
64
 62
251
 6
CONTINUOUS
 0
LAYER
 2
D_SE_INSTANCE_3_8
 70
64
 62
251
 6
CONTINUOUS
 0
LAYER
 2
D_SE_INSTANCE_2_8
 70
64
 62
251
 6
CONTINUOUS
 0
LAYER
 2
D_SE_INSTANCE_1_8
 70
64
 62
251
 6
CONTINUOUS
 0
LAYER
 2
D_SE_INSTANCE_8
 70
64
 62
251
 6
CONTINUOUS
 0
LAYER
 2
D_SE_INSTANCE_9_8
 70
64
 62
251
 6
CONTINUOUS
 0
LAYER
 2
D_SE_INSTANCE_10_9
 70
64
 62
251
 6
CONTINUOUS
 0
LAYER
 2
D_SE_INSTANCE_8_9
 70
64
 62
251
 6
CONTINUOUS
 0
LAYER
 2
D_SE_INSTANCE_7_9
 70
64
 62
251
 6
CONTINUOUS
 0
LAYER
 2
D_SE_INSTANCE_6_9
 70
64
 62
251
 6
CONTINUOUS
 0
LAYER
 2
D_SE_INSTANCE_5_9
 70
64
 62
251
 6
CONTINUOUS
 0
LAYER
 2
D_SE_INSTANCE_4_9
 70
64
 62
251
 6
CONTINUOUS
 0
LAYER
 2
D_SE_INSTANCE_3_9
 70
64
 62
251
 6
CONTINUOUS
 0
LAYER
 2
D_SE_INSTANCE_2_9
 70
64
 62
251
 6
CONTINUOUS
 0
LAYER
 2
D_SE_INSTANCE_1_9
 70
64
 62
251
 6
CONTINUOUS
 0
LAYER
 2
D_SE_INSTANCE_9
 70
64
 62
251
 6
CONTINUOUS
 0
LAYER
 2
D_SE_INSTANCE_9_9
 70
64
 62
251
 6
CONTINUOUS
 0
LAYER
 2
D_SE_INSTANCE_10_10
 70
64
 62
251
 6
CONTINUOUS
 0
LAYER
 2
D_SE_INSTANCE_8_10
 70
64
 62
251
 6
CONTINUOUS
 0
LAYER
 2
D_SE_INSTANCE_7_10
 70
64
 62
251
 6
CONTINUOUS
 0
LAYER
 2
D_SE_INSTANCE_6_10
 70
64
 62
251
 6
CONTINUOUS
 0
LAYER
 2
D_SE_INSTANCE_5_10
 70
64
 62
251
 6
CONTINUOUS
 0
LAYER
 2
D_SE_INSTANCE_4_10
 70
64
 62
251
 6
CONTINUOUS
 0
LAYER
 2
D_SE_INSTANCE_3_10
 70
64
 62
251
 6
CONTINUOUS
 0
LAYER
 2
D_SE_INSTANCE_2_10
 70
64
 62
251
 6
CONTINUOUS
 0
LAYER
 2
D_SE_INSTANCE_1_10
 70
64
 62
251
 6
CONTINUOUS
 0
LAYER
 2
D_SE_INSTANCE_10
 70
64
 62
251
 6
CONTINUOUS
 0
LAYER
 2
D_SE_INSTANCE_9_10
 70
64
 62
251
 6
CONTINUOUS
 0
LAYER
 2
D_SE_INSTANCE_11
 70
64
 62
251
 6
CONTINUOUS
 0
LAYER
 2
D_SE_INSTANCE_1_11
 70
64
 62
251
 6
CONTINUOUS
 0
LAYER
 2
D_SE_INSTANCE_2_11
 70
64
 62
251
 6
CONTINUOUS
 0
LAYER
 2
D_SE_INSTANCE_12
 70
64
 62
251
 6
CONTINUOUS
 0
LAYER
 2
D_SE_INSTANCE_1_12
 70
64
 62
251
 6
CONTINUOUS
 0
LAYER
 2
D_SE_INS96
 70
64
 62
251
 6
CONTINUOUS
 0
LAYER
 2
D_SE_IN97
 70
64
 62
251
 6
CONTINUOUS
 0
LAYER
 2
D_SE_INSTANCE_18_1
 70
64
 62
251
 6
CONTINUOUS
 0
LAYER
 2
D_SE_INSTANCE_19_1
 70
64
 62
251
 6
CONTINUOUS
 0
LAYER
 2
D_SE_INSTANCE_2_12
 70
64
 62
251
 6
CONTINUOUS
 0
LAYER
 2
D_SE_INSTANCE_13
 70
64
 62
251
 6
CONTINUOUS
 0
LAYER
 2
D_SE_INSTANCE_1_13
 70
64
 62
251
 6
CONTINUOUS
 0
LAYER
 2
D_SE_INSTANCE_16_2
 70
64
 62
251
 6
CONTINUOUS
 0
LAYER
 2
D_SE_INSTANCE_17_2
 70
64
 62
251
 6
CONTINUOUS
 0
LAYER
 2
D_SE_INS99
 70
64
 62
251
 6
CONTINUOUS
 0
LAYER
 2
D_SE_IN98
 70
64
 62
251
 6
CONTINUOUS
 0
LAYER
 2
D_SE_INSTANCE_2_13
 70
64
 62
251
 6
CONTINUOUS
 0
LAYER
 2
D_SE_INSTANCE_14
 70
64
 62
251
 6
CONTINUOUS
 0
LAYER
 2
D_SE_INSTANCE_1_14
 70
64
 62
251
 6
CONTINUOUS
 0
LAYER
 2
D_SE_INSTANCE_16_3
 70
64
 62
251
 6
CONTINUOUS
 0
LAYER
 2
D_SE_INSTANCE_17_3
 70
64
 62
251
 6
CONTINUOUS
 0
LAYER
 2
D_SE_INSTANCE_18_2
 70
64
 62
251
 6
CONTINUOUS
 0
LAYER
 2
D_SE_INSTANCE_19_2
 70
64
 62
251
 6
CONTINUOUS
 0
LAYER
 2
D_SE_INSTANCE_2_14
 70
64
 62
251
 6
CONTINUOUS
 0
LAYER
 2
D_SE_INSTANCE_15
 70
64
 62
251
 6
CONTINUOUS
 0
LAYER
 2
D_SE_INSTANCE_1_15
 70
64
 62
251
 6
CONTINUOUS
 0
LAYER
 2
D_SE_INSTANCE_16_4
 70
64
 62
251
 6
CONTINUOUS
 0
LAYER
 2
D_SE_INSTANCE_17_4
 70
64
 62
251
 6
CONTINUOUS
 0
LAYER
 2
D_SE_INSTANCE_18_3
 70
64
 62
251
 6
CONTINUOUS
 0
LAYER
 2
D_SE_INSTANCE_19_3
 70
64
 62
251
 6
CONTINUOUS
 0
LAYER
 2
D_SE_INSTANCE_2_15
 70
64
 62
251
 6
CONTINUOUS
 0
LAYER
 2
D_SE_INSTANCE_16
 70
64
 62
251
 6
CONTINUOUS
 0
LAYER
 2
D_SE_INSTANCE_1_16
 70
64
 62
251
 6
CONTINUOUS
 0
LAYER
 2
D_SE_INSTANCE_16_5
 70
64
 62
251
 6
CONTINUOUS
 0
LAYER
 2
D_SE_INSTANCE_17_5
 70
64
 62
251
 6
CONTINUOUS
 0
LAYER
 2
D_SE_INSTANCE_18_4
 70
64
 62
251
 6
CONTINUOUS
 0
LAYER
 2
D_SE_INSTANCE_19_4
 70
64
 62
251
 6
CONTINUOUS
 0
LAYER
 2
D_SE_INSTANCE_2_16
 70
64
 62
251
 6
CONTINUOUS
 0
LAYER
 2
D_SE_INSTANCE_17
 70
64
 62
251
 6
CONTINUOUS
 0
LAYER
 2
D_SE_INSTANCE_1_17
 70
64
 62
251
 6
CONTINUOUS
 0
LAYER
 2
D_SE_INSTANCE_16_6
 70
64
 62
251
 6
CONTINUOUS
 0
LAYER
 2
D_SE_INSTANCE_17_6
 70
64
 62
251
 6
CONTINUOUS
 0
LAYER
 2
D_SE_INSTANCE_18_5
 70
64
 62
251
 6
CONTINUOUS
 0
LAYER
 2
D_SE_INSTANCE_19_5
 70
64
 62
251
 6
CONTINUOUS
 0
LAYER
 2
D_SE_INSTANCE_2_17
 70
64
 62
251
 6
CONTINUOUS
 0
LAYER
 2
D_SE_INSTANCE_18
 70
64
 62
251
 6
CONTINUOUS
 0
LAYER
 2
D_SE_INSTANCE_1_18
 70
64
 62
251
 6
CONTINUOUS
 0
LAYER
 2
D_SE_INSTANCE_16_7
 70
64
 62
251
 6
CONTINUOUS
 0
LAYER
 2
D_SE_INSTANCE_17_7
 70
64
 62
251
 6
CONTINUOUS
 0
LAYER
 2
D_SE_INSTANCE_18_6
 70
64
 62
251
 6
CONTINUOUS
 0
LAYER
 2
D_SE_INSTANCE_19_6
 70
64
 62
251
 6
CONTINUOUS
 0
LAYER
 2
D_SE_INSTANCE_2_18
 70
64
 62
251
 6
CONTINUOUS
 0
LAYER
 2
D_SE_INSTANCE_19
 70
64
 62
251
 6
CONTINUOUS
 0
LAYER
 2
D_SE_INSTANCE_1_19
 70
64
 62
251
 6
CONTINUOUS
 0
LAYER
 2
D_SE_INSTANCE_16_8
 70
64
 62
251
 6
CONTINUOUS
 0
LAYER
 2
D_SE_INSTANCE_17_8
 70
64
 62
251
 6
CONTINUOUS
 0
LAYER
 2
D_SE_INSTANCE_18_7
 70
64
 62
251
 6
CONTINUOUS
 0
LAYER
 2
D_SE_INSTANCE_19_7
 70
64
 62
251
 6
CONTINUOUS
 0
LAYER
 2
D_SE_INSTANCE_2_19
 70
64
 62
251
 6
CONTINUOUS
 0
LAYER
 2
D_SE_INSTANCE_20
 70
64
 62
251
 6
CONTINUOUS
 0
LAYER
 2
D_SE_INSTANCE_1_20
 70
64
 62
251
 6
CONTINUOUS
 0
LAYER
 2
D_SE_INSTANCE_16_9
 70
64
 62
251
 6
CONTINUOUS
 0
LAYER
 2
D_SE_INSTANCE_17_9
 70
64
 62
251
 6
CONTINUOUS
 0
LAYER
 2
D_SE_INSTANCE_18_8
 70
64
 62
251
 6
CONTINUOUS
 0
LAYER
 2
D_SE_INSTANCE_19_8
 70
64
 62
251
 6
CONTINUOUS
 0
LAYER
 2
D_SE_INSTANCE_2_20
 70
64
 62
251
 6
CONTINUOUS
 0
LAYER
 2
D_SE_INSTANCE_21
 70
64
 62
251
 6
CONTINUOUS
 0
LAYER
 2
D_SE_INSTANCE_1_21
 70
64
 62
251
 6
CONTINUOUS
 0
LAYER
 2
D_SE_INSTANCE_16_10
 70
64
 62
251
 6
CONTINUOUS
 0
LAYER
 2
D_SE_INSTANCE_17_10
 70
64
 62
251
 6
CONTINUOUS
 0
LAYER
 2
D_SE_INSTANCE_18_9
 70
64
 62
251
 6
CONTINUOUS
 0
LAYER
 2
D_SE_INSTANCE_19_9
 70
64
 62
251
 6
CONTINUOUS
 0
LAYER
 2
D_SE_INSTANCE_2_21
 70
64
 62
251
 6
CONTINUOUS
 0
LAYER
 2
D_SE_INSTANCE_22
 70
64
 62
251
 6
CONTINUOUS
 0
LAYER
 2
D_SE_INSTANCE_1_22
 70
64
 62
251
 6
CONTINUOUS
 0
LAYER
 2
D_SE_INSTANCE_16_11
 70
64
 62
251
 6
CONTINUOUS
 0
LAYER
 2
D_SE_INSTANCE_17_11
 70
64
 62
251
 6
CONTINUOUS
 0
LAYER
 2
D_SE_INSTANCE_18_10
 70
64
 62
251
 6
CONTINUOUS
 0
LAYER
 2
D_SE_INSTANCE_19_10
 70
64
 62
251
 6
CONTINUOUS
 0
LAYER
 2
D_SE_INSTANCE_2_22
 70
64
 62
251
 6
CONTINUOUS
 0
LAYER
 2
D_SE_INSTANCE_23
 70
64
 62
251
 6
CONTINUOUS
 0
LAYER
 2
D_SE_INSTANCE_1_23
 70
64
 62
251
 6
CONTINUOUS
 0
LAYER
 2
D_SE_INSTANCE_16_12
 70
64
 62
251
 6
CONTINUOUS
 0
LAYER
 2
D_SE_INSTANCE_17_12
 70
64
 62
251
 6
CONTINUOUS
 0
LAYER
 2
D_SE_INSTANCE_18_11
 70
64
 62
251
 6
CONTINUOUS
 0
LAYER
 2
D_SE_INSTANCE_19_11
 70
64
 62
251
 6
CONTINUOUS
 0
LAYER
 2
D_SE_INSTANCE_2_23
 70
64
 62
251
 6
CONTINUOUS
 0
LAYER
 2
D_SE_INSTANCE_24
 70
64
 62
251
 6
CONTINUOUS
 0
LAYER
 2
D_SE_INSTANCE_1_24
 70
64
 62
251
 6
CONTINUOUS
 0
LAYER
 2
D_SE_INSTANCE_16_13
 70
64
 62
251
 6
CONTINUOUS
 0
LAYER
 2
D_SE_INSTANCE_17_13
 70
64
 62
251
 6
CONTINUOUS
 0
LAYER
 2
D_SE_INSTANCE_18_12
 70
64
 62
251
 6
CONTINUOUS
 0
LAYER
 2
D_SE_INSTANCE_19_12
 70
64
 62
251
 6
CONTINUOUS
 0
LAYER
 2
D_SE_1
 70
64
 62
251
 6
CONTINUOUS
 0
LAYER
 2
D_SE_INSTANCE_25
 70
64
 62
251
 6
CONTINUOUS
 0
LAYER
 2
D_SE_INSTANCE_1_25
 70
64
 62
251
 6
CONTINUOUS
 0
LAYER
 2
D_SE_INSTANCE_2_24
 70
64
 62
251
 6
CONTINUOUS
 0
LAYER
 2
D_SE_INSTANCE_3_11
 70
64
 62
251
 6
CONTINUOUS
 0
LAYER
 2
D_SE_INSTANCE_4_11
 70
64
 62
251
 6
CONTINUOUS
 0
LAYER
 2
D_SE_INSTANCE_5_11
 70
64
 62
251
 6
CONTINUOUS
 0
LAYER
 2
D_SE_INSTANCE_6_12
 70
64
 62
251
 6
CONTINUOUS
 0
LAYER
 2
D_SE_INSTANCE_7_11
 70
64
 62
251
 6
CONTINUOUS
 0
LAYER
 2
D_SE_INSTANCE_8_11
 70
64
 62
251
 6
CONTINUOUS
 0
LAYER
 2
D_SE_INSTANCE_9_11
 70
64
 62
251
 6
CONTINUOUS
 0
LAYER
 2
D_SE_IN73
 70
64
 62
251
 6
CONTINUOUS
 0
LAYER
 2
D_SE_IN76
 70
64
 62
251
 6
CONTINUOUS
 0
LAYER
 2
D_SE_IN75
 70
64
 62
251
 6
CONTINUOUS
 0
LAYER
 2
D_SE_IN74
 70
64
 62
251
 6
CONTINUOUS
 0
LAYER
 2
D_SE_IN79
 70
64
 62
251
 6
CONTINUOUS
 0
LAYER
 2
D_SE_IN78
 70
64
 62
251
 6
CONTINUOUS
 0
LAYER
 2
D_SE_INSTANCE_16_14
 70
64
 62
251
 6
CONTINUOUS
 0
LAYER
 2
D_SE_INSTANCE_17_14
 70
64
 62
251
 6
CONTINUOUS
 0
LAYER
 2
D_SE_INSTANCE_18_13
 70
64
 62
251
 6
CONTINUOUS
 0
LAYER
 2
D_SE_INSTANCE_19_13
 70
64
 62
251
 6
CONTINUOUS
 0
LAYER
 2
D_SE_3
 70
64
 62
251
 6
CONTINUOUS
 0
LAYER
 2
D_SE_INSTANCE_26
 70
64
 62
251
 6
CONTINUOUS
 0
LAYER
 2
D_SE_INSTANCE_1_26
 70
64
 62
251
 6
CONTINUOUS
 0
LAYER
 2
D_SE_INSTANCE_2_25
 70
64
 62
251
 6
CONTINUOUS
 0
LAYER
 2
D_SE_INSTANCE_3_12
 70
64
 62
251
 6
CONTINUOUS
 0
LAYER
 2
D_SE_INSTANCE_4_12
 70
64
 62
251
 6
CONTINUOUS
 0
LAYER
 2
D_SE_INSTANCE_5_13
 70
64
 62
251
 6
CONTINUOUS
 0
LAYER
 2
D_SE_INSTANCE_6_13
 70
64
 62
251
 6
CONTINUOUS
 0
LAYER
 2
D_SE_INSTANCE_7_12
 70
64
 62
251
 6
CONTINUOUS
 0
LAYER
 2
D_SE_INSTANCE_8_12
 70
64
 62
251
 6
CONTINUOUS
 0
LAYER
 2
D_SE_INSTANCE_9_12
 70
64
 62
251
 6
CONTINUOUS
 0
LAYER
 2
D_SE_INSTANCE_10_12
 70
64
 62
251
 6
CONTINUOUS
 0
LAYER
 2
D_SE_INSTANCE_11_2
 70
64
 62
251
 6
CONTINUOUS
 0
LAYER
 2
D_SE_INSTANCE_12_2
 70
64
 62
251
 6
CONTINUOUS
 0
LAYER
 2
D_SE_INSTANCE_13_2
 70
64
 62
251
 6
CONTINUOUS
 0
LAYER
 2
D_SE_INSTANCE_14_2
 70
64
 62
251
 6
CONTINUOUS
 0
LAYER
 2
D_SE_INSTANCE_15_2
 70
64
 62
251
 6
CONTINUOUS
 0
LAYER
 2
D_SE_INSTANCE_16_15
 70
64
 62
251
 6
CONTINUOUS
 0
LAYER
 2
D_SE_INSTANCE_17_15
 70
64
 62
251
 6
CONTINUOUS
 0
LAYER
 2
D_SE_INSTANCE_18_14
 70
64
 62
251
 6
CONTINUOUS
 0
LAYER
 2
D_SE_INSTANCE_19_14
 70
64
 62
251
 6
CONTINUOUS
 0
LAYER
 2
D_SE_5
 70
64
 62
251
 6
CONTINUOUS
 0
LAYER
 2
D_SE_INSTANCE_27
 70
64
 62
251
 6
CONTINUOUS
 0
LAYER
 2
D_SE_INSTANCE_1_27
 70
64
 62
251
 6
CONTINUOUS
 0
LAYER
 2
D_SE_INSTANCE_2_26
 70
64
 62
251
 6
CONTINUOUS
 0
LAYER
 2
D_SE_INSTANCE_3_13
 70
64
 62
251
 6
CONTINUOUS
 0
LAYER
 2
D_SE_INSTANCE_4_14
 70
64
 62
251
 6
CONTINUOUS
 0
LAYER
 2
D_SE_INSTANCE_5_14
 70
64
 62
251
 6
CONTINUOUS
 0
LAYER
 2
D_SE_INSTANCE_6_14
 70
64
 62
251
 6
CONTINUOUS
 0
LAYER
 2
D_SE_INSTANCE_7_13
 70
64
 62
251
 6
CONTINUOUS
 0
LAYER
 2
D_SE_INSTANCE_8_13
 70
64
 62
251
 6
CONTINUOUS
 0
LAYER
 2
D_SE_INSTANCE_9_13
 70
64
 62
251
 6
CONTINUOUS
 0
LAYER
 2
D_SE_INSTANCE_10_13
 70
64
 62
251
 6
CONTINUOUS
 0
LAYER
 2
D_SE_INSTANCE_11_3
 70
64
 62
251
 6
CONTINUOUS
 0
LAYER
 2
D_SE_INSTANCE_12_3
 70
64
 62
251
 6
CONTINUOUS
 0
LAYER
 2
D_SE_INSTANCE_13_3
 70
64
 62
251
 6
CONTINUOUS
 0
LAYER
 2
D_SE_INSTANCE_14_3
 70
64
 62
251
 6
CONTINUOUS
 0
LAYER
 2
D_SE_INSTANCE_15_3
 70
64
 62
251
 6
CONTINUOUS
 0
LAYER
 2
D_SE_INSTANCE_16_16
 70
64
 62
251
 6
CONTINUOUS
 0
LAYER
 2
D_SE_INSTANCE_17_16
 70
64
 62
251
 6
CONTINUOUS
 0
LAYER
 2
D_SE_INSTANCE_18_15
 70
64
 62
251
 6
CONTINUOUS
 0
LAYER
 2
D_SE_INSTANCE_19_15
 70
64
 62
251
 6
CONTINUOUS
 0
LAYER
 2
D_SE_7
 70
64
 62
251
 6
CONTINUOUS
 0
LAYER
 2
D_SE_INSTANCE_28
 70
64
 62
251
 6
CONTINUOUS
 0
LAYER
 2
D_SE_INSTANCE_1_28
 70
64
 62
251
 6
CONTINUOUS
 0
LAYER
 2
D_SE_INSTANCE_2_27
 70
64
 62
251
 6
CONTINUOUS
 0
LAYER
 2
D_SE_INSTANCE_3_15
 70
64
 62
251
 6
CONTINUOUS
 0
LAYER
 2
D_SE_INSTANCE_4_15
 70
64
 62
251
 6
CONTINUOUS
 0
LAYER
 2
D_SE_INSTANCE_5_15
 70
64
 62
251
 6
CONTINUOUS
 0
LAYER
 2
D_SE_INSTANCE_6_15
 70
64
 62
251
 6
CONTINUOUS
 0
LAYER
 2
D_SE_INSTANCE_7_14
 70
64
 62
251
 6
CONTINUOUS
 0
LAYER
 2
D_SE_INSTANCE_8_14
 70
64
 62
251
 6
CONTINUOUS
 0
LAYER
 2
D_SE_INSTANCE_9_14
 70
64
 62
251
 6
CONTINUOUS
 0
LAYER
 2
D_SE_INSTANCE_10_14
 70
64
 62
251
 6
CONTINUOUS
 0
LAYER
 2
D_SE_INSTANCE_11_4
 70
64
 62
251
 6
CONTINUOUS
 0
LAYER
 2
D_SE_INSTANCE_12_4
 70
64
 62
251
 6
CONTINUOUS
 0
LAYER
 2
D_SE_INSTANCE_13_4
 70
64
 62
251
 6
CONTINUOUS
 0
LAYER
 2
D_SE_INSTANCE_14_4
 70
64
 62
251
 6
CONTINUOUS
 0
LAYER
 2
D_SE_INSTANCE_15_4
 70
64
 62
251
 6
CONTINUOUS
 0
LAYER
 2
D_SE_INSTANCE_16_17
 70
64
 62
251
 6
CONTINUOUS
 0
LAYER
 2
D_SE_INSTANCE_17_17
 70
64
 62
251
 6
CONTINUOUS
 0
LAYER
 2
D_SE_INSTANCE_18_16
 70
64
 62
251
 6
CONTINUOUS
 0
LAYER
 2
D_SE_INSTANCE_19_16
 70
64
 62
251
 6
CONTINUOUS
 0
LAYER
 2
D_SE_9
 70
64
 62
251
 6
CONTINUOUS
 0
LAYER
 2
D_SE_INSTANCE_29
 70
64
 62
251
 6
CONTINUOUS
 0
LAYER
 2
D_SE_INSTANCE_1_29
 70
64
 62
251
 6
CONTINUOUS
 0
LAYER
 2
D_SE_INSTANCE_2_29
 70
64
 62
251
 6
CONTINUOUS
 0
LAYER
 2
D_SE_INSTANCE_3_16
 70
64
 62
251
 6
CONTINUOUS
 0
LAYER
 2
D_SE_INSTANCE_4_16
 70
64
 62
251
 6
CONTINUOUS
 0
LAYER
 2
D_SE_INSTANCE_5_16
 70
64
 62
251
 6
CONTINUOUS
 0
LAYER
 2
D_SE_INSTANCE_6_16
 70
64
 62
251
 6
CONTINUOUS
 0
LAYER
 2
D_SE_INSTANCE_7_15
 70
64
 62
251
 6
CONTINUOUS
 0
LAYER
 2
D_SE_INSTANCE_8_15
 70
64
 62
251
 6
CONTINUOUS
 0
LAYER
 2
D_SE_INSTANCE_9_15
 70
64
 62
251
 6
CONTINUOUS
 0
LAYER
 2
D_SE_INSTANCE_10_15
 70
64
 62
251
 6
CONTINUOUS
 0
LAYER
 2
D_SE_INSTANCE_11_5
 70
64
 62
251
 6
CONTINUOUS
 0
LAYER
 2
D_SE_INSTANCE_12_5
 70
64
 62
251
 6
CONTINUOUS
 0
LAYER
 2
D_SE_INSTANCE_13_5
 70
64
 62
251
 6
CONTINUOUS
 0
LAYER
 2
D_SE_INSTANCE_14_5
 70
64
 62
251
 6
CONTINUOUS
 0
LAYER
 2
D_SE_INSTANCE_15_5
 70
64
 62
251
 6
CONTINUOUS
 0
LAYER
 2
D_SE_INSTANCE_16_18
 70
64
 62
251
 6
CONTINUOUS
 0
LAYER
 2
D_SE_INSTANCE_17_18
 70
64
 62
251
 6
CONTINUOUS
 0
LAYER
 2
D_SE_INSTANCE_18_17
 70
64
 62
251
 6
CONTINUOUS
 0
LAYER
 2
D_SE_INSTANCE_19_17
 70
64
 62
251
 6
CONTINUOUS
 0
LAYER
 2
D_SE_11
 70
64
 62
251
 6
CONTINUOUS
 0
LAYER
 2
D_SE_INSTANCE_30
 70
64
 62
251
 6
CONTINUOUS
 0
LAYER
 2
D_SE_INSTANCE_1_31
 70
64
 62
251
 6
CONTINUOUS
 0
LAYER
 2
D_SE_INSTANCE_2_30
 70
64
 62
251
 6
CONTINUOUS
 0
LAYER
 2
D_SE_INSTANCE_3_17
 70
64
 62
251
 6
CONTINUOUS
 0
LAYER
 2
D_SE_INSTANCE_4_17
 70
64
 62
251
 6
CONTINUOUS
 0
LAYER
 2
D_SE_INSTANCE_5_17
 70
64
 62
251
 6
CONTINUOUS
 0
LAYER
 2
D_SE_INSTANCE_6_17
 70
64
 62
251
 6
CONTINUOUS
 0
LAYER
 2
D_SE_INSTANCE_7_16
 70
64
 62
251
 6
CONTINUOUS
 0
LAYER
 2
D_SE_INSTANCE_8_16
 70
64
 62
251
 6
CONTINUOUS
 0
LAYER
 2
D_SE_INSTANCE_9_16
 70
64
 62
251
 6
CONTINUOUS
 0
LAYER
 2
D_SE_INSTANCE_10_16
 70
64
 62
251
 6
CONTINUOUS
 0
LAYER
 2
D_SE_INSTANCE_11_6
 70
64
 62
251
 6
CONTINUOUS
 0
LAYER
 2
D_SE_INSTANCE_12_6
 70
64
 62
251
 6
CONTINUOUS
 0
LAYER
 2
D_SE_INSTANCE_13_6
 70
64
 62
251
 6
CONTINUOUS
 0
LAYER
 2
D_SE_INSTANCE_14_6
 70
64
 62
251
 6
CONTINUOUS
 0
LAYER
 2
D_SE_INSTANCE_15_6
 70
64
 62
251
 6
CONTINUOUS
 0
LAYER
 2
D_SE_INSTANCE_16_19
 70
64
 62
251
 6
CONTINUOUS
 0
LAYER
 2
D_SE_INSTANCE_17_19
 70
64
 62
251
 6
CONTINUOUS
 0
LAYER
 2
D_SE_INSTANCE_18_18
 70
64
 62
251
 6
CONTINUOUS
 0
LAYER
 2
D_SE_INSTANCE_19_18
 70
64
 62
251
 6
CONTINUOUS
 0
LAYER
 2
D_SE_13
 70
64
 62
251
 6
CONTINUOUS
 0
LAYER
 2
D_SE_INSTANCE_32
 70
64
 62
251
 6
CONTINUOUS
 0
LAYER
 2
D_SE_INSTANCE_1_32
 70
64
 62
251
 6
CONTINUOUS
 0
LAYER
 2
D_SE_INSTANCE_2_31
 70
64
 62
251
 6
CONTINUOUS
 0
LAYER
 2
D_SE_INSTANCE_3_18
 70
64
 62
251
 6
CONTINUOUS
 0
LAYER
 2
D_SE_INSTANCE_4_18
 70
64
 62
251
 6
CONTINUOUS
 0
LAYER
 2
D_SE_INSTANCE_5_18
 70
64
 62
251
 6
CONTINUOUS
 0
LAYER
 2
D_SE_INSTANCE_6_18
 70
64
 62
251
 6
CONTINUOUS
 0
LAYER
 2
D_SE_INSTANCE_7_17
 70
64
 62
251
 6
CONTINUOUS
 0
LAYER
 2
D_SE_INSTANCE_8_17
 70
64
 62
251
 6
CONTINUOUS
 0
LAYER
 2
D_SE_INSTANCE_9_17
 70
64
 62
251
 6
CONTINUOUS
 0
LAYER
 2
D_SE_INSTANCE_10_17
 70
64
 62
251
 6
CONTINUOUS
 0
LAYER
 2
D_SE_INSTANCE_11_7
 70
64
 62
251
 6
CONTINUOUS
 0
LAYER
 2
D_SE_INSTANCE_12_7
 70
64
 62
251
 6
CONTINUOUS
 0
LAYER
 2
D_SE_INSTANCE_13_7
 70
64
 62
251
 6
CONTINUOUS
 0
LAYER
 2
D_SE_INSTANCE_14_7
 70
64
 62
251
 6
CONTINUOUS
 0
LAYER
 2
D_SE_INSTANCE_15_7
 70
64
 62
251
 6
CONTINUOUS
 0
LAYER
 2
D_SE_INSTANCE_16_20
 70
64
 62
251
 6
CONTINUOUS
 0
LAYER
 2
D_SE_INSTANCE_17_20
 70
64
 62
251
 6
CONTINUOUS
 0
LAYER
 2
D_SE_INSTANCE_18_19
 70
64
 62
251
 6
CONTINUOUS
 0
LAYER
 2
D_SE_INSTANCE_19_19
 70
64
 62
251
 6
CONTINUOUS
 0
LAYER
 2
D_SE_15
 70
64
 62
251
 6
CONTINUOUS
 0
LAYER
 2
D_SE_INSTANCE_33
 70
64
 62
251
 6
CONTINUOUS
 0
LAYER
 2
D_SE_INSTANCE_1_33
 70
64
 62
251
 6
CONTINUOUS
 0
LAYER
 2
D_SE_INSTANCE_2_32
 70
64
 62
251
 6
CONTINUOUS
 0
LAYER
 2
D_SE_INSTANCE_3_19
 70
64
 62
251
 6
CONTINUOUS
 0
LAYER
 2
D_SE_INSTANCE_4_19
 70
64
 62
251
 6
CONTINUOUS
 0
LAYER
 2
D_SE_INSTANCE_5_19
 70
64
 62
251
 6
CONTINUOUS
 0
LAYER
 2
D_SE_INSTANCE_6_19
 70
64
 62
251
 6
CONTINUOUS
 0
LAYER
 2
D_SE_INSTANCE_7_18
 70
64
 62
251
 6
CONTINUOUS
 0
LAYER
 2
D_SE_INSTANCE_8_18
 70
64
 62
251
 6
CONTINUOUS
 0
LAYER
 2
D_SE_INSTANCE_9_18
 70
64
 62
251
 6
CONTINUOUS
 0
LAYER
 2
D_SE_INSTANCE_10_18
 70
64
 62
251
 6
CONTINUOUS
 0
LAYER
 2
D_SE_INSTANCE_11_8
 70
64
 62
251
 6
CONTINUOUS
 0
LAYER
 2
D_SE_INSTANCE_12_8
 70
64
 62
251
 6
CONTINUOUS
 0
LAYER
 2
D_SE_INSTANCE_13_8
 70
64
 62
251
 6
CONTINUOUS
 0
LAYER
 2
D_SE_INSTANCE_14_8
 70
64
 62
251
 6
CONTINUOUS
 0
LAYER
 2
D_SE_INSTANCE_15_8
 70
64
 62
251
 6
CONTINUOUS
 0
LAYER
 2
D_SE_INSTANCE_16_21
 70
64
 62
251
 6
CONTINUOUS
 0
LAYER
 2
D_SE_INSTANCE_17_21
 70
64
 62
251
 6
CONTINUOUS
 0
LAYER
 2
D_SE_INSTANCE_18_20
 70
64
 62
251
 6
CONTINUOUS
 0
LAYER
 2
D_SE_INSTANCE_19_20
 70
64
 62
251
 6
CONTINUOUS
 0
ENDTAB
 0
ENDSEC
 0
SECTION
 2
BLOCKS
 0
ENDSEC
 0
SECTION
 2
ENTITIES
 0
POLYLINE
 8
CUBE
 66
1
 10
0.0
 20
0.0
 30
0.0
 70
64
 71
8
 72
6
 0
VERTEX
 8
CUBE
 10
-5.6024
 20
-25.0451
 30
1.4869
 70
192
 0
VERTEX
 8
CUBE
 10
44.3976
 20
-25.0451
 30
1.4869
 70
192
 0
VERTEX
 8
CUBE
 10
-5.6024
 20
24.9549
 30
1.4869
 70
192
 0
VERTEX
 8
CUBE
 10
44.3976
 20
24.9549
 30
1.4869
 70
192
 0
VERTEX
 8
CUBE
 10
-5.6024
 20
24.9549
 30
2.4869
 70
192
 0
VERTEX
 8
CUBE
 10
44.3976
 20
24.9549
 30
2.4869
 70
192
 0
VERTEX
 8
CUBE
 10
-5.6024
 20
-25.0451
 30
2.4869
 70
192
 0
VERTEX
 8
CUBE
 10
44.3976
 20
-25.0451
 30
2.4869
 70
192
 0
VERTEX
 8
CUBE
 10
0
 20
0
 30
0
 70
128
 71
1
 72
2
 73
4
 74
3
 0
VERTEX
 8
CUBE
 10
0
 20
0
 30
0
 70
128
 71
3
 72
4
 73
6
 74
5
 0
VERTEX
 8
CUBE
 10
0
 20
0
 30
0
 70
128
 71
5
 72
6
 73
8
 74
7
 0
VERTEX
 8
CUBE
 10
0
 20
0
 30
0
 70
128
 71
7
 72
8
 73
2
 74
1
 0
VERTEX
 8
CUBE
 10
0
 20
0
 30
0
 70
128
 71
2
 72
8
 73
6
 74
4
 0
VERTEX
 8
CUBE
 10
0
 20
0
 30
0
 70
128
 71
7
 72
1
 73
3
 74
5
 0
SEQEND
 0
POLYLINE
 8
CUBE_1
 66
1
 10
0.0
 20
0.0
 30
0.0
 70
64
 71
32
 72
36
 0
VERTEX
 8
CUBE_1
 10
-10.7673
 20
-29.9951
 30
1.2896
 70
192
 0
VERTEX
 8
CUBE_1
 10
-10.7673
 20
29.9049
 30
1.2896
 70
192
 0
VERTEX
 8
CUBE_1
 10
-10.7673
 20
29.9049
 30
1.4896
 70
192
 0
VERTEX
 8
CUBE_1
 10
-10.7673
 20
-29.9951
 30
1.4896
 70
192
 0
VERTEX
 8
CUBE_1
 10
-10.7173
 20
-29.9951
 30
1.2396
 70
192
 0
VERTEX
 8
CUBE_1
 10
-10.7173
 20
29.9049
 30
1.2396
 70
192
 0
VERTEX
 8
CUBE_1
 10
-10.7173
 20
29.9549
 30
1.2896
 70
192
 0
VERTEX
 8
CUBE_1
 10
-10.7173
 20
29.9549
 30
1.4896
 70
192
 0
VERTEX
 8
CUBE_1
 10
-10.7173
 20
29.9049
 30
1.5396
 70
192
 0
VERTEX
 8
CUBE_1
 10
-10.7173
 20
-29.9951
 30
1.5396
 70
192
 0
VERTEX
 8
CUBE_1
 10
-10.7173
 20
-30.0451
 30
1.4896
 70
192
 0
VERTEX
 8
CUBE_1
 10
-10.7173
 20
-30.0451
 30
1.2896
 70
192
 0
VERTEX
 8
CUBE_1
 10
49.1827
 20
-29.9951
 30
1.2396
 70
192
 0
VERTEX
 8
CUBE_1
 10
49.1827
 20
29.9049
 30
1.2396
 70
192
 0
VERTEX
 8
CUBE_1
 10
49.1827
 20
29.9549
 30
1.2896
 70
192
 0
VERTEX
 8
CUBE_1
 10
49.1827
 20
29.9549
 30
1.4896
 70
192
 0
VERTEX
 8
CUBE_1
 10
49.1827
 20
29.9049
 30
1.5396
 70
192
 0
VERTEX
 8
CUBE_1
 10
49.1827
 20
-29.9951
 30
1.5396
 70
192
 0
VERTEX
 8
CUBE_1
 10
49.1827
 20
-30.0451
 30
1.4896
 70
192
 0
VERTEX
 8
CUBE_1
 10
49.1827
 20
-30.0451
 30
1.2896
 70
192
 0
VERTEX
 8
CUBE_1
 10
49.2327
 20
-29.9951
 30
1.2896
 70
192
 0
VERTEX
 8
CUBE_1
 10
49.2327
 20
29.9049
 30
1.2896
 70
192
 0
VERTEX
 8
CUBE_1
 10
49.2327
 20
29.9049
 30
1.4896
 70
192
 0
VERTEX
 8
CUBE_1
 10
49.2327
 20
-29.9951
 30
1.4896
 70
192
 0
VERTEX
 8
CUBE_1
 10
7.9654
 20
-14.8618
 30
1.2396
 70
192
 0
VERTEX
 8
CUBE_1
 10
30.0362
 20
-14.8618
 30
1.2396
 70
192
 0
VERTEX
 8
CUBE_1
 10
30.0362
 20
-14.3618
 30
1.2396
 70
192
 0
VERTEX
 8
CUBE_1
 10
7.9654
 20
-14.3618
 30
1.2396
 70
192
 0
VERTEX
 8
CUBE_1
 10
7.9654
 20
-14.8618
 30
1.5396
 70
192
 0
VERTEX
 8
CUBE_1
 10
30.0362
 20
-14.8618
 30
1.5396
 70
192
 0
VERTEX
 8
CUBE_1
 10
30.0362
 20
-14.3618
 30
1.5396
 70
192
 0
VERTEX
 8
CUBE_1
 10
7.9654
 20
-14.3618
 30
1.5396
 70
192
 0
VERTEX
 8
CUBE_1
 10
0
 20
0
 30
0
 70
128
 71
1
 72
5
 73
6
 74
2
 0
VERTEX
 8
CUBE_1
 10
0
 20
0
 30
0
 70
128
 71
13
 72
14
 73
26
 74
26
 0
VERTEX
 8
CUBE_1
 10
0
 20
0
 30
0
 70
128
 71
6
 72
5
 73
25
 74
25
 0
VERTEX
 8
CUBE_1
 10
0
 20
0
 30
0
 70
128
 71
26
 72
25
 73
5
 74
13
 0
VERTEX
 8
CUBE_1
 10
0
 20
0
 30
0
 70
128
 71
6
 72
25
 73
28
 74
28
 0
VERTEX
 8
CUBE_1
 10
0
 20
0
 30
0
 70
128
 71
6
 72
28
 73
27
 74
14
 0
VERTEX
 8
CUBE_1
 10
0
 20
0
 30
0
 70
128
 71
27
 72
26
 73
14
 74
14
 0
VERTEX
 8
CUBE_1
 10
0
 20
0
 30
0
 70
128
 71
13
 72
21
 73
22
 74
14
 0
VERTEX
 8
CUBE_1
 10
0
 20
0
 30
0
 70
128
 71
2
 72
6
 73
7
 74
7
 0
VERTEX
 8
CUBE_1
 10
0
 20
0
 30
0
 70
128
 71
6
 72
14
 73
15
 74
7
 0
VERTEX
 8
CUBE_1
 10
0
 20
0
 30
0
 70
128
 71
14
 72
22
 73
15
 74
15
 0
VERTEX
 8
CUBE_1
 10
0
 20
0
 30
0
 70
128
 71
2
 72
7
 73
8
 74
3
 0
VERTEX
 8
CUBE_1
 10
0
 20
0
 30
0
 70
128
 71
7
 72
15
 73
16
 74
8
 0
VERTEX
 8
CUBE_1
 10
0
 20
0
 30
0
 70
128
 71
15
 72
22
 73
23
 74
16
 0
VERTEX
 8
CUBE_1
 10
0
 20
0
 30
0
 70
128
 71
3
 72
8
 73
9
 74
9
 0
VERTEX
 8
CUBE_1
 10
0
 20
0
 30
0
 70
128
 71
8
 72
16
 73
17
 74
9
 0
VERTEX
 8
CUBE_1
 10
0
 20
0
 30
0
 70
128
 71
16
 72
23
 73
17
 74
17
 0
VERTEX
 8
CUBE_1
 10
0
 20
0
 30
0
 70
128
 71
3
 72
9
 73
10
 74
4
 0
VERTEX
 8
CUBE_1
 10
0
 20
0
 30
0
 70
128
 71
10
 72
9
 73
29
 74
29
 0
VERTEX
 8
CUBE_1
 10
0
 20
0
 30
0
 70
128
 71
18
 72
30
 73
31
 74
31
 0
VERTEX
 8
CUBE_1
 10
0
 20
0
 30
0
 70
128
 71
30
 72
18
 73
10
 74
29
 0
VERTEX
 8
CUBE_1
 10
0
 20
0
 30
0
 70
128
 71
17
 72
18
 73
31
 74
31
 0
VERTEX
 8
CUBE_1
 10
0
 20
0
 30
0
 70
128
 71
17
 72
31
 73
32
 74
9
 0
VERTEX
 8
CUBE_1
 10
0
 20
0
 30
0
 70
128
 71
32
 72
29
 73
9
 74
9
 0
VERTEX
 8
CUBE_1
 10
0
 20
0
 30
0
 70
128
 71
17
 72
23
 73
24
 74
18
 0
VERTEX
 8
CUBE_1
 10
0
 20
0
 30
0
 70
128
 71
4
 72
10
 73
11
 74
11
 0
VERTEX
 8
CUBE_1
 10
0
 20
0
 30
0
 70
128
 71
10
 72
18
 73
19
 74
11
 0
VERTEX
 8
CUBE_1
 10
0
 20
0
 30
0
 70
128
 71
18
 72
24
 73
19
 74
19
 0
VERTEX
 8
CUBE_1
 10
0
 20
0
 30
0
 70
128
 71
4
 72
11
 73
12
 74
1
 0
VERTEX
 8
CUBE_1
 10
0
 20
0
 30
0
 70
128
 71
11
 72
19
 73
20
 74
12
 0
VERTEX
 8
CUBE_1
 10
0
 20
0
 30
0
 70
128
 71
19
 72
24
 73
21
 74
20
 0
VERTEX
 8
CUBE_1
 10
0
 20
0
 30
0
 70
128
 71
1
 72
12
 73
5
 74
5
 0
VERTEX
 8
CUBE_1
 10
0
 20
0
 30
0
 70
128
 71
12
 72
20
 73
13
 74
5
 0
VERTEX
 8
CUBE_1
 10
0
 20
0
 30
0
 70
128
 71
20
 72
21
 73
13
 74
13
 0
VERTEX
 8
CUBE_1
 10
0
 20
0
 30
0
 70
128
 71
21
 72
24
 73
23
 74
22
 0
VERTEX
 8
CUBE_1
 10
0
 20
0
 30
0
 70
128
 71
1
 72
2
 73
3
 74
4
 0
SEQEND
 0
POLYLINE
 8
CUBE_2
 66
1
 10
0.0
 20
0.0
 30
0.0
 70
64
 71
8
 72
4
 0
VERTEX
 8
CUBE_2
 10
7.9654
 20
-14.8618
 30
1.2396
 70
192
 0
VERTEX
 8
CUBE_2
 10
30.0362
 20
-14.8618
 30
1.2396
 70
192
 0
VERTEX
 8
CUBE_2
 10
30.0362
 20
-14.3618
 30
1.2396
 70
192
 0
VERTEX
 8
CUBE_2
 10
7.9654
 20
-14.3618
 30
1.2396
 70
192
 0
VERTEX
 8
CUBE_2
 10
7.9654
 20
-14.8618
 30
1.5396
 70
192
 0
VERTEX
 8
CUBE_2
 10
30.0362
 20
-14.8618
 30
1.5396
 70
192
 0
VERTEX
 8
CUBE_2
 10
30.0362
 20
-14.3618
 30
1.5396
 70
192
 0
VERTEX
 8
CUBE_2
 10
7.9654
 20
-14.3618
 30
1.5396
 70
192
 0
VERTEX
 8
CUBE_2
 10
0
 20
0
 30
0
 70
128
 71
5
 72
1
 73
2
 74
6
 0
VERTEX
 8
CUBE_2
 10
0
 20
0
 30
0
 70
128
 71
6
 72
2
 73
3
 74
7
 0
VERTEX
 8
CUBE_2
 10
0
 20
0
 30
0
 70
128
 71
7
 72
3
 73
4
 74
8
 0
VERTEX
 8
CUBE_2
 10
0
 20
0
 30
0
 70
128
 71
8
 72
4
 73
1
 74
5
 0
SEQEND
 0
POLYLINE
 8
CUBE_3
 66
1
 10
0.0
 20
0.0
 30
0.0
 70
64
 71
8
 72
6
 0
VERTEX
 8
CUBE_3
 10
-5.6024
 20
-25.0451
 30
1.3967
 70
192
 0
VERTEX
 8
CUBE_3
 10
44.3976
 20
-25.0451
 30
1.3967
 70
192
 0
VERTEX
 8
CUBE_3
 10
-5.6024
 20
24.9549
 30
1.3967
 70
192
 0
VERTEX
 8
CUBE_3
 10
44.3976
 20
24.9549
 30
1.3967
 70
192
 0
VERTEX
 8
CUBE_3
 10
-5.6024
 20
24.9549
 30
2.3967
 70
192
 0
VERTEX
 8
CUBE_3
 10
44.3976
 20
24.9549
 30
2.3967
 70
192
 0
VERTEX
 8
CUBE_3
 10
-5.6024
 20
-25.0451
 30
2.3967
 70
192
 0
VERTEX
 8
CUBE_3
 10
44.3976
 20
-25.0451
 30
2.3967
 70
192
 0
VERTEX
 8
CUBE_3
 10
0
 20
0
 30
0
 70
128
 71
1
 72
2
 73
4
 74
3
 0
VERTEX
 8
CUBE_3
 10
0
 20
0
 30
0
 70
128
 71
3
 72
4
 73
6
 74
5
 0
VERTEX
 8
CUBE_3
 10
0
 20
0
 30
0
 70
128
 71
5
 72
6
 73
8
 74
7
 0
VERTEX
 8
CUBE_3
 10
0
 20
0
 30
0
 70
128
 71
7
 72
8
 73
2
 74
1
 0
VERTEX
 8
CUBE_3
 10
0
 20
0
 30
0
 70
128
 71
2
 72
8
 73
6
 74
4
 0
VERTEX
 8
CUBE_3
 10
0
 20
0
 30
0
 70
128
 71
7
 72
1
 73
3
 74
5
 0
SEQEND
 0
POLYLINE
 8
D_SE_INSTANCE_17_1
 66
1
 10
0.0
 20
0.0
 30
0.0
 70
64
 71
4
 72
3
 0
VERTEX
 8
D_SE_INSTANCE_17_1
 10
29.2765
 20
-2.5522
 30
1.3833
 70
192
 0
VERTEX
 8
D_SE_INSTANCE_17_1
 10
29.4369
 20
-1.6491
 30
1.3833
 70
192
 0
VERTEX
 8
D_SE_INSTANCE_17_1
 10
28.486
 20
-1.8632
 30
1.3833
 70
192
 0
VERTEX
 8
D_SE_INSTANCE_17_1
 10
29.013
 20
-2.0493
 30
1.0102
 70
192
 0
VERTEX
 8
D_SE_INSTANCE_17_1
 10
0
 20
0
 30
0
 70
128
 71
1
 72
2
 73
4
 74
4
 0
VERTEX
 8
D_SE_INSTANCE_17_1
 10
0
 20
0
 30
0
 70
128
 71
4
 72
3
 73
1
 74
1
 0
VERTEX
 8
D_SE_INSTANCE_17_1
 10
0
 20
0
 30
0
 70
128
 71
2
 72
3
 73
4
 74
4
 0
SEQEND
 0
POLYLINE
 8
D_SE_INSTANCE_16_1
 66
1
 10
0.0
 20
0.0
 30
0.0
 70
64
 71
4
 72
3
 0
VERTEX
 8
D_SE_INSTANCE_16_1
 10
29.2765
 20
-4.5498
 30
1.3833
 70
192
 0
VERTEX
 8
D_SE_INSTANCE_16_1
 10
29.4369
 20
-3.6466
 30
1.3833
 70
192
 0
VERTEX
 8
D_SE_INSTANCE_16_1
 10
28.486
 20
-3.8607
 30
1.3833
 70
192
 0
VERTEX
 8
D_SE_INSTANCE_16_1
 10
29.013
 20
-4.0469
 30
1.0102
 70
192
 0
VERTEX
 8
D_SE_INSTANCE_16_1
 10
0
 20
0
 30
0
 70
128
 71
1
 72
2
 73
4
 74
4
 0
VERTEX
 8
D_SE_INSTANCE_16_1
 10
0
 20
0
 30
0
 70
128
 71
4
 72
3
 73
1
 74
1
 0
VERTEX
 8
D_SE_INSTANCE_16_1
 10
0
 20
0
 30
0
 70
128
 71
2
 72
3
 73
4
 74
4
 0
SEQEND
 0
POLYLINE
 8
D_SE_INSTANCE_15_1
 66
1
 10
0.0
 20
0.0
 30
0.0
 70
64
 71
4
 72
3
 0
VERTEX
 8
D_SE_INSTANCE_15_1
 10
29.2765
 20
-6.5031
 30
1.3833
 70
192
 0
VERTEX
 8
D_SE_INSTANCE_15_1
 10
29.4369
 20
-5.6
 30
1.3833
 70
192
 0
VERTEX
 8
D_SE_INSTANCE_15_1
 10
28.486
 20
-5.8141
 30
1.3833
 70
192
 0
VERTEX
 8
D_SE_INSTANCE_15_1
 10
29.013
 20
-6.0002
 30
1.0102
 70
192
 0
VERTEX
 8
D_SE_INSTANCE_15_1
 10
0
 20
0
 30
0
 70
128
 71
1
 72
2
 73
4
 74
4
 0
VERTEX
 8
D_SE_INSTANCE_15_1
 10
0
 20
0
 30
0
 70
128
 71
4
 72
3
 73
1
 74
1
 0
VERTEX
 8
D_SE_INSTANCE_15_1
 10
0
 20
0
 30
0
 70
128
 71
2
 72
3
 73
4
 74
4
 0
SEQEND
 0
POLYLINE
 8
D_SE_INSTANCE_14_1
 66
1
 10
0.0
 20
0.0
 30
0.0
 70
64
 71
4
 72
3
 0
VERTEX
 8
D_SE_INSTANCE_14_1
 10
29.2765
 20
-8.5105
 30
1.3833
 70
192
 0
VERTEX
 8
D_SE_INSTANCE_14_1
 10
29.4369
 20
-7.6074
 30
1.3833
 70
192
 0
VERTEX
 8
D_SE_INSTANCE_14_1
 10
28.486
 20
-7.8214
 30
1.3833
 70
192
 0
VERTEX
 8
D_SE_INSTANCE_14_1
 10
29.013
 20
-8.0076
 30
1.0102
 70
192
 0
VERTEX
 8
D_SE_INSTANCE_14_1
 10
0
 20
0
 30
0
 70
128
 71
1
 72
2
 73
4
 74
4
 0
VERTEX
 8
D_SE_INSTANCE_14_1
 10
0
 20
0
 30
0
 70
128
 71
4
 72
3
 73
1
 74
1
 0
VERTEX
 8
D_SE_INSTANCE_14_1
 10
0
 20
0
 30
0
 70
128
 71
2
 72
3
 73
4
 74
4
 0
SEQEND
 0
POLYLINE
 8
D_SE_INSTANCE_13_1
 66
1
 10
0.0
 20
0.0
 30
0.0
 70
64
 71
4
 72
3
 0
VERTEX
 8
D_SE_INSTANCE_13_1
 10
29.2765
 20
1.4879
 30
1.3833
 70
192
 0
VERTEX
 8
D_SE_INSTANCE_13_1
 10
29.4369
 20
2.391
 30
1.3833
 70
192
 0
VERTEX
 8
D_SE_INSTANCE_13_1
 10
28.486
 20
2.1769
 30
1.3833
 70
192
 0
VERTEX
 8
D_SE_INSTANCE_13_1
 10
29.013
 20
1.9908
 30
1.0102
 70
192
 0
VERTEX
 8
D_SE_INSTANCE_13_1
 10
0
 20
0
 30
0
 70
128
 71
1
 72
2
 73
4
 74
4
 0
VERTEX
 8
D_SE_INSTANCE_13_1
 10
0
 20
0
 30
0
 70
128
 71
4
 72
3
 73
1
 74
1
 0
VERTEX
 8
D_SE_INSTANCE_13_1
 10
0
 20
0
 30
0
 70
128
 71
2
 72
3
 73
4
 74
4
 0
SEQEND
 0
POLYLINE
 8
D_SE_INSTANCE_12_1
 66
1
 10
0.0
 20
0.0
 30
0.0
 70
64
 71
4
 72
3
 0
VERTEX
 8
D_SE_INSTANCE_12_1
 10
29.2765
 20
3.5755
 30
1.3833
 70
192
 0
VERTEX
 8
D_SE_INSTANCE_12_1
 10
29.4369
 20
4.4786
 30
1.3833
 70
192
 0
VERTEX
 8
D_SE_INSTANCE_12_1
 10
28.486
 20
4.2645
 30
1.3833
 70
192
 0
VERTEX
 8
D_SE_INSTANCE_12_1
 10
29.013
 20
4.0784
 30
1.0102
 70
192
 0
VERTEX
 8
D_SE_INSTANCE_12_1
 10
0
 20
0
 30
0
 70
128
 71
1
 72
2
 73
4
 74
4
 0
VERTEX
 8
D_SE_INSTANCE_12_1
 10
0
 20
0
 30
0
 70
128
 71
4
 72
3
 73
1
 74
1
 0
VERTEX
 8
D_SE_INSTANCE_12_1
 10
0
 20
0
 30
0
 70
128
 71
2
 72
3
 73
4
 74
4
 0
SEQEND
 0
POLYLINE
 8
D_SE_INSTANCE_11_1
 66
1
 10
0.0
 20
0.0
 30
0.0
 70
64
 71
4
 72
3
 0
VERTEX
 8
D_SE_INSTANCE_11_1
 10
29.2765
 20
5.5491
 30
1.3833
 70
192
 0
VERTEX
 8
D_SE_INSTANCE_11_1
 10
29.4369
 20
6.4522
 30
1.3833
 70
192
 0
VERTEX
 8
D_SE_INSTANCE_11_1
 10
28.486
 20
6.2381
 30
1.3833
 70
192
 0
VERTEX
 8
D_SE_INSTANCE_11_1
 10
29.013
 20
6.052
 30
1.0102
 70
192
 0
VERTEX
 8
D_SE_INSTANCE_11_1
 10
0
 20
0
 30
0
 70
128
 71
1
 72
2
 73
4
 74
4
 0
VERTEX
 8
D_SE_INSTANCE_11_1
 10
0
 20
0
 30
0
 70
128
 71
4
 72
3
 73
1
 74
1
 0
VERTEX
 8
D_SE_INSTANCE_11_1
 10
0
 20
0
 30
0
 70
128
 71
2
 72
3
 73
4
 74
4
 0
SEQEND
 0
POLYLINE
 8
D_SE_INSTANCE_10_1
 66
1
 10
0.0
 20
0.0
 30
0.0
 70
64
 71
4
 72
3
 0
VERTEX
 8
D_SE_INSTANCE_10_1
 10
29.2765
 20
7.5043
 30
1.3833
 70
192
 0
VERTEX
 8
D_SE_INSTANCE_10_1
 10
29.4369
 20
8.4074
 30
1.3833
 70
192
 0
VERTEX
 8
D_SE_INSTANCE_10_1
 10
28.486
 20
8.1933
 30
1.3833
 70
192
 0
VERTEX
 8
D_SE_INSTANCE_10_1
 10
29.013
 20
8.0072
 30
1.0102
 70
192
 0
VERTEX
 8
D_SE_INSTANCE_10_1
 10
0
 20
0
 30
0
 70
128
 71
1
 72
2
 73
4
 74
4
 0
VERTEX
 8
D_SE_INSTANCE_10_1
 10
0
 20
0
 30
0
 70
128
 71
4
 72
3
 73
1
 74
1
 0
VERTEX
 8
D_SE_INSTANCE_10_1
 10
0
 20
0
 30
0
 70
128
 71
2
 72
3
 73
4
 74
4
 0
SEQEND
 0
POLYLINE
 8
D_SE_INSTANCE_4_1
 66
1
 10
0.0
 20
0.0
 30
0.0
 70
64
 71
4
 72
3
 0
VERTEX
 8
D_SE_INSTANCE_4_1
 10
29.2765
 20
-0.5412
 30
1.3833
 70
192
 0
VERTEX
 8
D_SE_INSTANCE_4_1
 10
29.4369
 20
0.3619
 30
1.3833
 70
192
 0
VERTEX
 8
D_SE_INSTANCE_4_1
 10
28.486
 20
0.1478
 30
1.3833
 70
192
 0
VERTEX
 8
D_SE_INSTANCE_4_1
 10
29.013
 20
-0.0383
 30
1.0102
 70
192
 0
VERTEX
 8
D_SE_INSTANCE_4_1
 10
0
 20
0
 30
0
 70
128
 71
1
 72
2
 73
4
 74
4
 0
VERTEX
 8
D_SE_INSTANCE_4_1
 10
0
 20
0
 30
0
 70
128
 71
4
 72
3
 73
1
 74
1
 0
VERTEX
 8
D_SE_INSTANCE_4_1
 10
0
 20
0
 30
0
 70
128
 71
2
 72
3
 73
4
 74
4
 0
SEQEND
 0
POLYLINE
 8
D_SE_INSTANCE_9_1
 66
1
 10
0.0
 20
0.0
 30
0.0
 70
64
 71
4
 72
3
 0
VERTEX
 8
D_SE_INSTANCE_9_1
 10
9.1999
 20
-0.5412
 30
1.3833
 70
192
 0
VERTEX
 8
D_SE_INSTANCE_9_1
 10
9.3604
 20
0.3619
 30
1.3833
 70
192
 0
VERTEX
 8
D_SE_INSTANCE_9_1
 10
8.4095
 20
0.1478
 30
1.3833
 70
192
 0
VERTEX
 8
D_SE_INSTANCE_9_1
 10
8.9364
 20
-0.0383
 30
1.0102
 70
192
 0
VERTEX
 8
D_SE_INSTANCE_9_1
 10
0
 20
0
 30
0
 70
128
 71
1
 72
2
 73
4
 74
4
 0
VERTEX
 8
D_SE_INSTANCE_9_1
 10
0
 20
0
 30
0
 70
128
 71
4
 72
3
 73
1
 74
1
 0
VERTEX
 8
D_SE_INSTANCE_9_1
 10
0
 20
0
 30
0
 70
128
 71
2
 72
3
 73
4
 74
4
 0
SEQEND
 0
POLYLINE
 8
D_SE_INSTANCE_8_1
 66
1
 10
0.0
 20
0.0
 30
0.0
 70
64
 71
4
 72
3
 0
VERTEX
 8
D_SE_INSTANCE_8_1
 10
9.1999
 20
7.5043
 30
1.3833
 70
192
 0
VERTEX
 8
D_SE_INSTANCE_8_1
 10
9.3604
 20
8.4074
 30
1.3833
 70
192
 0
VERTEX
 8
D_SE_INSTANCE_8_1
 10
8.4095
 20
8.1933
 30
1.3833
 70
192
 0
VERTEX
 8
D_SE_INSTANCE_8_1
 10
8.9364
 20
8.0072
 30
1.0102
 70
192
 0
VERTEX
 8
D_SE_INSTANCE_8_1
 10
0
 20
0
 30
0
 70
128
 71
1
 72
2
 73
4
 74
4
 0
VERTEX
 8
D_SE_INSTANCE_8_1
 10
0
 20
0
 30
0
 70
128
 71
4
 72
3
 73
1
 74
1
 0
VERTEX
 8
D_SE_INSTANCE_8_1
 10
0
 20
0
 30
0
 70
128
 71
2
 72
3
 73
4
 74
4
 0
SEQEND
 0
POLYLINE
 8
D_SE_INSTANCE_7_1
 66
1
 10
0.0
 20
0.0
 30
0.0
 70
64
 71
4
 72
3
 0
VERTEX
 8
D_SE_INSTANCE_7_1
 10
9.1999
 20
5.5491
 30
1.3833
 70
192
 0
VERTEX
 8
D_SE_INSTANCE_7_1
 10
9.3604
 20
6.4522
 30
1.3833
 70
192
 0
VERTEX
 8
D_SE_INSTANCE_7_1
 10
8.4095
 20
6.2381
 30
1.3833
 70
192
 0
VERTEX
 8
D_SE_INSTANCE_7_1
 10
8.9364
 20
6.052
 30
1.0102
 70
192
 0
VERTEX
 8
D_SE_INSTANCE_7_1
 10
0
 20
0
 30
0
 70
128
 71
1
 72
2
 73
4
 74
4
 0
VERTEX
 8
D_SE_INSTANCE_7_1
 10
0
 20
0
 30
0
 70
128
 71
4
 72
3
 73
1
 74
1
 0
VERTEX
 8
D_SE_INSTANCE_7_1
 10
0
 20
0
 30
0
 70
128
 71
2
 72
3
 73
4
 74
4
 0
SEQEND
 0
POLYLINE
 8
D_SE_INSTANCE_6_1
 66
1
 10
0.0
 20
0.0
 30
0.0
 70
64
 71
4
 72
3
 0
VERTEX
 8
D_SE_INSTANCE_6_1
 10
9.1999
 20
3.5755
 30
1.3833
 70
192
 0
VERTEX
 8
D_SE_INSTANCE_6_1
 10
9.3604
 20
4.4786
 30
1.3833
 70
192
 0
VERTEX
 8
D_SE_INSTANCE_6_1
 10
8.4095
 20
4.2645
 30
1.3833
 70
192
 0
VERTEX
 8
D_SE_INSTANCE_6_1
 10
8.9364
 20
4.0784
 30
1.0102
 70
192
 0
VERTEX
 8
D_SE_INSTANCE_6_1
 10
0
 20
0
 30
0
 70
128
 71
1
 72
2
 73
4
 74
4
 0
VERTEX
 8
D_SE_INSTANCE_6_1
 10
0
 20
0
 30
0
 70
128
 71
4
 72
3
 73
1
 74
1
 0
VERTEX
 8
D_SE_INSTANCE_6_1
 10
0
 20
0
 30
0
 70
128
 71
2
 72
3
 73
4
 74
4
 0
SEQEND
 0
POLYLINE
 8
D_SE_INSTANCE_5_1
 66
1
 10
0.0
 20
0.0
 30
0.0
 70
64
 71
4
 72
3
 0
VERTEX
 8
D_SE_INSTANCE_5_1
 10
9.1999
 20
1.4879
 30
1.3833
 70
192
 0
VERTEX
 8
D_SE_INSTANCE_5_1
 10
9.3604
 20
2.391
 30
1.3833
 70
192
 0
VERTEX
 8
D_SE_INSTANCE_5_1
 10
8.4095
 20
2.1769
 30
1.3833
 70
192
 0
VERTEX
 8
D_SE_INSTANCE_5_1
 10
8.9364
 20
1.9908
 30
1.0102
 70
192
 0
VERTEX
 8
D_SE_INSTANCE_5_1
 10
0
 20
0
 30
0
 70
128
 71
1
 72
2
 73
4
 74
4
 0
VERTEX
 8
D_SE_INSTANCE_5_1
 10
0
 20
0
 30
0
 70
128
 71
4
 72
3
 73
1
 74
1
 0
VERTEX
 8
D_SE_INSTANCE_5_1
 10
0
 20
0
 30
0
 70
128
 71
2
 72
3
 73
4
 74
4
 0
SEQEND
 0
POLYLINE
 8
D_SE_INSTANCE_3_1
 66
1
 10
0.0
 20
0.0
 30
0.0
 70
64
 71
4
 72
3
 0
VERTEX
 8
D_SE_INSTANCE_3_1
 10
9.1999
 20
-8.5105
 30
1.3833
 70
192
 0
VERTEX
 8
D_SE_INSTANCE_3_1
 10
9.3604
 20
-7.6074
 30
1.3833
 70
192
 0
VERTEX
 8
D_SE_INSTANCE_3_1
 10
8.4095
 20
-7.8214
 30
1.3833
 70
192
 0
VERTEX
 8
D_SE_INSTANCE_3_1
 10
8.9364
 20
-8.0076
 30
1.0102
 70
192
 0
VERTEX
 8
D_SE_INSTANCE_3_1
 10
0
 20
0
 30
0
 70
128
 71
1
 72
2
 73
4
 74
4
 0
VERTEX
 8
D_SE_INSTANCE_3_1
 10
0
 20
0
 30
0
 70
128
 71
4
 72
3
 73
1
 74
1
 0
VERTEX
 8
D_SE_INSTANCE_3_1
 10
0
 20
0
 30
0
 70
128
 71
2
 72
3
 73
4
 74
4
 0
SEQEND
 0
POLYLINE
 8
D_SE_INSTANCE_2_1
 66
1
 10
0.0
 20
0.0
 30
0.0
 70
64
 71
4
 72
3
 0
VERTEX
 8
D_SE_INSTANCE_2_1
 10
9.1999
 20
-6.5031
 30
1.3833
 70
192
 0
VERTEX
 8
D_SE_INSTANCE_2_1
 10
9.3604
 20
-5.6
 30
1.3833
 70
192
 0
VERTEX
 8
D_SE_INSTANCE_2_1
 10
8.4095
 20
-5.8141
 30
1.3833
 70
192
 0
VERTEX
 8
D_SE_INSTANCE_2_1
 10
8.9364
 20
-6.0002
 30
1.0102
 70
192
 0
VERTEX
 8
D_SE_INSTANCE_2_1
 10
0
 20
0
 30
0
 70
128
 71
1
 72
2
 73
4
 74
4
 0
VERTEX
 8
D_SE_INSTANCE_2_1
 10
0
 20
0
 30
0
 70
128
 71
4
 72
3
 73
1
 74
1
 0
VERTEX
 8
D_SE_INSTANCE_2_1
 10
0
 20
0
 30
0
 70
128
 71
2
 72
3
 73
4
 74
4
 0
SEQEND
 0
POLYLINE
 8
D_SE_INSTANCE_1_1
 66
1
 10
0.0
 20
0.0
 30
0.0
 70
64
 71
4
 72
3
 0
VERTEX
 8
D_SE_INSTANCE_1_1
 10
9.1999
 20
-4.5498
 30
1.3833
 70
192
 0
VERTEX
 8
D_SE_INSTANCE_1_1
 10
9.3604
 20
-3.6466
 30
1.3833
 70
192
 0
VERTEX
 8
D_SE_INSTANCE_1_1
 10
8.4095
 20
-3.8607
 30
1.3833
 70
192
 0
VERTEX
 8
D_SE_INSTANCE_1_1
 10
8.9364
 20
-4.0469
 30
1.0102
 70
192
 0
VERTEX
 8
D_SE_INSTANCE_1_1
 10
0
 20
0
 30
0
 70
128
 71
1
 72
2
 73
4
 74
4
 0
VERTEX
 8
D_SE_INSTANCE_1_1
 10
0
 20
0
 30
0
 70
128
 71
4
 72
3
 73
1
 74
1
 0
VERTEX
 8
D_SE_INSTANCE_1_1
 10
0
 20
0
 30
0
 70
128
 71
2
 72
3
 73
4
 74
4
 0
SEQEND
 0
POLYLINE
 8
D_SE_INSTANCE
 66
1
 10
0.0
 20
0.0
 30
0.0
 70
64
 71
4
 72
3
 0
VERTEX
 8
D_SE_INSTANCE
 10
9.1999
 20
-2.5522
 30
1.3833
 70
192
 0
VERTEX
 8
D_SE_INSTANCE
 10
9.3604
 20
-1.6491
 30
1.3833
 70
192
 0
VERTEX
 8
D_SE_INSTANCE
 10
8.4095
 20
-1.8632
 30
1.3833
 70
192
 0
VERTEX
 8
D_SE_INSTANCE
 10
8.9364
 20
-2.0493
 30
1.0102
 70
192
 0
VERTEX
 8
D_SE_INSTANCE
 10
0
 20
0
 30
0
 70
128
 71
1
 72
2
 73
4
 74
4
 0
VERTEX
 8
D_SE_INSTANCE
 10
0
 20
0
 30
0
 70
128
 71
4
 72
3
 73
1
 74
1
 0
VERTEX
 8
D_SE_INSTANCE
 10
0
 20
0
 30
0
 70
128
 71
2
 72
3
 73
4
 74
4
 0
SEQEND
 0
POLYLINE
 8
D_SE_INSTANC321
 66
1
 10
0.0
 20
0.0
 30
0.0
 70
64
 71
4
 72
3
 0
VERTEX
 8
D_SE_INSTANC321
 10
27.2133
 20
9.5314
 30
1.3833
 70
192
 0
VERTEX
 8
D_SE_INSTANC321
 10
27.3737
 20
10.4345
 30
1.3833
 70
192
 0
VERTEX
 8
D_SE_INSTANC321
 10
26.4228
 20
10.2204
 30
1.3833
 70
192
 0
VERTEX
 8
D_SE_INSTANC321
 10
26.9498
 20
10.0342
 30
1.0102
 70
192
 0
VERTEX
 8
D_SE_INSTANC321
 10
0
 20
0
 30
0
 70
128
 71
1
 72
2
 73
4
 74
4
 0
VERTEX
 8
D_SE_INSTANC321
 10
0
 20
0
 30
0
 70
128
 71
4
 72
3
 73
1
 74
1
 0
VERTEX
 8
D_SE_INSTANC321
 10
0
 20
0
 30
0
 70
128
 71
2
 72
3
 73
4
 74
4
 0
SEQEND
 0
POLYLINE
 8
D_SE_INST12
 66
1
 10
0.0
 20
0.0
 30
0.0
 70
64
 71
4
 72
3
 0
VERTEX
 8
D_SE_INST12
 10
27.2133
 20
7.5043
 30
1.3833
 70
192
 0
VERTEX
 8
D_SE_INST12
 10
27.3737
 20
8.4074
 30
1.3833
 70
192
 0
VERTEX
 8
D_SE_INST12
 10
26.4228
 20
8.1933
 30
1.3833
 70
192
 0
VERTEX
 8
D_SE_INST12
 10
26.9498
 20
8.0072
 30
1.0102
 70
192
 0
VERTEX
 8
D_SE_INST12
 10
0
 20
0
 30
0
 70
128
 71
1
 72
2
 73
4
 74
4
 0
VERTEX
 8
D_SE_INST12
 10
0
 20
0
 30
0
 70
128
 71
4
 72
3
 73
1
 74
1
 0
VERTEX
 8
D_SE_INST12
 10
0
 20
0
 30
0
 70
128
 71
2
 72
3
 73
4
 74
4
 0
SEQEND
 0
POLYLINE
 8
D_SE_INSTA31
 66
1
 10
0.0
 20
0.0
 30
0.0
 70
64
 71
4
 72
3
 0
VERTEX
 8
D_SE_INSTA31
 10
27.2133
 20
5.5491
 30
1.3833
 70
192
 0
VERTEX
 8
D_SE_INSTA31
 10
27.3737
 20
6.4522
 30
1.3833
 70
192
 0
VERTEX
 8
D_SE_INSTA31
 10
26.4228
 20
6.2381
 30
1.3833
 70
192
 0
VERTEX
 8
D_SE_INSTA31
 10
26.9498
 20
6.052
 30
1.0102
 70
192
 0
VERTEX
 8
D_SE_INSTA31
 10
0
 20
0
 30
0
 70
128
 71
1
 72
2
 73
4
 74
4
 0
VERTEX
 8
D_SE_INSTA31
 10
0
 20
0
 30
0
 70
128
 71
4
 72
3
 73
1
 74
1
 0
VERTEX
 8
D_SE_INSTA31
 10
0
 20
0
 30
0
 70
128
 71
2
 72
3
 73
4
 74
4
 0
SEQEND
 0
POLYLINE
 8
D_SE_IN13
 66
1
 10
0.0
 20
0.0
 30
0.0
 70
64
 71
4
 72
3
 0
VERTEX
 8
D_SE_IN13
 10
27.2133
 20
3.5755
 30
1.3833
 70
192
 0
VERTEX
 8
D_SE_IN13
 10
27.3737
 20
4.4786
 30
1.3833
 70
192
 0
VERTEX
 8
D_SE_IN13
 10
26.4228
 20
4.2645
 30
1.3833
 70
192
 0
VERTEX
 8
D_SE_IN13
 10
26.9498
 20
4.0784
 30
1.0102
 70
192
 0
VERTEX
 8
D_SE_IN13
 10
0
 20
0
 30
0
 70
128
 71
1
 72
2
 73
4
 74
4
 0
VERTEX
 8
D_SE_IN13
 10
0
 20
0
 30
0
 70
128
 71
4
 72
3
 73
1
 74
1
 0
VERTEX
 8
D_SE_IN13
 10
0
 20
0
 30
0
 70
128
 71
2
 72
3
 73
4
 74
4
 0
SEQEND
 0
POLYLINE
 8
D_SE_IN46
 66
1
 10
0.0
 20
0.0
 30
0.0
 70
64
 71
4
 72
3
 0
VERTEX
 8
D_SE_IN46
 10
27.2133
 20
1.4879
 30
1.3833
 70
192
 0
VERTEX
 8
D_SE_IN46
 10
27.3737
 20
2.391
 30
1.3833
 70
192
 0
VERTEX
 8
D_SE_IN46
 10
26.4228
 20
2.1769
 30
1.3833
 70
192
 0
VERTEX
 8
D_SE_IN46
 10
26.9498
 20
1.9908
 30
1.0102
 70
192
 0
VERTEX
 8
D_SE_IN46
 10
0
 20
0
 30
0
 70
128
 71
1
 72
2
 73
4
 74
4
 0
VERTEX
 8
D_SE_IN46
 10
0
 20
0
 30
0
 70
128
 71
4
 72
3
 73
1
 74
1
 0
VERTEX
 8
D_SE_IN46
 10
0
 20
0
 30
0
 70
128
 71
2
 72
3
 73
4
 74
4
 0
SEQEND
 0
POLYLINE
 8
D_SE_INS64
 66
1
 10
0.0
 20
0.0
 30
0.0
 70
64
 71
4
 72
3
 0
VERTEX
 8
D_SE_INS64
 10
27.2133
 20
-10.4397
 30
1.3833
 70
192
 0
VERTEX
 8
D_SE_INS64
 10
27.3737
 20
-9.5366
 30
1.3833
 70
192
 0
VERTEX
 8
D_SE_INS64
 10
26.4228
 20
-9.7507
 30
1.3833
 70
192
 0
VERTEX
 8
D_SE_INS64
 10
26.9498
 20
-9.9368
 30
1.0102
 70
192
 0
VERTEX
 8
D_SE_INS64
 10
0
 20
0
 30
0
 70
128
 71
1
 72
2
 73
4
 74
4
 0
VERTEX
 8
D_SE_INS64
 10
0
 20
0
 30
0
 70
128
 71
4
 72
3
 73
1
 74
1
 0
VERTEX
 8
D_SE_INS64
 10
0
 20
0
 30
0
 70
128
 71
2
 72
3
 73
4
 74
4
 0
SEQEND
 0
POLYLINE
 8
D_SE_INS45
 66
1
 10
0.0
 20
0.0
 30
0.0
 70
64
 71
4
 72
3
 0
VERTEX
 8
D_SE_INS45
 10
27.2133
 20
-8.5105
 30
1.3833
 70
192
 0
VERTEX
 8
D_SE_INS45
 10
27.3737
 20
-7.6074
 30
1.3833
 70
192
 0
VERTEX
 8
D_SE_INS45
 10
26.4228
 20
-7.8214
 30
1.3833
 70
192
 0
VERTEX
 8
D_SE_INS45
 10
26.9498
 20
-8.0076
 30
1.0102
 70
192
 0
VERTEX
 8
D_SE_INS45
 10
0
 20
0
 30
0
 70
128
 71
1
 72
2
 73
4
 74
4
 0
VERTEX
 8
D_SE_INS45
 10
0
 20
0
 30
0
 70
128
 71
4
 72
3
 73
1
 74
1
 0
VERTEX
 8
D_SE_INS45
 10
0
 20
0
 30
0
 70
128
 71
2
 72
3
 73
4
 74
4
 0
SEQEND
 0
POLYLINE
 8
D_SE_INSTA54
 66
1
 10
0.0
 20
0.0
 30
0.0
 70
64
 71
4
 72
3
 0
VERTEX
 8
D_SE_INSTA54
 10
27.2133
 20
-6.5031
 30
1.3833
 70
192
 0
VERTEX
 8
D_SE_INSTA54
 10
27.3737
 20
-5.6
 30
1.3833
 70
192
 0
VERTEX
 8
D_SE_INSTA54
 10
26.4228
 20
-5.8141
 30
1.3833
 70
192
 0
VERTEX
 8
D_SE_INSTA54
 10
26.9498
 20
-6.0002
 30
1.0102
 70
192
 0
VERTEX
 8
D_SE_INSTA54
 10
0
 20
0
 30
0
 70
128
 71
1
 72
2
 73
4
 74
4
 0
VERTEX
 8
D_SE_INSTA54
 10
0
 20
0
 30
0
 70
128
 71
4
 72
3
 73
1
 74
1
 0
VERTEX
 8
D_SE_INSTA54
 10
0
 20
0
 30
0
 70
128
 71
2
 72
3
 73
4
 74
4
 0
SEQEND
 0
POLYLINE
 8
D_SE_IN65
 66
1
 10
0.0
 20
0.0
 30
0.0
 70
64
 71
4
 72
3
 0
VERTEX
 8
D_SE_IN65
 10
27.2133
 20
-4.5498
 30
1.3833
 70
192
 0
VERTEX
 8
D_SE_IN65
 10
27.3737
 20
-3.6466
 30
1.3833
 70
192
 0
VERTEX
 8
D_SE_IN65
 10
26.4228
 20
-3.8607
 30
1.3833
 70
192
 0
VERTEX
 8
D_SE_IN65
 10
26.9498
 20
-4.0469
 30
1.0102
 70
192
 0
VERTEX
 8
D_SE_IN65
 10
0
 20
0
 30
0
 70
128
 71
1
 72
2
 73
4
 74
4
 0
VERTEX
 8
D_SE_IN65
 10
0
 20
0
 30
0
 70
128
 71
4
 72
3
 73
1
 74
1
 0
VERTEX
 8
D_SE_IN65
 10
0
 20
0
 30
0
 70
128
 71
2
 72
3
 73
4
 74
4
 0
SEQEND
 0
POLYLINE
 8
D_SE_INSTANCE_1
 66
1
 10
0.0
 20
0.0
 30
0.0
 70
64
 71
4
 72
3
 0
VERTEX
 8
D_SE_INSTANCE_1
 10
27.2133
 20
-2.5522
 30
1.3833
 70
192
 0
VERTEX
 8
D_SE_INSTANCE_1
 10
27.3737
 20
-1.6491
 30
1.3833
 70
192
 0
VERTEX
 8
D_SE_INSTANCE_1
 10
26.4228
 20
-1.8632
 30
1.3833
 70
192
 0
VERTEX
 8
D_SE_INSTANCE_1
 10
26.9498
 20
-2.0493
 30
1.0102
 70
192
 0
VERTEX
 8
D_SE_INSTANCE_1
 10
0
 20
0
 30
0
 70
128
 71
1
 72
2
 73
4
 74
4
 0
VERTEX
 8
D_SE_INSTANCE_1
 10
0
 20
0
 30
0
 70
128
 71
4
 72
3
 73
1
 74
1
 0
VERTEX
 8
D_SE_INSTANCE_1
 10
0
 20
0
 30
0
 70
128
 71
2
 72
3
 73
4
 74
4
 0
SEQEND
 0
POLYLINE
 8
D_SE_IN64
 66
1
 10
0.0
 20
0.0
 30
0.0
 70
64
 71
4
 72
3
 0
VERTEX
 8
D_SE_IN64
 10
27.2133
 20
-0.4135
 30
1.3833
 70
192
 0
VERTEX
 8
D_SE_IN64
 10
27.3737
 20
0.4896
 30
1.3833
 70
192
 0
VERTEX
 8
D_SE_IN64
 10
26.4228
 20
0.2755
 30
1.3833
 70
192
 0
VERTEX
 8
D_SE_IN64
 10
26.9498
 20
0.0893
 30
1.0102
 70
192
 0
VERTEX
 8
D_SE_IN64
 10
0
 20
0
 30
0
 70
128
 71
1
 72
2
 73
4
 74
4
 0
VERTEX
 8
D_SE_IN64
 10
0
 20
0
 30
0
 70
128
 71
4
 72
3
 73
1
 74
1
 0
VERTEX
 8
D_SE_IN64
 10
0
 20
0
 30
0
 70
128
 71
2
 72
3
 73
4
 74
4
 0
SEQEND
 0
POLYLINE
 8
D_SE_INSTANCE_10_2
 66
1
 10
0.0
 20
0.0
 30
0.0
 70
64
 71
4
 72
3
 0
VERTEX
 8
D_SE_INSTANCE_10_2
 10
25.283
 20
9.5314
 30
1.3833
 70
192
 0
VERTEX
 8
D_SE_INSTANCE_10_2
 10
25.4434
 20
10.4345
 30
1.3833
 70
192
 0
VERTEX
 8
D_SE_INSTANCE_10_2
 10
24.4925
 20
10.2204
 30
1.3833
 70
192
 0
VERTEX
 8
D_SE_INSTANCE_10_2
 10
25.0195
 20
10.0342
 30
1.0102
 70
192
 0
VERTEX
 8
D_SE_INSTANCE_10_2
 10
0
 20
0
 30
0
 70
128
 71
1
 72
2
 73
4
 74
4
 0
VERTEX
 8
D_SE_INSTANCE_10_2
 10
0
 20
0
 30
0
 70
128
 71
4
 72
3
 73
1
 74
1
 0
VERTEX
 8
D_SE_INSTANCE_10_2
 10
0
 20
0
 30
0
 70
128
 71
2
 72
3
 73
4
 74
4
 0
SEQEND
 0
POLYLINE
 8
D_SE_INSTANCE_8_2
 66
1
 10
0.0
 20
0.0
 30
0.0
 70
64
 71
4
 72
3
 0
VERTEX
 8
D_SE_INSTANCE_8_2
 10
25.283
 20
7.5043
 30
1.3833
 70
192
 0
VERTEX
 8
D_SE_INSTANCE_8_2
 10
25.4434
 20
8.4074
 30
1.3833
 70
192
 0
VERTEX
 8
D_SE_INSTANCE_8_2
 10
24.4925
 20
8.1933
 30
1.3833
 70
192
 0
VERTEX
 8
D_SE_INSTANCE_8_2
 10
25.0195
 20
8.0072
 30
1.0102
 70
192
 0
VERTEX
 8
D_SE_INSTANCE_8_2
 10
0
 20
0
 30
0
 70
128
 71
1
 72
2
 73
4
 74
4
 0
VERTEX
 8
D_SE_INSTANCE_8_2
 10
0
 20
0
 30
0
 70
128
 71
4
 72
3
 73
1
 74
1
 0
VERTEX
 8
D_SE_INSTANCE_8_2
 10
0
 20
0
 30
0
 70
128
 71
2
 72
3
 73
4
 74
4
 0
SEQEND
 0
POLYLINE
 8
D_SE_INSTANCE_7_2
 66
1
 10
0.0
 20
0.0
 30
0.0
 70
64
 71
4
 72
3
 0
VERTEX
 8
D_SE_INSTANCE_7_2
 10
25.283
 20
5.5491
 30
1.3833
 70
192
 0
VERTEX
 8
D_SE_INSTANCE_7_2
 10
25.4434
 20
6.4522
 30
1.3833
 70
192
 0
VERTEX
 8
D_SE_INSTANCE_7_2
 10
24.4925
 20
6.2381
 30
1.3833
 70
192
 0
VERTEX
 8
D_SE_INSTANCE_7_2
 10
25.0195
 20
6.052
 30
1.0102
 70
192
 0
VERTEX
 8
D_SE_INSTANCE_7_2
 10
0
 20
0
 30
0
 70
128
 71
1
 72
2
 73
4
 74
4
 0
VERTEX
 8
D_SE_INSTANCE_7_2
 10
0
 20
0
 30
0
 70
128
 71
4
 72
3
 73
1
 74
1
 0
VERTEX
 8
D_SE_INSTANCE_7_2
 10
0
 20
0
 30
0
 70
128
 71
2
 72
3
 73
4
 74
4
 0
SEQEND
 0
POLYLINE
 8
D_SE_INSTANCE_6_2
 66
1
 10
0.0
 20
0.0
 30
0.0
 70
64
 71
4
 72
3
 0
VERTEX
 8
D_SE_INSTANCE_6_2
 10
25.283
 20
3.5755
 30
1.3833
 70
192
 0
VERTEX
 8
D_SE_INSTANCE_6_2
 10
25.4434
 20
4.4786
 30
1.3833
 70
192
 0
VERTEX
 8
D_SE_INSTANCE_6_2
 10
24.4925
 20
4.2645
 30
1.3833
 70
192
 0
VERTEX
 8
D_SE_INSTANCE_6_2
 10
25.0195
 20
4.0784
 30
1.0102
 70
192
 0
VERTEX
 8
D_SE_INSTANCE_6_2
 10
0
 20
0
 30
0
 70
128
 71
1
 72
2
 73
4
 74
4
 0
VERTEX
 8
D_SE_INSTANCE_6_2
 10
0
 20
0
 30
0
 70
128
 71
4
 72
3
 73
1
 74
1
 0
VERTEX
 8
D_SE_INSTANCE_6_2
 10
0
 20
0
 30
0
 70
128
 71
2
 72
3
 73
4
 74
4
 0
SEQEND
 0
POLYLINE
 8
D_SE_INSTANCE_5_2
 66
1
 10
0.0
 20
0.0
 30
0.0
 70
64
 71
4
 72
3
 0
VERTEX
 8
D_SE_INSTANCE_5_2
 10
25.283
 20
1.4879
 30
1.3833
 70
192
 0
VERTEX
 8
D_SE_INSTANCE_5_2
 10
25.4434
 20
2.391
 30
1.3833
 70
192
 0
VERTEX
 8
D_SE_INSTANCE_5_2
 10
24.4925
 20
2.1769
 30
1.3833
 70
192
 0
VERTEX
 8
D_SE_INSTANCE_5_2
 10
25.0195
 20
1.9908
 30
1.0102
 70
192
 0
VERTEX
 8
D_SE_INSTANCE_5_2
 10
0
 20
0
 30
0
 70
128
 71
1
 72
2
 73
4
 74
4
 0
VERTEX
 8
D_SE_INSTANCE_5_2
 10
0
 20
0
 30
0
 70
128
 71
4
 72
3
 73
1
 74
1
 0
VERTEX
 8
D_SE_INSTANCE_5_2
 10
0
 20
0
 30
0
 70
128
 71
2
 72
3
 73
4
 74
4
 0
SEQEND
 0
POLYLINE
 8
D_SE_INSTANCE_4_2
 66
1
 10
0.0
 20
0.0
 30
0.0
 70
64
 71
4
 72
3
 0
VERTEX
 8
D_SE_INSTANCE_4_2
 10
25.283
 20
-10.4397
 30
1.3833
 70
192
 0
VERTEX
 8
D_SE_INSTANCE_4_2
 10
25.4434
 20
-9.5366
 30
1.3833
 70
192
 0
VERTEX
 8
D_SE_INSTANCE_4_2
 10
24.4925
 20
-9.7507
 30
1.3833
 70
192
 0
VERTEX
 8
D_SE_INSTANCE_4_2
 10
25.0195
 20
-9.9368
 30
1.0102
 70
192
 0
VERTEX
 8
D_SE_INSTANCE_4_2
 10
0
 20
0
 30
0
 70
128
 71
1
 72
2
 73
4
 74
4
 0
VERTEX
 8
D_SE_INSTANCE_4_2
 10
0
 20
0
 30
0
 70
128
 71
4
 72
3
 73
1
 74
1
 0
VERTEX
 8
D_SE_INSTANCE_4_2
 10
0
 20
0
 30
0
 70
128
 71
2
 72
3
 73
4
 74
4
 0
SEQEND
 0
POLYLINE
 8
D_SE_INSTANCE_3_2
 66
1
 10
0.0
 20
0.0
 30
0.0
 70
64
 71
4
 72
3
 0
VERTEX
 8
D_SE_INSTANCE_3_2
 10
25.283
 20
-8.5105
 30
1.3833
 70
192
 0
VERTEX
 8
D_SE_INSTANCE_3_2
 10
25.4434
 20
-7.6074
 30
1.3833
 70
192
 0
VERTEX
 8
D_SE_INSTANCE_3_2
 10
24.4925
 20
-7.8214
 30
1.3833
 70
192
 0
VERTEX
 8
D_SE_INSTANCE_3_2
 10
25.0195
 20
-8.0076
 30
1.0102
 70
192
 0
VERTEX
 8
D_SE_INSTANCE_3_2
 10
0
 20
0
 30
0
 70
128
 71
1
 72
2
 73
4
 74
4
 0
VERTEX
 8
D_SE_INSTANCE_3_2
 10
0
 20
0
 30
0
 70
128
 71
4
 72
3
 73
1
 74
1
 0
VERTEX
 8
D_SE_INSTANCE_3_2
 10
0
 20
0
 30
0
 70
128
 71
2
 72
3
 73
4
 74
4
 0
SEQEND
 0
POLYLINE
 8
D_SE_INSTANCE_2_2
 66
1
 10
0.0
 20
0.0
 30
0.0
 70
64
 71
4
 72
3
 0
VERTEX
 8
D_SE_INSTANCE_2_2
 10
25.283
 20
-6.5031
 30
1.3833
 70
192
 0
VERTEX
 8
D_SE_INSTANCE_2_2
 10
25.4434
 20
-5.6
 30
1.3833
 70
192
 0
VERTEX
 8
D_SE_INSTANCE_2_2
 10
24.4925
 20
-5.8141
 30
1.3833
 70
192
 0
VERTEX
 8
D_SE_INSTANCE_2_2
 10
25.0195
 20
-6.0002
 30
1.0102
 70
192
 0
VERTEX
 8
D_SE_INSTANCE_2_2
 10
0
 20
0
 30
0
 70
128
 71
1
 72
2
 73
4
 74
4
 0
VERTEX
 8
D_SE_INSTANCE_2_2
 10
0
 20
0
 30
0
 70
128
 71
4
 72
3
 73
1
 74
1
 0
VERTEX
 8
D_SE_INSTANCE_2_2
 10
0
 20
0
 30
0
 70
128
 71
2
 72
3
 73
4
 74
4
 0
SEQEND
 0
POLYLINE
 8
D_SE_INSTANCE_1_2
 66
1
 10
0.0
 20
0.0
 30
0.0
 70
64
 71
4
 72
3
 0
VERTEX
 8
D_SE_INSTANCE_1_2
 10
25.283
 20
-4.5498
 30
1.3833
 70
192
 0
VERTEX
 8
D_SE_INSTANCE_1_2
 10
25.4434
 20
-3.6466
 30
1.3833
 70
192
 0
VERTEX
 8
D_SE_INSTANCE_1_2
 10
24.4925
 20
-3.8607
 30
1.3833
 70
192
 0
VERTEX
 8
D_SE_INSTANCE_1_2
 10
25.0195
 20
-4.0469
 30
1.0102
 70
192
 0
VERTEX
 8
D_SE_INSTANCE_1_2
 10
0
 20
0
 30
0
 70
128
 71
1
 72
2
 73
4
 74
4
 0
VERTEX
 8
D_SE_INSTANCE_1_2
 10
0
 20
0
 30
0
 70
128
 71
4
 72
3
 73
1
 74
1
 0
VERTEX
 8
D_SE_INSTANCE_1_2
 10
0
 20
0
 30
0
 70
128
 71
2
 72
3
 73
4
 74
4
 0
SEQEND
 0
POLYLINE
 8
D_SE_INSTANCE_2
 66
1
 10
0.0
 20
0.0
 30
0.0
 70
64
 71
4
 72
3
 0
VERTEX
 8
D_SE_INSTANCE_2
 10
25.283
 20
-2.5522
 30
1.3833
 70
192
 0
VERTEX
 8
D_SE_INSTANCE_2
 10
25.4434
 20
-1.6491
 30
1.3833
 70
192
 0
VERTEX
 8
D_SE_INSTANCE_2
 10
24.4925
 20
-1.8632
 30
1.3833
 70
192
 0
VERTEX
 8
D_SE_INSTANCE_2
 10
25.0195
 20
-2.0493
 30
1.0102
 70
192
 0
VERTEX
 8
D_SE_INSTANCE_2
 10
0
 20
0
 30
0
 70
128
 71
1
 72
2
 73
4
 74
4
 0
VERTEX
 8
D_SE_INSTANCE_2
 10
0
 20
0
 30
0
 70
128
 71
4
 72
3
 73
1
 74
1
 0
VERTEX
 8
D_SE_INSTANCE_2
 10
0
 20
0
 30
0
 70
128
 71
2
 72
3
 73
4
 74
4
 0
SEQEND
 0
POLYLINE
 8
D_SE_INSTANCE_9_2
 66
1
 10
0.0
 20
0.0
 30
0.0
 70
64
 71
4
 72
3
 0
VERTEX
 8
D_SE_INSTANCE_9_2
 10
25.283
 20
-0.4135
 30
1.3833
 70
192
 0
VERTEX
 8
D_SE_INSTANCE_9_2
 10
25.4434
 20
0.4896
 30
1.3833
 70
192
 0
VERTEX
 8
D_SE_INSTANCE_9_2
 10
24.4925
 20
0.2755
 30
1.3833
 70
192
 0
VERTEX
 8
D_SE_INSTANCE_9_2
 10
25.0195
 20
0.0893
 30
1.0102
 70
192
 0
VERTEX
 8
D_SE_INSTANCE_9_2
 10
0
 20
0
 30
0
 70
128
 71
1
 72
2
 73
4
 74
4
 0
VERTEX
 8
D_SE_INSTANCE_9_2
 10
0
 20
0
 30
0
 70
128
 71
4
 72
3
 73
1
 74
1
 0
VERTEX
 8
D_SE_INSTANCE_9_2
 10
0
 20
0
 30
0
 70
128
 71
2
 72
3
 73
4
 74
4
 0
SEQEND
 0
POLYLINE
 8
D_SE_INSTANCE_10_3
 66
1
 10
0.0
 20
0.0
 30
0.0
 70
64
 71
4
 72
3
 0
VERTEX
 8
D_SE_INSTANCE_10_3
 10
23.2906
 20
9.5314
 30
1.3833
 70
192
 0
VERTEX
 8
D_SE_INSTANCE_10_3
 10
23.451
 20
10.4345
 30
1.3833
 70
192
 0
VERTEX
 8
D_SE_INSTANCE_10_3
 10
22.5001
 20
10.2204
 30
1.3833
 70
192
 0
VERTEX
 8
D_SE_INSTANCE_10_3
 10
23.0271
 20
10.0342
 30
1.0102
 70
192
 0
VERTEX
 8
D_SE_INSTANCE_10_3
 10
0
 20
0
 30
0
 70
128
 71
1
 72
2
 73
4
 74
4
 0
VERTEX
 8
D_SE_INSTANCE_10_3
 10
0
 20
0
 30
0
 70
128
 71
4
 72
3
 73
1
 74
1
 0
VERTEX
 8
D_SE_INSTANCE_10_3
 10
0
 20
0
 30
0
 70
128
 71
2
 72
3
 73
4
 74
4
 0
SEQEND
 0
POLYLINE
 8
D_SE_INSTANCE_8_3
 66
1
 10
0.0
 20
0.0
 30
0.0
 70
64
 71
4
 72
3
 0
VERTEX
 8
D_SE_INSTANCE_8_3
 10
23.2906
 20
7.5043
 30
1.3833
 70
192
 0
VERTEX
 8
D_SE_INSTANCE_8_3
 10
23.451
 20
8.4074
 30
1.3833
 70
192
 0
VERTEX
 8
D_SE_INSTANCE_8_3
 10
22.5001
 20
8.1933
 30
1.3833
 70
192
 0
VERTEX
 8
D_SE_INSTANCE_8_3
 10
23.0271
 20
8.0072
 30
1.0102
 70
192
 0
VERTEX
 8
D_SE_INSTANCE_8_3
 10
0
 20
0
 30
0
 70
128
 71
1
 72
2
 73
4
 74
4
 0
VERTEX
 8
D_SE_INSTANCE_8_3
 10
0
 20
0
 30
0
 70
128
 71
4
 72
3
 73
1
 74
1
 0
VERTEX
 8
D_SE_INSTANCE_8_3
 10
0
 20
0
 30
0
 70
128
 71
2
 72
3
 73
4
 74
4
 0
SEQEND
 0
POLYLINE
 8
D_SE_INSTANCE_7_3
 66
1
 10
0.0
 20
0.0
 30
0.0
 70
64
 71
4
 72
3
 0
VERTEX
 8
D_SE_INSTANCE_7_3
 10
23.2906
 20
5.5491
 30
1.3833
 70
192
 0
VERTEX
 8
D_SE_INSTANCE_7_3
 10
23.451
 20
6.4522
 30
1.3833
 70
192
 0
VERTEX
 8
D_SE_INSTANCE_7_3
 10
22.5001
 20
6.2381
 30
1.3833
 70
192
 0
VERTEX
 8
D_SE_INSTANCE_7_3
 10
23.0271
 20
6.052
 30
1.0102
 70
192
 0
VERTEX
 8
D_SE_INSTANCE_7_3
 10
0
 20
0
 30
0
 70
128
 71
1
 72
2
 73
4
 74
4
 0
VERTEX
 8
D_SE_INSTANCE_7_3
 10
0
 20
0
 30
0
 70
128
 71
4
 72
3
 73
1
 74
1
 0
VERTEX
 8
D_SE_INSTANCE_7_3
 10
0
 20
0
 30
0
 70
128
 71
2
 72
3
 73
4
 74
4
 0
SEQEND
 0
POLYLINE
 8
D_SE_INSTANCE_6_3
 66
1
 10
0.0
 20
0.0
 30
0.0
 70
64
 71
4
 72
3
 0
VERTEX
 8
D_SE_INSTANCE_6_3
 10
23.2906
 20
3.5755
 30
1.3833
 70
192
 0
VERTEX
 8
D_SE_INSTANCE_6_3
 10
23.451
 20
4.4786
 30
1.3833
 70
192
 0
VERTEX
 8
D_SE_INSTANCE_6_3
 10
22.5001
 20
4.2645
 30
1.3833
 70
192
 0
VERTEX
 8
D_SE_INSTANCE_6_3
 10
23.0271
 20
4.0784
 30
1.0102
 70
192
 0
VERTEX
 8
D_SE_INSTANCE_6_3
 10
0
 20
0
 30
0
 70
128
 71
1
 72
2
 73
4
 74
4
 0
VERTEX
 8
D_SE_INSTANCE_6_3
 10
0
 20
0
 30
0
 70
128
 71
4
 72
3
 73
1
 74
1
 0
VERTEX
 8
D_SE_INSTANCE_6_3
 10
0
 20
0
 30
0
 70
128
 71
2
 72
3
 73
4
 74
4
 0
SEQEND
 0
POLYLINE
 8
D_SE_INSTANCE_5_3
 66
1
 10
0.0
 20
0.0
 30
0.0
 70
64
 71
4
 72
3
 0
VERTEX
 8
D_SE_INSTANCE_5_3
 10
23.2906
 20
1.4879
 30
1.3833
 70
192
 0
VERTEX
 8
D_SE_INSTANCE_5_3
 10
23.451
 20
2.391
 30
1.3833
 70
192
 0
VERTEX
 8
D_SE_INSTANCE_5_3
 10
22.5001
 20
2.1769
 30
1.3833
 70
192
 0
VERTEX
 8
D_SE_INSTANCE_5_3
 10
23.0271
 20
1.9908
 30
1.0102
 70
192
 0
VERTEX
 8
D_SE_INSTANCE_5_3
 10
0
 20
0
 30
0
 70
128
 71
1
 72
2
 73
4
 74
4
 0
VERTEX
 8
D_SE_INSTANCE_5_3
 10
0
 20
0
 30
0
 70
128
 71
4
 72
3
 73
1
 74
1
 0
VERTEX
 8
D_SE_INSTANCE_5_3
 10
0
 20
0
 30
0
 70
128
 71
2
 72
3
 73
4
 74
4
 0
SEQEND
 0
POLYLINE
 8
D_SE_INSTANCE_4_3
 66
1
 10
0.0
 20
0.0
 30
0.0
 70
64
 71
4
 72
3
 0
VERTEX
 8
D_SE_INSTANCE_4_3
 10
23.2906
 20
-10.4397
 30
1.3833
 70
192
 0
VERTEX
 8
D_SE_INSTANCE_4_3
 10
23.451
 20
-9.5366
 30
1.3833
 70
192
 0
VERTEX
 8
D_SE_INSTANCE_4_3
 10
22.5001
 20
-9.7507
 30
1.3833
 70
192
 0
VERTEX
 8
D_SE_INSTANCE_4_3
 10
23.0271
 20
-9.9368
 30
1.0102
 70
192
 0
VERTEX
 8
D_SE_INSTANCE_4_3
 10
0
 20
0
 30
0
 70
128
 71
1
 72
2
 73
4
 74
4
 0
VERTEX
 8
D_SE_INSTANCE_4_3
 10
0
 20
0
 30
0
 70
128
 71
4
 72
3
 73
1
 74
1
 0
VERTEX
 8
D_SE_INSTANCE_4_3
 10
0
 20
0
 30
0
 70
128
 71
2
 72
3
 73
4
 74
4
 0
SEQEND
 0
POLYLINE
 8
D_SE_INSTANCE_3_3
 66
1
 10
0.0
 20
0.0
 30
0.0
 70
64
 71
4
 72
3
 0
VERTEX
 8
D_SE_INSTANCE_3_3
 10
23.2906
 20
-8.5105
 30
1.3833
 70
192
 0
VERTEX
 8
D_SE_INSTANCE_3_3
 10
23.451
 20
-7.6074
 30
1.3833
 70
192
 0
VERTEX
 8
D_SE_INSTANCE_3_3
 10
22.5001
 20
-7.8214
 30
1.3833
 70
192
 0
VERTEX
 8
D_SE_INSTANCE_3_3
 10
23.0271
 20
-8.0076
 30
1.0102
 70
192
 0
VERTEX
 8
D_SE_INSTANCE_3_3
 10
0
 20
0
 30
0
 70
128
 71
1
 72
2
 73
4
 74
4
 0
VERTEX
 8
D_SE_INSTANCE_3_3
 10
0
 20
0
 30
0
 70
128
 71
4
 72
3
 73
1
 74
1
 0
VERTEX
 8
D_SE_INSTANCE_3_3
 10
0
 20
0
 30
0
 70
128
 71
2
 72
3
 73
4
 74
4
 0
SEQEND
 0
POLYLINE
 8
D_SE_INSTANCE_2_3
 66
1
 10
0.0
 20
0.0
 30
0.0
 70
64
 71
4
 72
3
 0
VERTEX
 8
D_SE_INSTANCE_2_3
 10
23.2906
 20
-6.5031
 30
1.3833
 70
192
 0
VERTEX
 8
D_SE_INSTANCE_2_3
 10
23.451
 20
-5.6
 30
1.3833
 70
192
 0
VERTEX
 8
D_SE_INSTANCE_2_3
 10
22.5001
 20
-5.8141
 30
1.3833
 70
192
 0
VERTEX
 8
D_SE_INSTANCE_2_3
 10
23.0271
 20
-6.0002
 30
1.0102
 70
192
 0
VERTEX
 8
D_SE_INSTANCE_2_3
 10
0
 20
0
 30
0
 70
128
 71
1
 72
2
 73
4
 74
4
 0
VERTEX
 8
D_SE_INSTANCE_2_3
 10
0
 20
0
 30
0
 70
128
 71
4
 72
3
 73
1
 74
1
 0
VERTEX
 8
D_SE_INSTANCE_2_3
 10
0
 20
0
 30
0
 70
128
 71
2
 72
3
 73
4
 74
4
 0
SEQEND
 0
POLYLINE
 8
D_SE_INSTANCE_1_3
 66
1
 10
0.0
 20
0.0
 30
0.0
 70
64
 71
4
 72
3
 0
VERTEX
 8
D_SE_INSTANCE_1_3
 10
23.2906
 20
-4.5498
 30
1.3833
 70
192
 0
VERTEX
 8
D_SE_INSTANCE_1_3
 10
23.451
 20
-3.6466
 30
1.3833
 70
192
 0
VERTEX
 8
D_SE_INSTANCE_1_3
 10
22.5001
 20
-3.8607
 30
1.3833
 70
192
 0
VERTEX
 8
D_SE_INSTANCE_1_3
 10
23.0271
 20
-4.0469
 30
1.0102
 70
192
 0
VERTEX
 8
D_SE_INSTANCE_1_3
 10
0
 20
0
 30
0
 70
128
 71
1
 72
2
 73
4
 74
4
 0
VERTEX
 8
D_SE_INSTANCE_1_3
 10
0
 20
0
 30
0
 70
128
 71
4
 72
3
 73
1
 74
1
 0
VERTEX
 8
D_SE_INSTANCE_1_3
 10
0
 20
0
 30
0
 70
128
 71
2
 72
3
 73
4
 74
4
 0
SEQEND
 0
POLYLINE
 8
D_SE_INSTANCE_3
 66
1
 10
0.0
 20
0.0
 30
0.0
 70
64
 71
4
 72
3
 0
VERTEX
 8
D_SE_INSTANCE_3
 10
23.2906
 20
-2.5522
 30
1.3833
 70
192
 0
VERTEX
 8
D_SE_INSTANCE_3
 10
23.451
 20
-1.6491
 30
1.3833
 70
192
 0
VERTEX
 8
D_SE_INSTANCE_3
 10
22.5001
 20
-1.8632
 30
1.3833
 70
192
 0
VERTEX
 8
D_SE_INSTANCE_3
 10
23.0271
 20
-2.0493
 30
1.0102
 70
192
 0
VERTEX
 8
D_SE_INSTANCE_3
 10
0
 20
0
 30
0
 70
128
 71
1
 72
2
 73
4
 74
4
 0
VERTEX
 8
D_SE_INSTANCE_3
 10
0
 20
0
 30
0
 70
128
 71
4
 72
3
 73
1
 74
1
 0
VERTEX
 8
D_SE_INSTANCE_3
 10
0
 20
0
 30
0
 70
128
 71
2
 72
3
 73
4
 74
4
 0
SEQEND
 0
POLYLINE
 8
D_SE_INSTANCE_9_3
 66
1
 10
0.0
 20
0.0
 30
0.0
 70
64
 71
4
 72
3
 0
VERTEX
 8
D_SE_INSTANCE_9_3
 10
23.2906
 20
-0.4135
 30
1.3833
 70
192
 0
VERTEX
 8
D_SE_INSTANCE_9_3
 10
23.451
 20
0.4896
 30
1.3833
 70
192
 0
VERTEX
 8
D_SE_INSTANCE_9_3
 10
22.5001
 20
0.2755
 30
1.3833
 70
192
 0
VERTEX
 8
D_SE_INSTANCE_9_3
 10
23.0271
 20
0.0893
 30
1.0102
 70
192
 0
VERTEX
 8
D_SE_INSTANCE_9_3
 10
0
 20
0
 30
0
 70
128
 71
1
 72
2
 73
4
 74
4
 0
VERTEX
 8
D_SE_INSTANCE_9_3
 10
0
 20
0
 30
0
 70
128
 71
4
 72
3
 73
1
 74
1
 0
VERTEX
 8
D_SE_INSTANCE_9_3
 10
0
 20
0
 30
0
 70
128
 71
2
 72
3
 73
4
 74
4
 0
SEQEND
 0
POLYLINE
 8
D_SE_INSTANCE_10_4
 66
1
 10
0.0
 20
0.0
 30
0.0
 70
64
 71
4
 72
3
 0
VERTEX
 8
D_SE_INSTANCE_10_4
 10
21.2954
 20
9.5314
 30
1.3833
 70
192
 0
VERTEX
 8
D_SE_INSTANCE_10_4
 10
21.4558
 20
10.4345
 30
1.3833
 70
192
 0
VERTEX
 8
D_SE_INSTANCE_10_4
 10
20.5049
 20
10.2204
 30
1.3833
 70
192
 0
VERTEX
 8
D_SE_INSTANCE_10_4
 10
21.0319
 20
10.0342
 30
1.0102
 70
192
 0
VERTEX
 8
D_SE_INSTANCE_10_4
 10
0
 20
0
 30
0
 70
128
 71
1
 72
2
 73
4
 74
4
 0
VERTEX
 8
D_SE_INSTANCE_10_4
 10
0
 20
0
 30
0
 70
128
 71
4
 72
3
 73
1
 74
1
 0
VERTEX
 8
D_SE_INSTANCE_10_4
 10
0
 20
0
 30
0
 70
128
 71
2
 72
3
 73
4
 74
4
 0
SEQEND
 0
POLYLINE
 8
D_SE_INSTANCE_8_4
 66
1
 10
0.0
 20
0.0
 30
0.0
 70
64
 71
4
 72
3
 0
VERTEX
 8
D_SE_INSTANCE_8_4
 10
21.2954
 20
7.5043
 30
1.3833
 70
192
 0
VERTEX
 8
D_SE_INSTANCE_8_4
 10
21.4558
 20
8.4074
 30
1.3833
 70
192
 0
VERTEX
 8
D_SE_INSTANCE_8_4
 10
20.5049
 20
8.1933
 30
1.3833
 70
192
 0
VERTEX
 8
D_SE_INSTANCE_8_4
 10
21.0319
 20
8.0072
 30
1.0102
 70
192
 0
VERTEX
 8
D_SE_INSTANCE_8_4
 10
0
 20
0
 30
0
 70
128
 71
1
 72
2
 73
4
 74
4
 0
VERTEX
 8
D_SE_INSTANCE_8_4
 10
0
 20
0
 30
0
 70
128
 71
4
 72
3
 73
1
 74
1
 0
VERTEX
 8
D_SE_INSTANCE_8_4
 10
0
 20
0
 30
0
 70
128
 71
2
 72
3
 73
4
 74
4
 0
SEQEND
 0
POLYLINE
 8
D_SE_INSTANCE_7_4
 66
1
 10
0.0
 20
0.0
 30
0.0
 70
64
 71
4
 72
3
 0
VERTEX
 8
D_SE_INSTANCE_7_4
 10
21.2954
 20
5.5491
 30
1.3833
 70
192
 0
VERTEX
 8
D_SE_INSTANCE_7_4
 10
21.4558
 20
6.4522
 30
1.3833
 70
192
 0
VERTEX
 8
D_SE_INSTANCE_7_4
 10
20.5049
 20
6.2381
 30
1.3833
 70
192
 0
VERTEX
 8
D_SE_INSTANCE_7_4
 10
21.0319
 20
6.052
 30
1.0102
 70
192
 0
VERTEX
 8
D_SE_INSTANCE_7_4
 10
0
 20
0
 30
0
 70
128
 71
1
 72
2
 73
4
 74
4
 0
VERTEX
 8
D_SE_INSTANCE_7_4
 10
0
 20
0
 30
0
 70
128
 71
4
 72
3
 73
1
 74
1
 0
VERTEX
 8
D_SE_INSTANCE_7_4
 10
0
 20
0
 30
0
 70
128
 71
2
 72
3
 73
4
 74
4
 0
SEQEND
 0
POLYLINE
 8
D_SE_INSTANCE_6_4
 66
1
 10
0.0
 20
0.0
 30
0.0
 70
64
 71
4
 72
3
 0
VERTEX
 8
D_SE_INSTANCE_6_4
 10
21.2954
 20
3.5755
 30
1.3833
 70
192
 0
VERTEX
 8
D_SE_INSTANCE_6_4
 10
21.4558
 20
4.4786
 30
1.3833
 70
192
 0
VERTEX
 8
D_SE_INSTANCE_6_4
 10
20.5049
 20
4.2645
 30
1.3833
 70
192
 0
VERTEX
 8
D_SE_INSTANCE_6_4
 10
21.0319
 20
4.0784
 30
1.0102
 70
192
 0
VERTEX
 8
D_SE_INSTANCE_6_4
 10
0
 20
0
 30
0
 70
128
 71
1
 72
2
 73
4
 74
4
 0
VERTEX
 8
D_SE_INSTANCE_6_4
 10
0
 20
0
 30
0
 70
128
 71
4
 72
3
 73
1
 74
1
 0
VERTEX
 8
D_SE_INSTANCE_6_4
 10
0
 20
0
 30
0
 70
128
 71
2
 72
3
 73
4
 74
4
 0
SEQEND
 0
POLYLINE
 8
D_SE_INSTANCE_5_4
 66
1
 10
0.0
 20
0.0
 30
0.0
 70
64
 71
4
 72
3
 0
VERTEX
 8
D_SE_INSTANCE_5_4
 10
21.2954
 20
1.4879
 30
1.3833
 70
192
 0
VERTEX
 8
D_SE_INSTANCE_5_4
 10
21.4558
 20
2.391
 30
1.3833
 70
192
 0
VERTEX
 8
D_SE_INSTANCE_5_4
 10
20.5049
 20
2.1769
 30
1.3833
 70
192
 0
VERTEX
 8
D_SE_INSTANCE_5_4
 10
21.0319
 20
1.9908
 30
1.0102
 70
192
 0
VERTEX
 8
D_SE_INSTANCE_5_4
 10
0
 20
0
 30
0
 70
128
 71
1
 72
2
 73
4
 74
4
 0
VERTEX
 8
D_SE_INSTANCE_5_4
 10
0
 20
0
 30
0
 70
128
 71
4
 72
3
 73
1
 74
1
 0
VERTEX
 8
D_SE_INSTANCE_5_4
 10
0
 20
0
 30
0
 70
128
 71
2
 72
3
 73
4
 74
4
 0
SEQEND
 0
POLYLINE
 8
D_SE_INSTANCE_4_4
 66
1
 10
0.0
 20
0.0
 30
0.0
 70
64
 71
4
 72
3
 0
VERTEX
 8
D_SE_INSTANCE_4_4
 10
21.2954
 20
-10.4397
 30
1.3833
 70
192
 0
VERTEX
 8
D_SE_INSTANCE_4_4
 10
21.4558
 20
-9.5366
 30
1.3833
 70
192
 0
VERTEX
 8
D_SE_INSTANCE_4_4
 10
20.5049
 20
-9.7507
 30
1.3833
 70
192
 0
VERTEX
 8
D_SE_INSTANCE_4_4
 10
21.0319
 20
-9.9368
 30
1.0102
 70
192
 0
VERTEX
 8
D_SE_INSTANCE_4_4
 10
0
 20
0
 30
0
 70
128
 71
1
 72
2
 73
4
 74
4
 0
VERTEX
 8
D_SE_INSTANCE_4_4
 10
0
 20
0
 30
0
 70
128
 71
4
 72
3
 73
1
 74
1
 0
VERTEX
 8
D_SE_INSTANCE_4_4
 10
0
 20
0
 30
0
 70
128
 71
2
 72
3
 73
4
 74
4
 0
SEQEND
 0
POLYLINE
 8
D_SE_INSTANCE_3_4
 66
1
 10
0.0
 20
0.0
 30
0.0
 70
64
 71
4
 72
3
 0
VERTEX
 8
D_SE_INSTANCE_3_4
 10
21.2954
 20
-8.5105
 30
1.3833
 70
192
 0
VERTEX
 8
D_SE_INSTANCE_3_4
 10
21.4558
 20
-7.6074
 30
1.3833
 70
192
 0
VERTEX
 8
D_SE_INSTANCE_3_4
 10
20.5049
 20
-7.8214
 30
1.3833
 70
192
 0
VERTEX
 8
D_SE_INSTANCE_3_4
 10
21.0319
 20
-8.0076
 30
1.0102
 70
192
 0
VERTEX
 8
D_SE_INSTANCE_3_4
 10
0
 20
0
 30
0
 70
128
 71
1
 72
2
 73
4
 74
4
 0
VERTEX
 8
D_SE_INSTANCE_3_4
 10
0
 20
0
 30
0
 70
128
 71
4
 72
3
 73
1
 74
1
 0
VERTEX
 8
D_SE_INSTANCE_3_4
 10
0
 20
0
 30
0
 70
128
 71
2
 72
3
 73
4
 74
4
 0
SEQEND
 0
POLYLINE
 8
D_SE_INSTANCE_2_4
 66
1
 10
0.0
 20
0.0
 30
0.0
 70
64
 71
4
 72
3
 0
VERTEX
 8
D_SE_INSTANCE_2_4
 10
21.2954
 20
-6.5031
 30
1.3833
 70
192
 0
VERTEX
 8
D_SE_INSTANCE_2_4
 10
21.4558
 20
-5.6
 30
1.3833
 70
192
 0
VERTEX
 8
D_SE_INSTANCE_2_4
 10
20.5049
 20
-5.8141
 30
1.3833
 70
192
 0
VERTEX
 8
D_SE_INSTANCE_2_4
 10
21.0319
 20
-6.0002
 30
1.0102
 70
192
 0
VERTEX
 8
D_SE_INSTANCE_2_4
 10
0
 20
0
 30
0
 70
128
 71
1
 72
2
 73
4
 74
4
 0
VERTEX
 8
D_SE_INSTANCE_2_4
 10
0
 20
0
 30
0
 70
128
 71
4
 72
3
 73
1
 74
1
 0
VERTEX
 8
D_SE_INSTANCE_2_4
 10
0
 20
0
 30
0
 70
128
 71
2
 72
3
 73
4
 74
4
 0
SEQEND
 0
POLYLINE
 8
D_SE_INSTANCE_1_4
 66
1
 10
0.0
 20
0.0
 30
0.0
 70
64
 71
4
 72
3
 0
VERTEX
 8
D_SE_INSTANCE_1_4
 10
21.2954
 20
-4.5498
 30
1.3833
 70
192
 0
VERTEX
 8
D_SE_INSTANCE_1_4
 10
21.4558
 20
-3.6466
 30
1.3833
 70
192
 0
VERTEX
 8
D_SE_INSTANCE_1_4
 10
20.5049
 20
-3.8607
 30
1.3833
 70
192
 0
VERTEX
 8
D_SE_INSTANCE_1_4
 10
21.0319
 20
-4.0469
 30
1.0102
 70
192
 0
VERTEX
 8
D_SE_INSTANCE_1_4
 10
0
 20
0
 30
0
 70
128
 71
1
 72
2
 73
4
 74
4
 0
VERTEX
 8
D_SE_INSTANCE_1_4
 10
0
 20
0
 30
0
 70
128
 71
4
 72
3
 73
1
 74
1
 0
VERTEX
 8
D_SE_INSTANCE_1_4
 10
0
 20
0
 30
0
 70
128
 71
2
 72
3
 73
4
 74
4
 0
SEQEND
 0
POLYLINE
 8
D_SE_INSTANCE_4
 66
1
 10
0.0
 20
0.0
 30
0.0
 70
64
 71
4
 72
3
 0
VERTEX
 8
D_SE_INSTANCE_4
 10
21.2954
 20
-2.5522
 30
1.3833
 70
192
 0
VERTEX
 8
D_SE_INSTANCE_4
 10
21.4558
 20
-1.6491
 30
1.3833
 70
192
 0
VERTEX
 8
D_SE_INSTANCE_4
 10
20.5049
 20
-1.8632
 30
1.3833
 70
192
 0
VERTEX
 8
D_SE_INSTANCE_4
 10
21.0319
 20
-2.0493
 30
1.0102
 70
192
 0
VERTEX
 8
D_SE_INSTANCE_4
 10
0
 20
0
 30
0
 70
128
 71
1
 72
2
 73
4
 74
4
 0
VERTEX
 8
D_SE_INSTANCE_4
 10
0
 20
0
 30
0
 70
128
 71
4
 72
3
 73
1
 74
1
 0
VERTEX
 8
D_SE_INSTANCE_4
 10
0
 20
0
 30
0
 70
128
 71
2
 72
3
 73
4
 74
4
 0
SEQEND
 0
POLYLINE
 8
D_SE_INSTANCE_9_4
 66
1
 10
0.0
 20
0.0
 30
0.0
 70
64
 71
4
 72
3
 0
VERTEX
 8
D_SE_INSTANCE_9_4
 10
21.2954
 20
-0.4135
 30
1.3833
 70
192
 0
VERTEX
 8
D_SE_INSTANCE_9_4
 10
21.4558
 20
0.4896
 30
1.3833
 70
192
 0
VERTEX
 8
D_SE_INSTANCE_9_4
 10
20.5049
 20
0.2755
 30
1.3833
 70
192
 0
VERTEX
 8
D_SE_INSTANCE_9_4
 10
21.0319
 20
0.0893
 30
1.0102
 70
192
 0
VERTEX
 8
D_SE_INSTANCE_9_4
 10
0
 20
0
 30
0
 70
128
 71
1
 72
2
 73
4
 74
4
 0
VERTEX
 8
D_SE_INSTANCE_9_4
 10
0
 20
0
 30
0
 70
128
 71
4
 72
3
 73
1
 74
1
 0
VERTEX
 8
D_SE_INSTANCE_9_4
 10
0
 20
0
 30
0
 70
128
 71
2
 72
3
 73
4
 74
4
 0
SEQEND
 0
POLYLINE
 8
D_SE_INSTANCE_10_5
 66
1
 10
0.0
 20
0.0
 30
0.0
 70
64
 71
4
 72
3
 0
VERTEX
 8
D_SE_INSTANCE_10_5
 10
19.2148
 20
9.5314
 30
1.3833
 70
192
 0
VERTEX
 8
D_SE_INSTANCE_10_5
 10
19.3752
 20
10.4345
 30
1.3833
 70
192
 0
VERTEX
 8
D_SE_INSTANCE_10_5
 10
18.4243
 20
10.2204
 30
1.3833
 70
192
 0
VERTEX
 8
D_SE_INSTANCE_10_5
 10
18.9513
 20
10.0342
 30
1.0102
 70
192
 0
VERTEX
 8
D_SE_INSTANCE_10_5
 10
0
 20
0
 30
0
 70
128
 71
1
 72
2
 73
4
 74
4
 0
VERTEX
 8
D_SE_INSTANCE_10_5
 10
0
 20
0
 30
0
 70
128
 71
4
 72
3
 73
1
 74
1
 0
VERTEX
 8
D_SE_INSTANCE_10_5
 10
0
 20
0
 30
0
 70
128
 71
2
 72
3
 73
4
 74
4
 0
SEQEND
 0
POLYLINE
 8
D_SE_INSTANCE_8_5
 66
1
 10
0.0
 20
0.0
 30
0.0
 70
64
 71
4
 72
3
 0
VERTEX
 8
D_SE_INSTANCE_8_5
 10
19.2148
 20
7.5043
 30
1.3833
 70
192
 0
VERTEX
 8
D_SE_INSTANCE_8_5
 10
19.3752
 20
8.4074
 30
1.3833
 70
192
 0
VERTEX
 8
D_SE_INSTANCE_8_5
 10
18.4243
 20
8.1933
 30
1.3833
 70
192
 0
VERTEX
 8
D_SE_INSTANCE_8_5
 10
18.9513
 20
8.0072
 30
1.0102
 70
192
 0
VERTEX
 8
D_SE_INSTANCE_8_5
 10
0
 20
0
 30
0
 70
128
 71
1
 72
2
 73
4
 74
4
 0
VERTEX
 8
D_SE_INSTANCE_8_5
 10
0
 20
0
 30
0
 70
128
 71
4
 72
3
 73
1
 74
1
 0
VERTEX
 8
D_SE_INSTANCE_8_5
 10
0
 20
0
 30
0
 70
128
 71
2
 72
3
 73
4
 74
4
 0
SEQEND
 0
POLYLINE
 8
D_SE_INSTANCE_7_5
 66
1
 10
0.0
 20
0.0
 30
0.0
 70
64
 71
4
 72
3
 0
VERTEX
 8
D_SE_INSTANCE_7_5
 10
19.2148
 20
5.5491
 30
1.3833
 70
192
 0
VERTEX
 8
D_SE_INSTANCE_7_5
 10
19.3752
 20
6.4522
 30
1.3833
 70
192
 0
VERTEX
 8
D_SE_INSTANCE_7_5
 10
18.4243
 20
6.2381
 30
1.3833
 70
192
 0
VERTEX
 8
D_SE_INSTANCE_7_5
 10
18.9513
 20
6.052
 30
1.0102
 70
192
 0
VERTEX
 8
D_SE_INSTANCE_7_5
 10
0
 20
0
 30
0
 70
128
 71
1
 72
2
 73
4
 74
4
 0
VERTEX
 8
D_SE_INSTANCE_7_5
 10
0
 20
0
 30
0
 70
128
 71
4
 72
3
 73
1
 74
1
 0
VERTEX
 8
D_SE_INSTANCE_7_5
 10
0
 20
0
 30
0
 70
128
 71
2
 72
3
 73
4
 74
4
 0
SEQEND
 0
POLYLINE
 8
D_SE_INSTANCE_6_5
 66
1
 10
0.0
 20
0.0
 30
0.0
 70
64
 71
4
 72
3
 0
VERTEX
 8
D_SE_INSTANCE_6_5
 10
19.2148
 20
3.5755
 30
1.3833
 70
192
 0
VERTEX
 8
D_SE_INSTANCE_6_5
 10
19.3752
 20
4.4786
 30
1.3833
 70
192
 0
VERTEX
 8
D_SE_INSTANCE_6_5
 10
18.4243
 20
4.2645
 30
1.3833
 70
192
 0
VERTEX
 8
D_SE_INSTANCE_6_5
 10
18.9513
 20
4.0784
 30
1.0102
 70
192
 0
VERTEX
 8
D_SE_INSTANCE_6_5
 10
0
 20
0
 30
0
 70
128
 71
1
 72
2
 73
4
 74
4
 0
VERTEX
 8
D_SE_INSTANCE_6_5
 10
0
 20
0
 30
0
 70
128
 71
4
 72
3
 73
1
 74
1
 0
VERTEX
 8
D_SE_INSTANCE_6_5
 10
0
 20
0
 30
0
 70
128
 71
2
 72
3
 73
4
 74
4
 0
SEQEND
 0
POLYLINE
 8
D_SE_INSTANCE_5_5
 66
1
 10
0.0
 20
0.0
 30
0.0
 70
64
 71
4
 72
3
 0
VERTEX
 8
D_SE_INSTANCE_5_5
 10
19.2148
 20
1.4879
 30
1.3833
 70
192
 0
VERTEX
 8
D_SE_INSTANCE_5_5
 10
19.3752
 20
2.391
 30
1.3833
 70
192
 0
VERTEX
 8
D_SE_INSTANCE_5_5
 10
18.4243
 20
2.1769
 30
1.3833
 70
192
 0
VERTEX
 8
D_SE_INSTANCE_5_5
 10
18.9513
 20
1.9908
 30
1.0102
 70
192
 0
VERTEX
 8
D_SE_INSTANCE_5_5
 10
0
 20
0
 30
0
 70
128
 71
1
 72
2
 73
4
 74
4
 0
VERTEX
 8
D_SE_INSTANCE_5_5
 10
0
 20
0
 30
0
 70
128
 71
4
 72
3
 73
1
 74
1
 0
VERTEX
 8
D_SE_INSTANCE_5_5
 10
0
 20
0
 30
0
 70
128
 71
2
 72
3
 73
4
 74
4
 0
SEQEND
 0
POLYLINE
 8
D_SE_INSTANCE_4_5
 66
1
 10
0.0
 20
0.0
 30
0.0
 70
64
 71
4
 72
3
 0
VERTEX
 8
D_SE_INSTANCE_4_5
 10
19.2148
 20
-10.4397
 30
1.3833
 70
192
 0
VERTEX
 8
D_SE_INSTANCE_4_5
 10
19.3752
 20
-9.5366
 30
1.3833
 70
192
 0
VERTEX
 8
D_SE_INSTANCE_4_5
 10
18.4243
 20
-9.7507
 30
1.3833
 70
192
 0
VERTEX
 8
D_SE_INSTANCE_4_5
 10
18.9513
 20
-9.9368
 30
1.0102
 70
192
 0
VERTEX
 8
D_SE_INSTANCE_4_5
 10
0
 20
0
 30
0
 70
128
 71
1
 72
2
 73
4
 74
4
 0
VERTEX
 8
D_SE_INSTANCE_4_5
 10
0
 20
0
 30
0
 70
128
 71
4
 72
3
 73
1
 74
1
 0
VERTEX
 8
D_SE_INSTANCE_4_5
 10
0
 20
0
 30
0
 70
128
 71
2
 72
3
 73
4
 74
4
 0
SEQEND
 0
POLYLINE
 8
D_SE_INSTANCE_3_5
 66
1
 10
0.0
 20
0.0
 30
0.0
 70
64
 71
4
 72
3
 0
VERTEX
 8
D_SE_INSTANCE_3_5
 10
19.2148
 20
-8.5105
 30
1.3833
 70
192
 0
VERTEX
 8
D_SE_INSTANCE_3_5
 10
19.3752
 20
-7.6074
 30
1.3833
 70
192
 0
VERTEX
 8
D_SE_INSTANCE_3_5
 10
18.4243
 20
-7.8214
 30
1.3833
 70
192
 0
VERTEX
 8
D_SE_INSTANCE_3_5
 10
18.9513
 20
-8.0076
 30
1.0102
 70
192
 0
VERTEX
 8
D_SE_INSTANCE_3_5
 10
0
 20
0
 30
0
 70
128
 71
1
 72
2
 73
4
 74
4
 0
VERTEX
 8
D_SE_INSTANCE_3_5
 10
0
 20
0
 30
0
 70
128
 71
4
 72
3
 73
1
 74
1
 0
VERTEX
 8
D_SE_INSTANCE_3_5
 10
0
 20
0
 30
0
 70
128
 71
2
 72
3
 73
4
 74
4
 0
SEQEND
 0
POLYLINE
 8
D_SE_INSTANCE_2_5
 66
1
 10
0.0
 20
0.0
 30
0.0
 70
64
 71
4
 72
3
 0
VERTEX
 8
D_SE_INSTANCE_2_5
 10
19.2148
 20
-6.5031
 30
1.3833
 70
192
 0
VERTEX
 8
D_SE_INSTANCE_2_5
 10
19.3752
 20
-5.6
 30
1.3833
 70
192
 0
VERTEX
 8
D_SE_INSTANCE_2_5
 10
18.4243
 20
-5.8141
 30
1.3833
 70
192
 0
VERTEX
 8
D_SE_INSTANCE_2_5
 10
18.9513
 20
-6.0002
 30
1.0102
 70
192
 0
VERTEX
 8
D_SE_INSTANCE_2_5
 10
0
 20
0
 30
0
 70
128
 71
1
 72
2
 73
4
 74
4
 0
VERTEX
 8
D_SE_INSTANCE_2_5
 10
0
 20
0
 30
0
 70
128
 71
4
 72
3
 73
1
 74
1
 0
VERTEX
 8
D_SE_INSTANCE_2_5
 10
0
 20
0
 30
0
 70
128
 71
2
 72
3
 73
4
 74
4
 0
SEQEND
 0
POLYLINE
 8
D_SE_INSTANCE_1_5
 66
1
 10
0.0
 20
0.0
 30
0.0
 70
64
 71
4
 72
3
 0
VERTEX
 8
D_SE_INSTANCE_1_5
 10
19.2148
 20
-4.5498
 30
1.3833
 70
192
 0
VERTEX
 8
D_SE_INSTANCE_1_5
 10
19.3752
 20
-3.6466
 30
1.3833
 70
192
 0
VERTEX
 8
D_SE_INSTANCE_1_5
 10
18.4243
 20
-3.8607
 30
1.3833
 70
192
 0
VERTEX
 8
D_SE_INSTANCE_1_5
 10
18.9513
 20
-4.0469
 30
1.0102
 70
192
 0
VERTEX
 8
D_SE_INSTANCE_1_5
 10
0
 20
0
 30
0
 70
128
 71
1
 72
2
 73
4
 74
4
 0
VERTEX
 8
D_SE_INSTANCE_1_5
 10
0
 20
0
 30
0
 70
128
 71
4
 72
3
 73
1
 74
1
 0
VERTEX
 8
D_SE_INSTANCE_1_5
 10
0
 20
0
 30
0
 70
128
 71
2
 72
3
 73
4
 74
4
 0
SEQEND
 0
POLYLINE
 8
D_SE_INSTANCE_5
 66
1
 10
0.0
 20
0.0
 30
0.0
 70
64
 71
4
 72
3
 0
VERTEX
 8
D_SE_INSTANCE_5
 10
19.2148
 20
-2.5522
 30
1.3833
 70
192
 0
VERTEX
 8
D_SE_INSTANCE_5
 10
19.3752
 20
-1.6491
 30
1.3833
 70
192
 0
VERTEX
 8
D_SE_INSTANCE_5
 10
18.4243
 20
-1.8632
 30
1.3833
 70
192
 0
VERTEX
 8
D_SE_INSTANCE_5
 10
18.9513
 20
-2.0493
 30
1.0102
 70
192
 0
VERTEX
 8
D_SE_INSTANCE_5
 10
0
 20
0
 30
0
 70
128
 71
1
 72
2
 73
4
 74
4
 0
VERTEX
 8
D_SE_INSTANCE_5
 10
0
 20
0
 30
0
 70
128
 71
4
 72
3
 73
1
 74
1
 0
VERTEX
 8
D_SE_INSTANCE_5
 10
0
 20
0
 30
0
 70
128
 71
2
 72
3
 73
4
 74
4
 0
SEQEND
 0
POLYLINE
 8
D_SE_INSTANCE_9_5
 66
1
 10
0.0
 20
0.0
 30
0.0
 70
64
 71
4
 72
3
 0
VERTEX
 8
D_SE_INSTANCE_9_5
 10
19.2148
 20
-0.4135
 30
1.3833
 70
192
 0
VERTEX
 8
D_SE_INSTANCE_9_5
 10
19.3752
 20
0.4896
 30
1.3833
 70
192
 0
VERTEX
 8
D_SE_INSTANCE_9_5
 10
18.4243
 20
0.2755
 30
1.3833
 70
192
 0
VERTEX
 8
D_SE_INSTANCE_9_5
 10
18.9513
 20
0.0893
 30
1.0102
 70
192
 0
VERTEX
 8
D_SE_INSTANCE_9_5
 10
0
 20
0
 30
0
 70
128
 71
1
 72
2
 73
4
 74
4
 0
VERTEX
 8
D_SE_INSTANCE_9_5
 10
0
 20
0
 30
0
 70
128
 71
4
 72
3
 73
1
 74
1
 0
VERTEX
 8
D_SE_INSTANCE_9_5
 10
0
 20
0
 30
0
 70
128
 71
2
 72
3
 73
4
 74
4
 0
SEQEND
 0
POLYLINE
 8
D_SE_INSTANCE_10_6
 66
1
 10
0.0
 20
0.0
 30
0.0
 70
64
 71
4
 72
3
 0
VERTEX
 8
D_SE_INSTANCE_10_6
 10
17.2499
 20
9.5314
 30
1.3833
 70
192
 0
VERTEX
 8
D_SE_INSTANCE_10_6
 10
17.4103
 20
10.4345
 30
1.3833
 70
192
 0
VERTEX
 8
D_SE_INSTANCE_10_6
 10
16.4594
 20
10.2204
 30
1.3833
 70
192
 0
VERTEX
 8
D_SE_INSTANCE_10_6
 10
16.9864
 20
10.0342
 30
1.0102
 70
192
 0
VERTEX
 8
D_SE_INSTANCE_10_6
 10
0
 20
0
 30
0
 70
128
 71
1
 72
2
 73
4
 74
4
 0
VERTEX
 8
D_SE_INSTANCE_10_6
 10
0
 20
0
 30
0
 70
128
 71
4
 72
3
 73
1
 74
1
 0
VERTEX
 8
D_SE_INSTANCE_10_6
 10
0
 20
0
 30
0
 70
128
 71
2
 72
3
 73
4
 74
4
 0
SEQEND
 0
POLYLINE
 8
D_SE_INSTANCE_8_6
 66
1
 10
0.0
 20
0.0
 30
0.0
 70
64
 71
4
 72
3
 0
VERTEX
 8
D_SE_INSTANCE_8_6
 10
17.2499
 20
7.5043
 30
1.3833
 70
192
 0
VERTEX
 8
D_SE_INSTANCE_8_6
 10
17.4103
 20
8.4074
 30
1.3833
 70
192
 0
VERTEX
 8
D_SE_INSTANCE_8_6
 10
16.4594
 20
8.1933
 30
1.3833
 70
192
 0
VERTEX
 8
D_SE_INSTANCE_8_6
 10
16.9864
 20
8.0072
 30
1.0102
 70
192
 0
VERTEX
 8
D_SE_INSTANCE_8_6
 10
0
 20
0
 30
0
 70
128
 71
1
 72
2
 73
4
 74
4
 0
VERTEX
 8
D_SE_INSTANCE_8_6
 10
0
 20
0
 30
0
 70
128
 71
4
 72
3
 73
1
 74
1
 0
VERTEX
 8
D_SE_INSTANCE_8_6
 10
0
 20
0
 30
0
 70
128
 71
2
 72
3
 73
4
 74
4
 0
SEQEND
 0
POLYLINE
 8
D_SE_INSTANCE_7_6
 66
1
 10
0.0
 20
0.0
 30
0.0
 70
64
 71
4
 72
3
 0
VERTEX
 8
D_SE_INSTANCE_7_6
 10
17.2499
 20
5.5491
 30
1.3833
 70
192
 0
VERTEX
 8
D_SE_INSTANCE_7_6
 10
17.4103
 20
6.4522
 30
1.3833
 70
192
 0
VERTEX
 8
D_SE_INSTANCE_7_6
 10
16.4594
 20
6.2381
 30
1.3833
 70
192
 0
VERTEX
 8
D_SE_INSTANCE_7_6
 10
16.9864
 20
6.052
 30
1.0102
 70
192
 0
VERTEX
 8
D_SE_INSTANCE_7_6
 10
0
 20
0
 30
0
 70
128
 71
1
 72
2
 73
4
 74
4
 0
VERTEX
 8
D_SE_INSTANCE_7_6
 10
0
 20
0
 30
0
 70
128
 71
4
 72
3
 73
1
 74
1
 0
VERTEX
 8
D_SE_INSTANCE_7_6
 10
0
 20
0
 30
0
 70
128
 71
2
 72
3
 73
4
 74
4
 0
SEQEND
 0
POLYLINE
 8
D_SE_INSTANCE_6_6
 66
1
 10
0.0
 20
0.0
 30
0.0
 70
64
 71
4
 72
3
 0
VERTEX
 8
D_SE_INSTANCE_6_6
 10
17.2499
 20
3.5755
 30
1.3833
 70
192
 0
VERTEX
 8
D_SE_INSTANCE_6_6
 10
17.4103
 20
4.4786
 30
1.3833
 70
192
 0
VERTEX
 8
D_SE_INSTANCE_6_6
 10
16.4594
 20
4.2645
 30
1.3833
 70
192
 0
VERTEX
 8
D_SE_INSTANCE_6_6
 10
16.9864
 20
4.0784
 30
1.0102
 70
192
 0
VERTEX
 8
D_SE_INSTANCE_6_6
 10
0
 20
0
 30
0
 70
128
 71
1
 72
2
 73
4
 74
4
 0
VERTEX
 8
D_SE_INSTANCE_6_6
 10
0
 20
0
 30
0
 70
128
 71
4
 72
3
 73
1
 74
1
 0
VERTEX
 8
D_SE_INSTANCE_6_6
 10
0
 20
0
 30
0
 70
128
 71
2
 72
3
 73
4
 74
4
 0
SEQEND
 0
POLYLINE
 8
D_SE_INSTANCE_5_6
 66
1
 10
0.0
 20
0.0
 30
0.0
 70
64
 71
4
 72
3
 0
VERTEX
 8
D_SE_INSTANCE_5_6
 10
17.2499
 20
1.4879
 30
1.3833
 70
192
 0
VERTEX
 8
D_SE_INSTANCE_5_6
 10
17.4103
 20
2.391
 30
1.3833
 70
192
 0
VERTEX
 8
D_SE_INSTANCE_5_6
 10
16.4594
 20
2.1769
 30
1.3833
 70
192
 0
VERTEX
 8
D_SE_INSTANCE_5_6
 10
16.9864
 20
1.9908
 30
1.0102
 70
192
 0
VERTEX
 8
D_SE_INSTANCE_5_6
 10
0
 20
0
 30
0
 70
128
 71
1
 72
2
 73
4
 74
4
 0
VERTEX
 8
D_SE_INSTANCE_5_6
 10
0
 20
0
 30
0
 70
128
 71
4
 72
3
 73
1
 74
1
 0
VERTEX
 8
D_SE_INSTANCE_5_6
 10
0
 20
0
 30
0
 70
128
 71
2
 72
3
 73
4
 74
4
 0
SEQEND
 0
POLYLINE
 8
D_SE_INSTANCE_4_6
 66
1
 10
0.0
 20
0.0
 30
0.0
 70
64
 71
4
 72
3
 0
VERTEX
 8
D_SE_INSTANCE_4_6
 10
17.2499
 20
-10.4397
 30
1.3833
 70
192
 0
VERTEX
 8
D_SE_INSTANCE_4_6
 10
17.4103
 20
-9.5366
 30
1.3833
 70
192
 0
VERTEX
 8
D_SE_INSTANCE_4_6
 10
16.4594
 20
-9.7507
 30
1.3833
 70
192
 0
VERTEX
 8
D_SE_INSTANCE_4_6
 10
16.9864
 20
-9.9368
 30
1.0102
 70
192
 0
VERTEX
 8
D_SE_INSTANCE_4_6
 10
0
 20
0
 30
0
 70
128
 71
1
 72
2
 73
4
 74
4
 0
VERTEX
 8
D_SE_INSTANCE_4_6
 10
0
 20
0
 30
0
 70
128
 71
4
 72
3
 73
1
 74
1
 0
VERTEX
 8
D_SE_INSTANCE_4_6
 10
0
 20
0
 30
0
 70
128
 71
2
 72
3
 73
4
 74
4
 0
SEQEND
 0
POLYLINE
 8
D_SE_INSTANCE_3_6
 66
1
 10
0.0
 20
0.0
 30
0.0
 70
64
 71
4
 72
3
 0
VERTEX
 8
D_SE_INSTANCE_3_6
 10
17.2499
 20
-8.5105
 30
1.3833
 70
192
 0
VERTEX
 8
D_SE_INSTANCE_3_6
 10
17.4103
 20
-7.6074
 30
1.3833
 70
192
 0
VERTEX
 8
D_SE_INSTANCE_3_6
 10
16.4594
 20
-7.8214
 30
1.3833
 70
192
 0
VERTEX
 8
D_SE_INSTANCE_3_6
 10
16.9864
 20
-8.0076
 30
1.0102
 70
192
 0
VERTEX
 8
D_SE_INSTANCE_3_6
 10
0
 20
0
 30
0
 70
128
 71
1
 72
2
 73
4
 74
4
 0
VERTEX
 8
D_SE_INSTANCE_3_6
 10
0
 20
0
 30
0
 70
128
 71
4
 72
3
 73
1
 74
1
 0
VERTEX
 8
D_SE_INSTANCE_3_6
 10
0
 20
0
 30
0
 70
128
 71
2
 72
3
 73
4
 74
4
 0
SEQEND
 0
POLYLINE
 8
D_SE_INSTANCE_2_6
 66
1
 10
0.0
 20
0.0
 30
0.0
 70
64
 71
4
 72
3
 0
VERTEX
 8
D_SE_INSTANCE_2_6
 10
17.2499
 20
-6.5031
 30
1.3833
 70
192
 0
VERTEX
 8
D_SE_INSTANCE_2_6
 10
17.4103
 20
-5.6
 30
1.3833
 70
192
 0
VERTEX
 8
D_SE_INSTANCE_2_6
 10
16.4594
 20
-5.8141
 30
1.3833
 70
192
 0
VERTEX
 8
D_SE_INSTANCE_2_6
 10
16.9864
 20
-6.0002
 30
1.0102
 70
192
 0
VERTEX
 8
D_SE_INSTANCE_2_6
 10
0
 20
0
 30
0
 70
128
 71
1
 72
2
 73
4
 74
4
 0
VERTEX
 8
D_SE_INSTANCE_2_6
 10
0
 20
0
 30
0
 70
128
 71
4
 72
3
 73
1
 74
1
 0
VERTEX
 8
D_SE_INSTANCE_2_6
 10
0
 20
0
 30
0
 70
128
 71
2
 72
3
 73
4
 74
4
 0
SEQEND
 0
POLYLINE
 8
D_SE_INSTANCE_1_6
 66
1
 10
0.0
 20
0.0
 30
0.0
 70
64
 71
4
 72
3
 0
VERTEX
 8
D_SE_INSTANCE_1_6
 10
17.2499
 20
-4.5498
 30
1.3833
 70
192
 0
VERTEX
 8
D_SE_INSTANCE_1_6
 10
17.4103
 20
-3.6466
 30
1.3833
 70
192
 0
VERTEX
 8
D_SE_INSTANCE_1_6
 10
16.4594
 20
-3.8607
 30
1.3833
 70
192
 0
VERTEX
 8
D_SE_INSTANCE_1_6
 10
16.9864
 20
-4.0469
 30
1.0102
 70
192
 0
VERTEX
 8
D_SE_INSTANCE_1_6
 10
0
 20
0
 30
0
 70
128
 71
1
 72
2
 73
4
 74
4
 0
VERTEX
 8
D_SE_INSTANCE_1_6
 10
0
 20
0
 30
0
 70
128
 71
4
 72
3
 73
1
 74
1
 0
VERTEX
 8
D_SE_INSTANCE_1_6
 10
0
 20
0
 30
0
 70
128
 71
2
 72
3
 73
4
 74
4
 0
SEQEND
 0
POLYLINE
 8
D_SE_INSTANCE_6
 66
1
 10
0.0
 20
0.0
 30
0.0
 70
64
 71
4
 72
3
 0
VERTEX
 8
D_SE_INSTANCE_6
 10
17.2499
 20
-2.5522
 30
1.3833
 70
192
 0
VERTEX
 8
D_SE_INSTANCE_6
 10
17.4103
 20
-1.6491
 30
1.3833
 70
192
 0
VERTEX
 8
D_SE_INSTANCE_6
 10
16.4594
 20
-1.8632
 30
1.3833
 70
192
 0
VERTEX
 8
D_SE_INSTANCE_6
 10
16.9864
 20
-2.0493
 30
1.0102
 70
192
 0
VERTEX
 8
D_SE_INSTANCE_6
 10
0
 20
0
 30
0
 70
128
 71
1
 72
2
 73
4
 74
4
 0
VERTEX
 8
D_SE_INSTANCE_6
 10
0
 20
0
 30
0
 70
128
 71
4
 72
3
 73
1
 74
1
 0
VERTEX
 8
D_SE_INSTANCE_6
 10
0
 20
0
 30
0
 70
128
 71
2
 72
3
 73
4
 74
4
 0
SEQEND
 0
POLYLINE
 8
D_SE_INSTANCE_9_6
 66
1
 10
0.0
 20
0.0
 30
0.0
 70
64
 71
4
 72
3
 0
VERTEX
 8
D_SE_INSTANCE_9_6
 10
17.2499
 20
-0.4135
 30
1.3833
 70
192
 0
VERTEX
 8
D_SE_INSTANCE_9_6
 10
17.4103
 20
0.4896
 30
1.3833
 70
192
 0
VERTEX
 8
D_SE_INSTANCE_9_6
 10
16.4594
 20
0.2755
 30
1.3833
 70
192
 0
VERTEX
 8
D_SE_INSTANCE_9_6
 10
16.9864
 20
0.0893
 30
1.0102
 70
192
 0
VERTEX
 8
D_SE_INSTANCE_9_6
 10
0
 20
0
 30
0
 70
128
 71
1
 72
2
 73
4
 74
4
 0
VERTEX
 8
D_SE_INSTANCE_9_6
 10
0
 20
0
 30
0
 70
128
 71
4
 72
3
 73
1
 74
1
 0
VERTEX
 8
D_SE_INSTANCE_9_6
 10
0
 20
0
 30
0
 70
128
 71
2
 72
3
 73
4
 74
4
 0
SEQEND
 0
POLYLINE
 8
D_SE_INSTANCE_10_7
 66
1
 10
0.0
 20
0.0
 30
0.0
 70
64
 71
4
 72
3
 0
VERTEX
 8
D_SE_INSTANCE_10_7
 10
15.2374
 20
9.5314
 30
1.3833
 70
192
 0
VERTEX
 8
D_SE_INSTANCE_10_7
 10
15.3978
 20
10.4345
 30
1.3833
 70
192
 0
VERTEX
 8
D_SE_INSTANCE_10_7
 10
14.4469
 20
10.2204
 30
1.3833
 70
192
 0
VERTEX
 8
D_SE_INSTANCE_10_7
 10
14.9739
 20
10.0342
 30
1.0102
 70
192
 0
VERTEX
 8
D_SE_INSTANCE_10_7
 10
0
 20
0
 30
0
 70
128
 71
1
 72
2
 73
4
 74
4
 0
VERTEX
 8
D_SE_INSTANCE_10_7
 10
0
 20
0
 30
0
 70
128
 71
4
 72
3
 73
1
 74
1
 0
VERTEX
 8
D_SE_INSTANCE_10_7
 10
0
 20
0
 30
0
 70
128
 71
2
 72
3
 73
4
 74
4
 0
SEQEND
 0
POLYLINE
 8
D_SE_INSTANCE_8_7
 66
1
 10
0.0
 20
0.0
 30
0.0
 70
64
 71
4
 72
3
 0
VERTEX
 8
D_SE_INSTANCE_8_7
 10
15.2374
 20
7.5043
 30
1.3833
 70
192
 0
VERTEX
 8
D_SE_INSTANCE_8_7
 10
15.3978
 20
8.4074
 30
1.3833
 70
192
 0
VERTEX
 8
D_SE_INSTANCE_8_7
 10
14.4469
 20
8.1933
 30
1.3833
 70
192
 0
VERTEX
 8
D_SE_INSTANCE_8_7
 10
14.9739
 20
8.0072
 30
1.0102
 70
192
 0
VERTEX
 8
D_SE_INSTANCE_8_7
 10
0
 20
0
 30
0
 70
128
 71
1
 72
2
 73
4
 74
4
 0
VERTEX
 8
D_SE_INSTANCE_8_7
 10
0
 20
0
 30
0
 70
128
 71
4
 72
3
 73
1
 74
1
 0
VERTEX
 8
D_SE_INSTANCE_8_7
 10
0
 20
0
 30
0
 70
128
 71
2
 72
3
 73
4
 74
4
 0
SEQEND
 0
POLYLINE
 8
D_SE_INSTANCE_7_7
 66
1
 10
0.0
 20
0.0
 30
0.0
 70
64
 71
4
 72
3
 0
VERTEX
 8
D_SE_INSTANCE_7_7
 10
15.2374
 20
5.5491
 30
1.3833
 70
192
 0
VERTEX
 8
D_SE_INSTANCE_7_7
 10
15.3978
 20
6.4522
 30
1.3833
 70
192
 0
VERTEX
 8
D_SE_INSTANCE_7_7
 10
14.4469
 20
6.2381
 30
1.3833
 70
192
 0
VERTEX
 8
D_SE_INSTANCE_7_7
 10
14.9739
 20
6.052
 30
1.0102
 70
192
 0
VERTEX
 8
D_SE_INSTANCE_7_7
 10
0
 20
0
 30
0
 70
128
 71
1
 72
2
 73
4
 74
4
 0
VERTEX
 8
D_SE_INSTANCE_7_7
 10
0
 20
0
 30
0
 70
128
 71
4
 72
3
 73
1
 74
1
 0
VERTEX
 8
D_SE_INSTANCE_7_7
 10
0
 20
0
 30
0
 70
128
 71
2
 72
3
 73
4
 74
4
 0
SEQEND
 0
POLYLINE
 8
D_SE_INSTANCE_6_7
 66
1
 10
0.0
 20
0.0
 30
0.0
 70
64
 71
4
 72
3
 0
VERTEX
 8
D_SE_INSTANCE_6_7
 10
15.2374
 20
3.5755
 30
1.3833
 70
192
 0
VERTEX
 8
D_SE_INSTANCE_6_7
 10
15.3978
 20
4.4786
 30
1.3833
 70
192
 0
VERTEX
 8
D_SE_INSTANCE_6_7
 10
14.4469
 20
4.2645
 30
1.3833
 70
192
 0
VERTEX
 8
D_SE_INSTANCE_6_7
 10
14.9739
 20
4.0784
 30
1.0102
 70
192
 0
VERTEX
 8
D_SE_INSTANCE_6_7
 10
0
 20
0
 30
0
 70
128
 71
1
 72
2
 73
4
 74
4
 0
VERTEX
 8
D_SE_INSTANCE_6_7
 10
0
 20
0
 30
0
 70
128
 71
4
 72
3
 73
1
 74
1
 0
VERTEX
 8
D_SE_INSTANCE_6_7
 10
0
 20
0
 30
0
 70
128
 71
2
 72
3
 73
4
 74
4
 0
SEQEND
 0
POLYLINE
 8
D_SE_INSTANCE_5_7
 66
1
 10
0.0
 20
0.0
 30
0.0
 70
64
 71
4
 72
3
 0
VERTEX
 8
D_SE_INSTANCE_5_7
 10
15.2374
 20
1.4879
 30
1.3833
 70
192
 0
VERTEX
 8
D_SE_INSTANCE_5_7
 10
15.3978
 20
2.391
 30
1.3833
 70
192
 0
VERTEX
 8
D_SE_INSTANCE_5_7
 10
14.4469
 20
2.1769
 30
1.3833
 70
192
 0
VERTEX
 8
D_SE_INSTANCE_5_7
 10
14.9739
 20
1.9908
 30
1.0102
 70
192
 0
VERTEX
 8
D_SE_INSTANCE_5_7
 10
0
 20
0
 30
0
 70
128
 71
1
 72
2
 73
4
 74
4
 0
VERTEX
 8
D_SE_INSTANCE_5_7
 10
0
 20
0
 30
0
 70
128
 71
4
 72
3
 73
1
 74
1
 0
VERTEX
 8
D_SE_INSTANCE_5_7
 10
0
 20
0
 30
0
 70
128
 71
2
 72
3
 73
4
 74
4
 0
SEQEND
 0
POLYLINE
 8
D_SE_INSTANCE_4_7
 66
1
 10
0.0
 20
0.0
 30
0.0
 70
64
 71
4
 72
3
 0
VERTEX
 8
D_SE_INSTANCE_4_7
 10
15.2374
 20
-10.4397
 30
1.3833
 70
192
 0
VERTEX
 8
D_SE_INSTANCE_4_7
 10
15.3978
 20
-9.5366
 30
1.3833
 70
192
 0
VERTEX
 8
D_SE_INSTANCE_4_7
 10
14.4469
 20
-9.7507
 30
1.3833
 70
192
 0
VERTEX
 8
D_SE_INSTANCE_4_7
 10
14.9739
 20
-9.9368
 30
1.0102
 70
192
 0
VERTEX
 8
D_SE_INSTANCE_4_7
 10
0
 20
0
 30
0
 70
128
 71
1
 72
2
 73
4
 74
4
 0
VERTEX
 8
D_SE_INSTANCE_4_7
 10
0
 20
0
 30
0
 70
128
 71
4
 72
3
 73
1
 74
1
 0
VERTEX
 8
D_SE_INSTANCE_4_7
 10
0
 20
0
 30
0
 70
128
 71
2
 72
3
 73
4
 74
4
 0
SEQEND
 0
POLYLINE
 8
D_SE_INSTANCE_3_7
 66
1
 10
0.0
 20
0.0
 30
0.0
 70
64
 71
4
 72
3
 0
VERTEX
 8
D_SE_INSTANCE_3_7
 10
15.2374
 20
-8.5105
 30
1.3833
 70
192
 0
VERTEX
 8
D_SE_INSTANCE_3_7
 10
15.3978
 20
-7.6074
 30
1.3833
 70
192
 0
VERTEX
 8
D_SE_INSTANCE_3_7
 10
14.4469
 20
-7.8214
 30
1.3833
 70
192
 0
VERTEX
 8
D_SE_INSTANCE_3_7
 10
14.9739
 20
-8.0076
 30
1.0102
 70
192
 0
VERTEX
 8
D_SE_INSTANCE_3_7
 10
0
 20
0
 30
0
 70
128
 71
1
 72
2
 73
4
 74
4
 0
VERTEX
 8
D_SE_INSTANCE_3_7
 10
0
 20
0
 30
0
 70
128
 71
4
 72
3
 73
1
 74
1
 0
VERTEX
 8
D_SE_INSTANCE_3_7
 10
0
 20
0
 30
0
 70
128
 71
2
 72
3
 73
4
 74
4
 0
SEQEND
 0
POLYLINE
 8
D_SE_INSTANCE_2_7
 66
1
 10
0.0
 20
0.0
 30
0.0
 70
64
 71
4
 72
3
 0
VERTEX
 8
D_SE_INSTANCE_2_7
 10
15.2374
 20
-6.5031
 30
1.3833
 70
192
 0
VERTEX
 8
D_SE_INSTANCE_2_7
 10
15.3978
 20
-5.6
 30
1.3833
 70
192
 0
VERTEX
 8
D_SE_INSTANCE_2_7
 10
14.4469
 20
-5.8141
 30
1.3833
 70
192
 0
VERTEX
 8
D_SE_INSTANCE_2_7
 10
14.9739
 20
-6.0002
 30
1.0102
 70
192
 0
VERTEX
 8
D_SE_INSTANCE_2_7
 10
0
 20
0
 30
0
 70
128
 71
1
 72
2
 73
4
 74
4
 0
VERTEX
 8
D_SE_INSTANCE_2_7
 10
0
 20
0
 30
0
 70
128
 71
4
 72
3
 73
1
 74
1
 0
VERTEX
 8
D_SE_INSTANCE_2_7
 10
0
 20
0
 30
0
 70
128
 71
2
 72
3
 73
4
 74
4
 0
SEQEND
 0
POLYLINE
 8
D_SE_INSTANCE_1_7
 66
1
 10
0.0
 20
0.0
 30
0.0
 70
64
 71
4
 72
3
 0
VERTEX
 8
D_SE_INSTANCE_1_7
 10
15.2374
 20
-4.5498
 30
1.3833
 70
192
 0
VERTEX
 8
D_SE_INSTANCE_1_7
 10
15.3978
 20
-3.6466
 30
1.3833
 70
192
 0
VERTEX
 8
D_SE_INSTANCE_1_7
 10
14.4469
 20
-3.8607
 30
1.3833
 70
192
 0
VERTEX
 8
D_SE_INSTANCE_1_7
 10
14.9739
 20
-4.0469
 30
1.0102
 70
192
 0
VERTEX
 8
D_SE_INSTANCE_1_7
 10
0
 20
0
 30
0
 70
128
 71
1
 72
2
 73
4
 74
4
 0
VERTEX
 8
D_SE_INSTANCE_1_7
 10
0
 20
0
 30
0
 70
128
 71
4
 72
3
 73
1
 74
1
 0
VERTEX
 8
D_SE_INSTANCE_1_7
 10
0
 20
0
 30
0
 70
128
 71
2
 72
3
 73
4
 74
4
 0
SEQEND
 0
POLYLINE
 8
D_SE_INSTANCE_7
 66
1
 10
0.0
 20
0.0
 30
0.0
 70
64
 71
4
 72
3
 0
VERTEX
 8
D_SE_INSTANCE_7
 10
15.2374
 20
-2.5522
 30
1.3833
 70
192
 0
VERTEX
 8
D_SE_INSTANCE_7
 10
15.3978
 20
-1.6491
 30
1.3833
 70
192
 0
VERTEX
 8
D_SE_INSTANCE_7
 10
14.4469
 20
-1.8632
 30
1.3833
 70
192
 0
VERTEX
 8
D_SE_INSTANCE_7
 10
14.9739
 20
-2.0493
 30
1.0102
 70
192
 0
VERTEX
 8
D_SE_INSTANCE_7
 10
0
 20
0
 30
0
 70
128
 71
1
 72
2
 73
4
 74
4
 0
VERTEX
 8
D_SE_INSTANCE_7
 10
0
 20
0
 30
0
 70
128
 71
4
 72
3
 73
1
 74
1
 0
VERTEX
 8
D_SE_INSTANCE_7
 10
0
 20
0
 30
0
 70
128
 71
2
 72
3
 73
4
 74
4
 0
SEQEND
 0
POLYLINE
 8
D_SE_INSTANCE_9_7
 66
1
 10
0.0
 20
0.0
 30
0.0
 70
64
 71
4
 72
3
 0
VERTEX
 8
D_SE_INSTANCE_9_7
 10
15.2374
 20
-0.4135
 30
1.3833
 70
192
 0
VERTEX
 8
D_SE_INSTANCE_9_7
 10
15.3978
 20
0.4896
 30
1.3833
 70
192
 0
VERTEX
 8
D_SE_INSTANCE_9_7
 10
14.4469
 20
0.2755
 30
1.3833
 70
192
 0
VERTEX
 8
D_SE_INSTANCE_9_7
 10
14.9739
 20
0.0893
 30
1.0102
 70
192
 0
VERTEX
 8
D_SE_INSTANCE_9_7
 10
0
 20
0
 30
0
 70
128
 71
1
 72
2
 73
4
 74
4
 0
VERTEX
 8
D_SE_INSTANCE_9_7
 10
0
 20
0
 30
0
 70
128
 71
4
 72
3
 73
1
 74
1
 0
VERTEX
 8
D_SE_INSTANCE_9_7
 10
0
 20
0
 30
0
 70
128
 71
2
 72
3
 73
4
 74
4
 0
SEQEND
 0
POLYLINE
 8
D_SE_INSTANCE_10_8
 66
1
 10
0.0
 20
0.0
 30
0.0
 70
64
 71
4
 72
3
 0
VERTEX
 8
D_SE_INSTANCE_10_8
 10
13.2407
 20
9.5314
 30
1.3833
 70
192
 0
VERTEX
 8
D_SE_INSTANCE_10_8
 10
13.4011
 20
10.4345
 30
1.3833
 70
192
 0
VERTEX
 8
D_SE_INSTANCE_10_8
 10
12.4502
 20
10.2204
 30
1.3833
 70
192
 0
VERTEX
 8
D_SE_INSTANCE_10_8
 10
12.9772
 20
10.0342
 30
1.0102
 70
192
 0
VERTEX
 8
D_SE_INSTANCE_10_8
 10
0
 20
0
 30
0
 70
128
 71
1
 72
2
 73
4
 74
4
 0
VERTEX
 8
D_SE_INSTANCE_10_8
 10
0
 20
0
 30
0
 70
128
 71
4
 72
3
 73
1
 74
1
 0
VERTEX
 8
D_SE_INSTANCE_10_8
 10
0
 20
0
 30
0
 70
128
 71
2
 72
3
 73
4
 74
4
 0
SEQEND
 0
POLYLINE
 8
D_SE_INSTANCE_8_8
 66
1
 10
0.0
 20
0.0
 30
0.0
 70
64
 71
4
 72
3
 0
VERTEX
 8
D_SE_INSTANCE_8_8
 10
13.2407
 20
7.5043
 30
1.3833
 70
192
 0
VERTEX
 8
D_SE_INSTANCE_8_8
 10
13.4011
 20
8.4074
 30
1.3833
 70
192
 0
VERTEX
 8
D_SE_INSTANCE_8_8
 10
12.4502
 20
8.1933
 30
1.3833
 70
192
 0
VERTEX
 8
D_SE_INSTANCE_8_8
 10
12.9772
 20
8.0072
 30
1.0102
 70
192
 0
VERTEX
 8
D_SE_INSTANCE_8_8
 10
0
 20
0
 30
0
 70
128
 71
1
 72
2
 73
4
 74
4
 0
VERTEX
 8
D_SE_INSTANCE_8_8
 10
0
 20
0
 30
0
 70
128
 71
4
 72
3
 73
1
 74
1
 0
VERTEX
 8
D_SE_INSTANCE_8_8
 10
0
 20
0
 30
0
 70
128
 71
2
 72
3
 73
4
 74
4
 0
SEQEND
 0
POLYLINE
 8
D_SE_INSTANCE_7_8
 66
1
 10
0.0
 20
0.0
 30
0.0
 70
64
 71
4
 72
3
 0
VERTEX
 8
D_SE_INSTANCE_7_8
 10
13.2407
 20
5.5491
 30
1.3833
 70
192
 0
VERTEX
 8
D_SE_INSTANCE_7_8
 10
13.4011
 20
6.4522
 30
1.3833
 70
192
 0
VERTEX
 8
D_SE_INSTANCE_7_8
 10
12.4502
 20
6.2381
 30
1.3833
 70
192
 0
VERTEX
 8
D_SE_INSTANCE_7_8
 10
12.9772
 20
6.052
 30
1.0102
 70
192
 0
VERTEX
 8
D_SE_INSTANCE_7_8
 10
0
 20
0
 30
0
 70
128
 71
1
 72
2
 73
4
 74
4
 0
VERTEX
 8
D_SE_INSTANCE_7_8
 10
0
 20
0
 30
0
 70
128
 71
4
 72
3
 73
1
 74
1
 0
VERTEX
 8
D_SE_INSTANCE_7_8
 10
0
 20
0
 30
0
 70
128
 71
2
 72
3
 73
4
 74
4
 0
SEQEND
 0
POLYLINE
 8
D_SE_INSTANCE_6_8
 66
1
 10
0.0
 20
0.0
 30
0.0
 70
64
 71
4
 72
3
 0
VERTEX
 8
D_SE_INSTANCE_6_8
 10
13.2407
 20
3.5755
 30
1.3833
 70
192
 0
VERTEX
 8
D_SE_INSTANCE_6_8
 10
13.4011
 20
4.4786
 30
1.3833
 70
192
 0
VERTEX
 8
D_SE_INSTANCE_6_8
 10
12.4502
 20
4.2645
 30
1.3833
 70
192
 0
VERTEX
 8
D_SE_INSTANCE_6_8
 10
12.9772
 20
4.0784
 30
1.0102
 70
192
 0
VERTEX
 8
D_SE_INSTANCE_6_8
 10
0
 20
0
 30
0
 70
128
 71
1
 72
2
 73
4
 74
4
 0
VERTEX
 8
D_SE_INSTANCE_6_8
 10
0
 20
0
 30
0
 70
128
 71
4
 72
3
 73
1
 74
1
 0
VERTEX
 8
D_SE_INSTANCE_6_8
 10
0
 20
0
 30
0
 70
128
 71
2
 72
3
 73
4
 74
4
 0
SEQEND
 0
POLYLINE
 8
D_SE_INSTANCE_5_8
 66
1
 10
0.0
 20
0.0
 30
0.0
 70
64
 71
4
 72
3
 0
VERTEX
 8
D_SE_INSTANCE_5_8
 10
13.2407
 20
1.4879
 30
1.3833
 70
192
 0
VERTEX
 8
D_SE_INSTANCE_5_8
 10
13.4011
 20
2.391
 30
1.3833
 70
192
 0
VERTEX
 8
D_SE_INSTANCE_5_8
 10
12.4502
 20
2.1769
 30
1.3833
 70
192
 0
VERTEX
 8
D_SE_INSTANCE_5_8
 10
12.9772
 20
1.9908
 30
1.0102
 70
192
 0
VERTEX
 8
D_SE_INSTANCE_5_8
 10
0
 20
0
 30
0
 70
128
 71
1
 72
2
 73
4
 74
4
 0
VERTEX
 8
D_SE_INSTANCE_5_8
 10
0
 20
0
 30
0
 70
128
 71
4
 72
3
 73
1
 74
1
 0
VERTEX
 8
D_SE_INSTANCE_5_8
 10
0
 20
0
 30
0
 70
128
 71
2
 72
3
 73
4
 74
4
 0
SEQEND
 0
POLYLINE
 8
D_SE_INSTANCE_4_8
 66
1
 10
0.0
 20
0.0
 30
0.0
 70
64
 71
4
 72
3
 0
VERTEX
 8
D_SE_INSTANCE_4_8
 10
13.2407
 20
-10.4397
 30
1.3833
 70
192
 0
VERTEX
 8
D_SE_INSTANCE_4_8
 10
13.4011
 20
-9.5366
 30
1.3833
 70
192
 0
VERTEX
 8
D_SE_INSTANCE_4_8
 10
12.4502
 20
-9.7507
 30
1.3833
 70
192
 0
VERTEX
 8
D_SE_INSTANCE_4_8
 10
12.9772
 20
-9.9368
 30
1.0102
 70
192
 0
VERTEX
 8
D_SE_INSTANCE_4_8
 10
0
 20
0
 30
0
 70
128
 71
1
 72
2
 73
4
 74
4
 0
VERTEX
 8
D_SE_INSTANCE_4_8
 10
0
 20
0
 30
0
 70
128
 71
4
 72
3
 73
1
 74
1
 0
VERTEX
 8
D_SE_INSTANCE_4_8
 10
0
 20
0
 30
0
 70
128
 71
2
 72
3
 73
4
 74
4
 0
SEQEND
 0
POLYLINE
 8
D_SE_INSTANCE_3_8
 66
1
 10
0.0
 20
0.0
 30
0.0
 70
64
 71
4
 72
3
 0
VERTEX
 8
D_SE_INSTANCE_3_8
 10
13.2407
 20
-8.5105
 30
1.3833
 70
192
 0
VERTEX
 8
D_SE_INSTANCE_3_8
 10
13.4011
 20
-7.6074
 30
1.3833
 70
192
 0
VERTEX
 8
D_SE_INSTANCE_3_8
 10
12.4502
 20
-7.8214
 30
1.3833
 70
192
 0
VERTEX
 8
D_SE_INSTANCE_3_8
 10
12.9772
 20
-8.0076
 30
1.0102
 70
192
 0
VERTEX
 8
D_SE_INSTANCE_3_8
 10
0
 20
0
 30
0
 70
128
 71
1
 72
2
 73
4
 74
4
 0
VERTEX
 8
D_SE_INSTANCE_3_8
 10
0
 20
0
 30
0
 70
128
 71
4
 72
3
 73
1
 74
1
 0
VERTEX
 8
D_SE_INSTANCE_3_8
 10
0
 20
0
 30
0
 70
128
 71
2
 72
3
 73
4
 74
4
 0
SEQEND
 0
POLYLINE
 8
D_SE_INSTANCE_2_8
 66
1
 10
0.0
 20
0.0
 30
0.0
 70
64
 71
4
 72
3
 0
VERTEX
 8
D_SE_INSTANCE_2_8
 10
13.2407
 20
-6.5031
 30
1.3833
 70
192
 0
VERTEX
 8
D_SE_INSTANCE_2_8
 10
13.4011
 20
-5.6
 30
1.3833
 70
192
 0
VERTEX
 8
D_SE_INSTANCE_2_8
 10
12.4502
 20
-5.8141
 30
1.3833
 70
192
 0
VERTEX
 8
D_SE_INSTANCE_2_8
 10
12.9772
 20
-6.0002
 30
1.0102
 70
192
 0
VERTEX
 8
D_SE_INSTANCE_2_8
 10
0
 20
0
 30
0
 70
128
 71
1
 72
2
 73
4
 74
4
 0
VERTEX
 8
D_SE_INSTANCE_2_8
 10
0
 20
0
 30
0
 70
128
 71
4
 72
3
 73
1
 74
1
 0
VERTEX
 8
D_SE_INSTANCE_2_8
 10
0
 20
0
 30
0
 70
128
 71
2
 72
3
 73
4
 74
4
 0
SEQEND
 0
POLYLINE
 8
D_SE_INSTANCE_1_8
 66
1
 10
0.0
 20
0.0
 30
0.0
 70
64
 71
4
 72
3
 0
VERTEX
 8
D_SE_INSTANCE_1_8
 10
13.2407
 20
-4.5498
 30
1.3833
 70
192
 0
VERTEX
 8
D_SE_INSTANCE_1_8
 10
13.4011
 20
-3.6466
 30
1.3833
 70
192
 0
VERTEX
 8
D_SE_INSTANCE_1_8
 10
12.4502
 20
-3.8607
 30
1.3833
 70
192
 0
VERTEX
 8
D_SE_INSTANCE_1_8
 10
12.9772
 20
-4.0469
 30
1.0102
 70
192
 0
VERTEX
 8
D_SE_INSTANCE_1_8
 10
0
 20
0
 30
0
 70
128
 71
1
 72
2
 73
4
 74
4
 0
VERTEX
 8
D_SE_INSTANCE_1_8
 10
0
 20
0
 30
0
 70
128
 71
4
 72
3
 73
1
 74
1
 0
VERTEX
 8
D_SE_INSTANCE_1_8
 10
0
 20
0
 30
0
 70
128
 71
2
 72
3
 73
4
 74
4
 0
SEQEND
 0
POLYLINE
 8
D_SE_INSTANCE_8
 66
1
 10
0.0
 20
0.0
 30
0.0
 70
64
 71
4
 72
3
 0
VERTEX
 8
D_SE_INSTANCE_8
 10
13.2407
 20
-2.5522
 30
1.3833
 70
192
 0
VERTEX
 8
D_SE_INSTANCE_8
 10
13.4011
 20
-1.6491
 30
1.3833
 70
192
 0
VERTEX
 8
D_SE_INSTANCE_8
 10
12.4502
 20
-1.8632
 30
1.3833
 70
192
 0
VERTEX
 8
D_SE_INSTANCE_8
 10
12.9772
 20
-2.0493
 30
1.0102
 70
192
 0
VERTEX
 8
D_SE_INSTANCE_8
 10
0
 20
0
 30
0
 70
128
 71
1
 72
2
 73
4
 74
4
 0
VERTEX
 8
D_SE_INSTANCE_8
 10
0
 20
0
 30
0
 70
128
 71
4
 72
3
 73
1
 74
1
 0
VERTEX
 8
D_SE_INSTANCE_8
 10
0
 20
0
 30
0
 70
128
 71
2
 72
3
 73
4
 74
4
 0
SEQEND
 0
POLYLINE
 8
D_SE_INSTANCE_9_8
 66
1
 10
0.0
 20
0.0
 30
0.0
 70
64
 71
4
 72
3
 0
VERTEX
 8
D_SE_INSTANCE_9_8
 10
13.2407
 20
-0.4135
 30
1.3833
 70
192
 0
VERTEX
 8
D_SE_INSTANCE_9_8
 10
13.4011
 20
0.4896
 30
1.3833
 70
192
 0
VERTEX
 8
D_SE_INSTANCE_9_8
 10
12.4502
 20
0.2755
 30
1.3833
 70
192
 0
VERTEX
 8
D_SE_INSTANCE_9_8
 10
12.9772
 20
0.0893
 30
1.0102
 70
192
 0
VERTEX
 8
D_SE_INSTANCE_9_8
 10
0
 20
0
 30
0
 70
128
 71
1
 72
2
 73
4
 74
4
 0
VERTEX
 8
D_SE_INSTANCE_9_8
 10
0
 20
0
 30
0
 70
128
 71
4
 72
3
 73
1
 74
1
 0
VERTEX
 8
D_SE_INSTANCE_9_8
 10
0
 20
0
 30
0
 70
128
 71
2
 72
3
 73
4
 74
4
 0
SEQEND
 0
POLYLINE
 8
D_SE_INSTANCE_10_9
 66
1
 10
0.0
 20
0.0
 30
0.0
 70
64
 71
4
 72
3
 0
VERTEX
 8
D_SE_INSTANCE_10_9
 10
11.3105
 20
9.5314
 30
1.3833
 70
192
 0
VERTEX
 8
D_SE_INSTANCE_10_9
 10
11.4709
 20
10.4345
 30
1.3833
 70
192
 0
VERTEX
 8
D_SE_INSTANCE_10_9
 10
10.52
 20
10.2204
 30
1.3833
 70
192
 0
VERTEX
 8
D_SE_INSTANCE_10_9
 10
11.047
 20
10.0342
 30
1.0102
 70
192
 0
VERTEX
 8
D_SE_INSTANCE_10_9
 10
0
 20
0
 30
0
 70
128
 71
1
 72
2
 73
4
 74
4
 0
VERTEX
 8
D_SE_INSTANCE_10_9
 10
0
 20
0
 30
0
 70
128
 71
4
 72
3
 73
1
 74
1
 0
VERTEX
 8
D_SE_INSTANCE_10_9
 10
0
 20
0
 30
0
 70
128
 71
2
 72
3
 73
4
 74
4
 0
SEQEND
 0
POLYLINE
 8
D_SE_INSTANCE_8_9
 66
1
 10
0.0
 20
0.0
 30
0.0
 70
64
 71
4
 72
3
 0
VERTEX
 8
D_SE_INSTANCE_8_9
 10
11.3105
 20
7.5043
 30
1.3833
 70
192
 0
VERTEX
 8
D_SE_INSTANCE_8_9
 10
11.4709
 20
8.4074
 30
1.3833
 70
192
 0
VERTEX
 8
D_SE_INSTANCE_8_9
 10
10.52
 20
8.1933
 30
1.3833
 70
192
 0
VERTEX
 8
D_SE_INSTANCE_8_9
 10
11.047
 20
8.0072
 30
1.0102
 70
192
 0
VERTEX
 8
D_SE_INSTANCE_8_9
 10
0
 20
0
 30
0
 70
128
 71
1
 72
2
 73
4
 74
4
 0
VERTEX
 8
D_SE_INSTANCE_8_9
 10
0
 20
0
 30
0
 70
128
 71
4
 72
3
 73
1
 74
1
 0
VERTEX
 8
D_SE_INSTANCE_8_9
 10
0
 20
0
 30
0
 70
128
 71
2
 72
3
 73
4
 74
4
 0
SEQEND
 0
POLYLINE
 8
D_SE_INSTANCE_7_9
 66
1
 10
0.0
 20
0.0
 30
0.0
 70
64
 71
4
 72
3
 0
VERTEX
 8
D_SE_INSTANCE_7_9
 10
11.3105
 20
5.5491
 30
1.3833
 70
192
 0
VERTEX
 8
D_SE_INSTANCE_7_9
 10
11.4709
 20
6.4522
 30
1.3833
 70
192
 0
VERTEX
 8
D_SE_INSTANCE_7_9
 10
10.52
 20
6.2381
 30
1.3833
 70
192
 0
VERTEX
 8
D_SE_INSTANCE_7_9
 10
11.047
 20
6.052
 30
1.0102
 70
192
 0
VERTEX
 8
D_SE_INSTANCE_7_9
 10
0
 20
0
 30
0
 70
128
 71
1
 72
2
 73
4
 74
4
 0
VERTEX
 8
D_SE_INSTANCE_7_9
 10
0
 20
0
 30
0
 70
128
 71
4
 72
3
 73
1
 74
1
 0
VERTEX
 8
D_SE_INSTANCE_7_9
 10
0
 20
0
 30
0
 70
128
 71
2
 72
3
 73
4
 74
4
 0
SEQEND
 0
POLYLINE
 8
D_SE_INSTANCE_6_9
 66
1
 10
0.0
 20
0.0
 30
0.0
 70
64
 71
4
 72
3
 0
VERTEX
 8
D_SE_INSTANCE_6_9
 10
11.3105
 20
3.5755
 30
1.3833
 70
192
 0
VERTEX
 8
D_SE_INSTANCE_6_9
 10
11.4709
 20
4.4786
 30
1.3833
 70
192
 0
VERTEX
 8
D_SE_INSTANCE_6_9
 10
10.52
 20
4.2645
 30
1.3833
 70
192
 0
VERTEX
 8
D_SE_INSTANCE_6_9
 10
11.047
 20
4.0784
 30
1.0102
 70
192
 0
VERTEX
 8
D_SE_INSTANCE_6_9
 10
0
 20
0
 30
0
 70
128
 71
1
 72
2
 73
4
 74
4
 0
VERTEX
 8
D_SE_INSTANCE_6_9
 10
0
 20
0
 30
0
 70
128
 71
4
 72
3
 73
1
 74
1
 0
VERTEX
 8
D_SE_INSTANCE_6_9
 10
0
 20
0
 30
0
 70
128
 71
2
 72
3
 73
4
 74
4
 0
SEQEND
 0
POLYLINE
 8
D_SE_INSTANCE_5_9
 66
1
 10
0.0
 20
0.0
 30
0.0
 70
64
 71
4
 72
3
 0
VERTEX
 8
D_SE_INSTANCE_5_9
 10
11.3105
 20
1.4879
 30
1.3833
 70
192
 0
VERTEX
 8
D_SE_INSTANCE_5_9
 10
11.4709
 20
2.391
 30
1.3833
 70
192
 0
VERTEX
 8
D_SE_INSTANCE_5_9
 10
10.52
 20
2.1769
 30
1.3833
 70
192
 0
VERTEX
 8
D_SE_INSTANCE_5_9
 10
11.047
 20
1.9908
 30
1.0102
 70
192
 0
VERTEX
 8
D_SE_INSTANCE_5_9
 10
0
 20
0
 30
0
 70
128
 71
1
 72
2
 73
4
 74
4
 0
VERTEX
 8
D_SE_INSTANCE_5_9
 10
0
 20
0
 30
0
 70
128
 71
4
 72
3
 73
1
 74
1
 0
VERTEX
 8
D_SE_INSTANCE_5_9
 10
0
 20
0
 30
0
 70
128
 71
2
 72
3
 73
4
 74
4
 0
SEQEND
 0
POLYLINE
 8
D_SE_INSTANCE_4_9
 66
1
 10
0.0
 20
0.0
 30
0.0
 70
64
 71
4
 72
3
 0
VERTEX
 8
D_SE_INSTANCE_4_9
 10
11.3105
 20
-10.4397
 30
1.3833
 70
192
 0
VERTEX
 8
D_SE_INSTANCE_4_9
 10
11.4709
 20
-9.5366
 30
1.3833
 70
192
 0
VERTEX
 8
D_SE_INSTANCE_4_9
 10
10.52
 20
-9.7507
 30
1.3833
 70
192
 0
VERTEX
 8
D_SE_INSTANCE_4_9
 10
11.047
 20
-9.9368
 30
1.0102
 70
192
 0
VERTEX
 8
D_SE_INSTANCE_4_9
 10
0
 20
0
 30
0
 70
128
 71
1
 72
2
 73
4
 74
4
 0
VERTEX
 8
D_SE_INSTANCE_4_9
 10
0
 20
0
 30
0
 70
128
 71
4
 72
3
 73
1
 74
1
 0
VERTEX
 8
D_SE_INSTANCE_4_9
 10
0
 20
0
 30
0
 70
128
 71
2
 72
3
 73
4
 74
4
 0
SEQEND
 0
POLYLINE
 8
D_SE_INSTANCE_3_9
 66
1
 10
0.0
 20
0.0
 30
0.0
 70
64
 71
4
 72
3
 0
VERTEX
 8
D_SE_INSTANCE_3_9
 10
11.3105
 20
-8.5105
 30
1.3833
 70
192
 0
VERTEX
 8
D_SE_INSTANCE_3_9
 10
11.4709
 20
-7.6074
 30
1.3833
 70
192
 0
VERTEX
 8
D_SE_INSTANCE_3_9
 10
10.52
 20
-7.8214
 30
1.3833
 70
192
 0
VERTEX
 8
D_SE_INSTANCE_3_9
 10
11.047
 20
-8.0076
 30
1.0102
 70
192
 0
VERTEX
 8
D_SE_INSTANCE_3_9
 10
0
 20
0
 30
0
 70
128
 71
1
 72
2
 73
4
 74
4
 0
VERTEX
 8
D_SE_INSTANCE_3_9
 10
0
 20
0
 30
0
 70
128
 71
4
 72
3
 73
1
 74
1
 0
VERTEX
 8
D_SE_INSTANCE_3_9
 10
0
 20
0
 30
0
 70
128
 71
2
 72
3
 73
4
 74
4
 0
SEQEND
 0
POLYLINE
 8
D_SE_INSTANCE_2_9
 66
1
 10
0.0
 20
0.0
 30
0.0
 70
64
 71
4
 72
3
 0
VERTEX
 8
D_SE_INSTANCE_2_9
 10
11.3105
 20
-6.5031
 30
1.3833
 70
192
 0
VERTEX
 8
D_SE_INSTANCE_2_9
 10
11.4709
 20
-5.6
 30
1.3833
 70
192
 0
VERTEX
 8
D_SE_INSTANCE_2_9
 10
10.52
 20
-5.8141
 30
1.3833
 70
192
 0
VERTEX
 8
D_SE_INSTANCE_2_9
 10
11.047
 20
-6.0002
 30
1.0102
 70
192
 0
VERTEX
 8
D_SE_INSTANCE_2_9
 10
0
 20
0
 30
0
 70
128
 71
1
 72
2
 73
4
 74
4
 0
VERTEX
 8
D_SE_INSTANCE_2_9
 10
0
 20
0
 30
0
 70
128
 71
4
 72
3
 73
1
 74
1
 0
VERTEX
 8
D_SE_INSTANCE_2_9
 10
0
 20
0
 30
0
 70
128
 71
2
 72
3
 73
4
 74
4
 0
SEQEND
 0
POLYLINE
 8
D_SE_INSTANCE_1_9
 66
1
 10
0.0
 20
0.0
 30
0.0
 70
64
 71
4
 72
3
 0
VERTEX
 8
D_SE_INSTANCE_1_9
 10
11.3105
 20
-4.5498
 30
1.3833
 70
192
 0
VERTEX
 8
D_SE_INSTANCE_1_9
 10
11.4709
 20
-3.6466
 30
1.3833
 70
192
 0
VERTEX
 8
D_SE_INSTANCE_1_9
 10
10.52
 20
-3.8607
 30
1.3833
 70
192
 0
VERTEX
 8
D_SE_INSTANCE_1_9
 10
11.047
 20
-4.0469
 30
1.0102
 70
192
 0
VERTEX
 8
D_SE_INSTANCE_1_9
 10
0
 20
0
 30
0
 70
128
 71
1
 72
2
 73
4
 74
4
 0
VERTEX
 8
D_SE_INSTANCE_1_9
 10
0
 20
0
 30
0
 70
128
 71
4
 72
3
 73
1
 74
1
 0
VERTEX
 8
D_SE_INSTANCE_1_9
 10
0
 20
0
 30
0
 70
128
 71
2
 72
3
 73
4
 74
4
 0
SEQEND
 0
POLYLINE
 8
D_SE_INSTANCE_9
 66
1
 10
0.0
 20
0.0
 30
0.0
 70
64
 71
4
 72
3
 0
VERTEX
 8
D_SE_INSTANCE_9
 10
11.3105
 20
-2.5522
 30
1.3833
 70
192
 0
VERTEX
 8
D_SE_INSTANCE_9
 10
11.4709
 20
-1.6491
 30
1.3833
 70
192
 0
VERTEX
 8
D_SE_INSTANCE_9
 10
10.52
 20
-1.8632
 30
1.3833
 70
192
 0
VERTEX
 8
D_SE_INSTANCE_9
 10
11.047
 20
-2.0493
 30
1.0102
 70
192
 0
VERTEX
 8
D_SE_INSTANCE_9
 10
0
 20
0
 30
0
 70
128
 71
1
 72
2
 73
4
 74
4
 0
VERTEX
 8
D_SE_INSTANCE_9
 10
0
 20
0
 30
0
 70
128
 71
4
 72
3
 73
1
 74
1
 0
VERTEX
 8
D_SE_INSTANCE_9
 10
0
 20
0
 30
0
 70
128
 71
2
 72
3
 73
4
 74
4
 0
SEQEND
 0
POLYLINE
 8
D_SE_INSTANCE_9_9
 66
1
 10
0.0
 20
0.0
 30
0.0
 70
64
 71
4
 72
3
 0
VERTEX
 8
D_SE_INSTANCE_9_9
 10
11.3105
 20
-0.4135
 30
1.3833
 70
192
 0
VERTEX
 8
D_SE_INSTANCE_9_9
 10
11.4709
 20
0.4896
 30
1.3833
 70
192
 0
VERTEX
 8
D_SE_INSTANCE_9_9
 10
10.52
 20
0.2755
 30
1.3833
 70
192
 0
VERTEX
 8
D_SE_INSTANCE_9_9
 10
11.047
 20
0.0893
 30
1.0102
 70
192
 0
VERTEX
 8
D_SE_INSTANCE_9_9
 10
0
 20
0
 30
0
 70
128
 71
1
 72
2
 73
4
 74
4
 0
VERTEX
 8
D_SE_INSTANCE_9_9
 10
0
 20
0
 30
0
 70
128
 71
4
 72
3
 73
1
 74
1
 0
VERTEX
 8
D_SE_INSTANCE_9_9
 10
0
 20
0
 30
0
 70
128
 71
2
 72
3
 73
4
 74
4
 0
SEQEND
 0
POLYLINE
 8
D_SE_INSTANCE_10_10
 66
1
 10
0.0
 20
0.0
 30
0.0
 70
64
 71
4
 72
3
 0
VERTEX
 8
D_SE_INSTANCE_10_10
 10
11.3105
 20
9.5314
 30
1.3833
 70
192
 0
VERTEX
 8
D_SE_INSTANCE_10_10
 10
11.4709
 20
10.4345
 30
1.3833
 70
192
 0
VERTEX
 8
D_SE_INSTANCE_10_10
 10
10.52
 20
10.2204
 30
1.3833
 70
192
 0
VERTEX
 8
D_SE_INSTANCE_10_10
 10
11.047
 20
10.0342
 30
1.0102
 70
192
 0
VERTEX
 8
D_SE_INSTANCE_10_10
 10
0
 20
0
 30
0
 70
128
 71
1
 72
2
 73
4
 74
4
 0
VERTEX
 8
D_SE_INSTANCE_10_10
 10
0
 20
0
 30
0
 70
128
 71
4
 72
3
 73
1
 74
1
 0
VERTEX
 8
D_SE_INSTANCE_10_10
 10
0
 20
0
 30
0
 70
128
 71
2
 72
3
 73
4
 74
4
 0
SEQEND
 0
POLYLINE
 8
D_SE_INSTANCE_8_10
 66
1
 10
0.0
 20
0.0
 30
0.0
 70
64
 71
4
 72
3
 0
VERTEX
 8
D_SE_INSTANCE_8_10
 10
11.3105
 20
7.5043
 30
1.3833
 70
192
 0
VERTEX
 8
D_SE_INSTANCE_8_10
 10
11.4709
 20
8.4074
 30
1.3833
 70
192
 0
VERTEX
 8
D_SE_INSTANCE_8_10
 10
10.52
 20
8.1933
 30
1.3833
 70
192
 0
VERTEX
 8
D_SE_INSTANCE_8_10
 10
11.047
 20
8.0072
 30
1.0102
 70
192
 0
VERTEX
 8
D_SE_INSTANCE_8_10
 10
0
 20
0
 30
0
 70
128
 71
1
 72
2
 73
4
 74
4
 0
VERTEX
 8
D_SE_INSTANCE_8_10
 10
0
 20
0
 30
0
 70
128
 71
4
 72
3
 73
1
 74
1
 0
VERTEX
 8
D_SE_INSTANCE_8_10
 10
0
 20
0
 30
0
 70
128
 71
2
 72
3
 73
4
 74
4
 0
SEQEND
 0
POLYLINE
 8
D_SE_INSTANCE_7_10
 66
1
 10
0.0
 20
0.0
 30
0.0
 70
64
 71
4
 72
3
 0
VERTEX
 8
D_SE_INSTANCE_7_10
 10
11.3105
 20
5.5491
 30
1.3833
 70
192
 0
VERTEX
 8
D_SE_INSTANCE_7_10
 10
11.4709
 20
6.4522
 30
1.3833
 70
192
 0
VERTEX
 8
D_SE_INSTANCE_7_10
 10
10.52
 20
6.2381
 30
1.3833
 70
192
 0
VERTEX
 8
D_SE_INSTANCE_7_10
 10
11.047
 20
6.052
 30
1.0102
 70
192
 0
VERTEX
 8
D_SE_INSTANCE_7_10
 10
0
 20
0
 30
0
 70
128
 71
1
 72
2
 73
4
 74
4
 0
VERTEX
 8
D_SE_INSTANCE_7_10
 10
0
 20
0
 30
0
 70
128
 71
4
 72
3
 73
1
 74
1
 0
VERTEX
 8
D_SE_INSTANCE_7_10
 10
0
 20
0
 30
0
 70
128
 71
2
 72
3
 73
4
 74
4
 0
SEQEND
 0
POLYLINE
 8
D_SE_INSTANCE_6_10
 66
1
 10
0.0
 20
0.0
 30
0.0
 70
64
 71
4
 72
3
 0
VERTEX
 8
D_SE_INSTANCE_6_10
 10
11.3105
 20
3.5755
 30
1.3833
 70
192
 0
VERTEX
 8
D_SE_INSTANCE_6_10
 10
11.4709
 20
4.4786
 30
1.3833
 70
192
 0
VERTEX
 8
D_SE_INSTANCE_6_10
 10
10.52
 20
4.2645
 30
1.3833
 70
192
 0
VERTEX
 8
D_SE_INSTANCE_6_10
 10
11.047
 20
4.0784
 30
1.0102
 70
192
 0
VERTEX
 8
D_SE_INSTANCE_6_10
 10
0
 20
0
 30
0
 70
128
 71
1
 72
2
 73
4
 74
4
 0
VERTEX
 8
D_SE_INSTANCE_6_10
 10
0
 20
0
 30
0
 70
128
 71
4
 72
3
 73
1
 74
1
 0
VERTEX
 8
D_SE_INSTANCE_6_10
 10
0
 20
0
 30
0
 70
128
 71
2
 72
3
 73
4
 74
4
 0
SEQEND
 0
POLYLINE
 8
D_SE_INSTANCE_5_10
 66
1
 10
0.0
 20
0.0
 30
0.0
 70
64
 71
4
 72
3
 0
VERTEX
 8
D_SE_INSTANCE_5_10
 10
11.3105
 20
1.4879
 30
1.3833
 70
192
 0
VERTEX
 8
D_SE_INSTANCE_5_10
 10
11.4709
 20
2.391
 30
1.3833
 70
192
 0
VERTEX
 8
D_SE_INSTANCE_5_10
 10
10.52
 20
2.1769
 30
1.3833
 70
192
 0
VERTEX
 8
D_SE_INSTANCE_5_10
 10
11.047
 20
1.9908
 30
1.0102
 70
192
 0
VERTEX
 8
D_SE_INSTANCE_5_10
 10
0
 20
0
 30
0
 70
128
 71
1
 72
2
 73
4
 74
4
 0
VERTEX
 8
D_SE_INSTANCE_5_10
 10
0
 20
0
 30
0
 70
128
 71
4
 72
3
 73
1
 74
1
 0
VERTEX
 8
D_SE_INSTANCE_5_10
 10
0
 20
0
 30
0
 70
128
 71
2
 72
3
 73
4
 74
4
 0
SEQEND
 0
POLYLINE
 8
D_SE_INSTANCE_4_10
 66
1
 10
0.0
 20
0.0
 30
0.0
 70
64
 71
4
 72
3
 0
VERTEX
 8
D_SE_INSTANCE_4_10
 10
11.3105
 20
-10.4397
 30
1.3833
 70
192
 0
VERTEX
 8
D_SE_INSTANCE_4_10
 10
11.4709
 20
-9.5366
 30
1.3833
 70
192
 0
VERTEX
 8
D_SE_INSTANCE_4_10
 10
10.52
 20
-9.7507
 30
1.3833
 70
192
 0
VERTEX
 8
D_SE_INSTANCE_4_10
 10
11.047
 20
-9.9368
 30
1.0102
 70
192
 0
VERTEX
 8
D_SE_INSTANCE_4_10
 10
0
 20
0
 30
0
 70
128
 71
1
 72
2
 73
4
 74
4
 0
VERTEX
 8
D_SE_INSTANCE_4_10
 10
0
 20
0
 30
0
 70
128
 71
4
 72
3
 73
1
 74
1
 0
VERTEX
 8
D_SE_INSTANCE_4_10
 10
0
 20
0
 30
0
 70
128
 71
2
 72
3
 73
4
 74
4
 0
SEQEND
 0
POLYLINE
 8
D_SE_INSTANCE_3_10
 66
1
 10
0.0
 20
0.0
 30
0.0
 70
64
 71
4
 72
3
 0
VERTEX
 8
D_SE_INSTANCE_3_10
 10
11.3105
 20
-8.5105
 30
1.3833
 70
192
 0
VERTEX
 8
D_SE_INSTANCE_3_10
 10
11.4709
 20
-7.6074
 30
1.3833
 70
192
 0
VERTEX
 8
D_SE_INSTANCE_3_10
 10
10.52
 20
-7.8214
 30
1.3833
 70
192
 0
VERTEX
 8
D_SE_INSTANCE_3_10
 10
11.047
 20
-8.0076
 30
1.0102
 70
192
 0
VERTEX
 8
D_SE_INSTANCE_3_10
 10
0
 20
0
 30
0
 70
128
 71
1
 72
2
 73
4
 74
4
 0
VERTEX
 8
D_SE_INSTANCE_3_10
 10
0
 20
0
 30
0
 70
128
 71
4
 72
3
 73
1
 74
1
 0
VERTEX
 8
D_SE_INSTANCE_3_10
 10
0
 20
0
 30
0
 70
128
 71
2
 72
3
 73
4
 74
4
 0
SEQEND
 0
POLYLINE
 8
D_SE_INSTANCE_2_10
 66
1
 10
0.0
 20
0.0
 30
0.0
 70
64
 71
4
 72
3
 0
VERTEX
 8
D_SE_INSTANCE_2_10
 10
11.3105
 20
-6.5031
 30
1.3833
 70
192
 0
VERTEX
 8
D_SE_INSTANCE_2_10
 10
11.4709
 20
-5.6
 30
1.3833
 70
192
 0
VERTEX
 8
D_SE_INSTANCE_2_10
 10
10.52
 20
-5.8141
 30
1.3833
 70
192
 0
VERTEX
 8
D_SE_INSTANCE_2_10
 10
11.047
 20
-6.0002
 30
1.0102
 70
192
 0
VERTEX
 8
D_SE_INSTANCE_2_10
 10
0
 20
0
 30
0
 70
128
 71
1
 72
2
 73
4
 74
4
 0
VERTEX
 8
D_SE_INSTANCE_2_10
 10
0
 20
0
 30
0
 70
128
 71
4
 72
3
 73
1
 74
1
 0
VERTEX
 8
D_SE_INSTANCE_2_10
 10
0
 20
0
 30
0
 70
128
 71
2
 72
3
 73
4
 74
4
 0
SEQEND
 0
POLYLINE
 8
D_SE_INSTANCE_1_10
 66
1
 10
0.0
 20
0.0
 30
0.0
 70
64
 71
4
 72
3
 0
VERTEX
 8
D_SE_INSTANCE_1_10
 10
11.3105
 20
-4.5498
 30
1.3833
 70
192
 0
VERTEX
 8
D_SE_INSTANCE_1_10
 10
11.4709
 20
-3.6466
 30
1.3833
 70
192
 0
VERTEX
 8
D_SE_INSTANCE_1_10
 10
10.52
 20
-3.8607
 30
1.3833
 70
192
 0
VERTEX
 8
D_SE_INSTANCE_1_10
 10
11.047
 20
-4.0469
 30
1.0102
 70
192
 0
VERTEX
 8
D_SE_INSTANCE_1_10
 10
0
 20
0
 30
0
 70
128
 71
1
 72
2
 73
4
 74
4
 0
VERTEX
 8
D_SE_INSTANCE_1_10
 10
0
 20
0
 30
0
 70
128
 71
4
 72
3
 73
1
 74
1
 0
VERTEX
 8
D_SE_INSTANCE_1_10
 10
0
 20
0
 30
0
 70
128
 71
2
 72
3
 73
4
 74
4
 0
SEQEND
 0
POLYLINE
 8
D_SE_INSTANCE_10
 66
1
 10
0.0
 20
0.0
 30
0.0
 70
64
 71
4
 72
3
 0
VERTEX
 8
D_SE_INSTANCE_10
 10
11.3105
 20
-2.5522
 30
1.3833
 70
192
 0
VERTEX
 8
D_SE_INSTANCE_10
 10
11.4709
 20
-1.6491
 30
1.3833
 70
192
 0
VERTEX
 8
D_SE_INSTANCE_10
 10
10.52
 20
-1.8632
 30
1.3833
 70
192
 0
VERTEX
 8
D_SE_INSTANCE_10
 10
11.047
 20
-2.0493
 30
1.0102
 70
192
 0
VERTEX
 8
D_SE_INSTANCE_10
 10
0
 20
0
 30
0
 70
128
 71
1
 72
2
 73
4
 74
4
 0
VERTEX
 8
D_SE_INSTANCE_10
 10
0
 20
0
 30
0
 70
128
 71
4
 72
3
 73
1
 74
1
 0
VERTEX
 8
D_SE_INSTANCE_10
 10
0
 20
0
 30
0
 70
128
 71
2
 72
3
 73
4
 74
4
 0
SEQEND
 0
POLYLINE
 8
D_SE_INSTANCE_9_10
 66
1
 10
0.0
 20
0.0
 30
0.0
 70
64
 71
4
 72
3
 0
VERTEX
 8
D_SE_INSTANCE_9_10
 10
11.3105
 20
-0.4135
 30
1.3833
 70
192
 0
VERTEX
 8
D_SE_INSTANCE_9_10
 10
11.4709
 20
0.4896
 30
1.3833
 70
192
 0
VERTEX
 8
D_SE_INSTANCE_9_10
 10
10.52
 20
0.2755
 30
1.3833
 70
192
 0
VERTEX
 8
D_SE_INSTANCE_9_10
 10
11.047
 20
0.0893
 30
1.0102
 70
192
 0
VERTEX
 8
D_SE_INSTANCE_9_10
 10
0
 20
0
 30
0
 70
128
 71
1
 72
2
 73
4
 74
4
 0
VERTEX
 8
D_SE_INSTANCE_9_10
 10
0
 20
0
 30
0
 70
128
 71
4
 72
3
 73
1
 74
1
 0
VERTEX
 8
D_SE_INSTANCE_9_10
 10
0
 20
0
 30
0
 70
128
 71
2
 72
3
 73
4
 74
4
 0
SEQEND
 0
POLYLINE
 8
D_SE_INSTANCE_11
 66
1
 10
0.0
 20
0.0
 30
0.0
 70
64
 71
4
 72
3
 0
VERTEX
 8
D_SE_INSTANCE_11
 10
31.74
 20
-15.0748
 30
1.3833
 70
192
 0
VERTEX
 8
D_SE_INSTANCE_11
 10
31.9004
 20
-14.1717
 30
1.3833
 70
192
 0
VERTEX
 8
D_SE_INSTANCE_11
 10
30.9495
 20
-14.3858
 30
1.3833
 70
192
 0
VERTEX
 8
D_SE_INSTANCE_11
 10
31.4765
 20
-14.5719
 30
1.0102
 70
192
 0
VERTEX
 8
D_SE_INSTANCE_11
 10
0
 20
0
 30
0
 70
128
 71
1
 72
2
 73
4
 74
4
 0
VERTEX
 8
D_SE_INSTANCE_11
 10
0
 20
0
 30
0
 70
128
 71
4
 72
3
 73
1
 74
1
 0
VERTEX
 8
D_SE_INSTANCE_11
 10
0
 20
0
 30
0
 70
128
 71
2
 72
3
 73
4
 74
4
 0
SEQEND
 0
POLYLINE
 8
D_SE_INSTANCE_1_11
 66
1
 10
0.0
 20
0.0
 30
0.0
 70
64
 71
4
 72
3
 0
VERTEX
 8
D_SE_INSTANCE_1_11
 10
6.6014
 20
-15.0748
 30
1.3833
 70
192
 0
VERTEX
 8
D_SE_INSTANCE_1_11
 10
6.7618
 20
-14.1717
 30
1.3833
 70
192
 0
VERTEX
 8
D_SE_INSTANCE_1_11
 10
5.8109
 20
-14.3858
 30
1.3833
 70
192
 0
VERTEX
 8
D_SE_INSTANCE_1_11
 10
6.3379
 20
-14.5719
 30
1.0102
 70
192
 0
VERTEX
 8
D_SE_INSTANCE_1_11
 10
0
 20
0
 30
0
 70
128
 71
1
 72
2
 73
4
 74
4
 0
VERTEX
 8
D_SE_INSTANCE_1_11
 10
0
 20
0
 30
0
 70
128
 71
4
 72
3
 73
1
 74
1
 0
VERTEX
 8
D_SE_INSTANCE_1_11
 10
0
 20
0
 30
0
 70
128
 71
2
 72
3
 73
4
 74
4
 0
SEQEND
 0
POLYLINE
 8
D_SE_INSTANCE_2_11
 66
1
 10
0.0
 20
0.0
 30
0.0
 70
64
 71
4
 72
3
 0
VERTEX
 8
D_SE_INSTANCE_2_11
 10
31.8485
 20
-21.4527
 30
1.3833
 70
192
 0
VERTEX
 8
D_SE_INSTANCE_2_11
 10
32.0089
 20
-20.5496
 30
1.3833
 70
192
 0
VERTEX
 8
D_SE_INSTANCE_2_11
 10
31.058
 20
-20.7637
 30
1.3833
 70
192
 0
VERTEX
 8
D_SE_INSTANCE_2_11
 10
31.585
 20
-20.9499
 30
1.0102
 70
192
 0
VERTEX
 8
D_SE_INSTANCE_2_11
 10
0
 20
0
 30
0
 70
128
 71
1
 72
2
 73
4
 74
4
 0
VERTEX
 8
D_SE_INSTANCE_2_11
 10
0
 20
0
 30
0
 70
128
 71
4
 72
3
 73
1
 74
1
 0
VERTEX
 8
D_SE_INSTANCE_2_11
 10
0
 20
0
 30
0
 70
128
 71
2
 72
3
 73
4
 74
4
 0
SEQEND
 0
POLYLINE
 8
D_SE_INSTANCE_12
 66
1
 10
0.0
 20
0.0
 30
0.0
 70
64
 71
4
 72
3
 0
VERTEX
 8
D_SE_INSTANCE_12
 10
31.8485
 20
-19.3017
 30
1.3833
 70
192
 0
VERTEX
 8
D_SE_INSTANCE_12
 10
32.0089
 20
-18.3985
 30
1.3833
 70
192
 0
VERTEX
 8
D_SE_INSTANCE_12
 10
31.058
 20
-18.6126
 30
1.3833
 70
192
 0
VERTEX
 8
D_SE_INSTANCE_12
 10
31.585
 20
-18.7988
 30
1.0102
 70
192
 0
VERTEX
 8
D_SE_INSTANCE_12
 10
0
 20
0
 30
0
 70
128
 71
1
 72
2
 73
4
 74
4
 0
VERTEX
 8
D_SE_INSTANCE_12
 10
0
 20
0
 30
0
 70
128
 71
4
 72
3
 73
1
 74
1
 0
VERTEX
 8
D_SE_INSTANCE_12
 10
0
 20
0
 30
0
 70
128
 71
2
 72
3
 73
4
 74
4
 0
SEQEND
 0
POLYLINE
 8
D_SE_INSTANCE_1_12
 66
1
 10
0.0
 20
0.0
 30
0.0
 70
64
 71
4
 72
3
 0
VERTEX
 8
D_SE_INSTANCE_1_12
 10
31.8485
 20
-17.2304
 30
1.3833
 70
192
 0
VERTEX
 8
D_SE_INSTANCE_1_12
 10
32.0089
 20
-16.3273
 30
1.3833
 70
192
 0
VERTEX
 8
D_SE_INSTANCE_1_12
 10
31.058
 20
-16.5413
 30
1.3833
 70
192
 0
VERTEX
 8
D_SE_INSTANCE_1_12
 10
31.585
 20
-16.7275
 30
1.0102
 70
192
 0
VERTEX
 8
D_SE_INSTANCE_1_12
 10
0
 20
0
 30
0
 70
128
 71
1
 72
2
 73
4
 74
4
 0
VERTEX
 8
D_SE_INSTANCE_1_12
 10
0
 20
0
 30
0
 70
128
 71
4
 72
3
 73
1
 74
1
 0
VERTEX
 8
D_SE_INSTANCE_1_12
 10
0
 20
0
 30
0
 70
128
 71
2
 72
3
 73
4
 74
4
 0
SEQEND
 0
POLYLINE
 8
D_SE_INS96
 66
1
 10
0.0
 20
0.0
 30
0.0
 70
64
 71
4
 72
3
 0
VERTEX
 8
D_SE_INS96
 10
31.8485
 20
14.2473
 30
1.3833
 70
192
 0
VERTEX
 8
D_SE_INS96
 10
32.0089
 20
15.1504
 30
1.3833
 70
192
 0
VERTEX
 8
D_SE_INS96
 10
31.058
 20
14.9363
 30
1.3833
 70
192
 0
VERTEX
 8
D_SE_INS96
 10
31.585
 20
14.7501
 30
1.0102
 70
192
 0
VERTEX
 8
D_SE_INS96
 10
0
 20
0
 30
0
 70
128
 71
1
 72
2
 73
4
 74
4
 0
VERTEX
 8
D_SE_INS96
 10
0
 20
0
 30
0
 70
128
 71
4
 72
3
 73
1
 74
1
 0
VERTEX
 8
D_SE_INS96
 10
0
 20
0
 30
0
 70
128
 71
2
 72
3
 73
4
 74
4
 0
SEQEND
 0
POLYLINE
 8
D_SE_IN97
 66
1
 10
0.0
 20
0.0
 30
0.0
 70
64
 71
4
 72
3
 0
VERTEX
 8
D_SE_IN97
 10
31.8485
 20
16.3365
 30
1.3833
 70
192
 0
VERTEX
 8
D_SE_IN97
 10
32.0089
 20
17.2396
 30
1.3833
 70
192
 0
VERTEX
 8
D_SE_IN97
 10
31.058
 20
17.0255
 30
1.3833
 70
192
 0
VERTEX
 8
D_SE_IN97
 10
31.585
 20
16.8394
 30
1.0102
 70
192
 0
VERTEX
 8
D_SE_IN97
 10
0
 20
0
 30
0
 70
128
 71
1
 72
2
 73
4
 74
4
 0
VERTEX
 8
D_SE_IN97
 10
0
 20
0
 30
0
 70
128
 71
4
 72
3
 73
1
 74
1
 0
VERTEX
 8
D_SE_IN97
 10
0
 20
0
 30
0
 70
128
 71
2
 72
3
 73
4
 74
4
 0
SEQEND
 0
POLYLINE
 8
D_SE_INSTANCE_18_1
 66
1
 10
0.0
 20
0.0
 30
0.0
 70
64
 71
4
 72
3
 0
VERTEX
 8
D_SE_INSTANCE_18_1
 10
31.8485
 20
18.4451
 30
1.3833
 70
192
 0
VERTEX
 8
D_SE_INSTANCE_18_1
 10
32.0089
 20
19.3482
 30
1.3833
 70
192
 0
VERTEX
 8
D_SE_INSTANCE_18_1
 10
31.058
 20
19.1341
 30
1.3833
 70
192
 0
VERTEX
 8
D_SE_INSTANCE_18_1
 10
31.585
 20
18.948
 30
1.0102
 70
192
 0
VERTEX
 8
D_SE_INSTANCE_18_1
 10
0
 20
0
 30
0
 70
128
 71
1
 72
2
 73
4
 74
4
 0
VERTEX
 8
D_SE_INSTANCE_18_1
 10
0
 20
0
 30
0
 70
128
 71
4
 72
3
 73
1
 74
1
 0
VERTEX
 8
D_SE_INSTANCE_18_1
 10
0
 20
0
 30
0
 70
128
 71
2
 72
3
 73
4
 74
4
 0
SEQEND
 0
POLYLINE
 8
D_SE_INSTANCE_19_1
 66
1
 10
0.0
 20
0.0
 30
0.0
 70
64
 71
4
 72
3
 0
VERTEX
 8
D_SE_INSTANCE_19_1
 10
31.8485
 20
20.5588
 30
1.3833
 70
192
 0
VERTEX
 8
D_SE_INSTANCE_19_1
 10
32.0089
 20
21.4619
 30
1.3833
 70
192
 0
VERTEX
 8
D_SE_INSTANCE_19_1
 10
31.058
 20
21.2478
 30
1.3833
 70
192
 0
VERTEX
 8
D_SE_INSTANCE_19_1
 10
31.585
 20
21.0616
 30
1.0102
 70
192
 0
VERTEX
 8
D_SE_INSTANCE_19_1
 10
0
 20
0
 30
0
 70
128
 71
1
 72
2
 73
4
 74
4
 0
VERTEX
 8
D_SE_INSTANCE_19_1
 10
0
 20
0
 30
0
 70
128
 71
4
 72
3
 73
1
 74
1
 0
VERTEX
 8
D_SE_INSTANCE_19_1
 10
0
 20
0
 30
0
 70
128
 71
2
 72
3
 73
4
 74
4
 0
SEQEND
 0
POLYLINE
 8
D_SE_INSTANCE_2_12
 66
1
 10
0.0
 20
0.0
 30
0.0
 70
64
 71
4
 72
3
 0
VERTEX
 8
D_SE_INSTANCE_2_12
 10
29.6737
 20
-21.4527
 30
1.3833
 70
192
 0
VERTEX
 8
D_SE_INSTANCE_2_12
 10
29.8341
 20
-20.5496
 30
1.3833
 70
192
 0
VERTEX
 8
D_SE_INSTANCE_2_12
 10
28.8832
 20
-20.7637
 30
1.3833
 70
192
 0
VERTEX
 8
D_SE_INSTANCE_2_12
 10
29.4102
 20
-20.9499
 30
1.0102
 70
192
 0
VERTEX
 8
D_SE_INSTANCE_2_12
 10
0
 20
0
 30
0
 70
128
 71
1
 72
2
 73
4
 74
4
 0
VERTEX
 8
D_SE_INSTANCE_2_12
 10
0
 20
0
 30
0
 70
128
 71
4
 72
3
 73
1
 74
1
 0
VERTEX
 8
D_SE_INSTANCE_2_12
 10
0
 20
0
 30
0
 70
128
 71
2
 72
3
 73
4
 74
4
 0
SEQEND
 0
POLYLINE
 8
D_SE_INSTANCE_13
 66
1
 10
0.0
 20
0.0
 30
0.0
 70
64
 71
4
 72
3
 0
VERTEX
 8
D_SE_INSTANCE_13
 10
29.6737
 20
-19.3017
 30
1.3833
 70
192
 0
VERTEX
 8
D_SE_INSTANCE_13
 10
29.8341
 20
-18.3985
 30
1.3833
 70
192
 0
VERTEX
 8
D_SE_INSTANCE_13
 10
28.8832
 20
-18.6126
 30
1.3833
 70
192
 0
VERTEX
 8
D_SE_INSTANCE_13
 10
29.4102
 20
-18.7988
 30
1.0102
 70
192
 0
VERTEX
 8
D_SE_INSTANCE_13
 10
0
 20
0
 30
0
 70
128
 71
1
 72
2
 73
4
 74
4
 0
VERTEX
 8
D_SE_INSTANCE_13
 10
0
 20
0
 30
0
 70
128
 71
4
 72
3
 73
1
 74
1
 0
VERTEX
 8
D_SE_INSTANCE_13
 10
0
 20
0
 30
0
 70
128
 71
2
 72
3
 73
4
 74
4
 0
SEQEND
 0
POLYLINE
 8
D_SE_INSTANCE_1_13
 66
1
 10
0.0
 20
0.0
 30
0.0
 70
64
 71
4
 72
3
 0
VERTEX
 8
D_SE_INSTANCE_1_13
 10
29.6737
 20
-17.2304
 30
1.3833
 70
192
 0
VERTEX
 8
D_SE_INSTANCE_1_13
 10
29.8341
 20
-16.3273
 30
1.3833
 70
192
 0
VERTEX
 8
D_SE_INSTANCE_1_13
 10
28.8832
 20
-16.5413
 30
1.3833
 70
192
 0
VERTEX
 8
D_SE_INSTANCE_1_13
 10
29.4102
 20
-16.7275
 30
1.0102
 70
192
 0
VERTEX
 8
D_SE_INSTANCE_1_13
 10
0
 20
0
 30
0
 70
128
 71
1
 72
2
 73
4
 74
4
 0
VERTEX
 8
D_SE_INSTANCE_1_13
 10
0
 20
0
 30
0
 70
128
 71
4
 72
3
 73
1
 74
1
 0
VERTEX
 8
D_SE_INSTANCE_1_13
 10
0
 20
0
 30
0
 70
128
 71
2
 72
3
 73
4
 74
4
 0
SEQEND
 0
POLYLINE
 8
D_SE_INSTANCE_16_2
 66
1
 10
0.0
 20
0.0
 30
0.0
 70
64
 71
4
 72
3
 0
VERTEX
 8
D_SE_INSTANCE_16_2
 10
29.6737
 20
14.2473
 30
1.3833
 70
192
 0
VERTEX
 8
D_SE_INSTANCE_16_2
 10
29.8341
 20
15.1504
 30
1.3833
 70
192
 0
VERTEX
 8
D_SE_INSTANCE_16_2
 10
28.8832
 20
14.9363
 30
1.3833
 70
192
 0
VERTEX
 8
D_SE_INSTANCE_16_2
 10
29.4102
 20
14.7501
 30
1.0102
 70
192
 0
VERTEX
 8
D_SE_INSTANCE_16_2
 10
0
 20
0
 30
0
 70
128
 71
1
 72
2
 73
4
 74
4
 0
VERTEX
 8
D_SE_INSTANCE_16_2
 10
0
 20
0
 30
0
 70
128
 71
4
 72
3
 73
1
 74
1
 0
VERTEX
 8
D_SE_INSTANCE_16_2
 10
0
 20
0
 30
0
 70
128
 71
2
 72
3
 73
4
 74
4
 0
SEQEND
 0
POLYLINE
 8
D_SE_INSTANCE_17_2
 66
1
 10
0.0
 20
0.0
 30
0.0
 70
64
 71
4
 72
3
 0
VERTEX
 8
D_SE_INSTANCE_17_2
 10
29.6737
 20
16.3365
 30
1.3833
 70
192
 0
VERTEX
 8
D_SE_INSTANCE_17_2
 10
29.8341
 20
17.2396
 30
1.3833
 70
192
 0
VERTEX
 8
D_SE_INSTANCE_17_2
 10
28.8832
 20
17.0255
 30
1.3833
 70
192
 0
VERTEX
 8
D_SE_INSTANCE_17_2
 10
29.4102
 20
16.8394
 30
1.0102
 70
192
 0
VERTEX
 8
D_SE_INSTANCE_17_2
 10
0
 20
0
 30
0
 70
128
 71
1
 72
2
 73
4
 74
4
 0
VERTEX
 8
D_SE_INSTANCE_17_2
 10
0
 20
0
 30
0
 70
128
 71
4
 72
3
 73
1
 74
1
 0
VERTEX
 8
D_SE_INSTANCE_17_2
 10
0
 20
0
 30
0
 70
128
 71
2
 72
3
 73
4
 74
4
 0
SEQEND
 0
POLYLINE
 8
D_SE_INS99
 66
1
 10
0.0
 20
0.0
 30
0.0
 70
64
 71
4
 72
3
 0
VERTEX
 8
D_SE_INS99
 10
29.6737
 20
18.4451
 30
1.3833
 70
192
 0
VERTEX
 8
D_SE_INS99
 10
29.8341
 20
19.3482
 30
1.3833
 70
192
 0
VERTEX
 8
D_SE_INS99
 10
28.8832
 20
19.1341
 30
1.3833
 70
192
 0
VERTEX
 8
D_SE_INS99
 10
29.4102
 20
18.948
 30
1.0102
 70
192
 0
VERTEX
 8
D_SE_INS99
 10
0
 20
0
 30
0
 70
128
 71
1
 72
2
 73
4
 74
4
 0
VERTEX
 8
D_SE_INS99
 10
0
 20
0
 30
0
 70
128
 71
4
 72
3
 73
1
 74
1
 0
VERTEX
 8
D_SE_INS99
 10
0
 20
0
 30
0
 70
128
 71
2
 72
3
 73
4
 74
4
 0
SEQEND
 0
POLYLINE
 8
D_SE_IN98
 66
1
 10
0.0
 20
0.0
 30
0.0
 70
64
 71
4
 72
3
 0
VERTEX
 8
D_SE_IN98
 10
29.6737
 20
20.5588
 30
1.3833
 70
192
 0
VERTEX
 8
D_SE_IN98
 10
29.8341
 20
21.4619
 30
1.3833
 70
192
 0
VERTEX
 8
D_SE_IN98
 10
28.8832
 20
21.2478
 30
1.3833
 70
192
 0
VERTEX
 8
D_SE_IN98
 10
29.4102
 20
21.0616
 30
1.0102
 70
192
 0
VERTEX
 8
D_SE_IN98
 10
0
 20
0
 30
0
 70
128
 71
1
 72
2
 73
4
 74
4
 0
VERTEX
 8
D_SE_IN98
 10
0
 20
0
 30
0
 70
128
 71
4
 72
3
 73
1
 74
1
 0
VERTEX
 8
D_SE_IN98
 10
0
 20
0
 30
0
 70
128
 71
2
 72
3
 73
4
 74
4
 0
SEQEND
 0
POLYLINE
 8
D_SE_INSTANCE_2_13
 66
1
 10
0.0
 20
0.0
 30
0.0
 70
64
 71
4
 72
3
 0
VERTEX
 8
D_SE_INSTANCE_2_13
 10
27.5721
 20
-21.4527
 30
1.3833
 70
192
 0
VERTEX
 8
D_SE_INSTANCE_2_13
 10
27.7326
 20
-20.5496
 30
1.3833
 70
192
 0
VERTEX
 8
D_SE_INSTANCE_2_13
 10
26.7817
 20
-20.7637
 30
1.3833
 70
192
 0
VERTEX
 8
D_SE_INSTANCE_2_13
 10
27.3087
 20
-20.9499
 30
1.0102
 70
192
 0
VERTEX
 8
D_SE_INSTANCE_2_13
 10
0
 20
0
 30
0
 70
128
 71
1
 72
2
 73
4
 74
4
 0
VERTEX
 8
D_SE_INSTANCE_2_13
 10
0
 20
0
 30
0
 70
128
 71
4
 72
3
 73
1
 74
1
 0
VERTEX
 8
D_SE_INSTANCE_2_13
 10
0
 20
0
 30
0
 70
128
 71
2
 72
3
 73
4
 74
4
 0
SEQEND
 0
POLYLINE
 8
D_SE_INSTANCE_14
 66
1
 10
0.0
 20
0.0
 30
0.0
 70
64
 71
4
 72
3
 0
VERTEX
 8
D_SE_INSTANCE_14
 10
27.5721
 20
-19.3017
 30
1.3833
 70
192
 0
VERTEX
 8
D_SE_INSTANCE_14
 10
27.7326
 20
-18.3985
 30
1.3833
 70
192
 0
VERTEX
 8
D_SE_INSTANCE_14
 10
26.7817
 20
-18.6126
 30
1.3833
 70
192
 0
VERTEX
 8
D_SE_INSTANCE_14
 10
27.3087
 20
-18.7988
 30
1.0102
 70
192
 0
VERTEX
 8
D_SE_INSTANCE_14
 10
0
 20
0
 30
0
 70
128
 71
1
 72
2
 73
4
 74
4
 0
VERTEX
 8
D_SE_INSTANCE_14
 10
0
 20
0
 30
0
 70
128
 71
4
 72
3
 73
1
 74
1
 0
VERTEX
 8
D_SE_INSTANCE_14
 10
0
 20
0
 30
0
 70
128
 71
2
 72
3
 73
4
 74
4
 0
SEQEND
 0
POLYLINE
 8
D_SE_INSTANCE_1_14
 66
1
 10
0.0
 20
0.0
 30
0.0
 70
64
 71
4
 72
3
 0
VERTEX
 8
D_SE_INSTANCE_1_14
 10
27.5721
 20
-17.2304
 30
1.3833
 70
192
 0
VERTEX
 8
D_SE_INSTANCE_1_14
 10
27.7326
 20
-16.3273
 30
1.3833
 70
192
 0
VERTEX
 8
D_SE_INSTANCE_1_14
 10
26.7817
 20
-16.5413
 30
1.3833
 70
192
 0
VERTEX
 8
D_SE_INSTANCE_1_14
 10
27.3087
 20
-16.7275
 30
1.0102
 70
192
 0
VERTEX
 8
D_SE_INSTANCE_1_14
 10
0
 20
0
 30
0
 70
128
 71
1
 72
2
 73
4
 74
4
 0
VERTEX
 8
D_SE_INSTANCE_1_14
 10
0
 20
0
 30
0
 70
128
 71
4
 72
3
 73
1
 74
1
 0
VERTEX
 8
D_SE_INSTANCE_1_14
 10
0
 20
0
 30
0
 70
128
 71
2
 72
3
 73
4
 74
4
 0
SEQEND
 0
POLYLINE
 8
D_SE_INSTANCE_16_3
 66
1
 10
0.0
 20
0.0
 30
0.0
 70
64
 71
4
 72
3
 0
VERTEX
 8
D_SE_INSTANCE_16_3
 10
27.5721
 20
14.2473
 30
1.3833
 70
192
 0
VERTEX
 8
D_SE_INSTANCE_16_3
 10
27.7326
 20
15.1504
 30
1.3833
 70
192
 0
VERTEX
 8
D_SE_INSTANCE_16_3
 10
26.7817
 20
14.9363
 30
1.3833
 70
192
 0
VERTEX
 8
D_SE_INSTANCE_16_3
 10
27.3087
 20
14.7501
 30
1.0102
 70
192
 0
VERTEX
 8
D_SE_INSTANCE_16_3
 10
0
 20
0
 30
0
 70
128
 71
1
 72
2
 73
4
 74
4
 0
VERTEX
 8
D_SE_INSTANCE_16_3
 10
0
 20
0
 30
0
 70
128
 71
4
 72
3
 73
1
 74
1
 0
VERTEX
 8
D_SE_INSTANCE_16_3
 10
0
 20
0
 30
0
 70
128
 71
2
 72
3
 73
4
 74
4
 0
SEQEND
 0
POLYLINE
 8
D_SE_INSTANCE_17_3
 66
1
 10
0.0
 20
0.0
 30
0.0
 70
64
 71
4
 72
3
 0
VERTEX
 8
D_SE_INSTANCE_17_3
 10
27.5721
 20
16.3365
 30
1.3833
 70
192
 0
VERTEX
 8
D_SE_INSTANCE_17_3
 10
27.7326
 20
17.2396
 30
1.3833
 70
192
 0
VERTEX
 8
D_SE_INSTANCE_17_3
 10
26.7817
 20
17.0255
 30
1.3833
 70
192
 0
VERTEX
 8
D_SE_INSTANCE_17_3
 10
27.3087
 20
16.8394
 30
1.0102
 70
192
 0
VERTEX
 8
D_SE_INSTANCE_17_3
 10
0
 20
0
 30
0
 70
128
 71
1
 72
2
 73
4
 74
4
 0
VERTEX
 8
D_SE_INSTANCE_17_3
 10
0
 20
0
 30
0
 70
128
 71
4
 72
3
 73
1
 74
1
 0
VERTEX
 8
D_SE_INSTANCE_17_3
 10
0
 20
0
 30
0
 70
128
 71
2
 72
3
 73
4
 74
4
 0
SEQEND
 0
POLYLINE
 8
D_SE_INSTANCE_18_2
 66
1
 10
0.0
 20
0.0
 30
0.0
 70
64
 71
4
 72
3
 0
VERTEX
 8
D_SE_INSTANCE_18_2
 10
27.5721
 20
18.4451
 30
1.3833
 70
192
 0
VERTEX
 8
D_SE_INSTANCE_18_2
 10
27.7326
 20
19.3482
 30
1.3833
 70
192
 0
VERTEX
 8
D_SE_INSTANCE_18_2
 10
26.7817
 20
19.1341
 30
1.3833
 70
192
 0
VERTEX
 8
D_SE_INSTANCE_18_2
 10
27.3087
 20
18.948
 30
1.0102
 70
192
 0
VERTEX
 8
D_SE_INSTANCE_18_2
 10
0
 20
0
 30
0
 70
128
 71
1
 72
2
 73
4
 74
4
 0
VERTEX
 8
D_SE_INSTANCE_18_2
 10
0
 20
0
 30
0
 70
128
 71
4
 72
3
 73
1
 74
1
 0
VERTEX
 8
D_SE_INSTANCE_18_2
 10
0
 20
0
 30
0
 70
128
 71
2
 72
3
 73
4
 74
4
 0
SEQEND
 0
POLYLINE
 8
D_SE_INSTANCE_19_2
 66
1
 10
0.0
 20
0.0
 30
0.0
 70
64
 71
4
 72
3
 0
VERTEX
 8
D_SE_INSTANCE_19_2
 10
27.5721
 20
20.5588
 30
1.3833
 70
192
 0
VERTEX
 8
D_SE_INSTANCE_19_2
 10
27.7326
 20
21.4619
 30
1.3833
 70
192
 0
VERTEX
 8
D_SE_INSTANCE_19_2
 10
26.7817
 20
21.2478
 30
1.3833
 70
192
 0
VERTEX
 8
D_SE_INSTANCE_19_2
 10
27.3087
 20
21.0616
 30
1.0102
 70
192
 0
VERTEX
 8
D_SE_INSTANCE_19_2
 10
0
 20
0
 30
0
 70
128
 71
1
 72
2
 73
4
 74
4
 0
VERTEX
 8
D_SE_INSTANCE_19_2
 10
0
 20
0
 30
0
 70
128
 71
4
 72
3
 73
1
 74
1
 0
VERTEX
 8
D_SE_INSTANCE_19_2
 10
0
 20
0
 30
0
 70
128
 71
2
 72
3
 73
4
 74
4
 0
SEQEND
 0
POLYLINE
 8
D_SE_INSTANCE_2_14
 66
1
 10
0.0
 20
0.0
 30
0.0
 70
64
 71
4
 72
3
 0
VERTEX
 8
D_SE_INSTANCE_2_14
 10
25.4979
 20
-21.4527
 30
1.3833
 70
192
 0
VERTEX
 8
D_SE_INSTANCE_2_14
 10
25.6583
 20
-20.5496
 30
1.3833
 70
192
 0
VERTEX
 8
D_SE_INSTANCE_2_14
 10
24.7074
 20
-20.7637
 30
1.3833
 70
192
 0
VERTEX
 8
D_SE_INSTANCE_2_14
 10
25.2344
 20
-20.9499
 30
1.0102
 70
192
 0
VERTEX
 8
D_SE_INSTANCE_2_14
 10
0
 20
0
 30
0
 70
128
 71
1
 72
2
 73
4
 74
4
 0
VERTEX
 8
D_SE_INSTANCE_2_14
 10
0
 20
0
 30
0
 70
128
 71
4
 72
3
 73
1
 74
1
 0
VERTEX
 8
D_SE_INSTANCE_2_14
 10
0
 20
0
 30
0
 70
128
 71
2
 72
3
 73
4
 74
4
 0
SEQEND
 0
POLYLINE
 8
D_SE_INSTANCE_15
 66
1
 10
0.0
 20
0.0
 30
0.0
 70
64
 71
4
 72
3
 0
VERTEX
 8
D_SE_INSTANCE_15
 10
25.4979
 20
-19.3017
 30
1.3833
 70
192
 0
VERTEX
 8
D_SE_INSTANCE_15
 10
25.6583
 20
-18.3985
 30
1.3833
 70
192
 0
VERTEX
 8
D_SE_INSTANCE_15
 10
24.7074
 20
-18.6126
 30
1.3833
 70
192
 0
VERTEX
 8
D_SE_INSTANCE_15
 10
25.2344
 20
-18.7988
 30
1.0102
 70
192
 0
VERTEX
 8
D_SE_INSTANCE_15
 10
0
 20
0
 30
0
 70
128
 71
1
 72
2
 73
4
 74
4
 0
VERTEX
 8
D_SE_INSTANCE_15
 10
0
 20
0
 30
0
 70
128
 71
4
 72
3
 73
1
 74
1
 0
VERTEX
 8
D_SE_INSTANCE_15
 10
0
 20
0
 30
0
 70
128
 71
2
 72
3
 73
4
 74
4
 0
SEQEND
 0
POLYLINE
 8
D_SE_INSTANCE_1_15
 66
1
 10
0.0
 20
0.0
 30
0.0
 70
64
 71
4
 72
3
 0
VERTEX
 8
D_SE_INSTANCE_1_15
 10
25.4979
 20
-17.2304
 30
1.3833
 70
192
 0
VERTEX
 8
D_SE_INSTANCE_1_15
 10
25.6583
 20
-16.3273
 30
1.3833
 70
192
 0
VERTEX
 8
D_SE_INSTANCE_1_15
 10
24.7074
 20
-16.5413
 30
1.3833
 70
192
 0
VERTEX
 8
D_SE_INSTANCE_1_15
 10
25.2344
 20
-16.7275
 30
1.0102
 70
192
 0
VERTEX
 8
D_SE_INSTANCE_1_15
 10
0
 20
0
 30
0
 70
128
 71
1
 72
2
 73
4
 74
4
 0
VERTEX
 8
D_SE_INSTANCE_1_15
 10
0
 20
0
 30
0
 70
128
 71
4
 72
3
 73
1
 74
1
 0
VERTEX
 8
D_SE_INSTANCE_1_15
 10
0
 20
0
 30
0
 70
128
 71
2
 72
3
 73
4
 74
4
 0
SEQEND
 0
POLYLINE
 8
D_SE_INSTANCE_16_4
 66
1
 10
0.0
 20
0.0
 30
0.0
 70
64
 71
4
 72
3
 0
VERTEX
 8
D_SE_INSTANCE_16_4
 10
25.4979
 20
14.2473
 30
1.3833
 70
192
 0
VERTEX
 8
D_SE_INSTANCE_16_4
 10
25.6583
 20
15.1504
 30
1.3833
 70
192
 0
VERTEX
 8
D_SE_INSTANCE_16_4
 10
24.7074
 20
14.9363
 30
1.3833
 70
192
 0
VERTEX
 8
D_SE_INSTANCE_16_4
 10
25.2344
 20
14.7501
 30
1.0102
 70
192
 0
VERTEX
 8
D_SE_INSTANCE_16_4
 10
0
 20
0
 30
0
 70
128
 71
1
 72
2
 73
4
 74
4
 0
VERTEX
 8
D_SE_INSTANCE_16_4
 10
0
 20
0
 30
0
 70
128
 71
4
 72
3
 73
1
 74
1
 0
VERTEX
 8
D_SE_INSTANCE_16_4
 10
0
 20
0
 30
0
 70
128
 71
2
 72
3
 73
4
 74
4
 0
SEQEND
 0
POLYLINE
 8
D_SE_INSTANCE_17_4
 66
1
 10
0.0
 20
0.0
 30
0.0
 70
64
 71
4
 72
3
 0
VERTEX
 8
D_SE_INSTANCE_17_4
 10
25.4979
 20
16.3365
 30
1.3833
 70
192
 0
VERTEX
 8
D_SE_INSTANCE_17_4
 10
25.6583
 20
17.2396
 30
1.3833
 70
192
 0
VERTEX
 8
D_SE_INSTANCE_17_4
 10
24.7074
 20
17.0255
 30
1.3833
 70
192
 0
VERTEX
 8
D_SE_INSTANCE_17_4
 10
25.2344
 20
16.8394
 30
1.0102
 70
192
 0
VERTEX
 8
D_SE_INSTANCE_17_4
 10
0
 20
0
 30
0
 70
128
 71
1
 72
2
 73
4
 74
4
 0
VERTEX
 8
D_SE_INSTANCE_17_4
 10
0
 20
0
 30
0
 70
128
 71
4
 72
3
 73
1
 74
1
 0
VERTEX
 8
D_SE_INSTANCE_17_4
 10
0
 20
0
 30
0
 70
128
 71
2
 72
3
 73
4
 74
4
 0
SEQEND
 0
POLYLINE
 8
D_SE_INSTANCE_18_3
 66
1
 10
0.0
 20
0.0
 30
0.0
 70
64
 71
4
 72
3
 0
VERTEX
 8
D_SE_INSTANCE_18_3
 10
25.4979
 20
18.4451
 30
1.3833
 70
192
 0
VERTEX
 8
D_SE_INSTANCE_18_3
 10
25.6583
 20
19.3482
 30
1.3833
 70
192
 0
VERTEX
 8
D_SE_INSTANCE_18_3
 10
24.7074
 20
19.1341
 30
1.3833
 70
192
 0
VERTEX
 8
D_SE_INSTANCE_18_3
 10
25.2344
 20
18.948
 30
1.0102
 70
192
 0
VERTEX
 8
D_SE_INSTANCE_18_3
 10
0
 20
0
 30
0
 70
128
 71
1
 72
2
 73
4
 74
4
 0
VERTEX
 8
D_SE_INSTANCE_18_3
 10
0
 20
0
 30
0
 70
128
 71
4
 72
3
 73
1
 74
1
 0
VERTEX
 8
D_SE_INSTANCE_18_3
 10
0
 20
0
 30
0
 70
128
 71
2
 72
3
 73
4
 74
4
 0
SEQEND
 0
POLYLINE
 8
D_SE_INSTANCE_19_3
 66
1
 10
0.0
 20
0.0
 30
0.0
 70
64
 71
4
 72
3
 0
VERTEX
 8
D_SE_INSTANCE_19_3
 10
25.4979
 20
20.5588
 30
1.3833
 70
192
 0
VERTEX
 8
D_SE_INSTANCE_19_3
 10
25.6583
 20
21.4619
 30
1.3833
 70
192
 0
VERTEX
 8
D_SE_INSTANCE_19_3
 10
24.7074
 20
21.2478
 30
1.3833
 70
192
 0
VERTEX
 8
D_SE_INSTANCE_19_3
 10
25.2344
 20
21.0616
 30
1.0102
 70
192
 0
VERTEX
 8
D_SE_INSTANCE_19_3
 10
0
 20
0
 30
0
 70
128
 71
1
 72
2
 73
4
 74
4
 0
VERTEX
 8
D_SE_INSTANCE_19_3
 10
0
 20
0
 30
0
 70
128
 71
4
 72
3
 73
1
 74
1
 0
VERTEX
 8
D_SE_INSTANCE_19_3
 10
0
 20
0
 30
0
 70
128
 71
2
 72
3
 73
4
 74
4
 0
SEQEND
 0
POLYLINE
 8
D_SE_INSTANCE_2_15
 66
1
 10
0.0
 20
0.0
 30
0.0
 70
64
 71
4
 72
3
 0
VERTEX
 8
D_SE_INSTANCE_2_15
 10
23.3916
 20
-21.4527
 30
1.3833
 70
192
 0
VERTEX
 8
D_SE_INSTANCE_2_15
 10
23.552
 20
-20.5496
 30
1.3833
 70
192
 0
VERTEX
 8
D_SE_INSTANCE_2_15
 10
22.6011
 20
-20.7637
 30
1.3833
 70
192
 0
VERTEX
 8
D_SE_INSTANCE_2_15
 10
23.1281
 20
-20.9499
 30
1.0102
 70
192
 0
VERTEX
 8
D_SE_INSTANCE_2_15
 10
0
 20
0
 30
0
 70
128
 71
1
 72
2
 73
4
 74
4
 0
VERTEX
 8
D_SE_INSTANCE_2_15
 10
0
 20
0
 30
0
 70
128
 71
4
 72
3
 73
1
 74
1
 0
VERTEX
 8
D_SE_INSTANCE_2_15
 10
0
 20
0
 30
0
 70
128
 71
2
 72
3
 73
4
 74
4
 0
SEQEND
 0
POLYLINE
 8
D_SE_INSTANCE_16
 66
1
 10
0.0
 20
0.0
 30
0.0
 70
64
 71
4
 72
3
 0
VERTEX
 8
D_SE_INSTANCE_16
 10
23.3916
 20
-19.3017
 30
1.3833
 70
192
 0
VERTEX
 8
D_SE_INSTANCE_16
 10
23.552
 20
-18.3985
 30
1.3833
 70
192
 0
VERTEX
 8
D_SE_INSTANCE_16
 10
22.6011
 20
-18.6126
 30
1.3833
 70
192
 0
VERTEX
 8
D_SE_INSTANCE_16
 10
23.1281
 20
-18.7988
 30
1.0102
 70
192
 0
VERTEX
 8
D_SE_INSTANCE_16
 10
0
 20
0
 30
0
 70
128
 71
1
 72
2
 73
4
 74
4
 0
VERTEX
 8
D_SE_INSTANCE_16
 10
0
 20
0
 30
0
 70
128
 71
4
 72
3
 73
1
 74
1
 0
VERTEX
 8
D_SE_INSTANCE_16
 10
0
 20
0
 30
0
 70
128
 71
2
 72
3
 73
4
 74
4
 0
SEQEND
 0
POLYLINE
 8
D_SE_INSTANCE_1_16
 66
1
 10
0.0
 20
0.0
 30
0.0
 70
64
 71
4
 72
3
 0
VERTEX
 8
D_SE_INSTANCE_1_16
 10
23.3916
 20
-17.2304
 30
1.3833
 70
192
 0
VERTEX
 8
D_SE_INSTANCE_1_16
 10
23.552
 20
-16.3273
 30
1.3833
 70
192
 0
VERTEX
 8
D_SE_INSTANCE_1_16
 10
22.6011
 20
-16.5413
 30
1.3833
 70
192
 0
VERTEX
 8
D_SE_INSTANCE_1_16
 10
23.1281
 20
-16.7275
 30
1.0102
 70
192
 0
VERTEX
 8
D_SE_INSTANCE_1_16
 10
0
 20
0
 30
0
 70
128
 71
1
 72
2
 73
4
 74
4
 0
VERTEX
 8
D_SE_INSTANCE_1_16
 10
0
 20
0
 30
0
 70
128
 71
4
 72
3
 73
1
 74
1
 0
VERTEX
 8
D_SE_INSTANCE_1_16
 10
0
 20
0
 30
0
 70
128
 71
2
 72
3
 73
4
 74
4
 0
SEQEND
 0
POLYLINE
 8
D_SE_INSTANCE_16_5
 66
1
 10
0.0
 20
0.0
 30
0.0
 70
64
 71
4
 72
3
 0
VERTEX
 8
D_SE_INSTANCE_16_5
 10
23.3916
 20
14.2473
 30
1.3833
 70
192
 0
VERTEX
 8
D_SE_INSTANCE_16_5
 10
23.552
 20
15.1504
 30
1.3833
 70
192
 0
VERTEX
 8
D_SE_INSTANCE_16_5
 10
22.6011
 20
14.9363
 30
1.3833
 70
192
 0
VERTEX
 8
D_SE_INSTANCE_16_5
 10
23.1281
 20
14.7501
 30
1.0102
 70
192
 0
VERTEX
 8
D_SE_INSTANCE_16_5
 10
0
 20
0
 30
0
 70
128
 71
1
 72
2
 73
4
 74
4
 0
VERTEX
 8
D_SE_INSTANCE_16_5
 10
0
 20
0
 30
0
 70
128
 71
4
 72
3
 73
1
 74
1
 0
VERTEX
 8
D_SE_INSTANCE_16_5
 10
0
 20
0
 30
0
 70
128
 71
2
 72
3
 73
4
 74
4
 0
SEQEND
 0
POLYLINE
 8
D_SE_INSTANCE_17_5
 66
1
 10
0.0
 20
0.0
 30
0.0
 70
64
 71
4
 72
3
 0
VERTEX
 8
D_SE_INSTANCE_17_5
 10
23.3916
 20
16.3365
 30
1.3833
 70
192
 0
VERTEX
 8
D_SE_INSTANCE_17_5
 10
23.552
 20
17.2396
 30
1.3833
 70
192
 0
VERTEX
 8
D_SE_INSTANCE_17_5
 10
22.6011
 20
17.0255
 30
1.3833
 70
192
 0
VERTEX
 8
D_SE_INSTANCE_17_5
 10
23.1281
 20
16.8394
 30
1.0102
 70
192
 0
VERTEX
 8
D_SE_INSTANCE_17_5
 10
0
 20
0
 30
0
 70
128
 71
1
 72
2
 73
4
 74
4
 0
VERTEX
 8
D_SE_INSTANCE_17_5
 10
0
 20
0
 30
0
 70
128
 71
4
 72
3
 73
1
 74
1
 0
VERTEX
 8
D_SE_INSTANCE_17_5
 10
0
 20
0
 30
0
 70
128
 71
2
 72
3
 73
4
 74
4
 0
SEQEND
 0
POLYLINE
 8
D_SE_INSTANCE_18_4
 66
1
 10
0.0
 20
0.0
 30
0.0
 70
64
 71
4
 72
3
 0
VERTEX
 8
D_SE_INSTANCE_18_4
 10
23.3916
 20
18.4451
 30
1.3833
 70
192
 0
VERTEX
 8
D_SE_INSTANCE_18_4
 10
23.552
 20
19.3482
 30
1.3833
 70
192
 0
VERTEX
 8
D_SE_INSTANCE_18_4
 10
22.6011
 20
19.1341
 30
1.3833
 70
192
 0
VERTEX
 8
D_SE_INSTANCE_18_4
 10
23.1281
 20
18.948
 30
1.0102
 70
192
 0
VERTEX
 8
D_SE_INSTANCE_18_4
 10
0
 20
0
 30
0
 70
128
 71
1
 72
2
 73
4
 74
4
 0
VERTEX
 8
D_SE_INSTANCE_18_4
 10
0
 20
0
 30
0
 70
128
 71
4
 72
3
 73
1
 74
1
 0
VERTEX
 8
D_SE_INSTANCE_18_4
 10
0
 20
0
 30
0
 70
128
 71
2
 72
3
 73
4
 74
4
 0
SEQEND
 0
POLYLINE
 8
D_SE_INSTANCE_19_4
 66
1
 10
0.0
 20
0.0
 30
0.0
 70
64
 71
4
 72
3
 0
VERTEX
 8
D_SE_INSTANCE_19_4
 10
23.3916
 20
20.5588
 30
1.3833
 70
192
 0
VERTEX
 8
D_SE_INSTANCE_19_4
 10
23.552
 20
21.4619
 30
1.3833
 70
192
 0
VERTEX
 8
D_SE_INSTANCE_19_4
 10
22.6011
 20
21.2478
 30
1.3833
 70
192
 0
VERTEX
 8
D_SE_INSTANCE_19_4
 10
23.1281
 20
21.0616
 30
1.0102
 70
192
 0
VERTEX
 8
D_SE_INSTANCE_19_4
 10
0
 20
0
 30
0
 70
128
 71
1
 72
2
 73
4
 74
4
 0
VERTEX
 8
D_SE_INSTANCE_19_4
 10
0
 20
0
 30
0
 70
128
 71
4
 72
3
 73
1
 74
1
 0
VERTEX
 8
D_SE_INSTANCE_19_4
 10
0
 20
0
 30
0
 70
128
 71
2
 72
3
 73
4
 74
4
 0
SEQEND
 0
POLYLINE
 8
D_SE_INSTANCE_2_16
 66
1
 10
0.0
 20
0.0
 30
0.0
 70
64
 71
4
 72
3
 0
VERTEX
 8
D_SE_INSTANCE_2_16
 10
21.3241
 20
-21.4527
 30
1.3833
 70
192
 0
VERTEX
 8
D_SE_INSTANCE_2_16
 10
21.4845
 20
-20.5496
 30
1.3833
 70
192
 0
VERTEX
 8
D_SE_INSTANCE_2_16
 10
20.5336
 20
-20.7637
 30
1.3833
 70
192
 0
VERTEX
 8
D_SE_INSTANCE_2_16
 10
21.0606
 20
-20.9499
 30
1.0102
 70
192
 0
VERTEX
 8
D_SE_INSTANCE_2_16
 10
0
 20
0
 30
0
 70
128
 71
1
 72
2
 73
4
 74
4
 0
VERTEX
 8
D_SE_INSTANCE_2_16
 10
0
 20
0
 30
0
 70
128
 71
4
 72
3
 73
1
 74
1
 0
VERTEX
 8
D_SE_INSTANCE_2_16
 10
0
 20
0
 30
0
 70
128
 71
2
 72
3
 73
4
 74
4
 0
SEQEND
 0
POLYLINE
 8
D_SE_INSTANCE_17
 66
1
 10
0.0
 20
0.0
 30
0.0
 70
64
 71
4
 72
3
 0
VERTEX
 8
D_SE_INSTANCE_17
 10
21.3241
 20
-19.3017
 30
1.3833
 70
192
 0
VERTEX
 8
D_SE_INSTANCE_17
 10
21.4845
 20
-18.3985
 30
1.3833
 70
192
 0
VERTEX
 8
D_SE_INSTANCE_17
 10
20.5336
 20
-18.6126
 30
1.3833
 70
192
 0
VERTEX
 8
D_SE_INSTANCE_17
 10
21.0606
 20
-18.7988
 30
1.0102
 70
192
 0
VERTEX
 8
D_SE_INSTANCE_17
 10
0
 20
0
 30
0
 70
128
 71
1
 72
2
 73
4
 74
4
 0
VERTEX
 8
D_SE_INSTANCE_17
 10
0
 20
0
 30
0
 70
128
 71
4
 72
3
 73
1
 74
1
 0
VERTEX
 8
D_SE_INSTANCE_17
 10
0
 20
0
 30
0
 70
128
 71
2
 72
3
 73
4
 74
4
 0
SEQEND
 0
POLYLINE
 8
D_SE_INSTANCE_1_17
 66
1
 10
0.0
 20
0.0
 30
0.0
 70
64
 71
4
 72
3
 0
VERTEX
 8
D_SE_INSTANCE_1_17
 10
21.3241
 20
-17.2304
 30
1.3833
 70
192
 0
VERTEX
 8
D_SE_INSTANCE_1_17
 10
21.4845
 20
-16.3273
 30
1.3833
 70
192
 0
VERTEX
 8
D_SE_INSTANCE_1_17
 10
20.5336
 20
-16.5413
 30
1.3833
 70
192
 0
VERTEX
 8
D_SE_INSTANCE_1_17
 10
21.0606
 20
-16.7275
 30
1.0102
 70
192
 0
VERTEX
 8
D_SE_INSTANCE_1_17
 10
0
 20
0
 30
0
 70
128
 71
1
 72
2
 73
4
 74
4
 0
VERTEX
 8
D_SE_INSTANCE_1_17
 10
0
 20
0
 30
0
 70
128
 71
4
 72
3
 73
1
 74
1
 0
VERTEX
 8
D_SE_INSTANCE_1_17
 10
0
 20
0
 30
0
 70
128
 71
2
 72
3
 73
4
 74
4
 0
SEQEND
 0
POLYLINE
 8
D_SE_INSTANCE_16_6
 66
1
 10
0.0
 20
0.0
 30
0.0
 70
64
 71
4
 72
3
 0
VERTEX
 8
D_SE_INSTANCE_16_6
 10
21.3241
 20
14.2473
 30
1.3833
 70
192
 0
VERTEX
 8
D_SE_INSTANCE_16_6
 10
21.4845
 20
15.1504
 30
1.3833
 70
192
 0
VERTEX
 8
D_SE_INSTANCE_16_6
 10
20.5336
 20
14.9363
 30
1.3833
 70
192
 0
VERTEX
 8
D_SE_INSTANCE_16_6
 10
21.0606
 20
14.7501
 30
1.0102
 70
192
 0
VERTEX
 8
D_SE_INSTANCE_16_6
 10
0
 20
0
 30
0
 70
128
 71
1
 72
2
 73
4
 74
4
 0
VERTEX
 8
D_SE_INSTANCE_16_6
 10
0
 20
0
 30
0
 70
128
 71
4
 72
3
 73
1
 74
1
 0
VERTEX
 8
D_SE_INSTANCE_16_6
 10
0
 20
0
 30
0
 70
128
 71
2
 72
3
 73
4
 74
4
 0
SEQEND
 0
POLYLINE
 8
D_SE_INSTANCE_17_6
 66
1
 10
0.0
 20
0.0
 30
0.0
 70
64
 71
4
 72
3
 0
VERTEX
 8
D_SE_INSTANCE_17_6
 10
21.3241
 20
16.3365
 30
1.3833
 70
192
 0
VERTEX
 8
D_SE_INSTANCE_17_6
 10
21.4845
 20
17.2396
 30
1.3833
 70
192
 0
VERTEX
 8
D_SE_INSTANCE_17_6
 10
20.5336
 20
17.0255
 30
1.3833
 70
192
 0
VERTEX
 8
D_SE_INSTANCE_17_6
 10
21.0606
 20
16.8394
 30
1.0102
 70
192
 0
VERTEX
 8
D_SE_INSTANCE_17_6
 10
0
 20
0
 30
0
 70
128
 71
1
 72
2
 73
4
 74
4
 0
VERTEX
 8
D_SE_INSTANCE_17_6
 10
0
 20
0
 30
0
 70
128
 71
4
 72
3
 73
1
 74
1
 0
VERTEX
 8
D_SE_INSTANCE_17_6
 10
0
 20
0
 30
0
 70
128
 71
2
 72
3
 73
4
 74
4
 0
SEQEND
 0
POLYLINE
 8
D_SE_INSTANCE_18_5
 66
1
 10
0.0
 20
0.0
 30
0.0
 70
64
 71
4
 72
3
 0
VERTEX
 8
D_SE_INSTANCE_18_5
 10
21.3241
 20
18.4451
 30
1.3833
 70
192
 0
VERTEX
 8
D_SE_INSTANCE_18_5
 10
21.4845
 20
19.3482
 30
1.3833
 70
192
 0
VERTEX
 8
D_SE_INSTANCE_18_5
 10
20.5336
 20
19.1341
 30
1.3833
 70
192
 0
VERTEX
 8
D_SE_INSTANCE_18_5
 10
21.0606
 20
18.948
 30
1.0102
 70
192
 0
VERTEX
 8
D_SE_INSTANCE_18_5
 10
0
 20
0
 30
0
 70
128
 71
1
 72
2
 73
4
 74
4
 0
VERTEX
 8
D_SE_INSTANCE_18_5
 10
0
 20
0
 30
0
 70
128
 71
4
 72
3
 73
1
 74
1
 0
VERTEX
 8
D_SE_INSTANCE_18_5
 10
0
 20
0
 30
0
 70
128
 71
2
 72
3
 73
4
 74
4
 0
SEQEND
 0
POLYLINE
 8
D_SE_INSTANCE_19_5
 66
1
 10
0.0
 20
0.0
 30
0.0
 70
64
 71
4
 72
3
 0
VERTEX
 8
D_SE_INSTANCE_19_5
 10
21.3241
 20
20.5588
 30
1.3833
 70
192
 0
VERTEX
 8
D_SE_INSTANCE_19_5
 10
21.4845
 20
21.4619
 30
1.3833
 70
192
 0
VERTEX
 8
D_SE_INSTANCE_19_5
 10
20.5336
 20
21.2478
 30
1.3833
 70
192
 0
VERTEX
 8
D_SE_INSTANCE_19_5
 10
21.0606
 20
21.0616
 30
1.0102
 70
192
 0
VERTEX
 8
D_SE_INSTANCE_19_5
 10
0
 20
0
 30
0
 70
128
 71
1
 72
2
 73
4
 74
4
 0
VERTEX
 8
D_SE_INSTANCE_19_5
 10
0
 20
0
 30
0
 70
128
 71
4
 72
3
 73
1
 74
1
 0
VERTEX
 8
D_SE_INSTANCE_19_5
 10
0
 20
0
 30
0
 70
128
 71
2
 72
3
 73
4
 74
4
 0
SEQEND
 0
POLYLINE
 8
D_SE_INSTANCE_2_17
 66
1
 10
0.0
 20
0.0
 30
0.0
 70
64
 71
4
 72
3
 0
VERTEX
 8
D_SE_INSTANCE_2_17
 10
19.1504
 20
-21.4527
 30
1.3833
 70
192
 0
VERTEX
 8
D_SE_INSTANCE_2_17
 10
19.3109
 20
-20.5496
 30
1.3833
 70
192
 0
VERTEX
 8
D_SE_INSTANCE_2_17
 10
18.36
 20
-20.7637
 30
1.3833
 70
192
 0
VERTEX
 8
D_SE_INSTANCE_2_17
 10
18.887
 20
-20.9499
 30
1.0102
 70
192
 0
VERTEX
 8
D_SE_INSTANCE_2_17
 10
0
 20
0
 30
0
 70
128
 71
1
 72
2
 73
4
 74
4
 0
VERTEX
 8
D_SE_INSTANCE_2_17
 10
0
 20
0
 30
0
 70
128
 71
4
 72
3
 73
1
 74
1
 0
VERTEX
 8
D_SE_INSTANCE_2_17
 10
0
 20
0
 30
0
 70
128
 71
2
 72
3
 73
4
 74
4
 0
SEQEND
 0
POLYLINE
 8
D_SE_INSTANCE_18
 66
1
 10
0.0
 20
0.0
 30
0.0
 70
64
 71
4
 72
3
 0
VERTEX
 8
D_SE_INSTANCE_18
 10
19.1504
 20
-19.3017
 30
1.3833
 70
192
 0
VERTEX
 8
D_SE_INSTANCE_18
 10
19.3109
 20
-18.3985
 30
1.3833
 70
192
 0
VERTEX
 8
D_SE_INSTANCE_18
 10
18.36
 20
-18.6126
 30
1.3833
 70
192
 0
VERTEX
 8
D_SE_INSTANCE_18
 10
18.887
 20
-18.7988
 30
1.0102
 70
192
 0
VERTEX
 8
D_SE_INSTANCE_18
 10
0
 20
0
 30
0
 70
128
 71
1
 72
2
 73
4
 74
4
 0
VERTEX
 8
D_SE_INSTANCE_18
 10
0
 20
0
 30
0
 70
128
 71
4
 72
3
 73
1
 74
1
 0
VERTEX
 8
D_SE_INSTANCE_18
 10
0
 20
0
 30
0
 70
128
 71
2
 72
3
 73
4
 74
4
 0
SEQEND
 0
POLYLINE
 8
D_SE_INSTANCE_1_18
 66
1
 10
0.0
 20
0.0
 30
0.0
 70
64
 71
4
 72
3
 0
VERTEX
 8
D_SE_INSTANCE_1_18
 10
19.1504
 20
-17.2304
 30
1.3833
 70
192
 0
VERTEX
 8
D_SE_INSTANCE_1_18
 10
19.3109
 20
-16.3273
 30
1.3833
 70
192
 0
VERTEX
 8
D_SE_INSTANCE_1_18
 10
18.36
 20
-16.5413
 30
1.3833
 70
192
 0
VERTEX
 8
D_SE_INSTANCE_1_18
 10
18.887
 20
-16.7275
 30
1.0102
 70
192
 0
VERTEX
 8
D_SE_INSTANCE_1_18
 10
0
 20
0
 30
0
 70
128
 71
1
 72
2
 73
4
 74
4
 0
VERTEX
 8
D_SE_INSTANCE_1_18
 10
0
 20
0
 30
0
 70
128
 71
4
 72
3
 73
1
 74
1
 0
VERTEX
 8
D_SE_INSTANCE_1_18
 10
0
 20
0
 30
0
 70
128
 71
2
 72
3
 73
4
 74
4
 0
SEQEND
 0
POLYLINE
 8
D_SE_INSTANCE_16_7
 66
1
 10
0.0
 20
0.0
 30
0.0
 70
64
 71
4
 72
3
 0
VERTEX
 8
D_SE_INSTANCE_16_7
 10
19.1504
 20
14.2473
 30
1.3833
 70
192
 0
VERTEX
 8
D_SE_INSTANCE_16_7
 10
19.3109
 20
15.1504
 30
1.3833
 70
192
 0
VERTEX
 8
D_SE_INSTANCE_16_7
 10
18.36
 20
14.9363
 30
1.3833
 70
192
 0
VERTEX
 8
D_SE_INSTANCE_16_7
 10
18.887
 20
14.7501
 30
1.0102
 70
192
 0
VERTEX
 8
D_SE_INSTANCE_16_7
 10
0
 20
0
 30
0
 70
128
 71
1
 72
2
 73
4
 74
4
 0
VERTEX
 8
D_SE_INSTANCE_16_7
 10
0
 20
0
 30
0
 70
128
 71
4
 72
3
 73
1
 74
1
 0
VERTEX
 8
D_SE_INSTANCE_16_7
 10
0
 20
0
 30
0
 70
128
 71
2
 72
3
 73
4
 74
4
 0
SEQEND
 0
POLYLINE
 8
D_SE_INSTANCE_17_7
 66
1
 10
0.0
 20
0.0
 30
0.0
 70
64
 71
4
 72
3
 0
VERTEX
 8
D_SE_INSTANCE_17_7
 10
19.1504
 20
16.3365
 30
1.3833
 70
192
 0
VERTEX
 8
D_SE_INSTANCE_17_7
 10
19.3109
 20
17.2396
 30
1.3833
 70
192
 0
VERTEX
 8
D_SE_INSTANCE_17_7
 10
18.36
 20
17.0255
 30
1.3833
 70
192
 0
VERTEX
 8
D_SE_INSTANCE_17_7
 10
18.887
 20
16.8394
 30
1.0102
 70
192
 0
VERTEX
 8
D_SE_INSTANCE_17_7
 10
0
 20
0
 30
0
 70
128
 71
1
 72
2
 73
4
 74
4
 0
VERTEX
 8
D_SE_INSTANCE_17_7
 10
0
 20
0
 30
0
 70
128
 71
4
 72
3
 73
1
 74
1
 0
VERTEX
 8
D_SE_INSTANCE_17_7
 10
0
 20
0
 30
0
 70
128
 71
2
 72
3
 73
4
 74
4
 0
SEQEND
 0
POLYLINE
 8
D_SE_INSTANCE_18_6
 66
1
 10
0.0
 20
0.0
 30
0.0
 70
64
 71
4
 72
3
 0
VERTEX
 8
D_SE_INSTANCE_18_6
 10
19.1504
 20
18.4451
 30
1.3833
 70
192
 0
VERTEX
 8
D_SE_INSTANCE_18_6
 10
19.3109
 20
19.3482
 30
1.3833
 70
192
 0
VERTEX
 8
D_SE_INSTANCE_18_6
 10
18.36
 20
19.1341
 30
1.3833
 70
192
 0
VERTEX
 8
D_SE_INSTANCE_18_6
 10
18.887
 20
18.948
 30
1.0102
 70
192
 0
VERTEX
 8
D_SE_INSTANCE_18_6
 10
0
 20
0
 30
0
 70
128
 71
1
 72
2
 73
4
 74
4
 0
VERTEX
 8
D_SE_INSTANCE_18_6
 10
0
 20
0
 30
0
 70
128
 71
4
 72
3
 73
1
 74
1
 0
VERTEX
 8
D_SE_INSTANCE_18_6
 10
0
 20
0
 30
0
 70
128
 71
2
 72
3
 73
4
 74
4
 0
SEQEND
 0
POLYLINE
 8
D_SE_INSTANCE_19_6
 66
1
 10
0.0
 20
0.0
 30
0.0
 70
64
 71
4
 72
3
 0
VERTEX
 8
D_SE_INSTANCE_19_6
 10
19.1504
 20
20.5588
 30
1.3833
 70
192
 0
VERTEX
 8
D_SE_INSTANCE_19_6
 10
19.3109
 20
21.4619
 30
1.3833
 70
192
 0
VERTEX
 8
D_SE_INSTANCE_19_6
 10
18.36
 20
21.2478
 30
1.3833
 70
192
 0
VERTEX
 8
D_SE_INSTANCE_19_6
 10
18.887
 20
21.0616
 30
1.0102
 70
192
 0
VERTEX
 8
D_SE_INSTANCE_19_6
 10
0
 20
0
 30
0
 70
128
 71
1
 72
2
 73
4
 74
4
 0
VERTEX
 8
D_SE_INSTANCE_19_6
 10
0
 20
0
 30
0
 70
128
 71
4
 72
3
 73
1
 74
1
 0
VERTEX
 8
D_SE_INSTANCE_19_6
 10
0
 20
0
 30
0
 70
128
 71
2
 72
3
 73
4
 74
4
 0
SEQEND
 0
POLYLINE
 8
D_SE_INSTANCE_2_18
 66
1
 10
0.0
 20
0.0
 30
0.0
 70
64
 71
4
 72
3
 0
VERTEX
 8
D_SE_INSTANCE_2_18
 10
17.0986
 20
-21.4527
 30
1.3833
 70
192
 0
VERTEX
 8
D_SE_INSTANCE_2_18
 10
17.2591
 20
-20.5496
 30
1.3833
 70
192
 0
VERTEX
 8
D_SE_INSTANCE_2_18
 10
16.3082
 20
-20.7637
 30
1.3833
 70
192
 0
VERTEX
 8
D_SE_INSTANCE_2_18
 10
16.8352
 20
-20.9499
 30
1.0102
 70
192
 0
VERTEX
 8
D_SE_INSTANCE_2_18
 10
0
 20
0
 30
0
 70
128
 71
1
 72
2
 73
4
 74
4
 0
VERTEX
 8
D_SE_INSTANCE_2_18
 10
0
 20
0
 30
0
 70
128
 71
4
 72
3
 73
1
 74
1
 0
VERTEX
 8
D_SE_INSTANCE_2_18
 10
0
 20
0
 30
0
 70
128
 71
2
 72
3
 73
4
 74
4
 0
SEQEND
 0
POLYLINE
 8
D_SE_INSTANCE_19
 66
1
 10
0.0
 20
0.0
 30
0.0
 70
64
 71
4
 72
3
 0
VERTEX
 8
D_SE_INSTANCE_19
 10
17.0986
 20
-19.3017
 30
1.3833
 70
192
 0
VERTEX
 8
D_SE_INSTANCE_19
 10
17.2591
 20
-18.3985
 30
1.3833
 70
192
 0
VERTEX
 8
D_SE_INSTANCE_19
 10
16.3082
 20
-18.6126
 30
1.3833
 70
192
 0
VERTEX
 8
D_SE_INSTANCE_19
 10
16.8352
 20
-18.7988
 30
1.0102
 70
192
 0
VERTEX
 8
D_SE_INSTANCE_19
 10
0
 20
0
 30
0
 70
128
 71
1
 72
2
 73
4
 74
4
 0
VERTEX
 8
D_SE_INSTANCE_19
 10
0
 20
0
 30
0
 70
128
 71
4
 72
3
 73
1
 74
1
 0
VERTEX
 8
D_SE_INSTANCE_19
 10
0
 20
0
 30
0
 70
128
 71
2
 72
3
 73
4
 74
4
 0
SEQEND
 0
POLYLINE
 8
D_SE_INSTANCE_1_19
 66
1
 10
0.0
 20
0.0
 30
0.0
 70
64
 71
4
 72
3
 0
VERTEX
 8
D_SE_INSTANCE_1_19
 10
17.0986
 20
-17.2304
 30
1.3833
 70
192
 0
VERTEX
 8
D_SE_INSTANCE_1_19
 10
17.2591
 20
-16.3273
 30
1.3833
 70
192
 0
VERTEX
 8
D_SE_INSTANCE_1_19
 10
16.3082
 20
-16.5413
 30
1.3833
 70
192
 0
VERTEX
 8
D_SE_INSTANCE_1_19
 10
16.8352
 20
-16.7275
 30
1.0102
 70
192
 0
VERTEX
 8
D_SE_INSTANCE_1_19
 10
0
 20
0
 30
0
 70
128
 71
1
 72
2
 73
4
 74
4
 0
VERTEX
 8
D_SE_INSTANCE_1_19
 10
0
 20
0
 30
0
 70
128
 71
4
 72
3
 73
1
 74
1
 0
VERTEX
 8
D_SE_INSTANCE_1_19
 10
0
 20
0
 30
0
 70
128
 71
2
 72
3
 73
4
 74
4
 0
SEQEND
 0
POLYLINE
 8
D_SE_INSTANCE_16_8
 66
1
 10
0.0
 20
0.0
 30
0.0
 70
64
 71
4
 72
3
 0
VERTEX
 8
D_SE_INSTANCE_16_8
 10
17.0986
 20
14.2473
 30
1.3833
 70
192
 0
VERTEX
 8
D_SE_INSTANCE_16_8
 10
17.2591
 20
15.1504
 30
1.3833
 70
192
 0
VERTEX
 8
D_SE_INSTANCE_16_8
 10
16.3082
 20
14.9363
 30
1.3833
 70
192
 0
VERTEX
 8
D_SE_INSTANCE_16_8
 10
16.8352
 20
14.7501
 30
1.0102
 70
192
 0
VERTEX
 8
D_SE_INSTANCE_16_8
 10
0
 20
0
 30
0
 70
128
 71
1
 72
2
 73
4
 74
4
 0
VERTEX
 8
D_SE_INSTANCE_16_8
 10
0
 20
0
 30
0
 70
128
 71
4
 72
3
 73
1
 74
1
 0
VERTEX
 8
D_SE_INSTANCE_16_8
 10
0
 20
0
 30
0
 70
128
 71
2
 72
3
 73
4
 74
4
 0
SEQEND
 0
POLYLINE
 8
D_SE_INSTANCE_17_8
 66
1
 10
0.0
 20
0.0
 30
0.0
 70
64
 71
4
 72
3
 0
VERTEX
 8
D_SE_INSTANCE_17_8
 10
17.0986
 20
16.3365
 30
1.3833
 70
192
 0
VERTEX
 8
D_SE_INSTANCE_17_8
 10
17.2591
 20
17.2396
 30
1.3833
 70
192
 0
VERTEX
 8
D_SE_INSTANCE_17_8
 10
16.3082
 20
17.0255
 30
1.3833
 70
192
 0
VERTEX
 8
D_SE_INSTANCE_17_8
 10
16.8352
 20
16.8394
 30
1.0102
 70
192
 0
VERTEX
 8
D_SE_INSTANCE_17_8
 10
0
 20
0
 30
0
 70
128
 71
1
 72
2
 73
4
 74
4
 0
VERTEX
 8
D_SE_INSTANCE_17_8
 10
0
 20
0
 30
0
 70
128
 71
4
 72
3
 73
1
 74
1
 0
VERTEX
 8
D_SE_INSTANCE_17_8
 10
0
 20
0
 30
0
 70
128
 71
2
 72
3
 73
4
 74
4
 0
SEQEND
 0
POLYLINE
 8
D_SE_INSTANCE_18_7
 66
1
 10
0.0
 20
0.0
 30
0.0
 70
64
 71
4
 72
3
 0
VERTEX
 8
D_SE_INSTANCE_18_7
 10
17.0986
 20
18.4451
 30
1.3833
 70
192
 0
VERTEX
 8
D_SE_INSTANCE_18_7
 10
17.2591
 20
19.3482
 30
1.3833
 70
192
 0
VERTEX
 8
D_SE_INSTANCE_18_7
 10
16.3082
 20
19.1341
 30
1.3833
 70
192
 0
VERTEX
 8
D_SE_INSTANCE_18_7
 10
16.8352
 20
18.948
 30
1.0102
 70
192
 0
VERTEX
 8
D_SE_INSTANCE_18_7
 10
0
 20
0
 30
0
 70
128
 71
1
 72
2
 73
4
 74
4
 0
VERTEX
 8
D_SE_INSTANCE_18_7
 10
0
 20
0
 30
0
 70
128
 71
4
 72
3
 73
1
 74
1
 0
VERTEX
 8
D_SE_INSTANCE_18_7
 10
0
 20
0
 30
0
 70
128
 71
2
 72
3
 73
4
 74
4
 0
SEQEND
 0
POLYLINE
 8
D_SE_INSTANCE_19_7
 66
1
 10
0.0
 20
0.0
 30
0.0
 70
64
 71
4
 72
3
 0
VERTEX
 8
D_SE_INSTANCE_19_7
 10
17.0986
 20
20.5588
 30
1.3833
 70
192
 0
VERTEX
 8
D_SE_INSTANCE_19_7
 10
17.2591
 20
21.4619
 30
1.3833
 70
192
 0
VERTEX
 8
D_SE_INSTANCE_19_7
 10
16.3082
 20
21.2478
 30
1.3833
 70
192
 0
VERTEX
 8
D_SE_INSTANCE_19_7
 10
16.8352
 20
21.0616
 30
1.0102
 70
192
 0
VERTEX
 8
D_SE_INSTANCE_19_7
 10
0
 20
0
 30
0
 70
128
 71
1
 72
2
 73
4
 74
4
 0
VERTEX
 8
D_SE_INSTANCE_19_7
 10
0
 20
0
 30
0
 70
128
 71
4
 72
3
 73
1
 74
1
 0
VERTEX
 8
D_SE_INSTANCE_19_7
 10
0
 20
0
 30
0
 70
128
 71
2
 72
3
 73
4
 74
4
 0
SEQEND
 0
POLYLINE
 8
D_SE_INSTANCE_2_19
 66
1
 10
0.0
 20
0.0
 30
0.0
 70
64
 71
4
 72
3
 0
VERTEX
 8
D_SE_INSTANCE_2_19
 10
14.9391
 20
-21.4527
 30
1.3833
 70
192
 0
VERTEX
 8
D_SE_INSTANCE_2_19
 10
15.0995
 20
-20.5496
 30
1.3833
 70
192
 0
VERTEX
 8
D_SE_INSTANCE_2_19
 10
14.1486
 20
-20.7637
 30
1.3833
 70
192
 0
VERTEX
 8
D_SE_INSTANCE_2_19
 10
14.6756
 20
-20.9499
 30
1.0102
 70
192
 0
VERTEX
 8
D_SE_INSTANCE_2_19
 10
0
 20
0
 30
0
 70
128
 71
1
 72
2
 73
4
 74
4
 0
VERTEX
 8
D_SE_INSTANCE_2_19
 10
0
 20
0
 30
0
 70
128
 71
4
 72
3
 73
1
 74
1
 0
VERTEX
 8
D_SE_INSTANCE_2_19
 10
0
 20
0
 30
0
 70
128
 71
2
 72
3
 73
4
 74
4
 0
SEQEND
 0
POLYLINE
 8
D_SE_INSTANCE_20
 66
1
 10
0.0
 20
0.0
 30
0.0
 70
64
 71
4
 72
3
 0
VERTEX
 8
D_SE_INSTANCE_20
 10
14.9391
 20
-19.3017
 30
1.3833
 70
192
 0
VERTEX
 8
D_SE_INSTANCE_20
 10
15.0995
 20
-18.3985
 30
1.3833
 70
192
 0
VERTEX
 8
D_SE_INSTANCE_20
 10
14.1486
 20
-18.6126
 30
1.3833
 70
192
 0
VERTEX
 8
D_SE_INSTANCE_20
 10
14.6756
 20
-18.7988
 30
1.0102
 70
192
 0
VERTEX
 8
D_SE_INSTANCE_20
 10
0
 20
0
 30
0
 70
128
 71
1
 72
2
 73
4
 74
4
 0
VERTEX
 8
D_SE_INSTANCE_20
 10
0
 20
0
 30
0
 70
128
 71
4
 72
3
 73
1
 74
1
 0
VERTEX
 8
D_SE_INSTANCE_20
 10
0
 20
0
 30
0
 70
128
 71
2
 72
3
 73
4
 74
4
 0
SEQEND
 0
POLYLINE
 8
D_SE_INSTANCE_1_20
 66
1
 10
0.0
 20
0.0
 30
0.0
 70
64
 71
4
 72
3
 0
VERTEX
 8
D_SE_INSTANCE_1_20
 10
14.9391
 20
-17.2304
 30
1.3833
 70
192
 0
VERTEX
 8
D_SE_INSTANCE_1_20
 10
15.0995
 20
-16.3273
 30
1.3833
 70
192
 0
VERTEX
 8
D_SE_INSTANCE_1_20
 10
14.1486
 20
-16.5413
 30
1.3833
 70
192
 0
VERTEX
 8
D_SE_INSTANCE_1_20
 10
14.6756
 20
-16.7275
 30
1.0102
 70
192
 0
VERTEX
 8
D_SE_INSTANCE_1_20
 10
0
 20
0
 30
0
 70
128
 71
1
 72
2
 73
4
 74
4
 0
VERTEX
 8
D_SE_INSTANCE_1_20
 10
0
 20
0
 30
0
 70
128
 71
4
 72
3
 73
1
 74
1
 0
VERTEX
 8
D_SE_INSTANCE_1_20
 10
0
 20
0
 30
0
 70
128
 71
2
 72
3
 73
4
 74
4
 0
SEQEND
 0
POLYLINE
 8
D_SE_INSTANCE_16_9
 66
1
 10
0.0
 20
0.0
 30
0.0
 70
64
 71
4
 72
3
 0
VERTEX
 8
D_SE_INSTANCE_16_9
 10
14.9391
 20
14.2473
 30
1.3833
 70
192
 0
VERTEX
 8
D_SE_INSTANCE_16_9
 10
15.0995
 20
15.1504
 30
1.3833
 70
192
 0
VERTEX
 8
D_SE_INSTANCE_16_9
 10
14.1486
 20
14.9363
 30
1.3833
 70
192
 0
VERTEX
 8
D_SE_INSTANCE_16_9
 10
14.6756
 20
14.7501
 30
1.0102
 70
192
 0
VERTEX
 8
D_SE_INSTANCE_16_9
 10
0
 20
0
 30
0
 70
128
 71
1
 72
2
 73
4
 74
4
 0
VERTEX
 8
D_SE_INSTANCE_16_9
 10
0
 20
0
 30
0
 70
128
 71
4
 72
3
 73
1
 74
1
 0
VERTEX
 8
D_SE_INSTANCE_16_9
 10
0
 20
0
 30
0
 70
128
 71
2
 72
3
 73
4
 74
4
 0
SEQEND
 0
POLYLINE
 8
D_SE_INSTANCE_17_9
 66
1
 10
0.0
 20
0.0
 30
0.0
 70
64
 71
4
 72
3
 0
VERTEX
 8
D_SE_INSTANCE_17_9
 10
14.9391
 20
16.3365
 30
1.3833
 70
192
 0
VERTEX
 8
D_SE_INSTANCE_17_9
 10
15.0995
 20
17.2396
 30
1.3833
 70
192
 0
VERTEX
 8
D_SE_INSTANCE_17_9
 10
14.1486
 20
17.0255
 30
1.3833
 70
192
 0
VERTEX
 8
D_SE_INSTANCE_17_9
 10
14.6756
 20
16.8394
 30
1.0102
 70
192
 0
VERTEX
 8
D_SE_INSTANCE_17_9
 10
0
 20
0
 30
0
 70
128
 71
1
 72
2
 73
4
 74
4
 0
VERTEX
 8
D_SE_INSTANCE_17_9
 10
0
 20
0
 30
0
 70
128
 71
4
 72
3
 73
1
 74
1
 0
VERTEX
 8
D_SE_INSTANCE_17_9
 10
0
 20
0
 30
0
 70
128
 71
2
 72
3
 73
4
 74
4
 0
SEQEND
 0
POLYLINE
 8
D_SE_INSTANCE_18_8
 66
1
 10
0.0
 20
0.0
 30
0.0
 70
64
 71
4
 72
3
 0
VERTEX
 8
D_SE_INSTANCE_18_8
 10
14.9391
 20
18.4451
 30
1.3833
 70
192
 0
VERTEX
 8
D_SE_INSTANCE_18_8
 10
15.0995
 20
19.3482
 30
1.3833
 70
192
 0
VERTEX
 8
D_SE_INSTANCE_18_8
 10
14.1486
 20
19.1341
 30
1.3833
 70
192
 0
VERTEX
 8
D_SE_INSTANCE_18_8
 10
14.6756
 20
18.948
 30
1.0102
 70
192
 0
VERTEX
 8
D_SE_INSTANCE_18_8
 10
0
 20
0
 30
0
 70
128
 71
1
 72
2
 73
4
 74
4
 0
VERTEX
 8
D_SE_INSTANCE_18_8
 10
0
 20
0
 30
0
 70
128
 71
4
 72
3
 73
1
 74
1
 0
VERTEX
 8
D_SE_INSTANCE_18_8
 10
0
 20
0
 30
0
 70
128
 71
2
 72
3
 73
4
 74
4
 0
SEQEND
 0
POLYLINE
 8
D_SE_INSTANCE_19_8
 66
1
 10
0.0
 20
0.0
 30
0.0
 70
64
 71
4
 72
3
 0
VERTEX
 8
D_SE_INSTANCE_19_8
 10
14.9391
 20
20.5588
 30
1.3833
 70
192
 0
VERTEX
 8
D_SE_INSTANCE_19_8
 10
15.0995
 20
21.4619
 30
1.3833
 70
192
 0
VERTEX
 8
D_SE_INSTANCE_19_8
 10
14.1486
 20
21.2478
 30
1.3833
 70
192
 0
VERTEX
 8
D_SE_INSTANCE_19_8
 10
14.6756
 20
21.0616
 30
1.0102
 70
192
 0
VERTEX
 8
D_SE_INSTANCE_19_8
 10
0
 20
0
 30
0
 70
128
 71
1
 72
2
 73
4
 74
4
 0
VERTEX
 8
D_SE_INSTANCE_19_8
 10
0
 20
0
 30
0
 70
128
 71
4
 72
3
 73
1
 74
1
 0
VERTEX
 8
D_SE_INSTANCE_19_8
 10
0
 20
0
 30
0
 70
128
 71
2
 72
3
 73
4
 74
4
 0
SEQEND
 0
POLYLINE
 8
D_SE_INSTANCE_2_20
 66
1
 10
0.0
 20
0.0
 30
0.0
 70
64
 71
4
 72
3
 0
VERTEX
 8
D_SE_INSTANCE_2_20
 10
12.9129
 20
-21.4527
 30
1.3833
 70
192
 0
VERTEX
 8
D_SE_INSTANCE_2_20
 10
13.0733
 20
-20.5496
 30
1.3833
 70
192
 0
VERTEX
 8
D_SE_INSTANCE_2_20
 10
12.1224
 20
-20.7637
 30
1.3833
 70
192
 0
VERTEX
 8
D_SE_INSTANCE_2_20
 10
12.6494
 20
-20.9499
 30
1.0102
 70
192
 0
VERTEX
 8
D_SE_INSTANCE_2_20
 10
0
 20
0
 30
0
 70
128
 71
1
 72
2
 73
4
 74
4
 0
VERTEX
 8
D_SE_INSTANCE_2_20
 10
0
 20
0
 30
0
 70
128
 71
4
 72
3
 73
1
 74
1
 0
VERTEX
 8
D_SE_INSTANCE_2_20
 10
0
 20
0
 30
0
 70
128
 71
2
 72
3
 73
4
 74
4
 0
SEQEND
 0
POLYLINE
 8
D_SE_INSTANCE_21
 66
1
 10
0.0
 20
0.0
 30
0.0
 70
64
 71
4
 72
3
 0
VERTEX
 8
D_SE_INSTANCE_21
 10
12.9129
 20
-19.3017
 30
1.3833
 70
192
 0
VERTEX
 8
D_SE_INSTANCE_21
 10
13.0733
 20
-18.3985
 30
1.3833
 70
192
 0
VERTEX
 8
D_SE_INSTANCE_21
 10
12.1224
 20
-18.6126
 30
1.3833
 70
192
 0
VERTEX
 8
D_SE_INSTANCE_21
 10
12.6494
 20
-18.7988
 30
1.0102
 70
192
 0
VERTEX
 8
D_SE_INSTANCE_21
 10
0
 20
0
 30
0
 70
128
 71
1
 72
2
 73
4
 74
4
 0
VERTEX
 8
D_SE_INSTANCE_21
 10
0
 20
0
 30
0
 70
128
 71
4
 72
3
 73
1
 74
1
 0
VERTEX
 8
D_SE_INSTANCE_21
 10
0
 20
0
 30
0
 70
128
 71
2
 72
3
 73
4
 74
4
 0
SEQEND
 0
POLYLINE
 8
D_SE_INSTANCE_1_21
 66
1
 10
0.0
 20
0.0
 30
0.0
 70
64
 71
4
 72
3
 0
VERTEX
 8
D_SE_INSTANCE_1_21
 10
12.9129
 20
-17.2304
 30
1.3833
 70
192
 0
VERTEX
 8
D_SE_INSTANCE_1_21
 10
13.0733
 20
-16.3273
 30
1.3833
 70
192
 0
VERTEX
 8
D_SE_INSTANCE_1_21
 10
12.1224
 20
-16.5413
 30
1.3833
 70
192
 0
VERTEX
 8
D_SE_INSTANCE_1_21
 10
12.6494
 20
-16.7275
 30
1.0102
 70
192
 0
VERTEX
 8
D_SE_INSTANCE_1_21
 10
0
 20
0
 30
0
 70
128
 71
1
 72
2
 73
4
 74
4
 0
VERTEX
 8
D_SE_INSTANCE_1_21
 10
0
 20
0
 30
0
 70
128
 71
4
 72
3
 73
1
 74
1
 0
VERTEX
 8
D_SE_INSTANCE_1_21
 10
0
 20
0
 30
0
 70
128
 71
2
 72
3
 73
4
 74
4
 0
SEQEND
 0
POLYLINE
 8
D_SE_INSTANCE_16_10
 66
1
 10
0.0
 20
0.0
 30
0.0
 70
64
 71
4
 72
3
 0
VERTEX
 8
D_SE_INSTANCE_16_10
 10
12.9129
 20
14.2473
 30
1.3833
 70
192
 0
VERTEX
 8
D_SE_INSTANCE_16_10
 10
13.0733
 20
15.1504
 30
1.3833
 70
192
 0
VERTEX
 8
D_SE_INSTANCE_16_10
 10
12.1224
 20
14.9363
 30
1.3833
 70
192
 0
VERTEX
 8
D_SE_INSTANCE_16_10
 10
12.6494
 20
14.7501
 30
1.0102
 70
192
 0
VERTEX
 8
D_SE_INSTANCE_16_10
 10
0
 20
0
 30
0
 70
128
 71
1
 72
2
 73
4
 74
4
 0
VERTEX
 8
D_SE_INSTANCE_16_10
 10
0
 20
0
 30
0
 70
128
 71
4
 72
3
 73
1
 74
1
 0
VERTEX
 8
D_SE_INSTANCE_16_10
 10
0
 20
0
 30
0
 70
128
 71
2
 72
3
 73
4
 74
4
 0
SEQEND
 0
POLYLINE
 8
D_SE_INSTANCE_17_10
 66
1
 10
0.0
 20
0.0
 30
0.0
 70
64
 71
4
 72
3
 0
VERTEX
 8
D_SE_INSTANCE_17_10
 10
12.9129
 20
16.3365
 30
1.3833
 70
192
 0
VERTEX
 8
D_SE_INSTANCE_17_10
 10
13.0733
 20
17.2396
 30
1.3833
 70
192
 0
VERTEX
 8
D_SE_INSTANCE_17_10
 10
12.1224
 20
17.0255
 30
1.3833
 70
192
 0
VERTEX
 8
D_SE_INSTANCE_17_10
 10
12.6494
 20
16.8394
 30
1.0102
 70
192
 0
VERTEX
 8
D_SE_INSTANCE_17_10
 10
0
 20
0
 30
0
 70
128
 71
1
 72
2
 73
4
 74
4
 0
VERTEX
 8
D_SE_INSTANCE_17_10
 10
0
 20
0
 30
0
 70
128
 71
4
 72
3
 73
1
 74
1
 0
VERTEX
 8
D_SE_INSTANCE_17_10
 10
0
 20
0
 30
0
 70
128
 71
2
 72
3
 73
4
 74
4
 0
SEQEND
 0
POLYLINE
 8
D_SE_INSTANCE_18_9
 66
1
 10
0.0
 20
0.0
 30
0.0
 70
64
 71
4
 72
3
 0
VERTEX
 8
D_SE_INSTANCE_18_9
 10
12.9129
 20
18.4451
 30
1.3833
 70
192
 0
VERTEX
 8
D_SE_INSTANCE_18_9
 10
13.0733
 20
19.3482
 30
1.3833
 70
192
 0
VERTEX
 8
D_SE_INSTANCE_18_9
 10
12.1224
 20
19.1341
 30
1.3833
 70
192
 0
VERTEX
 8
D_SE_INSTANCE_18_9
 10
12.6494
 20
18.948
 30
1.0102
 70
192
 0
VERTEX
 8
D_SE_INSTANCE_18_9
 10
0
 20
0
 30
0
 70
128
 71
1
 72
2
 73
4
 74
4
 0
VERTEX
 8
D_SE_INSTANCE_18_9
 10
0
 20
0
 30
0
 70
128
 71
4
 72
3
 73
1
 74
1
 0
VERTEX
 8
D_SE_INSTANCE_18_9
 10
0
 20
0
 30
0
 70
128
 71
2
 72
3
 73
4
 74
4
 0
SEQEND
 0
POLYLINE
 8
D_SE_INSTANCE_19_9
 66
1
 10
0.0
 20
0.0
 30
0.0
 70
64
 71
4
 72
3
 0
VERTEX
 8
D_SE_INSTANCE_19_9
 10
12.9129
 20
20.5588
 30
1.3833
 70
192
 0
VERTEX
 8
D_SE_INSTANCE_19_9
 10
13.0733
 20
21.4619
 30
1.3833
 70
192
 0
VERTEX
 8
D_SE_INSTANCE_19_9
 10
12.1224
 20
21.2478
 30
1.3833
 70
192
 0
VERTEX
 8
D_SE_INSTANCE_19_9
 10
12.6494
 20
21.0616
 30
1.0102
 70
192
 0
VERTEX
 8
D_SE_INSTANCE_19_9
 10
0
 20
0
 30
0
 70
128
 71
1
 72
2
 73
4
 74
4
 0
VERTEX
 8
D_SE_INSTANCE_19_9
 10
0
 20
0
 30
0
 70
128
 71
4
 72
3
 73
1
 74
1
 0
VERTEX
 8
D_SE_INSTANCE_19_9
 10
0
 20
0
 30
0
 70
128
 71
2
 72
3
 73
4
 74
4
 0
SEQEND
 0
POLYLINE
 8
D_SE_INSTANCE_2_21
 66
1
 10
0.0
 20
0.0
 30
0.0
 70
64
 71
4
 72
3
 0
VERTEX
 8
D_SE_INSTANCE_2_21
 10
10.7941
 20
-21.4527
 30
1.3833
 70
192
 0
VERTEX
 8
D_SE_INSTANCE_2_21
 10
10.9545
 20
-20.5496
 30
1.3833
 70
192
 0
VERTEX
 8
D_SE_INSTANCE_2_21
 10
10.0036
 20
-20.7637
 30
1.3833
 70
192
 0
VERTEX
 8
D_SE_INSTANCE_2_21
 10
10.5306
 20
-20.9499
 30
1.0102
 70
192
 0
VERTEX
 8
D_SE_INSTANCE_2_21
 10
0
 20
0
 30
0
 70
128
 71
1
 72
2
 73
4
 74
4
 0
VERTEX
 8
D_SE_INSTANCE_2_21
 10
0
 20
0
 30
0
 70
128
 71
4
 72
3
 73
1
 74
1
 0
VERTEX
 8
D_SE_INSTANCE_2_21
 10
0
 20
0
 30
0
 70
128
 71
2
 72
3
 73
4
 74
4
 0
SEQEND
 0
POLYLINE
 8
D_SE_INSTANCE_22
 66
1
 10
0.0
 20
0.0
 30
0.0
 70
64
 71
4
 72
3
 0
VERTEX
 8
D_SE_INSTANCE_22
 10
10.7941
 20
-19.3017
 30
1.3833
 70
192
 0
VERTEX
 8
D_SE_INSTANCE_22
 10
10.9545
 20
-18.3985
 30
1.3833
 70
192
 0
VERTEX
 8
D_SE_INSTANCE_22
 10
10.0036
 20
-18.6126
 30
1.3833
 70
192
 0
VERTEX
 8
D_SE_INSTANCE_22
 10
10.5306
 20
-18.7988
 30
1.0102
 70
192
 0
VERTEX
 8
D_SE_INSTANCE_22
 10
0
 20
0
 30
0
 70
128
 71
1
 72
2
 73
4
 74
4
 0
VERTEX
 8
D_SE_INSTANCE_22
 10
0
 20
0
 30
0
 70
128
 71
4
 72
3
 73
1
 74
1
 0
VERTEX
 8
D_SE_INSTANCE_22
 10
0
 20
0
 30
0
 70
128
 71
2
 72
3
 73
4
 74
4
 0
SEQEND
 0
POLYLINE
 8
D_SE_INSTANCE_1_22
 66
1
 10
0.0
 20
0.0
 30
0.0
 70
64
 71
4
 72
3
 0
VERTEX
 8
D_SE_INSTANCE_1_22
 10
10.7941
 20
-17.2304
 30
1.3833
 70
192
 0
VERTEX
 8
D_SE_INSTANCE_1_22
 10
10.9545
 20
-16.3273
 30
1.3833
 70
192
 0
VERTEX
 8
D_SE_INSTANCE_1_22
 10
10.0036
 20
-16.5413
 30
1.3833
 70
192
 0
VERTEX
 8
D_SE_INSTANCE_1_22
 10
10.5306
 20
-16.7275
 30
1.0102
 70
192
 0
VERTEX
 8
D_SE_INSTANCE_1_22
 10
0
 20
0
 30
0
 70
128
 71
1
 72
2
 73
4
 74
4
 0
VERTEX
 8
D_SE_INSTANCE_1_22
 10
0
 20
0
 30
0
 70
128
 71
4
 72
3
 73
1
 74
1
 0
VERTEX
 8
D_SE_INSTANCE_1_22
 10
0
 20
0
 30
0
 70
128
 71
2
 72
3
 73
4
 74
4
 0
SEQEND
 0
POLYLINE
 8
D_SE_INSTANCE_16_11
 66
1
 10
0.0
 20
0.0
 30
0.0
 70
64
 71
4
 72
3
 0
VERTEX
 8
D_SE_INSTANCE_16_11
 10
10.7941
 20
14.2473
 30
1.3833
 70
192
 0
VERTEX
 8
D_SE_INSTANCE_16_11
 10
10.9545
 20
15.1504
 30
1.3833
 70
192
 0
VERTEX
 8
D_SE_INSTANCE_16_11
 10
10.0036
 20
14.9363
 30
1.3833
 70
192
 0
VERTEX
 8
D_SE_INSTANCE_16_11
 10
10.5306
 20
14.7501
 30
1.0102
 70
192
 0
VERTEX
 8
D_SE_INSTANCE_16_11
 10
0
 20
0
 30
0
 70
128
 71
1
 72
2
 73
4
 74
4
 0
VERTEX
 8
D_SE_INSTANCE_16_11
 10
0
 20
0
 30
0
 70
128
 71
4
 72
3
 73
1
 74
1
 0
VERTEX
 8
D_SE_INSTANCE_16_11
 10
0
 20
0
 30
0
 70
128
 71
2
 72
3
 73
4
 74
4
 0
SEQEND
 0
POLYLINE
 8
D_SE_INSTANCE_17_11
 66
1
 10
0.0
 20
0.0
 30
0.0
 70
64
 71
4
 72
3
 0
VERTEX
 8
D_SE_INSTANCE_17_11
 10
10.7941
 20
16.3365
 30
1.3833
 70
192
 0
VERTEX
 8
D_SE_INSTANCE_17_11
 10
10.9545
 20
17.2396
 30
1.3833
 70
192
 0
VERTEX
 8
D_SE_INSTANCE_17_11
 10
10.0036
 20
17.0255
 30
1.3833
 70
192
 0
VERTEX
 8
D_SE_INSTANCE_17_11
 10
10.5306
 20
16.8394
 30
1.0102
 70
192
 0
VERTEX
 8
D_SE_INSTANCE_17_11
 10
0
 20
0
 30
0
 70
128
 71
1
 72
2
 73
4
 74
4
 0
VERTEX
 8
D_SE_INSTANCE_17_11
 10
0
 20
0
 30
0
 70
128
 71
4
 72
3
 73
1
 74
1
 0
VERTEX
 8
D_SE_INSTANCE_17_11
 10
0
 20
0
 30
0
 70
128
 71
2
 72
3
 73
4
 74
4
 0
SEQEND
 0
POLYLINE
 8
D_SE_INSTANCE_18_10
 66
1
 10
0.0
 20
0.0
 30
0.0
 70
64
 71
4
 72
3
 0
VERTEX
 8
D_SE_INSTANCE_18_10
 10
10.7941
 20
18.4451
 30
1.3833
 70
192
 0
VERTEX
 8
D_SE_INSTANCE_18_10
 10
10.9545
 20
19.3482
 30
1.3833
 70
192
 0
VERTEX
 8
D_SE_INSTANCE_18_10
 10
10.0036
 20
19.1341
 30
1.3833
 70
192
 0
VERTEX
 8
D_SE_INSTANCE_18_10
 10
10.5306
 20
18.948
 30
1.0102
 70
192
 0
VERTEX
 8
D_SE_INSTANCE_18_10
 10
0
 20
0
 30
0
 70
128
 71
1
 72
2
 73
4
 74
4
 0
VERTEX
 8
D_SE_INSTANCE_18_10
 10
0
 20
0
 30
0
 70
128
 71
4
 72
3
 73
1
 74
1
 0
VERTEX
 8
D_SE_INSTANCE_18_10
 10
0
 20
0
 30
0
 70
128
 71
2
 72
3
 73
4
 74
4
 0
SEQEND
 0
POLYLINE
 8
D_SE_INSTANCE_19_10
 66
1
 10
0.0
 20
0.0
 30
0.0
 70
64
 71
4
 72
3
 0
VERTEX
 8
D_SE_INSTANCE_19_10
 10
10.7941
 20
20.5588
 30
1.3833
 70
192
 0
VERTEX
 8
D_SE_INSTANCE_19_10
 10
10.9545
 20
21.4619
 30
1.3833
 70
192
 0
VERTEX
 8
D_SE_INSTANCE_19_10
 10
10.0036
 20
21.2478
 30
1.3833
 70
192
 0
VERTEX
 8
D_SE_INSTANCE_19_10
 10
10.5306
 20
21.0616
 30
1.0102
 70
192
 0
VERTEX
 8
D_SE_INSTANCE_19_10
 10
0
 20
0
 30
0
 70
128
 71
1
 72
2
 73
4
 74
4
 0
VERTEX
 8
D_SE_INSTANCE_19_10
 10
0
 20
0
 30
0
 70
128
 71
4
 72
3
 73
1
 74
1
 0
VERTEX
 8
D_SE_INSTANCE_19_10
 10
0
 20
0
 30
0
 70
128
 71
2
 72
3
 73
4
 74
4
 0
SEQEND
 0
POLYLINE
 8
D_SE_INSTANCE_2_22
 66
1
 10
0.0
 20
0.0
 30
0.0
 70
64
 71
4
 72
3
 0
VERTEX
 8
D_SE_INSTANCE_2_22
 10
8.7374
 20
-21.4527
 30
1.3833
 70
192
 0
VERTEX
 8
D_SE_INSTANCE_2_22
 10
8.8978
 20
-20.5496
 30
1.3833
 70
192
 0
VERTEX
 8
D_SE_INSTANCE_2_22
 10
7.9469
 20
-20.7637
 30
1.3833
 70
192
 0
VERTEX
 8
D_SE_INSTANCE_2_22
 10
8.4739
 20
-20.9499
 30
1.0102
 70
192
 0
VERTEX
 8
D_SE_INSTANCE_2_22
 10
0
 20
0
 30
0
 70
128
 71
1
 72
2
 73
4
 74
4
 0
VERTEX
 8
D_SE_INSTANCE_2_22
 10
0
 20
0
 30
0
 70
128
 71
4
 72
3
 73
1
 74
1
 0
VERTEX
 8
D_SE_INSTANCE_2_22
 10
0
 20
0
 30
0
 70
128
 71
2
 72
3
 73
4
 74
4
 0
SEQEND
 0
POLYLINE
 8
D_SE_INSTANCE_23
 66
1
 10
0.0
 20
0.0
 30
0.0
 70
64
 71
4
 72
3
 0
VERTEX
 8
D_SE_INSTANCE_23
 10
8.7374
 20
-19.3017
 30
1.3833
 70
192
 0
VERTEX
 8
D_SE_INSTANCE_23
 10
8.8978
 20
-18.3985
 30
1.3833
 70
192
 0
VERTEX
 8
D_SE_INSTANCE_23
 10
7.9469
 20
-18.6126
 30
1.3833
 70
192
 0
VERTEX
 8
D_SE_INSTANCE_23
 10
8.4739
 20
-18.7988
 30
1.0102
 70
192
 0
VERTEX
 8
D_SE_INSTANCE_23
 10
0
 20
0
 30
0
 70
128
 71
1
 72
2
 73
4
 74
4
 0
VERTEX
 8
D_SE_INSTANCE_23
 10
0
 20
0
 30
0
 70
128
 71
4
 72
3
 73
1
 74
1
 0
VERTEX
 8
D_SE_INSTANCE_23
 10
0
 20
0
 30
0
 70
128
 71
2
 72
3
 73
4
 74
4
 0
SEQEND
 0
POLYLINE
 8
D_SE_INSTANCE_1_23
 66
1
 10
0.0
 20
0.0
 30
0.0
 70
64
 71
4
 72
3
 0
VERTEX
 8
D_SE_INSTANCE_1_23
 10
8.7374
 20
-17.2304
 30
1.3833
 70
192
 0
VERTEX
 8
D_SE_INSTANCE_1_23
 10
8.8978
 20
-16.3273
 30
1.3833
 70
192
 0
VERTEX
 8
D_SE_INSTANCE_1_23
 10
7.9469
 20
-16.5413
 30
1.3833
 70
192
 0
VERTEX
 8
D_SE_INSTANCE_1_23
 10
8.4739
 20
-16.7275
 30
1.0102
 70
192
 0
VERTEX
 8
D_SE_INSTANCE_1_23
 10
0
 20
0
 30
0
 70
128
 71
1
 72
2
 73
4
 74
4
 0
VERTEX
 8
D_SE_INSTANCE_1_23
 10
0
 20
0
 30
0
 70
128
 71
4
 72
3
 73
1
 74
1
 0
VERTEX
 8
D_SE_INSTANCE_1_23
 10
0
 20
0
 30
0
 70
128
 71
2
 72
3
 73
4
 74
4
 0
SEQEND
 0
POLYLINE
 8
D_SE_INSTANCE_16_12
 66
1
 10
0.0
 20
0.0
 30
0.0
 70
64
 71
4
 72
3
 0
VERTEX
 8
D_SE_INSTANCE_16_12
 10
8.7374
 20
14.2473
 30
1.3833
 70
192
 0
VERTEX
 8
D_SE_INSTANCE_16_12
 10
8.8978
 20
15.1504
 30
1.3833
 70
192
 0
VERTEX
 8
D_SE_INSTANCE_16_12
 10
7.9469
 20
14.9363
 30
1.3833
 70
192
 0
VERTEX
 8
D_SE_INSTANCE_16_12
 10
8.4739
 20
14.7501
 30
1.0102
 70
192
 0
VERTEX
 8
D_SE_INSTANCE_16_12
 10
0
 20
0
 30
0
 70
128
 71
1
 72
2
 73
4
 74
4
 0
VERTEX
 8
D_SE_INSTANCE_16_12
 10
0
 20
0
 30
0
 70
128
 71
4
 72
3
 73
1
 74
1
 0
VERTEX
 8
D_SE_INSTANCE_16_12
 10
0
 20
0
 30
0
 70
128
 71
2
 72
3
 73
4
 74
4
 0
SEQEND
 0
POLYLINE
 8
D_SE_INSTANCE_17_12
 66
1
 10
0.0
 20
0.0
 30
0.0
 70
64
 71
4
 72
3
 0
VERTEX
 8
D_SE_INSTANCE_17_12
 10
8.7374
 20
16.3365
 30
1.3833
 70
192
 0
VERTEX
 8
D_SE_INSTANCE_17_12
 10
8.8978
 20
17.2396
 30
1.3833
 70
192
 0
VERTEX
 8
D_SE_INSTANCE_17_12
 10
7.9469
 20
17.0255
 30
1.3833
 70
192
 0
VERTEX
 8
D_SE_INSTANCE_17_12
 10
8.4739
 20
16.8394
 30
1.0102
 70
192
 0
VERTEX
 8
D_SE_INSTANCE_17_12
 10
0
 20
0
 30
0
 70
128
 71
1
 72
2
 73
4
 74
4
 0
VERTEX
 8
D_SE_INSTANCE_17_12
 10
0
 20
0
 30
0
 70
128
 71
4
 72
3
 73
1
 74
1
 0
VERTEX
 8
D_SE_INSTANCE_17_12
 10
0
 20
0
 30
0
 70
128
 71
2
 72
3
 73
4
 74
4
 0
SEQEND
 0
POLYLINE
 8
D_SE_INSTANCE_18_11
 66
1
 10
0.0
 20
0.0
 30
0.0
 70
64
 71
4
 72
3
 0
VERTEX
 8
D_SE_INSTANCE_18_11
 10
8.7374
 20
18.4451
 30
1.3833
 70
192
 0
VERTEX
 8
D_SE_INSTANCE_18_11
 10
8.8978
 20
19.3482
 30
1.3833
 70
192
 0
VERTEX
 8
D_SE_INSTANCE_18_11
 10
7.9469
 20
19.1341
 30
1.3833
 70
192
 0
VERTEX
 8
D_SE_INSTANCE_18_11
 10
8.4739
 20
18.948
 30
1.0102
 70
192
 0
VERTEX
 8
D_SE_INSTANCE_18_11
 10
0
 20
0
 30
0
 70
128
 71
1
 72
2
 73
4
 74
4
 0
VERTEX
 8
D_SE_INSTANCE_18_11
 10
0
 20
0
 30
0
 70
128
 71
4
 72
3
 73
1
 74
1
 0
VERTEX
 8
D_SE_INSTANCE_18_11
 10
0
 20
0
 30
0
 70
128
 71
2
 72
3
 73
4
 74
4
 0
SEQEND
 0
POLYLINE
 8
D_SE_INSTANCE_19_11
 66
1
 10
0.0
 20
0.0
 30
0.0
 70
64
 71
4
 72
3
 0
VERTEX
 8
D_SE_INSTANCE_19_11
 10
8.7374
 20
20.5588
 30
1.3833
 70
192
 0
VERTEX
 8
D_SE_INSTANCE_19_11
 10
8.8978
 20
21.4619
 30
1.3833
 70
192
 0
VERTEX
 8
D_SE_INSTANCE_19_11
 10
7.9469
 20
21.2478
 30
1.3833
 70
192
 0
VERTEX
 8
D_SE_INSTANCE_19_11
 10
8.4739
 20
21.0616
 30
1.0102
 70
192
 0
VERTEX
 8
D_SE_INSTANCE_19_11
 10
0
 20
0
 30
0
 70
128
 71
1
 72
2
 73
4
 74
4
 0
VERTEX
 8
D_SE_INSTANCE_19_11
 10
0
 20
0
 30
0
 70
128
 71
4
 72
3
 73
1
 74
1
 0
VERTEX
 8
D_SE_INSTANCE_19_11
 10
0
 20
0
 30
0
 70
128
 71
2
 72
3
 73
4
 74
4
 0
SEQEND
 0
POLYLINE
 8
D_SE_INSTANCE_2_23
 66
1
 10
0.0
 20
0.0
 30
0.0
 70
64
 71
4
 72
3
 0
VERTEX
 8
D_SE_INSTANCE_2_23
 10
6.6014
 20
-21.4527
 30
1.3833
 70
192
 0
VERTEX
 8
D_SE_INSTANCE_2_23
 10
6.7618
 20
-20.5496
 30
1.3833
 70
192
 0
VERTEX
 8
D_SE_INSTANCE_2_23
 10
5.8109
 20
-20.7637
 30
1.3833
 70
192
 0
VERTEX
 8
D_SE_INSTANCE_2_23
 10
6.3379
 20
-20.9499
 30
1.0102
 70
192
 0
VERTEX
 8
D_SE_INSTANCE_2_23
 10
0
 20
0
 30
0
 70
128
 71
1
 72
2
 73
4
 74
4
 0
VERTEX
 8
D_SE_INSTANCE_2_23
 10
0
 20
0
 30
0
 70
128
 71
4
 72
3
 73
1
 74
1
 0
VERTEX
 8
D_SE_INSTANCE_2_23
 10
0
 20
0
 30
0
 70
128
 71
2
 72
3
 73
4
 74
4
 0
SEQEND
 0
POLYLINE
 8
D_SE_INSTANCE_24
 66
1
 10
0.0
 20
0.0
 30
0.0
 70
64
 71
4
 72
3
 0
VERTEX
 8
D_SE_INSTANCE_24
 10
6.6014
 20
-19.3017
 30
1.3833
 70
192
 0
VERTEX
 8
D_SE_INSTANCE_24
 10
6.7618
 20
-18.3985
 30
1.3833
 70
192
 0
VERTEX
 8
D_SE_INSTANCE_24
 10
5.8109
 20
-18.6126
 30
1.3833
 70
192
 0
VERTEX
 8
D_SE_INSTANCE_24
 10
6.3379
 20
-18.7988
 30
1.0102
 70
192
 0
VERTEX
 8
D_SE_INSTANCE_24
 10
0
 20
0
 30
0
 70
128
 71
1
 72
2
 73
4
 74
4
 0
VERTEX
 8
D_SE_INSTANCE_24
 10
0
 20
0
 30
0
 70
128
 71
4
 72
3
 73
1
 74
1
 0
VERTEX
 8
D_SE_INSTANCE_24
 10
0
 20
0
 30
0
 70
128
 71
2
 72
3
 73
4
 74
4
 0
SEQEND
 0
POLYLINE
 8
D_SE_INSTANCE_1_24
 66
1
 10
0.0
 20
0.0
 30
0.0
 70
64
 71
4
 72
3
 0
VERTEX
 8
D_SE_INSTANCE_1_24
 10
6.6014
 20
-17.2304
 30
1.3833
 70
192
 0
VERTEX
 8
D_SE_INSTANCE_1_24
 10
6.7618
 20
-16.3273
 30
1.3833
 70
192
 0
VERTEX
 8
D_SE_INSTANCE_1_24
 10
5.8109
 20
-16.5413
 30
1.3833
 70
192
 0
VERTEX
 8
D_SE_INSTANCE_1_24
 10
6.3379
 20
-16.7275
 30
1.0102
 70
192
 0
VERTEX
 8
D_SE_INSTANCE_1_24
 10
0
 20
0
 30
0
 70
128
 71
1
 72
2
 73
4
 74
4
 0
VERTEX
 8
D_SE_INSTANCE_1_24
 10
0
 20
0
 30
0
 70
128
 71
4
 72
3
 73
1
 74
1
 0
VERTEX
 8
D_SE_INSTANCE_1_24
 10
0
 20
0
 30
0
 70
128
 71
2
 72
3
 73
4
 74
4
 0
SEQEND
 0
POLYLINE
 8
D_SE_INSTANCE_16_13
 66
1
 10
0.0
 20
0.0
 30
0.0
 70
64
 71
4
 72
3
 0
VERTEX
 8
D_SE_INSTANCE_16_13
 10
6.6014
 20
14.2473
 30
1.3833
 70
192
 0
VERTEX
 8
D_SE_INSTANCE_16_13
 10
6.7618
 20
15.1504
 30
1.3833
 70
192
 0
VERTEX
 8
D_SE_INSTANCE_16_13
 10
5.8109
 20
14.9363
 30
1.3833
 70
192
 0
VERTEX
 8
D_SE_INSTANCE_16_13
 10
6.3379
 20
14.7501
 30
1.0102
 70
192
 0
VERTEX
 8
D_SE_INSTANCE_16_13
 10
0
 20
0
 30
0
 70
128
 71
1
 72
2
 73
4
 74
4
 0
VERTEX
 8
D_SE_INSTANCE_16_13
 10
0
 20
0
 30
0
 70
128
 71
4
 72
3
 73
1
 74
1
 0
VERTEX
 8
D_SE_INSTANCE_16_13
 10
0
 20
0
 30
0
 70
128
 71
2
 72
3
 73
4
 74
4
 0
SEQEND
 0
POLYLINE
 8
D_SE_INSTANCE_17_13
 66
1
 10
0.0
 20
0.0
 30
0.0
 70
64
 71
4
 72
3
 0
VERTEX
 8
D_SE_INSTANCE_17_13
 10
6.6014
 20
16.3365
 30
1.3833
 70
192
 0
VERTEX
 8
D_SE_INSTANCE_17_13
 10
6.7618
 20
17.2396
 30
1.3833
 70
192
 0
VERTEX
 8
D_SE_INSTANCE_17_13
 10
5.8109
 20
17.0255
 30
1.3833
 70
192
 0
VERTEX
 8
D_SE_INSTANCE_17_13
 10
6.3379
 20
16.8394
 30
1.0102
 70
192
 0
VERTEX
 8
D_SE_INSTANCE_17_13
 10
0
 20
0
 30
0
 70
128
 71
1
 72
2
 73
4
 74
4
 0
VERTEX
 8
D_SE_INSTANCE_17_13
 10
0
 20
0
 30
0
 70
128
 71
4
 72
3
 73
1
 74
1
 0
VERTEX
 8
D_SE_INSTANCE_17_13
 10
0
 20
0
 30
0
 70
128
 71
2
 72
3
 73
4
 74
4
 0
SEQEND
 0
POLYLINE
 8
D_SE_INSTANCE_18_12
 66
1
 10
0.0
 20
0.0
 30
0.0
 70
64
 71
4
 72
3
 0
VERTEX
 8
D_SE_INSTANCE_18_12
 10
6.6014
 20
18.4451
 30
1.3833
 70
192
 0
VERTEX
 8
D_SE_INSTANCE_18_12
 10
6.7618
 20
19.3482
 30
1.3833
 70
192
 0
VERTEX
 8
D_SE_INSTANCE_18_12
 10
5.8109
 20
19.1341
 30
1.3833
 70
192
 0
VERTEX
 8
D_SE_INSTANCE_18_12
 10
6.3379
 20
18.948
 30
1.0102
 70
192
 0
VERTEX
 8
D_SE_INSTANCE_18_12
 10
0
 20
0
 30
0
 70
128
 71
1
 72
2
 73
4
 74
4
 0
VERTEX
 8
D_SE_INSTANCE_18_12
 10
0
 20
0
 30
0
 70
128
 71
4
 72
3
 73
1
 74
1
 0
VERTEX
 8
D_SE_INSTANCE_18_12
 10
0
 20
0
 30
0
 70
128
 71
2
 72
3
 73
4
 74
4
 0
SEQEND
 0
POLYLINE
 8
D_SE_INSTANCE_19_12
 66
1
 10
0.0
 20
0.0
 30
0.0
 70
64
 71
4
 72
3
 0
VERTEX
 8
D_SE_INSTANCE_19_12
 10
6.6014
 20
20.5588
 30
1.3833
 70
192
 0
VERTEX
 8
D_SE_INSTANCE_19_12
 10
6.7618
 20
21.4619
 30
1.3833
 70
192
 0
VERTEX
 8
D_SE_INSTANCE_19_12
 10
5.8109
 20
21.2478
 30
1.3833
 70
192
 0
VERTEX
 8
D_SE_INSTANCE_19_12
 10
6.3379
 20
21.0616
 30
1.0102
 70
192
 0
VERTEX
 8
D_SE_INSTANCE_19_12
 10
0
 20
0
 30
0
 70
128
 71
1
 72
2
 73
4
 74
4
 0
VERTEX
 8
D_SE_INSTANCE_19_12
 10
0
 20
0
 30
0
 70
128
 71
4
 72
3
 73
1
 74
1
 0
VERTEX
 8
D_SE_INSTANCE_19_12
 10
0
 20
0
 30
0
 70
128
 71
2
 72
3
 73
4
 74
4
 0
SEQEND
 0
POLYLINE
 8
D_SE_1
 66
1
 10
0.0
 20
0.0
 30
0.0
 70
64
 71
4
 72
3
 0
VERTEX
 8
D_SE_1
 10
40.1986
 20
-21.4404
 30
1.3833
 70
192
 0
VERTEX
 8
D_SE_1
 10
40.359
 20
-20.5373
 30
1.3833
 70
192
 0
VERTEX
 8
D_SE_1
 10
39.4081
 20
-20.7514
 30
1.3833
 70
192
 0
VERTEX
 8
D_SE_1
 10
39.9351
 20
-20.9375
 30
1.0102
 70
192
 0
VERTEX
 8
D_SE_1
 10
0
 20
0
 30
0
 70
128
 71
1
 72
2
 73
4
 74
4
 0
VERTEX
 8
D_SE_1
 10
0
 20
0
 30
0
 70
128
 71
4
 72
3
 73
1
 74
1
 0
VERTEX
 8
D_SE_1
 10
0
 20
0
 30
0
 70
128
 71
2
 72
3
 73
4
 74
4
 0
SEQEND
 0
POLYLINE
 8
D_SE_INSTANCE_25
 66
1
 10
0.0
 20
0.0
 30
0.0
 70
64
 71
4
 72
3
 0
VERTEX
 8
D_SE_INSTANCE_25
 10
40.1986
 20
-19.3017
 30
1.3833
 70
192
 0
VERTEX
 8
D_SE_INSTANCE_25
 10
40.359
 20
-18.3985
 30
1.3833
 70
192
 0
VERTEX
 8
D_SE_INSTANCE_25
 10
39.4081
 20
-18.6126
 30
1.3833
 70
192
 0
VERTEX
 8
D_SE_INSTANCE_25
 10
39.9351
 20
-18.7988
 30
1.0102
 70
192
 0
VERTEX
 8
D_SE_INSTANCE_25
 10
0
 20
0
 30
0
 70
128
 71
1
 72
2
 73
4
 74
4
 0
VERTEX
 8
D_SE_INSTANCE_25
 10
0
 20
0
 30
0
 70
128
 71
4
 72
3
 73
1
 74
1
 0
VERTEX
 8
D_SE_INSTANCE_25
 10
0
 20
0
 30
0
 70
128
 71
2
 72
3
 73
4
 74
4
 0
SEQEND
 0
POLYLINE
 8
D_SE_INSTANCE_1_25
 66
1
 10
0.0
 20
0.0
 30
0.0
 70
64
 71
4
 72
3
 0
VERTEX
 8
D_SE_INSTANCE_1_25
 10
40.1986
 20
-17.2304
 30
1.3833
 70
192
 0
VERTEX
 8
D_SE_INSTANCE_1_25
 10
40.359
 20
-16.3273
 30
1.3833
 70
192
 0
VERTEX
 8
D_SE_INSTANCE_1_25
 10
39.4081
 20
-16.5413
 30
1.3833
 70
192
 0
VERTEX
 8
D_SE_INSTANCE_1_25
 10
39.9351
 20
-16.7275
 30
1.0102
 70
192
 0
VERTEX
 8
D_SE_INSTANCE_1_25
 10
0
 20
0
 30
0
 70
128
 71
1
 72
2
 73
4
 74
4
 0
VERTEX
 8
D_SE_INSTANCE_1_25
 10
0
 20
0
 30
0
 70
128
 71
4
 72
3
 73
1
 74
1
 0
VERTEX
 8
D_SE_INSTANCE_1_25
 10
0
 20
0
 30
0
 70
128
 71
2
 72
3
 73
4
 74
4
 0
SEQEND
 0
POLYLINE
 8
D_SE_INSTANCE_2_24
 66
1
 10
0.0
 20
0.0
 30
0.0
 70
64
 71
4
 72
3
 0
VERTEX
 8
D_SE_INSTANCE_2_24
 10
40.1986
 20
-15.1495
 30
1.3833
 70
192
 0
VERTEX
 8
D_SE_INSTANCE_2_24
 10
40.359
 20
-14.2464
 30
1.3833
 70
192
 0
VERTEX
 8
D_SE_INSTANCE_2_24
 10
39.4081
 20
-14.4605
 30
1.3833
 70
192
 0
VERTEX
 8
D_SE_INSTANCE_2_24
 10
39.9351
 20
-14.6466
 30
1.0102
 70
192
 0
VERTEX
 8
D_SE_INSTANCE_2_24
 10
0
 20
0
 30
0
 70
128
 71
1
 72
2
 73
4
 74
4
 0
VERTEX
 8
D_SE_INSTANCE_2_24
 10
0
 20
0
 30
0
 70
128
 71
4
 72
3
 73
1
 74
1
 0
VERTEX
 8
D_SE_INSTANCE_2_24
 10
0
 20
0
 30
0
 70
128
 71
2
 72
3
 73
4
 74
4
 0
SEQEND
 0
POLYLINE
 8
D_SE_INSTANCE_3_11
 66
1
 10
0.0
 20
0.0
 30
0.0
 70
64
 71
4
 72
3
 0
VERTEX
 8
D_SE_INSTANCE_3_11
 10
40.1986
 20
-13.0381
 30
1.3833
 70
192
 0
VERTEX
 8
D_SE_INSTANCE_3_11
 10
40.359
 20
-12.135
 30
1.3833
 70
192
 0
VERTEX
 8
D_SE_INSTANCE_3_11
 10
39.4081
 20
-12.3491
 30
1.3833
 70
192
 0
VERTEX
 8
D_SE_INSTANCE_3_11
 10
39.9351
 20
-12.5353
 30
1.0102
 70
192
 0
VERTEX
 8
D_SE_INSTANCE_3_11
 10
0
 20
0
 30
0
 70
128
 71
1
 72
2
 73
4
 74
4
 0
VERTEX
 8
D_SE_INSTANCE_3_11
 10
0
 20
0
 30
0
 70
128
 71
4
 72
3
 73
1
 74
1
 0
VERTEX
 8
D_SE_INSTANCE_3_11
 10
0
 20
0
 30
0
 70
128
 71
2
 72
3
 73
4
 74
4
 0
SEQEND
 0
POLYLINE
 8
D_SE_INSTANCE_4_11
 66
1
 10
0.0
 20
0.0
 30
0.0
 70
64
 71
4
 72
3
 0
VERTEX
 8
D_SE_INSTANCE_4_11
 10
40.1986
 20
-10.9461
 30
1.3833
 70
192
 0
VERTEX
 8
D_SE_INSTANCE_4_11
 10
40.359
 20
-10.043
 30
1.3833
 70
192
 0
VERTEX
 8
D_SE_INSTANCE_4_11
 10
39.4081
 20
-10.2571
 30
1.3833
 70
192
 0
VERTEX
 8
D_SE_INSTANCE_4_11
 10
39.9351
 20
-10.4432
 30
1.0102
 70
192
 0
VERTEX
 8
D_SE_INSTANCE_4_11
 10
0
 20
0
 30
0
 70
128
 71
1
 72
2
 73
4
 74
4
 0
VERTEX
 8
D_SE_INSTANCE_4_11
 10
0
 20
0
 30
0
 70
128
 71
4
 72
3
 73
1
 74
1
 0
VERTEX
 8
D_SE_INSTANCE_4_11
 10
0
 20
0
 30
0
 70
128
 71
2
 72
3
 73
4
 74
4
 0
SEQEND
 0
POLYLINE
 8
D_SE_INSTANCE_5_11
 66
1
 10
0.0
 20
0.0
 30
0.0
 70
64
 71
4
 72
3
 0
VERTEX
 8
D_SE_INSTANCE_5_11
 10
40.1986
 20
-8.8295
 30
1.3833
 70
192
 0
VERTEX
 8
D_SE_INSTANCE_5_11
 10
40.359
 20
-7.9264
 30
1.3833
 70
192
 0
VERTEX
 8
D_SE_INSTANCE_5_11
 10
39.4081
 20
-8.1405
 30
1.3833
 70
192
 0
VERTEX
 8
D_SE_INSTANCE_5_11
 10
39.9351
 20
-8.3266
 30
1.0102
 70
192
 0
VERTEX
 8
D_SE_INSTANCE_5_11
 10
0
 20
0
 30
0
 70
128
 71
1
 72
2
 73
4
 74
4
 0
VERTEX
 8
D_SE_INSTANCE_5_11
 10
0
 20
0
 30
0
 70
128
 71
4
 72
3
 73
1
 74
1
 0
VERTEX
 8
D_SE_INSTANCE_5_11
 10
0
 20
0
 30
0
 70
128
 71
2
 72
3
 73
4
 74
4
 0
SEQEND
 0
POLYLINE
 8
D_SE_INSTANCE_6_12
 66
1
 10
0.0
 20
0.0
 30
0.0
 70
64
 71
4
 72
3
 0
VERTEX
 8
D_SE_INSTANCE_6_12
 10
40.1986
 20
-6.772
 30
1.3833
 70
192
 0
VERTEX
 8
D_SE_INSTANCE_6_12
 10
40.359
 20
-5.8689
 30
1.3833
 70
192
 0
VERTEX
 8
D_SE_INSTANCE_6_12
 10
39.4081
 20
-6.083
 30
1.3833
 70
192
 0
VERTEX
 8
D_SE_INSTANCE_6_12
 10
39.9351
 20
-6.2691
 30
1.0102
 70
192
 0
VERTEX
 8
D_SE_INSTANCE_6_12
 10
0
 20
0
 30
0
 70
128
 71
1
 72
2
 73
4
 74
4
 0
VERTEX
 8
D_SE_INSTANCE_6_12
 10
0
 20
0
 30
0
 70
128
 71
4
 72
3
 73
1
 74
1
 0
VERTEX
 8
D_SE_INSTANCE_6_12
 10
0
 20
0
 30
0
 70
128
 71
2
 72
3
 73
4
 74
4
 0
SEQEND
 0
POLYLINE
 8
D_SE_INSTANCE_7_11
 66
1
 10
0.0
 20
0.0
 30
0.0
 70
64
 71
4
 72
3
 0
VERTEX
 8
D_SE_INSTANCE_7_11
 10
40.1986
 20
-4.668
 30
1.3833
 70
192
 0
VERTEX
 8
D_SE_INSTANCE_7_11
 10
40.359
 20
-3.7649
 30
1.3833
 70
192
 0
VERTEX
 8
D_SE_INSTANCE_7_11
 10
39.4081
 20
-3.979
 30
1.3833
 70
192
 0
VERTEX
 8
D_SE_INSTANCE_7_11
 10
39.9351
 20
-4.1652
 30
1.0102
 70
192
 0
VERTEX
 8
D_SE_INSTANCE_7_11
 10
0
 20
0
 30
0
 70
128
 71
1
 72
2
 73
4
 74
4
 0
VERTEX
 8
D_SE_INSTANCE_7_11
 10
0
 20
0
 30
0
 70
128
 71
4
 72
3
 73
1
 74
1
 0
VERTEX
 8
D_SE_INSTANCE_7_11
 10
0
 20
0
 30
0
 70
128
 71
2
 72
3
 73
4
 74
4
 0
SEQEND
 0
POLYLINE
 8
D_SE_INSTANCE_8_11
 66
1
 10
0.0
 20
0.0
 30
0.0
 70
64
 71
4
 72
3
 0
VERTEX
 8
D_SE_INSTANCE_8_11
 10
40.1986
 20
-2.5453
 30
1.3833
 70
192
 0
VERTEX
 8
D_SE_INSTANCE_8_11
 10
40.359
 20
-1.6422
 30
1.3833
 70
192
 0
VERTEX
 8
D_SE_INSTANCE_8_11
 10
39.4081
 20
-1.8563
 30
1.3833
 70
192
 0
VERTEX
 8
D_SE_INSTANCE_8_11
 10
39.9351
 20
-2.0424
 30
1.0102
 70
192
 0
VERTEX
 8
D_SE_INSTANCE_8_11
 10
0
 20
0
 30
0
 70
128
 71
1
 72
2
 73
4
 74
4
 0
VERTEX
 8
D_SE_INSTANCE_8_11
 10
0
 20
0
 30
0
 70
128
 71
4
 72
3
 73
1
 74
1
 0
VERTEX
 8
D_SE_INSTANCE_8_11
 10
0
 20
0
 30
0
 70
128
 71
2
 72
3
 73
4
 74
4
 0
SEQEND
 0
POLYLINE
 8
D_SE_INSTANCE_9_11
 66
1
 10
0.0
 20
0.0
 30
0.0
 70
64
 71
4
 72
3
 0
VERTEX
 8
D_SE_INSTANCE_9_11
 10
40.1986
 20
-0.4135
 30
1.3833
 70
192
 0
VERTEX
 8
D_SE_INSTANCE_9_11
 10
40.359
 20
0.4896
 30
1.3833
 70
192
 0
VERTEX
 8
D_SE_INSTANCE_9_11
 10
39.4081
 20
0.2755
 30
1.3833
 70
192
 0
VERTEX
 8
D_SE_INSTANCE_9_11
 10
39.9351
 20
0.0893
 30
1.0102
 70
192
 0
VERTEX
 8
D_SE_INSTANCE_9_11
 10
0
 20
0
 30
0
 70
128
 71
1
 72
2
 73
4
 74
4
 0
VERTEX
 8
D_SE_INSTANCE_9_11
 10
0
 20
0
 30
0
 70
128
 71
4
 72
3
 73
1
 74
1
 0
VERTEX
 8
D_SE_INSTANCE_9_11
 10
0
 20
0
 30
0
 70
128
 71
2
 72
3
 73
4
 74
4
 0
SEQEND
 0
POLYLINE
 8
D_SE_IN73
 66
1
 10
0.0
 20
0.0
 30
0.0
 70
64
 71
4
 72
3
 0
VERTEX
 8
D_SE_IN73
 10
40.1986
 20
1.6778
 30
1.3833
 70
192
 0
VERTEX
 8
D_SE_IN73
 10
40.359
 20
2.5809
 30
1.3833
 70
192
 0
VERTEX
 8
D_SE_IN73
 10
39.4081
 20
2.3668
 30
1.3833
 70
192
 0
VERTEX
 8
D_SE_IN73
 10
39.9351
 20
2.1806
 30
1.0102
 70
192
 0
VERTEX
 8
D_SE_IN73
 10
0
 20
0
 30
0
 70
128
 71
1
 72
2
 73
4
 74
4
 0
VERTEX
 8
D_SE_IN73
 10
0
 20
0
 30
0
 70
128
 71
4
 72
3
 73
1
 74
1
 0
VERTEX
 8
D_SE_IN73
 10
0
 20
0
 30
0
 70
128
 71
2
 72
3
 73
4
 74
4
 0
SEQEND
 0
POLYLINE
 8
D_SE_IN76
 66
1
 10
0.0
 20
0.0
 30
0.0
 70
64
 71
4
 72
3
 0
VERTEX
 8
D_SE_IN76
 10
40.1986
 20
3.7593
 30
1.3833
 70
192
 0
VERTEX
 8
D_SE_IN76
 10
40.359
 20
4.6624
 30
1.3833
 70
192
 0
VERTEX
 8
D_SE_IN76
 10
39.4081
 20
4.4483
 30
1.3833
 70
192
 0
VERTEX
 8
D_SE_IN76
 10
39.9351
 20
4.2622
 30
1.0102
 70
192
 0
VERTEX
 8
D_SE_IN76
 10
0
 20
0
 30
0
 70
128
 71
1
 72
2
 73
4
 74
4
 0
VERTEX
 8
D_SE_IN76
 10
0
 20
0
 30
0
 70
128
 71
4
 72
3
 73
1
 74
1
 0
VERTEX
 8
D_SE_IN76
 10
0
 20
0
 30
0
 70
128
 71
2
 72
3
 73
4
 74
4
 0
SEQEND
 0
POLYLINE
 8
D_SE_IN75
 66
1
 10
0.0
 20
0.0
 30
0.0
 70
64
 71
4
 72
3
 0
VERTEX
 8
D_SE_IN75
 10
40.1986
 20
5.8398
 30
1.3833
 70
192
 0
VERTEX
 8
D_SE_IN75
 10
40.359
 20
6.7429
 30
1.3833
 70
192
 0
VERTEX
 8
D_SE_IN75
 10
39.4081
 20
6.5288
 30
1.3833
 70
192
 0
VERTEX
 8
D_SE_IN75
 10
39.9351
 20
6.3427
 30
1.0102
 70
192
 0
VERTEX
 8
D_SE_IN75
 10
0
 20
0
 30
0
 70
128
 71
1
 72
2
 73
4
 74
4
 0
VERTEX
 8
D_SE_IN75
 10
0
 20
0
 30
0
 70
128
 71
4
 72
3
 73
1
 74
1
 0
VERTEX
 8
D_SE_IN75
 10
0
 20
0
 30
0
 70
128
 71
2
 72
3
 73
4
 74
4
 0
SEQEND
 0
POLYLINE
 8
D_SE_IN74
 66
1
 10
0.0
 20
0.0
 30
0.0
 70
64
 71
4
 72
3
 0
VERTEX
 8
D_SE_IN74
 10
40.1986
 20
7.9497
 30
1.3833
 70
192
 0
VERTEX
 8
D_SE_IN74
 10
40.359
 20
8.8528
 30
1.3833
 70
192
 0
VERTEX
 8
D_SE_IN74
 10
39.4081
 20
8.6387
 30
1.3833
 70
192
 0
VERTEX
 8
D_SE_IN74
 10
39.9351
 20
8.4526
 30
1.0102
 70
192
 0
VERTEX
 8
D_SE_IN74
 10
0
 20
0
 30
0
 70
128
 71
1
 72
2
 73
4
 74
4
 0
VERTEX
 8
D_SE_IN74
 10
0
 20
0
 30
0
 70
128
 71
4
 72
3
 73
1
 74
1
 0
VERTEX
 8
D_SE_IN74
 10
0
 20
0
 30
0
 70
128
 71
2
 72
3
 73
4
 74
4
 0
SEQEND
 0
POLYLINE
 8
D_SE_IN79
 66
1
 10
0.0
 20
0.0
 30
0.0
 70
64
 71
4
 72
3
 0
VERTEX
 8
D_SE_IN79
 10
40.1986
 20
10.0672
 30
1.3833
 70
192
 0
VERTEX
 8
D_SE_IN79
 10
40.359
 20
10.9703
 30
1.3833
 70
192
 0
VERTEX
 8
D_SE_IN79
 10
39.4081
 20
10.7562
 30
1.3833
 70
192
 0
VERTEX
 8
D_SE_IN79
 10
39.9351
 20
10.5701
 30
1.0102
 70
192
 0
VERTEX
 8
D_SE_IN79
 10
0
 20
0
 30
0
 70
128
 71
1
 72
2
 73
4
 74
4
 0
VERTEX
 8
D_SE_IN79
 10
0
 20
0
 30
0
 70
128
 71
4
 72
3
 73
1
 74
1
 0
VERTEX
 8
D_SE_IN79
 10
0
 20
0
 30
0
 70
128
 71
2
 72
3
 73
4
 74
4
 0
SEQEND
 0
POLYLINE
 8
D_SE_IN78
 66
1
 10
0.0
 20
0.0
 30
0.0
 70
64
 71
4
 72
3
 0
VERTEX
 8
D_SE_IN78
 10
40.1986
 20
12.1716
 30
1.3833
 70
192
 0
VERTEX
 8
D_SE_IN78
 10
40.359
 20
13.0747
 30
1.3833
 70
192
 0
VERTEX
 8
D_SE_IN78
 10
39.4081
 20
12.8606
 30
1.3833
 70
192
 0
VERTEX
 8
D_SE_IN78
 10
39.9351
 20
12.6744
 30
1.0102
 70
192
 0
VERTEX
 8
D_SE_IN78
 10
0
 20
0
 30
0
 70
128
 71
1
 72
2
 73
4
 74
4
 0
VERTEX
 8
D_SE_IN78
 10
0
 20
0
 30
0
 70
128
 71
4
 72
3
 73
1
 74
1
 0
VERTEX
 8
D_SE_IN78
 10
0
 20
0
 30
0
 70
128
 71
2
 72
3
 73
4
 74
4
 0
SEQEND
 0
POLYLINE
 8
D_SE_INSTANCE_16_14
 66
1
 10
0.0
 20
0.0
 30
0.0
 70
64
 71
4
 72
3
 0
VERTEX
 8
D_SE_INSTANCE_16_14
 10
40.1986
 20
14.2473
 30
1.3833
 70
192
 0
VERTEX
 8
D_SE_INSTANCE_16_14
 10
40.359
 20
15.1504
 30
1.3833
 70
192
 0
VERTEX
 8
D_SE_INSTANCE_16_14
 10
39.4081
 20
14.9363
 30
1.3833
 70
192
 0
VERTEX
 8
D_SE_INSTANCE_16_14
 10
39.9351
 20
14.7501
 30
1.0102
 70
192
 0
VERTEX
 8
D_SE_INSTANCE_16_14
 10
0
 20
0
 30
0
 70
128
 71
1
 72
2
 73
4
 74
4
 0
VERTEX
 8
D_SE_INSTANCE_16_14
 10
0
 20
0
 30
0
 70
128
 71
4
 72
3
 73
1
 74
1
 0
VERTEX
 8
D_SE_INSTANCE_16_14
 10
0
 20
0
 30
0
 70
128
 71
2
 72
3
 73
4
 74
4
 0
SEQEND
 0
POLYLINE
 8
D_SE_INSTANCE_17_14
 66
1
 10
0.0
 20
0.0
 30
0.0
 70
64
 71
4
 72
3
 0
VERTEX
 8
D_SE_INSTANCE_17_14
 10
40.1986
 20
16.3365
 30
1.3833
 70
192
 0
VERTEX
 8
D_SE_INSTANCE_17_14
 10
40.359
 20
17.2396
 30
1.3833
 70
192
 0
VERTEX
 8
D_SE_INSTANCE_17_14
 10
39.4081
 20
17.0255
 30
1.3833
 70
192
 0
VERTEX
 8
D_SE_INSTANCE_17_14
 10
39.9351
 20
16.8394
 30
1.0102
 70
192
 0
VERTEX
 8
D_SE_INSTANCE_17_14
 10
0
 20
0
 30
0
 70
128
 71
1
 72
2
 73
4
 74
4
 0
VERTEX
 8
D_SE_INSTANCE_17_14
 10
0
 20
0
 30
0
 70
128
 71
4
 72
3
 73
1
 74
1
 0
VERTEX
 8
D_SE_INSTANCE_17_14
 10
0
 20
0
 30
0
 70
128
 71
2
 72
3
 73
4
 74
4
 0
SEQEND
 0
POLYLINE
 8
D_SE_INSTANCE_18_13
 66
1
 10
0.0
 20
0.0
 30
0.0
 70
64
 71
4
 72
3
 0
VERTEX
 8
D_SE_INSTANCE_18_13
 10
40.1986
 20
18.4451
 30
1.3833
 70
192
 0
VERTEX
 8
D_SE_INSTANCE_18_13
 10
40.359
 20
19.3482
 30
1.3833
 70
192
 0
VERTEX
 8
D_SE_INSTANCE_18_13
 10
39.4081
 20
19.1341
 30
1.3833
 70
192
 0
VERTEX
 8
D_SE_INSTANCE_18_13
 10
39.9351
 20
18.948
 30
1.0102
 70
192
 0
VERTEX
 8
D_SE_INSTANCE_18_13
 10
0
 20
0
 30
0
 70
128
 71
1
 72
2
 73
4
 74
4
 0
VERTEX
 8
D_SE_INSTANCE_18_13
 10
0
 20
0
 30
0
 70
128
 71
4
 72
3
 73
1
 74
1
 0
VERTEX
 8
D_SE_INSTANCE_18_13
 10
0
 20
0
 30
0
 70
128
 71
2
 72
3
 73
4
 74
4
 0
SEQEND
 0
POLYLINE
 8
D_SE_INSTANCE_19_13
 66
1
 10
0.0
 20
0.0
 30
0.0
 70
64
 71
4
 72
3
 0
VERTEX
 8
D_SE_INSTANCE_19_13
 10
40.1986
 20
20.5588
 30
1.3833
 70
192
 0
VERTEX
 8
D_SE_INSTANCE_19_13
 10
40.359
 20
21.4619
 30
1.3833
 70
192
 0
VERTEX
 8
D_SE_INSTANCE_19_13
 10
39.4081
 20
21.2478
 30
1.3833
 70
192
 0
VERTEX
 8
D_SE_INSTANCE_19_13
 10
39.9351
 20
21.0616
 30
1.0102
 70
192
 0
VERTEX
 8
D_SE_INSTANCE_19_13
 10
0
 20
0
 30
0
 70
128
 71
1
 72
2
 73
4
 74
4
 0
VERTEX
 8
D_SE_INSTANCE_19_13
 10
0
 20
0
 30
0
 70
128
 71
4
 72
3
 73
1
 74
1
 0
VERTEX
 8
D_SE_INSTANCE_19_13
 10
0
 20
0
 30
0
 70
128
 71
2
 72
3
 73
4
 74
4
 0
SEQEND
 0
POLYLINE
 8
D_SE_3
 66
1
 10
0.0
 20
0.0
 30
0.0
 70
64
 71
4
 72
3
 0
VERTEX
 8
D_SE_3
 10
38.0858
 20
-21.4404
 30
1.3833
 70
192
 0
VERTEX
 8
D_SE_3
 10
38.2462
 20
-20.5373
 30
1.3833
 70
192
 0
VERTEX
 8
D_SE_3
 10
37.2953
 20
-20.7514
 30
1.3833
 70
192
 0
VERTEX
 8
D_SE_3
 10
37.8223
 20
-20.9375
 30
1.0102
 70
192
 0
VERTEX
 8
D_SE_3
 10
0
 20
0
 30
0
 70
128
 71
1
 72
2
 73
4
 74
4
 0
VERTEX
 8
D_SE_3
 10
0
 20
0
 30
0
 70
128
 71
4
 72
3
 73
1
 74
1
 0
VERTEX
 8
D_SE_3
 10
0
 20
0
 30
0
 70
128
 71
2
 72
3
 73
4
 74
4
 0
SEQEND
 0
POLYLINE
 8
D_SE_INSTANCE_26
 66
1
 10
0.0
 20
0.0
 30
0.0
 70
64
 71
4
 72
3
 0
VERTEX
 8
D_SE_INSTANCE_26
 10
38.0858
 20
-19.3017
 30
1.3833
 70
192
 0
VERTEX
 8
D_SE_INSTANCE_26
 10
38.2462
 20
-18.3985
 30
1.3833
 70
192
 0
VERTEX
 8
D_SE_INSTANCE_26
 10
37.2953
 20
-18.6126
 30
1.3833
 70
192
 0
VERTEX
 8
D_SE_INSTANCE_26
 10
37.8223
 20
-18.7988
 30
1.0102
 70
192
 0
VERTEX
 8
D_SE_INSTANCE_26
 10
0
 20
0
 30
0
 70
128
 71
1
 72
2
 73
4
 74
4
 0
VERTEX
 8
D_SE_INSTANCE_26
 10
0
 20
0
 30
0
 70
128
 71
4
 72
3
 73
1
 74
1
 0
VERTEX
 8
D_SE_INSTANCE_26
 10
0
 20
0
 30
0
 70
128
 71
2
 72
3
 73
4
 74
4
 0
SEQEND
 0
POLYLINE
 8
D_SE_INSTANCE_1_26
 66
1
 10
0.0
 20
0.0
 30
0.0
 70
64
 71
4
 72
3
 0
VERTEX
 8
D_SE_INSTANCE_1_26
 10
38.0858
 20
-17.2304
 30
1.3833
 70
192
 0
VERTEX
 8
D_SE_INSTANCE_1_26
 10
38.2462
 20
-16.3273
 30
1.3833
 70
192
 0
VERTEX
 8
D_SE_INSTANCE_1_26
 10
37.2953
 20
-16.5413
 30
1.3833
 70
192
 0
VERTEX
 8
D_SE_INSTANCE_1_26
 10
37.8223
 20
-16.7275
 30
1.0102
 70
192
 0
VERTEX
 8
D_SE_INSTANCE_1_26
 10
0
 20
0
 30
0
 70
128
 71
1
 72
2
 73
4
 74
4
 0
VERTEX
 8
D_SE_INSTANCE_1_26
 10
0
 20
0
 30
0
 70
128
 71
4
 72
3
 73
1
 74
1
 0
VERTEX
 8
D_SE_INSTANCE_1_26
 10
0
 20
0
 30
0
 70
128
 71
2
 72
3
 73
4
 74
4
 0
SEQEND
 0
POLYLINE
 8
D_SE_INSTANCE_2_25
 66
1
 10
0.0
 20
0.0
 30
0.0
 70
64
 71
4
 72
3
 0
VERTEX
 8
D_SE_INSTANCE_2_25
 10
38.0858
 20
-15.1495
 30
1.3833
 70
192
 0
VERTEX
 8
D_SE_INSTANCE_2_25
 10
38.2462
 20
-14.2464
 30
1.3833
 70
192
 0
VERTEX
 8
D_SE_INSTANCE_2_25
 10
37.2953
 20
-14.4605
 30
1.3833
 70
192
 0
VERTEX
 8
D_SE_INSTANCE_2_25
 10
37.8223
 20
-14.6466
 30
1.0102
 70
192
 0
VERTEX
 8
D_SE_INSTANCE_2_25
 10
0
 20
0
 30
0
 70
128
 71
1
 72
2
 73
4
 74
4
 0
VERTEX
 8
D_SE_INSTANCE_2_25
 10
0
 20
0
 30
0
 70
128
 71
4
 72
3
 73
1
 74
1
 0
VERTEX
 8
D_SE_INSTANCE_2_25
 10
0
 20
0
 30
0
 70
128
 71
2
 72
3
 73
4
 74
4
 0
SEQEND
 0
POLYLINE
 8
D_SE_INSTANCE_3_12
 66
1
 10
0.0
 20
0.0
 30
0.0
 70
64
 71
4
 72
3
 0
VERTEX
 8
D_SE_INSTANCE_3_12
 10
38.0858
 20
-13.0381
 30
1.3833
 70
192
 0
VERTEX
 8
D_SE_INSTANCE_3_12
 10
38.2462
 20
-12.135
 30
1.3833
 70
192
 0
VERTEX
 8
D_SE_INSTANCE_3_12
 10
37.2953
 20
-12.3491
 30
1.3833
 70
192
 0
VERTEX
 8
D_SE_INSTANCE_3_12
 10
37.8223
 20
-12.5353
 30
1.0102
 70
192
 0
VERTEX
 8
D_SE_INSTANCE_3_12
 10
0
 20
0
 30
0
 70
128
 71
1
 72
2
 73
4
 74
4
 0
VERTEX
 8
D_SE_INSTANCE_3_12
 10
0
 20
0
 30
0
 70
128
 71
4
 72
3
 73
1
 74
1
 0
VERTEX
 8
D_SE_INSTANCE_3_12
 10
0
 20
0
 30
0
 70
128
 71
2
 72
3
 73
4
 74
4
 0
SEQEND
 0
POLYLINE
 8
D_SE_INSTANCE_4_12
 66
1
 10
0.0
 20
0.0
 30
0.0
 70
64
 71
4
 72
3
 0
VERTEX
 8
D_SE_INSTANCE_4_12
 10
38.0858
 20
-10.9461
 30
1.3833
 70
192
 0
VERTEX
 8
D_SE_INSTANCE_4_12
 10
38.2462
 20
-10.043
 30
1.3833
 70
192
 0
VERTEX
 8
D_SE_INSTANCE_4_12
 10
37.2953
 20
-10.2571
 30
1.3833
 70
192
 0
VERTEX
 8
D_SE_INSTANCE_4_12
 10
37.8223
 20
-10.4432
 30
1.0102
 70
192
 0
VERTEX
 8
D_SE_INSTANCE_4_12
 10
0
 20
0
 30
0
 70
128
 71
1
 72
2
 73
4
 74
4
 0
VERTEX
 8
D_SE_INSTANCE_4_12
 10
0
 20
0
 30
0
 70
128
 71
4
 72
3
 73
1
 74
1
 0
VERTEX
 8
D_SE_INSTANCE_4_12
 10
0
 20
0
 30
0
 70
128
 71
2
 72
3
 73
4
 74
4
 0
SEQEND
 0
POLYLINE
 8
D_SE_INSTANCE_5_13
 66
1
 10
0.0
 20
0.0
 30
0.0
 70
64
 71
4
 72
3
 0
VERTEX
 8
D_SE_INSTANCE_5_13
 10
38.0858
 20
-8.8295
 30
1.3833
 70
192
 0
VERTEX
 8
D_SE_INSTANCE_5_13
 10
38.2462
 20
-7.9264
 30
1.3833
 70
192
 0
VERTEX
 8
D_SE_INSTANCE_5_13
 10
37.2953
 20
-8.1405
 30
1.3833
 70
192
 0
VERTEX
 8
D_SE_INSTANCE_5_13
 10
37.8223
 20
-8.3266
 30
1.0102
 70
192
 0
VERTEX
 8
D_SE_INSTANCE_5_13
 10
0
 20
0
 30
0
 70
128
 71
1
 72
2
 73
4
 74
4
 0
VERTEX
 8
D_SE_INSTANCE_5_13
 10
0
 20
0
 30
0
 70
128
 71
4
 72
3
 73
1
 74
1
 0
VERTEX
 8
D_SE_INSTANCE_5_13
 10
0
 20
0
 30
0
 70
128
 71
2
 72
3
 73
4
 74
4
 0
SEQEND
 0
POLYLINE
 8
D_SE_INSTANCE_6_13
 66
1
 10
0.0
 20
0.0
 30
0.0
 70
64
 71
4
 72
3
 0
VERTEX
 8
D_SE_INSTANCE_6_13
 10
38.0858
 20
-6.772
 30
1.3833
 70
192
 0
VERTEX
 8
D_SE_INSTANCE_6_13
 10
38.2462
 20
-5.8689
 30
1.3833
 70
192
 0
VERTEX
 8
D_SE_INSTANCE_6_13
 10
37.2953
 20
-6.083
 30
1.3833
 70
192
 0
VERTEX
 8
D_SE_INSTANCE_6_13
 10
37.8223
 20
-6.2691
 30
1.0102
 70
192
 0
VERTEX
 8
D_SE_INSTANCE_6_13
 10
0
 20
0
 30
0
 70
128
 71
1
 72
2
 73
4
 74
4
 0
VERTEX
 8
D_SE_INSTANCE_6_13
 10
0
 20
0
 30
0
 70
128
 71
4
 72
3
 73
1
 74
1
 0
VERTEX
 8
D_SE_INSTANCE_6_13
 10
0
 20
0
 30
0
 70
128
 71
2
 72
3
 73
4
 74
4
 0
SEQEND
 0
POLYLINE
 8
D_SE_INSTANCE_7_12
 66
1
 10
0.0
 20
0.0
 30
0.0
 70
64
 71
4
 72
3
 0
VERTEX
 8
D_SE_INSTANCE_7_12
 10
38.0858
 20
-4.668
 30
1.3833
 70
192
 0
VERTEX
 8
D_SE_INSTANCE_7_12
 10
38.2462
 20
-3.7649
 30
1.3833
 70
192
 0
VERTEX
 8
D_SE_INSTANCE_7_12
 10
37.2953
 20
-3.979
 30
1.3833
 70
192
 0
VERTEX
 8
D_SE_INSTANCE_7_12
 10
37.8223
 20
-4.1652
 30
1.0102
 70
192
 0
VERTEX
 8
D_SE_INSTANCE_7_12
 10
0
 20
0
 30
0
 70
128
 71
1
 72
2
 73
4
 74
4
 0
VERTEX
 8
D_SE_INSTANCE_7_12
 10
0
 20
0
 30
0
 70
128
 71
4
 72
3
 73
1
 74
1
 0
VERTEX
 8
D_SE_INSTANCE_7_12
 10
0
 20
0
 30
0
 70
128
 71
2
 72
3
 73
4
 74
4
 0
SEQEND
 0
POLYLINE
 8
D_SE_INSTANCE_8_12
 66
1
 10
0.0
 20
0.0
 30
0.0
 70
64
 71
4
 72
3
 0
VERTEX
 8
D_SE_INSTANCE_8_12
 10
38.0858
 20
-2.5453
 30
1.3833
 70
192
 0
VERTEX
 8
D_SE_INSTANCE_8_12
 10
38.2462
 20
-1.6422
 30
1.3833
 70
192
 0
VERTEX
 8
D_SE_INSTANCE_8_12
 10
37.2953
 20
-1.8563
 30
1.3833
 70
192
 0
VERTEX
 8
D_SE_INSTANCE_8_12
 10
37.8223
 20
-2.0424
 30
1.0102
 70
192
 0
VERTEX
 8
D_SE_INSTANCE_8_12
 10
0
 20
0
 30
0
 70
128
 71
1
 72
2
 73
4
 74
4
 0
VERTEX
 8
D_SE_INSTANCE_8_12
 10
0
 20
0
 30
0
 70
128
 71
4
 72
3
 73
1
 74
1
 0
VERTEX
 8
D_SE_INSTANCE_8_12
 10
0
 20
0
 30
0
 70
128
 71
2
 72
3
 73
4
 74
4
 0
SEQEND
 0
POLYLINE
 8
D_SE_INSTANCE_9_12
 66
1
 10
0.0
 20
0.0
 30
0.0
 70
64
 71
4
 72
3
 0
VERTEX
 8
D_SE_INSTANCE_9_12
 10
38.0858
 20
-0.4135
 30
1.3833
 70
192
 0
VERTEX
 8
D_SE_INSTANCE_9_12
 10
38.2462
 20
0.4896
 30
1.3833
 70
192
 0
VERTEX
 8
D_SE_INSTANCE_9_12
 10
37.2953
 20
0.2755
 30
1.3833
 70
192
 0
VERTEX
 8
D_SE_INSTANCE_9_12
 10
37.8223
 20
0.0893
 30
1.0102
 70
192
 0
VERTEX
 8
D_SE_INSTANCE_9_12
 10
0
 20
0
 30
0
 70
128
 71
1
 72
2
 73
4
 74
4
 0
VERTEX
 8
D_SE_INSTANCE_9_12
 10
0
 20
0
 30
0
 70
128
 71
4
 72
3
 73
1
 74
1
 0
VERTEX
 8
D_SE_INSTANCE_9_12
 10
0
 20
0
 30
0
 70
128
 71
2
 72
3
 73
4
 74
4
 0
SEQEND
 0
POLYLINE
 8
D_SE_INSTANCE_10_12
 66
1
 10
0.0
 20
0.0
 30
0.0
 70
64
 71
4
 72
3
 0
VERTEX
 8
D_SE_INSTANCE_10_12
 10
38.0858
 20
1.6778
 30
1.3833
 70
192
 0
VERTEX
 8
D_SE_INSTANCE_10_12
 10
38.2462
 20
2.5809
 30
1.3833
 70
192
 0
VERTEX
 8
D_SE_INSTANCE_10_12
 10
37.2953
 20
2.3668
 30
1.3833
 70
192
 0
VERTEX
 8
D_SE_INSTANCE_10_12
 10
37.8223
 20
2.1806
 30
1.0102
 70
192
 0
VERTEX
 8
D_SE_INSTANCE_10_12
 10
0
 20
0
 30
0
 70
128
 71
1
 72
2
 73
4
 74
4
 0
VERTEX
 8
D_SE_INSTANCE_10_12
 10
0
 20
0
 30
0
 70
128
 71
4
 72
3
 73
1
 74
1
 0
VERTEX
 8
D_SE_INSTANCE_10_12
 10
0
 20
0
 30
0
 70
128
 71
2
 72
3
 73
4
 74
4
 0
SEQEND
 0
POLYLINE
 8
D_SE_INSTANCE_11_2
 66
1
 10
0.0
 20
0.0
 30
0.0
 70
64
 71
4
 72
3
 0
VERTEX
 8
D_SE_INSTANCE_11_2
 10
38.0858
 20
3.7593
 30
1.3833
 70
192
 0
VERTEX
 8
D_SE_INSTANCE_11_2
 10
38.2462
 20
4.6624
 30
1.3833
 70
192
 0
VERTEX
 8
D_SE_INSTANCE_11_2
 10
37.2953
 20
4.4483
 30
1.3833
 70
192
 0
VERTEX
 8
D_SE_INSTANCE_11_2
 10
37.8223
 20
4.2622
 30
1.0102
 70
192
 0
VERTEX
 8
D_SE_INSTANCE_11_2
 10
0
 20
0
 30
0
 70
128
 71
1
 72
2
 73
4
 74
4
 0
VERTEX
 8
D_SE_INSTANCE_11_2
 10
0
 20
0
 30
0
 70
128
 71
4
 72
3
 73
1
 74
1
 0
VERTEX
 8
D_SE_INSTANCE_11_2
 10
0
 20
0
 30
0
 70
128
 71
2
 72
3
 73
4
 74
4
 0
SEQEND
 0
POLYLINE
 8
D_SE_INSTANCE_12_2
 66
1
 10
0.0
 20
0.0
 30
0.0
 70
64
 71
4
 72
3
 0
VERTEX
 8
D_SE_INSTANCE_12_2
 10
38.0858
 20
5.8398
 30
1.3833
 70
192
 0
VERTEX
 8
D_SE_INSTANCE_12_2
 10
38.2462
 20
6.7429
 30
1.3833
 70
192
 0
VERTEX
 8
D_SE_INSTANCE_12_2
 10
37.2953
 20
6.5288
 30
1.3833
 70
192
 0
VERTEX
 8
D_SE_INSTANCE_12_2
 10
37.8223
 20
6.3427
 30
1.0102
 70
192
 0
VERTEX
 8
D_SE_INSTANCE_12_2
 10
0
 20
0
 30
0
 70
128
 71
1
 72
2
 73
4
 74
4
 0
VERTEX
 8
D_SE_INSTANCE_12_2
 10
0
 20
0
 30
0
 70
128
 71
4
 72
3
 73
1
 74
1
 0
VERTEX
 8
D_SE_INSTANCE_12_2
 10
0
 20
0
 30
0
 70
128
 71
2
 72
3
 73
4
 74
4
 0
SEQEND
 0
POLYLINE
 8
D_SE_INSTANCE_13_2
 66
1
 10
0.0
 20
0.0
 30
0.0
 70
64
 71
4
 72
3
 0
VERTEX
 8
D_SE_INSTANCE_13_2
 10
38.0858
 20
7.9497
 30
1.3833
 70
192
 0
VERTEX
 8
D_SE_INSTANCE_13_2
 10
38.2462
 20
8.8528
 30
1.3833
 70
192
 0
VERTEX
 8
D_SE_INSTANCE_13_2
 10
37.2953
 20
8.6387
 30
1.3833
 70
192
 0
VERTEX
 8
D_SE_INSTANCE_13_2
 10
37.8223
 20
8.4526
 30
1.0102
 70
192
 0
VERTEX
 8
D_SE_INSTANCE_13_2
 10
0
 20
0
 30
0
 70
128
 71
1
 72
2
 73
4
 74
4
 0
VERTEX
 8
D_SE_INSTANCE_13_2
 10
0
 20
0
 30
0
 70
128
 71
4
 72
3
 73
1
 74
1
 0
VERTEX
 8
D_SE_INSTANCE_13_2
 10
0
 20
0
 30
0
 70
128
 71
2
 72
3
 73
4
 74
4
 0
SEQEND
 0
POLYLINE
 8
D_SE_INSTANCE_14_2
 66
1
 10
0.0
 20
0.0
 30
0.0
 70
64
 71
4
 72
3
 0
VERTEX
 8
D_SE_INSTANCE_14_2
 10
38.0858
 20
10.0672
 30
1.3833
 70
192
 0
VERTEX
 8
D_SE_INSTANCE_14_2
 10
38.2462
 20
10.9703
 30
1.3833
 70
192
 0
VERTEX
 8
D_SE_INSTANCE_14_2
 10
37.2953
 20
10.7562
 30
1.3833
 70
192
 0
VERTEX
 8
D_SE_INSTANCE_14_2
 10
37.8223
 20
10.5701
 30
1.0102
 70
192
 0
VERTEX
 8
D_SE_INSTANCE_14_2
 10
0
 20
0
 30
0
 70
128
 71
1
 72
2
 73
4
 74
4
 0
VERTEX
 8
D_SE_INSTANCE_14_2
 10
0
 20
0
 30
0
 70
128
 71
4
 72
3
 73
1
 74
1
 0
VERTEX
 8
D_SE_INSTANCE_14_2
 10
0
 20
0
 30
0
 70
128
 71
2
 72
3
 73
4
 74
4
 0
SEQEND
 0
POLYLINE
 8
D_SE_INSTANCE_15_2
 66
1
 10
0.0
 20
0.0
 30
0.0
 70
64
 71
4
 72
3
 0
VERTEX
 8
D_SE_INSTANCE_15_2
 10
38.0858
 20
12.1716
 30
1.3833
 70
192
 0
VERTEX
 8
D_SE_INSTANCE_15_2
 10
38.2462
 20
13.0747
 30
1.3833
 70
192
 0
VERTEX
 8
D_SE_INSTANCE_15_2
 10
37.2953
 20
12.8606
 30
1.3833
 70
192
 0
VERTEX
 8
D_SE_INSTANCE_15_2
 10
37.8223
 20
12.6744
 30
1.0102
 70
192
 0
VERTEX
 8
D_SE_INSTANCE_15_2
 10
0
 20
0
 30
0
 70
128
 71
1
 72
2
 73
4
 74
4
 0
VERTEX
 8
D_SE_INSTANCE_15_2
 10
0
 20
0
 30
0
 70
128
 71
4
 72
3
 73
1
 74
1
 0
VERTEX
 8
D_SE_INSTANCE_15_2
 10
0
 20
0
 30
0
 70
128
 71
2
 72
3
 73
4
 74
4
 0
SEQEND
 0
POLYLINE
 8
D_SE_INSTANCE_16_15
 66
1
 10
0.0
 20
0.0
 30
0.0
 70
64
 71
4
 72
3
 0
VERTEX
 8
D_SE_INSTANCE_16_15
 10
38.0858
 20
14.2473
 30
1.3833
 70
192
 0
VERTEX
 8
D_SE_INSTANCE_16_15
 10
38.2462
 20
15.1504
 30
1.3833
 70
192
 0
VERTEX
 8
D_SE_INSTANCE_16_15
 10
37.2953
 20
14.9363
 30
1.3833
 70
192
 0
VERTEX
 8
D_SE_INSTANCE_16_15
 10
37.8223
 20
14.7501
 30
1.0102
 70
192
 0
VERTEX
 8
D_SE_INSTANCE_16_15
 10
0
 20
0
 30
0
 70
128
 71
1
 72
2
 73
4
 74
4
 0
VERTEX
 8
D_SE_INSTANCE_16_15
 10
0
 20
0
 30
0
 70
128
 71
4
 72
3
 73
1
 74
1
 0
VERTEX
 8
D_SE_INSTANCE_16_15
 10
0
 20
0
 30
0
 70
128
 71
2
 72
3
 73
4
 74
4
 0
SEQEND
 0
POLYLINE
 8
D_SE_INSTANCE_17_15
 66
1
 10
0.0
 20
0.0
 30
0.0
 70
64
 71
4
 72
3
 0
VERTEX
 8
D_SE_INSTANCE_17_15
 10
38.0858
 20
16.3365
 30
1.3833
 70
192
 0
VERTEX
 8
D_SE_INSTANCE_17_15
 10
38.2462
 20
17.2396
 30
1.3833
 70
192
 0
VERTEX
 8
D_SE_INSTANCE_17_15
 10
37.2953
 20
17.0255
 30
1.3833
 70
192
 0
VERTEX
 8
D_SE_INSTANCE_17_15
 10
37.8223
 20
16.8394
 30
1.0102
 70
192
 0
VERTEX
 8
D_SE_INSTANCE_17_15
 10
0
 20
0
 30
0
 70
128
 71
1
 72
2
 73
4
 74
4
 0
VERTEX
 8
D_SE_INSTANCE_17_15
 10
0
 20
0
 30
0
 70
128
 71
4
 72
3
 73
1
 74
1
 0
VERTEX
 8
D_SE_INSTANCE_17_15
 10
0
 20
0
 30
0
 70
128
 71
2
 72
3
 73
4
 74
4
 0
SEQEND
 0
POLYLINE
 8
D_SE_INSTANCE_18_14
 66
1
 10
0.0
 20
0.0
 30
0.0
 70
64
 71
4
 72
3
 0
VERTEX
 8
D_SE_INSTANCE_18_14
 10
38.0858
 20
18.4451
 30
1.3833
 70
192
 0
VERTEX
 8
D_SE_INSTANCE_18_14
 10
38.2462
 20
19.3482
 30
1.3833
 70
192
 0
VERTEX
 8
D_SE_INSTANCE_18_14
 10
37.2953
 20
19.1341
 30
1.3833
 70
192
 0
VERTEX
 8
D_SE_INSTANCE_18_14
 10
37.8223
 20
18.948
 30
1.0102
 70
192
 0
VERTEX
 8
D_SE_INSTANCE_18_14
 10
0
 20
0
 30
0
 70
128
 71
1
 72
2
 73
4
 74
4
 0
VERTEX
 8
D_SE_INSTANCE_18_14
 10
0
 20
0
 30
0
 70
128
 71
4
 72
3
 73
1
 74
1
 0
VERTEX
 8
D_SE_INSTANCE_18_14
 10
0
 20
0
 30
0
 70
128
 71
2
 72
3
 73
4
 74
4
 0
SEQEND
 0
POLYLINE
 8
D_SE_INSTANCE_19_14
 66
1
 10
0.0
 20
0.0
 30
0.0
 70
64
 71
4
 72
3
 0
VERTEX
 8
D_SE_INSTANCE_19_14
 10
38.0858
 20
20.5588
 30
1.3833
 70
192
 0
VERTEX
 8
D_SE_INSTANCE_19_14
 10
38.2462
 20
21.4619
 30
1.3833
 70
192
 0
VERTEX
 8
D_SE_INSTANCE_19_14
 10
37.2953
 20
21.2478
 30
1.3833
 70
192
 0
VERTEX
 8
D_SE_INSTANCE_19_14
 10
37.8223
 20
21.0616
 30
1.0102
 70
192
 0
VERTEX
 8
D_SE_INSTANCE_19_14
 10
0
 20
0
 30
0
 70
128
 71
1
 72
2
 73
4
 74
4
 0
VERTEX
 8
D_SE_INSTANCE_19_14
 10
0
 20
0
 30
0
 70
128
 71
4
 72
3
 73
1
 74
1
 0
VERTEX
 8
D_SE_INSTANCE_19_14
 10
0
 20
0
 30
0
 70
128
 71
2
 72
3
 73
4
 74
4
 0
SEQEND
 0
POLYLINE
 8
D_SE_5
 66
1
 10
0.0
 20
0.0
 30
0.0
 70
64
 71
4
 72
3
 0
VERTEX
 8
D_SE_5
 10
35.9909
 20
-21.4404
 30
1.3833
 70
192
 0
VERTEX
 8
D_SE_5
 10
36.1513
 20
-20.5373
 30
1.3833
 70
192
 0
VERTEX
 8
D_SE_5
 10
35.2004
 20
-20.7514
 30
1.3833
 70
192
 0
VERTEX
 8
D_SE_5
 10
35.7274
 20
-20.9375
 30
1.0102
 70
192
 0
VERTEX
 8
D_SE_5
 10
0
 20
0
 30
0
 70
128
 71
1
 72
2
 73
4
 74
4
 0
VERTEX
 8
D_SE_5
 10
0
 20
0
 30
0
 70
128
 71
4
 72
3
 73
1
 74
1
 0
VERTEX
 8
D_SE_5
 10
0
 20
0
 30
0
 70
128
 71
2
 72
3
 73
4
 74
4
 0
SEQEND
 0
POLYLINE
 8
D_SE_INSTANCE_27
 66
1
 10
0.0
 20
0.0
 30
0.0
 70
64
 71
4
 72
3
 0
VERTEX
 8
D_SE_INSTANCE_27
 10
35.9909
 20
-19.3017
 30
1.3833
 70
192
 0
VERTEX
 8
D_SE_INSTANCE_27
 10
36.1513
 20
-18.3985
 30
1.3833
 70
192
 0
VERTEX
 8
D_SE_INSTANCE_27
 10
35.2004
 20
-18.6126
 30
1.3833
 70
192
 0
VERTEX
 8
D_SE_INSTANCE_27
 10
35.7274
 20
-18.7988
 30
1.0102
 70
192
 0
VERTEX
 8
D_SE_INSTANCE_27
 10
0
 20
0
 30
0
 70
128
 71
1
 72
2
 73
4
 74
4
 0
VERTEX
 8
D_SE_INSTANCE_27
 10
0
 20
0
 30
0
 70
128
 71
4
 72
3
 73
1
 74
1
 0
VERTEX
 8
D_SE_INSTANCE_27
 10
0
 20
0
 30
0
 70
128
 71
2
 72
3
 73
4
 74
4
 0
SEQEND
 0
POLYLINE
 8
D_SE_INSTANCE_1_27
 66
1
 10
0.0
 20
0.0
 30
0.0
 70
64
 71
4
 72
3
 0
VERTEX
 8
D_SE_INSTANCE_1_27
 10
35.9909
 20
-17.2304
 30
1.3833
 70
192
 0
VERTEX
 8
D_SE_INSTANCE_1_27
 10
36.1513
 20
-16.3273
 30
1.3833
 70
192
 0
VERTEX
 8
D_SE_INSTANCE_1_27
 10
35.2004
 20
-16.5413
 30
1.3833
 70
192
 0
VERTEX
 8
D_SE_INSTANCE_1_27
 10
35.7274
 20
-16.7275
 30
1.0102
 70
192
 0
VERTEX
 8
D_SE_INSTANCE_1_27
 10
0
 20
0
 30
0
 70
128
 71
1
 72
2
 73
4
 74
4
 0
VERTEX
 8
D_SE_INSTANCE_1_27
 10
0
 20
0
 30
0
 70
128
 71
4
 72
3
 73
1
 74
1
 0
VERTEX
 8
D_SE_INSTANCE_1_27
 10
0
 20
0
 30
0
 70
128
 71
2
 72
3
 73
4
 74
4
 0
SEQEND
 0
POLYLINE
 8
D_SE_INSTANCE_2_26
 66
1
 10
0.0
 20
0.0
 30
0.0
 70
64
 71
4
 72
3
 0
VERTEX
 8
D_SE_INSTANCE_2_26
 10
35.9909
 20
-15.1495
 30
1.3833
 70
192
 0
VERTEX
 8
D_SE_INSTANCE_2_26
 10
36.1513
 20
-14.2464
 30
1.3833
 70
192
 0
VERTEX
 8
D_SE_INSTANCE_2_26
 10
35.2004
 20
-14.4605
 30
1.3833
 70
192
 0
VERTEX
 8
D_SE_INSTANCE_2_26
 10
35.7274
 20
-14.6466
 30
1.0102
 70
192
 0
VERTEX
 8
D_SE_INSTANCE_2_26
 10
0
 20
0
 30
0
 70
128
 71
1
 72
2
 73
4
 74
4
 0
VERTEX
 8
D_SE_INSTANCE_2_26
 10
0
 20
0
 30
0
 70
128
 71
4
 72
3
 73
1
 74
1
 0
VERTEX
 8
D_SE_INSTANCE_2_26
 10
0
 20
0
 30
0
 70
128
 71
2
 72
3
 73
4
 74
4
 0
SEQEND
 0
POLYLINE
 8
D_SE_INSTANCE_3_13
 66
1
 10
0.0
 20
0.0
 30
0.0
 70
64
 71
4
 72
3
 0
VERTEX
 8
D_SE_INSTANCE_3_13
 10
35.9909
 20
-13.0381
 30
1.3833
 70
192
 0
VERTEX
 8
D_SE_INSTANCE_3_13
 10
36.1513
 20
-12.135
 30
1.3833
 70
192
 0
VERTEX
 8
D_SE_INSTANCE_3_13
 10
35.2004
 20
-12.3491
 30
1.3833
 70
192
 0
VERTEX
 8
D_SE_INSTANCE_3_13
 10
35.7274
 20
-12.5353
 30
1.0102
 70
192
 0
VERTEX
 8
D_SE_INSTANCE_3_13
 10
0
 20
0
 30
0
 70
128
 71
1
 72
2
 73
4
 74
4
 0
VERTEX
 8
D_SE_INSTANCE_3_13
 10
0
 20
0
 30
0
 70
128
 71
4
 72
3
 73
1
 74
1
 0
VERTEX
 8
D_SE_INSTANCE_3_13
 10
0
 20
0
 30
0
 70
128
 71
2
 72
3
 73
4
 74
4
 0
SEQEND
 0
POLYLINE
 8
D_SE_INSTANCE_4_14
 66
1
 10
0.0
 20
0.0
 30
0.0
 70
64
 71
4
 72
3
 0
VERTEX
 8
D_SE_INSTANCE_4_14
 10
35.9909
 20
-10.9461
 30
1.3833
 70
192
 0
VERTEX
 8
D_SE_INSTANCE_4_14
 10
36.1513
 20
-10.043
 30
1.3833
 70
192
 0
VERTEX
 8
D_SE_INSTANCE_4_14
 10
35.2004
 20
-10.2571
 30
1.3833
 70
192
 0
VERTEX
 8
D_SE_INSTANCE_4_14
 10
35.7274
 20
-10.4432
 30
1.0102
 70
192
 0
VERTEX
 8
D_SE_INSTANCE_4_14
 10
0
 20
0
 30
0
 70
128
 71
1
 72
2
 73
4
 74
4
 0
VERTEX
 8
D_SE_INSTANCE_4_14
 10
0
 20
0
 30
0
 70
128
 71
4
 72
3
 73
1
 74
1
 0
VERTEX
 8
D_SE_INSTANCE_4_14
 10
0
 20
0
 30
0
 70
128
 71
2
 72
3
 73
4
 74
4
 0
SEQEND
 0
POLYLINE
 8
D_SE_INSTANCE_5_14
 66
1
 10
0.0
 20
0.0
 30
0.0
 70
64
 71
4
 72
3
 0
VERTEX
 8
D_SE_INSTANCE_5_14
 10
35.9909
 20
-8.8295
 30
1.3833
 70
192
 0
VERTEX
 8
D_SE_INSTANCE_5_14
 10
36.1513
 20
-7.9264
 30
1.3833
 70
192
 0
VERTEX
 8
D_SE_INSTANCE_5_14
 10
35.2004
 20
-8.1405
 30
1.3833
 70
192
 0
VERTEX
 8
D_SE_INSTANCE_5_14
 10
35.7274
 20
-8.3266
 30
1.0102
 70
192
 0
VERTEX
 8
D_SE_INSTANCE_5_14
 10
0
 20
0
 30
0
 70
128
 71
1
 72
2
 73
4
 74
4
 0
VERTEX
 8
D_SE_INSTANCE_5_14
 10
0
 20
0
 30
0
 70
128
 71
4
 72
3
 73
1
 74
1
 0
VERTEX
 8
D_SE_INSTANCE_5_14
 10
0
 20
0
 30
0
 70
128
 71
2
 72
3
 73
4
 74
4
 0
SEQEND
 0
POLYLINE
 8
D_SE_INSTANCE_6_14
 66
1
 10
0.0
 20
0.0
 30
0.0
 70
64
 71
4
 72
3
 0
VERTEX
 8
D_SE_INSTANCE_6_14
 10
35.9909
 20
-6.772
 30
1.3833
 70
192
 0
VERTEX
 8
D_SE_INSTANCE_6_14
 10
36.1513
 20
-5.8689
 30
1.3833
 70
192
 0
VERTEX
 8
D_SE_INSTANCE_6_14
 10
35.2004
 20
-6.083
 30
1.3833
 70
192
 0
VERTEX
 8
D_SE_INSTANCE_6_14
 10
35.7274
 20
-6.2691
 30
1.0102
 70
192
 0
VERTEX
 8
D_SE_INSTANCE_6_14
 10
0
 20
0
 30
0
 70
128
 71
1
 72
2
 73
4
 74
4
 0
VERTEX
 8
D_SE_INSTANCE_6_14
 10
0
 20
0
 30
0
 70
128
 71
4
 72
3
 73
1
 74
1
 0
VERTEX
 8
D_SE_INSTANCE_6_14
 10
0
 20
0
 30
0
 70
128
 71
2
 72
3
 73
4
 74
4
 0
SEQEND
 0
POLYLINE
 8
D_SE_INSTANCE_7_13
 66
1
 10
0.0
 20
0.0
 30
0.0
 70
64
 71
4
 72
3
 0
VERTEX
 8
D_SE_INSTANCE_7_13
 10
35.9909
 20
-4.668
 30
1.3833
 70
192
 0
VERTEX
 8
D_SE_INSTANCE_7_13
 10
36.1513
 20
-3.7649
 30
1.3833
 70
192
 0
VERTEX
 8
D_SE_INSTANCE_7_13
 10
35.2004
 20
-3.979
 30
1.3833
 70
192
 0
VERTEX
 8
D_SE_INSTANCE_7_13
 10
35.7274
 20
-4.1652
 30
1.0102
 70
192
 0
VERTEX
 8
D_SE_INSTANCE_7_13
 10
0
 20
0
 30
0
 70
128
 71
1
 72
2
 73
4
 74
4
 0
VERTEX
 8
D_SE_INSTANCE_7_13
 10
0
 20
0
 30
0
 70
128
 71
4
 72
3
 73
1
 74
1
 0
VERTEX
 8
D_SE_INSTANCE_7_13
 10
0
 20
0
 30
0
 70
128
 71
2
 72
3
 73
4
 74
4
 0
SEQEND
 0
POLYLINE
 8
D_SE_INSTANCE_8_13
 66
1
 10
0.0
 20
0.0
 30
0.0
 70
64
 71
4
 72
3
 0
VERTEX
 8
D_SE_INSTANCE_8_13
 10
35.9909
 20
-2.5453
 30
1.3833
 70
192
 0
VERTEX
 8
D_SE_INSTANCE_8_13
 10
36.1513
 20
-1.6422
 30
1.3833
 70
192
 0
VERTEX
 8
D_SE_INSTANCE_8_13
 10
35.2004
 20
-1.8563
 30
1.3833
 70
192
 0
VERTEX
 8
D_SE_INSTANCE_8_13
 10
35.7274
 20
-2.0424
 30
1.0102
 70
192
 0
VERTEX
 8
D_SE_INSTANCE_8_13
 10
0
 20
0
 30
0
 70
128
 71
1
 72
2
 73
4
 74
4
 0
VERTEX
 8
D_SE_INSTANCE_8_13
 10
0
 20
0
 30
0
 70
128
 71
4
 72
3
 73
1
 74
1
 0
VERTEX
 8
D_SE_INSTANCE_8_13
 10
0
 20
0
 30
0
 70
128
 71
2
 72
3
 73
4
 74
4
 0
SEQEND
 0
POLYLINE
 8
D_SE_INSTANCE_9_13
 66
1
 10
0.0
 20
0.0
 30
0.0
 70
64
 71
4
 72
3
 0
VERTEX
 8
D_SE_INSTANCE_9_13
 10
35.9909
 20
-0.4135
 30
1.3833
 70
192
 0
VERTEX
 8
D_SE_INSTANCE_9_13
 10
36.1513
 20
0.4896
 30
1.3833
 70
192
 0
VERTEX
 8
D_SE_INSTANCE_9_13
 10
35.2004
 20
0.2755
 30
1.3833
 70
192
 0
VERTEX
 8
D_SE_INSTANCE_9_13
 10
35.7274
 20
0.0893
 30
1.0102
 70
192
 0
VERTEX
 8
D_SE_INSTANCE_9_13
 10
0
 20
0
 30
0
 70
128
 71
1
 72
2
 73
4
 74
4
 0
VERTEX
 8
D_SE_INSTANCE_9_13
 10
0
 20
0
 30
0
 70
128
 71
4
 72
3
 73
1
 74
1
 0
VERTEX
 8
D_SE_INSTANCE_9_13
 10
0
 20
0
 30
0
 70
128
 71
2
 72
3
 73
4
 74
4
 0
SEQEND
 0
POLYLINE
 8
D_SE_INSTANCE_10_13
 66
1
 10
0.0
 20
0.0
 30
0.0
 70
64
 71
4
 72
3
 0
VERTEX
 8
D_SE_INSTANCE_10_13
 10
35.9909
 20
1.6778
 30
1.3833
 70
192
 0
VERTEX
 8
D_SE_INSTANCE_10_13
 10
36.1513
 20
2.5809
 30
1.3833
 70
192
 0
VERTEX
 8
D_SE_INSTANCE_10_13
 10
35.2004
 20
2.3668
 30
1.3833
 70
192
 0
VERTEX
 8
D_SE_INSTANCE_10_13
 10
35.7274
 20
2.1806
 30
1.0102
 70
192
 0
VERTEX
 8
D_SE_INSTANCE_10_13
 10
0
 20
0
 30
0
 70
128
 71
1
 72
2
 73
4
 74
4
 0
VERTEX
 8
D_SE_INSTANCE_10_13
 10
0
 20
0
 30
0
 70
128
 71
4
 72
3
 73
1
 74
1
 0
VERTEX
 8
D_SE_INSTANCE_10_13
 10
0
 20
0
 30
0
 70
128
 71
2
 72
3
 73
4
 74
4
 0
SEQEND
 0
POLYLINE
 8
D_SE_INSTANCE_11_3
 66
1
 10
0.0
 20
0.0
 30
0.0
 70
64
 71
4
 72
3
 0
VERTEX
 8
D_SE_INSTANCE_11_3
 10
35.9909
 20
3.7593
 30
1.3833
 70
192
 0
VERTEX
 8
D_SE_INSTANCE_11_3
 10
36.1513
 20
4.6624
 30
1.3833
 70
192
 0
VERTEX
 8
D_SE_INSTANCE_11_3
 10
35.2004
 20
4.4483
 30
1.3833
 70
192
 0
VERTEX
 8
D_SE_INSTANCE_11_3
 10
35.7274
 20
4.2622
 30
1.0102
 70
192
 0
VERTEX
 8
D_SE_INSTANCE_11_3
 10
0
 20
0
 30
0
 70
128
 71
1
 72
2
 73
4
 74
4
 0
VERTEX
 8
D_SE_INSTANCE_11_3
 10
0
 20
0
 30
0
 70
128
 71
4
 72
3
 73
1
 74
1
 0
VERTEX
 8
D_SE_INSTANCE_11_3
 10
0
 20
0
 30
0
 70
128
 71
2
 72
3
 73
4
 74
4
 0
SEQEND
 0
POLYLINE
 8
D_SE_INSTANCE_12_3
 66
1
 10
0.0
 20
0.0
 30
0.0
 70
64
 71
4
 72
3
 0
VERTEX
 8
D_SE_INSTANCE_12_3
 10
35.9909
 20
5.8398
 30
1.3833
 70
192
 0
VERTEX
 8
D_SE_INSTANCE_12_3
 10
36.1513
 20
6.7429
 30
1.3833
 70
192
 0
VERTEX
 8
D_SE_INSTANCE_12_3
 10
35.2004
 20
6.5288
 30
1.3833
 70
192
 0
VERTEX
 8
D_SE_INSTANCE_12_3
 10
35.7274
 20
6.3427
 30
1.0102
 70
192
 0
VERTEX
 8
D_SE_INSTANCE_12_3
 10
0
 20
0
 30
0
 70
128
 71
1
 72
2
 73
4
 74
4
 0
VERTEX
 8
D_SE_INSTANCE_12_3
 10
0
 20
0
 30
0
 70
128
 71
4
 72
3
 73
1
 74
1
 0
VERTEX
 8
D_SE_INSTANCE_12_3
 10
0
 20
0
 30
0
 70
128
 71
2
 72
3
 73
4
 74
4
 0
SEQEND
 0
POLYLINE
 8
D_SE_INSTANCE_13_3
 66
1
 10
0.0
 20
0.0
 30
0.0
 70
64
 71
4
 72
3
 0
VERTEX
 8
D_SE_INSTANCE_13_3
 10
35.9909
 20
7.9497
 30
1.3833
 70
192
 0
VERTEX
 8
D_SE_INSTANCE_13_3
 10
36.1513
 20
8.8528
 30
1.3833
 70
192
 0
VERTEX
 8
D_SE_INSTANCE_13_3
 10
35.2004
 20
8.6387
 30
1.3833
 70
192
 0
VERTEX
 8
D_SE_INSTANCE_13_3
 10
35.7274
 20
8.4526
 30
1.0102
 70
192
 0
VERTEX
 8
D_SE_INSTANCE_13_3
 10
0
 20
0
 30
0
 70
128
 71
1
 72
2
 73
4
 74
4
 0
VERTEX
 8
D_SE_INSTANCE_13_3
 10
0
 20
0
 30
0
 70
128
 71
4
 72
3
 73
1
 74
1
 0
VERTEX
 8
D_SE_INSTANCE_13_3
 10
0
 20
0
 30
0
 70
128
 71
2
 72
3
 73
4
 74
4
 0
SEQEND
 0
POLYLINE
 8
D_SE_INSTANCE_14_3
 66
1
 10
0.0
 20
0.0
 30
0.0
 70
64
 71
4
 72
3
 0
VERTEX
 8
D_SE_INSTANCE_14_3
 10
35.9909
 20
10.0672
 30
1.3833
 70
192
 0
VERTEX
 8
D_SE_INSTANCE_14_3
 10
36.1513
 20
10.9703
 30
1.3833
 70
192
 0
VERTEX
 8
D_SE_INSTANCE_14_3
 10
35.2004
 20
10.7562
 30
1.3833
 70
192
 0
VERTEX
 8
D_SE_INSTANCE_14_3
 10
35.7274
 20
10.5701
 30
1.0102
 70
192
 0
VERTEX
 8
D_SE_INSTANCE_14_3
 10
0
 20
0
 30
0
 70
128
 71
1
 72
2
 73
4
 74
4
 0
VERTEX
 8
D_SE_INSTANCE_14_3
 10
0
 20
0
 30
0
 70
128
 71
4
 72
3
 73
1
 74
1
 0
VERTEX
 8
D_SE_INSTANCE_14_3
 10
0
 20
0
 30
0
 70
128
 71
2
 72
3
 73
4
 74
4
 0
SEQEND
 0
POLYLINE
 8
D_SE_INSTANCE_15_3
 66
1
 10
0.0
 20
0.0
 30
0.0
 70
64
 71
4
 72
3
 0
VERTEX
 8
D_SE_INSTANCE_15_3
 10
35.9909
 20
12.1716
 30
1.3833
 70
192
 0
VERTEX
 8
D_SE_INSTANCE_15_3
 10
36.1513
 20
13.0747
 30
1.3833
 70
192
 0
VERTEX
 8
D_SE_INSTANCE_15_3
 10
35.2004
 20
12.8606
 30
1.3833
 70
192
 0
VERTEX
 8
D_SE_INSTANCE_15_3
 10
35.7274
 20
12.6744
 30
1.0102
 70
192
 0
VERTEX
 8
D_SE_INSTANCE_15_3
 10
0
 20
0
 30
0
 70
128
 71
1
 72
2
 73
4
 74
4
 0
VERTEX
 8
D_SE_INSTANCE_15_3
 10
0
 20
0
 30
0
 70
128
 71
4
 72
3
 73
1
 74
1
 0
VERTEX
 8
D_SE_INSTANCE_15_3
 10
0
 20
0
 30
0
 70
128
 71
2
 72
3
 73
4
 74
4
 0
SEQEND
 0
POLYLINE
 8
D_SE_INSTANCE_16_16
 66
1
 10
0.0
 20
0.0
 30
0.0
 70
64
 71
4
 72
3
 0
VERTEX
 8
D_SE_INSTANCE_16_16
 10
35.9909
 20
14.2473
 30
1.3833
 70
192
 0
VERTEX
 8
D_SE_INSTANCE_16_16
 10
36.1513
 20
15.1504
 30
1.3833
 70
192
 0
VERTEX
 8
D_SE_INSTANCE_16_16
 10
35.2004
 20
14.9363
 30
1.3833
 70
192
 0
VERTEX
 8
D_SE_INSTANCE_16_16
 10
35.7274
 20
14.7501
 30
1.0102
 70
192
 0
VERTEX
 8
D_SE_INSTANCE_16_16
 10
0
 20
0
 30
0
 70
128
 71
1
 72
2
 73
4
 74
4
 0
VERTEX
 8
D_SE_INSTANCE_16_16
 10
0
 20
0
 30
0
 70
128
 71
4
 72
3
 73
1
 74
1
 0
VERTEX
 8
D_SE_INSTANCE_16_16
 10
0
 20
0
 30
0
 70
128
 71
2
 72
3
 73
4
 74
4
 0
SEQEND
 0
POLYLINE
 8
D_SE_INSTANCE_17_16
 66
1
 10
0.0
 20
0.0
 30
0.0
 70
64
 71
4
 72
3
 0
VERTEX
 8
D_SE_INSTANCE_17_16
 10
35.9909
 20
16.3365
 30
1.3833
 70
192
 0
VERTEX
 8
D_SE_INSTANCE_17_16
 10
36.1513
 20
17.2396
 30
1.3833
 70
192
 0
VERTEX
 8
D_SE_INSTANCE_17_16
 10
35.2004
 20
17.0255
 30
1.3833
 70
192
 0
VERTEX
 8
D_SE_INSTANCE_17_16
 10
35.7274
 20
16.8394
 30
1.0102
 70
192
 0
VERTEX
 8
D_SE_INSTANCE_17_16
 10
0
 20
0
 30
0
 70
128
 71
1
 72
2
 73
4
 74
4
 0
VERTEX
 8
D_SE_INSTANCE_17_16
 10
0
 20
0
 30
0
 70
128
 71
4
 72
3
 73
1
 74
1
 0
VERTEX
 8
D_SE_INSTANCE_17_16
 10
0
 20
0
 30
0
 70
128
 71
2
 72
3
 73
4
 74
4
 0
SEQEND
 0
POLYLINE
 8
D_SE_INSTANCE_18_15
 66
1
 10
0.0
 20
0.0
 30
0.0
 70
64
 71
4
 72
3
 0
VERTEX
 8
D_SE_INSTANCE_18_15
 10
35.9909
 20
18.4451
 30
1.3833
 70
192
 0
VERTEX
 8
D_SE_INSTANCE_18_15
 10
36.1513
 20
19.3482
 30
1.3833
 70
192
 0
VERTEX
 8
D_SE_INSTANCE_18_15
 10
35.2004
 20
19.1341
 30
1.3833
 70
192
 0
VERTEX
 8
D_SE_INSTANCE_18_15
 10
35.7274
 20
18.948
 30
1.0102
 70
192
 0
VERTEX
 8
D_SE_INSTANCE_18_15
 10
0
 20
0
 30
0
 70
128
 71
1
 72
2
 73
4
 74
4
 0
VERTEX
 8
D_SE_INSTANCE_18_15
 10
0
 20
0
 30
0
 70
128
 71
4
 72
3
 73
1
 74
1
 0
VERTEX
 8
D_SE_INSTANCE_18_15
 10
0
 20
0
 30
0
 70
128
 71
2
 72
3
 73
4
 74
4
 0
SEQEND
 0
POLYLINE
 8
D_SE_INSTANCE_19_15
 66
1
 10
0.0
 20
0.0
 30
0.0
 70
64
 71
4
 72
3
 0
VERTEX
 8
D_SE_INSTANCE_19_15
 10
35.9909
 20
20.5588
 30
1.3833
 70
192
 0
VERTEX
 8
D_SE_INSTANCE_19_15
 10
36.1513
 20
21.4619
 30
1.3833
 70
192
 0
VERTEX
 8
D_SE_INSTANCE_19_15
 10
35.2004
 20
21.2478
 30
1.3833
 70
192
 0
VERTEX
 8
D_SE_INSTANCE_19_15
 10
35.7274
 20
21.0616
 30
1.0102
 70
192
 0
VERTEX
 8
D_SE_INSTANCE_19_15
 10
0
 20
0
 30
0
 70
128
 71
1
 72
2
 73
4
 74
4
 0
VERTEX
 8
D_SE_INSTANCE_19_15
 10
0
 20
0
 30
0
 70
128
 71
4
 72
3
 73
1
 74
1
 0
VERTEX
 8
D_SE_INSTANCE_19_15
 10
0
 20
0
 30
0
 70
128
 71
2
 72
3
 73
4
 74
4
 0
SEQEND
 0
POLYLINE
 8
D_SE_7
 66
1
 10
0.0
 20
0.0
 30
0.0
 70
64
 71
4
 72
3
 0
VERTEX
 8
D_SE_7
 10
33.953
 20
-21.4404
 30
1.3833
 70
192
 0
VERTEX
 8
D_SE_7
 10
34.1134
 20
-20.5373
 30
1.3833
 70
192
 0
VERTEX
 8
D_SE_7
 10
33.1625
 20
-20.7514
 30
1.3833
 70
192
 0
VERTEX
 8
D_SE_7
 10
33.6895
 20
-20.9375
 30
1.0102
 70
192
 0
VERTEX
 8
D_SE_7
 10
0
 20
0
 30
0
 70
128
 71
1
 72
2
 73
4
 74
4
 0
VERTEX
 8
D_SE_7
 10
0
 20
0
 30
0
 70
128
 71
4
 72
3
 73
1
 74
1
 0
VERTEX
 8
D_SE_7
 10
0
 20
0
 30
0
 70
128
 71
2
 72
3
 73
4
 74
4
 0
SEQEND
 0
POLYLINE
 8
D_SE_INSTANCE_28
 66
1
 10
0.0
 20
0.0
 30
0.0
 70
64
 71
4
 72
3
 0
VERTEX
 8
D_SE_INSTANCE_28
 10
33.953
 20
-19.3017
 30
1.3833
 70
192
 0
VERTEX
 8
D_SE_INSTANCE_28
 10
34.1134
 20
-18.3985
 30
1.3833
 70
192
 0
VERTEX
 8
D_SE_INSTANCE_28
 10
33.1625
 20
-18.6126
 30
1.3833
 70
192
 0
VERTEX
 8
D_SE_INSTANCE_28
 10
33.6895
 20
-18.7988
 30
1.0102
 70
192
 0
VERTEX
 8
D_SE_INSTANCE_28
 10
0
 20
0
 30
0
 70
128
 71
1
 72
2
 73
4
 74
4
 0
VERTEX
 8
D_SE_INSTANCE_28
 10
0
 20
0
 30
0
 70
128
 71
4
 72
3
 73
1
 74
1
 0
VERTEX
 8
D_SE_INSTANCE_28
 10
0
 20
0
 30
0
 70
128
 71
2
 72
3
 73
4
 74
4
 0
SEQEND
 0
POLYLINE
 8
D_SE_INSTANCE_1_28
 66
1
 10
0.0
 20
0.0
 30
0.0
 70
64
 71
4
 72
3
 0
VERTEX
 8
D_SE_INSTANCE_1_28
 10
33.953
 20
-17.2304
 30
1.3833
 70
192
 0
VERTEX
 8
D_SE_INSTANCE_1_28
 10
34.1134
 20
-16.3273
 30
1.3833
 70
192
 0
VERTEX
 8
D_SE_INSTANCE_1_28
 10
33.1625
 20
-16.5413
 30
1.3833
 70
192
 0
VERTEX
 8
D_SE_INSTANCE_1_28
 10
33.6895
 20
-16.7275
 30
1.0102
 70
192
 0
VERTEX
 8
D_SE_INSTANCE_1_28
 10
0
 20
0
 30
0
 70
128
 71
1
 72
2
 73
4
 74
4
 0
VERTEX
 8
D_SE_INSTANCE_1_28
 10
0
 20
0
 30
0
 70
128
 71
4
 72
3
 73
1
 74
1
 0
VERTEX
 8
D_SE_INSTANCE_1_28
 10
0
 20
0
 30
0
 70
128
 71
2
 72
3
 73
4
 74
4
 0
SEQEND
 0
POLYLINE
 8
D_SE_INSTANCE_2_27
 66
1
 10
0.0
 20
0.0
 30
0.0
 70
64
 71
4
 72
3
 0
VERTEX
 8
D_SE_INSTANCE_2_27
 10
33.953
 20
-15.1495
 30
1.3833
 70
192
 0
VERTEX
 8
D_SE_INSTANCE_2_27
 10
34.1134
 20
-14.2464
 30
1.3833
 70
192
 0
VERTEX
 8
D_SE_INSTANCE_2_27
 10
33.1625
 20
-14.4605
 30
1.3833
 70
192
 0
VERTEX
 8
D_SE_INSTANCE_2_27
 10
33.6895
 20
-14.6466
 30
1.0102
 70
192
 0
VERTEX
 8
D_SE_INSTANCE_2_27
 10
0
 20
0
 30
0
 70
128
 71
1
 72
2
 73
4
 74
4
 0
VERTEX
 8
D_SE_INSTANCE_2_27
 10
0
 20
0
 30
0
 70
128
 71
4
 72
3
 73
1
 74
1
 0
VERTEX
 8
D_SE_INSTANCE_2_27
 10
0
 20
0
 30
0
 70
128
 71
2
 72
3
 73
4
 74
4
 0
SEQEND
 0
POLYLINE
 8
D_SE_INSTANCE_3_15
 66
1
 10
0.0
 20
0.0
 30
0.0
 70
64
 71
4
 72
3
 0
VERTEX
 8
D_SE_INSTANCE_3_15
 10
33.953
 20
-13.0381
 30
1.3833
 70
192
 0
VERTEX
 8
D_SE_INSTANCE_3_15
 10
34.1134
 20
-12.135
 30
1.3833
 70
192
 0
VERTEX
 8
D_SE_INSTANCE_3_15
 10
33.1625
 20
-12.3491
 30
1.3833
 70
192
 0
VERTEX
 8
D_SE_INSTANCE_3_15
 10
33.6895
 20
-12.5353
 30
1.0102
 70
192
 0
VERTEX
 8
D_SE_INSTANCE_3_15
 10
0
 20
0
 30
0
 70
128
 71
1
 72
2
 73
4
 74
4
 0
VERTEX
 8
D_SE_INSTANCE_3_15
 10
0
 20
0
 30
0
 70
128
 71
4
 72
3
 73
1
 74
1
 0
VERTEX
 8
D_SE_INSTANCE_3_15
 10
0
 20
0
 30
0
 70
128
 71
2
 72
3
 73
4
 74
4
 0
SEQEND
 0
POLYLINE
 8
D_SE_INSTANCE_4_15
 66
1
 10
0.0
 20
0.0
 30
0.0
 70
64
 71
4
 72
3
 0
VERTEX
 8
D_SE_INSTANCE_4_15
 10
33.953
 20
-10.9461
 30
1.3833
 70
192
 0
VERTEX
 8
D_SE_INSTANCE_4_15
 10
34.1134
 20
-10.043
 30
1.3833
 70
192
 0
VERTEX
 8
D_SE_INSTANCE_4_15
 10
33.1625
 20
-10.2571
 30
1.3833
 70
192
 0
VERTEX
 8
D_SE_INSTANCE_4_15
 10
33.6895
 20
-10.4432
 30
1.0102
 70
192
 0
VERTEX
 8
D_SE_INSTANCE_4_15
 10
0
 20
0
 30
0
 70
128
 71
1
 72
2
 73
4
 74
4
 0
VERTEX
 8
D_SE_INSTANCE_4_15
 10
0
 20
0
 30
0
 70
128
 71
4
 72
3
 73
1
 74
1
 0
VERTEX
 8
D_SE_INSTANCE_4_15
 10
0
 20
0
 30
0
 70
128
 71
2
 72
3
 73
4
 74
4
 0
SEQEND
 0
POLYLINE
 8
D_SE_INSTANCE_5_15
 66
1
 10
0.0
 20
0.0
 30
0.0
 70
64
 71
4
 72
3
 0
VERTEX
 8
D_SE_INSTANCE_5_15
 10
33.953
 20
-8.8295
 30
1.3833
 70
192
 0
VERTEX
 8
D_SE_INSTANCE_5_15
 10
34.1134
 20
-7.9264
 30
1.3833
 70
192
 0
VERTEX
 8
D_SE_INSTANCE_5_15
 10
33.1625
 20
-8.1405
 30
1.3833
 70
192
 0
VERTEX
 8
D_SE_INSTANCE_5_15
 10
33.6895
 20
-8.3266
 30
1.0102
 70
192
 0
VERTEX
 8
D_SE_INSTANCE_5_15
 10
0
 20
0
 30
0
 70
128
 71
1
 72
2
 73
4
 74
4
 0
VERTEX
 8
D_SE_INSTANCE_5_15
 10
0
 20
0
 30
0
 70
128
 71
4
 72
3
 73
1
 74
1
 0
VERTEX
 8
D_SE_INSTANCE_5_15
 10
0
 20
0
 30
0
 70
128
 71
2
 72
3
 73
4
 74
4
 0
SEQEND
 0
POLYLINE
 8
D_SE_INSTANCE_6_15
 66
1
 10
0.0
 20
0.0
 30
0.0
 70
64
 71
4
 72
3
 0
VERTEX
 8
D_SE_INSTANCE_6_15
 10
33.953
 20
-6.772
 30
1.3833
 70
192
 0
VERTEX
 8
D_SE_INSTANCE_6_15
 10
34.1134
 20
-5.8689
 30
1.3833
 70
192
 0
VERTEX
 8
D_SE_INSTANCE_6_15
 10
33.1625
 20
-6.083
 30
1.3833
 70
192
 0
VERTEX
 8
D_SE_INSTANCE_6_15
 10
33.6895
 20
-6.2691
 30
1.0102
 70
192
 0
VERTEX
 8
D_SE_INSTANCE_6_15
 10
0
 20
0
 30
0
 70
128
 71
1
 72
2
 73
4
 74
4
 0
VERTEX
 8
D_SE_INSTANCE_6_15
 10
0
 20
0
 30
0
 70
128
 71
4
 72
3
 73
1
 74
1
 0
VERTEX
 8
D_SE_INSTANCE_6_15
 10
0
 20
0
 30
0
 70
128
 71
2
 72
3
 73
4
 74
4
 0
SEQEND
 0
POLYLINE
 8
D_SE_INSTANCE_7_14
 66
1
 10
0.0
 20
0.0
 30
0.0
 70
64
 71
4
 72
3
 0
VERTEX
 8
D_SE_INSTANCE_7_14
 10
33.953
 20
-4.668
 30
1.3833
 70
192
 0
VERTEX
 8
D_SE_INSTANCE_7_14
 10
34.1134
 20
-3.7649
 30
1.3833
 70
192
 0
VERTEX
 8
D_SE_INSTANCE_7_14
 10
33.1625
 20
-3.979
 30
1.3833
 70
192
 0
VERTEX
 8
D_SE_INSTANCE_7_14
 10
33.6895
 20
-4.1652
 30
1.0102
 70
192
 0
VERTEX
 8
D_SE_INSTANCE_7_14
 10
0
 20
0
 30
0
 70
128
 71
1
 72
2
 73
4
 74
4
 0
VERTEX
 8
D_SE_INSTANCE_7_14
 10
0
 20
0
 30
0
 70
128
 71
4
 72
3
 73
1
 74
1
 0
VERTEX
 8
D_SE_INSTANCE_7_14
 10
0
 20
0
 30
0
 70
128
 71
2
 72
3
 73
4
 74
4
 0
SEQEND
 0
POLYLINE
 8
D_SE_INSTANCE_8_14
 66
1
 10
0.0
 20
0.0
 30
0.0
 70
64
 71
4
 72
3
 0
VERTEX
 8
D_SE_INSTANCE_8_14
 10
33.953
 20
-2.5453
 30
1.3833
 70
192
 0
VERTEX
 8
D_SE_INSTANCE_8_14
 10
34.1134
 20
-1.6422
 30
1.3833
 70
192
 0
VERTEX
 8
D_SE_INSTANCE_8_14
 10
33.1625
 20
-1.8563
 30
1.3833
 70
192
 0
VERTEX
 8
D_SE_INSTANCE_8_14
 10
33.6895
 20
-2.0424
 30
1.0102
 70
192
 0
VERTEX
 8
D_SE_INSTANCE_8_14
 10
0
 20
0
 30
0
 70
128
 71
1
 72
2
 73
4
 74
4
 0
VERTEX
 8
D_SE_INSTANCE_8_14
 10
0
 20
0
 30
0
 70
128
 71
4
 72
3
 73
1
 74
1
 0
VERTEX
 8
D_SE_INSTANCE_8_14
 10
0
 20
0
 30
0
 70
128
 71
2
 72
3
 73
4
 74
4
 0
SEQEND
 0
POLYLINE
 8
D_SE_INSTANCE_9_14
 66
1
 10
0.0
 20
0.0
 30
0.0
 70
64
 71
4
 72
3
 0
VERTEX
 8
D_SE_INSTANCE_9_14
 10
33.953
 20
-0.4135
 30
1.3833
 70
192
 0
VERTEX
 8
D_SE_INSTANCE_9_14
 10
34.1134
 20
0.4896
 30
1.3833
 70
192
 0
VERTEX
 8
D_SE_INSTANCE_9_14
 10
33.1625
 20
0.2755
 30
1.3833
 70
192
 0
VERTEX
 8
D_SE_INSTANCE_9_14
 10
33.6895
 20
0.0893
 30
1.0102
 70
192
 0
VERTEX
 8
D_SE_INSTANCE_9_14
 10
0
 20
0
 30
0
 70
128
 71
1
 72
2
 73
4
 74
4
 0
VERTEX
 8
D_SE_INSTANCE_9_14
 10
0
 20
0
 30
0
 70
128
 71
4
 72
3
 73
1
 74
1
 0
VERTEX
 8
D_SE_INSTANCE_9_14
 10
0
 20
0
 30
0
 70
128
 71
2
 72
3
 73
4
 74
4
 0
SEQEND
 0
POLYLINE
 8
D_SE_INSTANCE_10_14
 66
1
 10
0.0
 20
0.0
 30
0.0
 70
64
 71
4
 72
3
 0
VERTEX
 8
D_SE_INSTANCE_10_14
 10
33.953
 20
1.6778
 30
1.3833
 70
192
 0
VERTEX
 8
D_SE_INSTANCE_10_14
 10
34.1134
 20
2.5809
 30
1.3833
 70
192
 0
VERTEX
 8
D_SE_INSTANCE_10_14
 10
33.1625
 20
2.3668
 30
1.3833
 70
192
 0
VERTEX
 8
D_SE_INSTANCE_10_14
 10
33.6895
 20
2.1806
 30
1.0102
 70
192
 0
VERTEX
 8
D_SE_INSTANCE_10_14
 10
0
 20
0
 30
0
 70
128
 71
1
 72
2
 73
4
 74
4
 0
VERTEX
 8
D_SE_INSTANCE_10_14
 10
0
 20
0
 30
0
 70
128
 71
4
 72
3
 73
1
 74
1
 0
VERTEX
 8
D_SE_INSTANCE_10_14
 10
0
 20
0
 30
0
 70
128
 71
2
 72
3
 73
4
 74
4
 0
SEQEND
 0
POLYLINE
 8
D_SE_INSTANCE_11_4
 66
1
 10
0.0
 20
0.0
 30
0.0
 70
64
 71
4
 72
3
 0
VERTEX
 8
D_SE_INSTANCE_11_4
 10
33.953
 20
3.7593
 30
1.3833
 70
192
 0
VERTEX
 8
D_SE_INSTANCE_11_4
 10
34.1134
 20
4.6624
 30
1.3833
 70
192
 0
VERTEX
 8
D_SE_INSTANCE_11_4
 10
33.1625
 20
4.4483
 30
1.3833
 70
192
 0
VERTEX
 8
D_SE_INSTANCE_11_4
 10
33.6895
 20
4.2622
 30
1.0102
 70
192
 0
VERTEX
 8
D_SE_INSTANCE_11_4
 10
0
 20
0
 30
0
 70
128
 71
1
 72
2
 73
4
 74
4
 0
VERTEX
 8
D_SE_INSTANCE_11_4
 10
0
 20
0
 30
0
 70
128
 71
4
 72
3
 73
1
 74
1
 0
VERTEX
 8
D_SE_INSTANCE_11_4
 10
0
 20
0
 30
0
 70
128
 71
2
 72
3
 73
4
 74
4
 0
SEQEND
 0
POLYLINE
 8
D_SE_INSTANCE_12_4
 66
1
 10
0.0
 20
0.0
 30
0.0
 70
64
 71
4
 72
3
 0
VERTEX
 8
D_SE_INSTANCE_12_4
 10
33.953
 20
5.8398
 30
1.3833
 70
192
 0
VERTEX
 8
D_SE_INSTANCE_12_4
 10
34.1134
 20
6.7429
 30
1.3833
 70
192
 0
VERTEX
 8
D_SE_INSTANCE_12_4
 10
33.1625
 20
6.5288
 30
1.3833
 70
192
 0
VERTEX
 8
D_SE_INSTANCE_12_4
 10
33.6895
 20
6.3427
 30
1.0102
 70
192
 0
VERTEX
 8
D_SE_INSTANCE_12_4
 10
0
 20
0
 30
0
 70
128
 71
1
 72
2
 73
4
 74
4
 0
VERTEX
 8
D_SE_INSTANCE_12_4
 10
0
 20
0
 30
0
 70
128
 71
4
 72
3
 73
1
 74
1
 0
VERTEX
 8
D_SE_INSTANCE_12_4
 10
0
 20
0
 30
0
 70
128
 71
2
 72
3
 73
4
 74
4
 0
SEQEND
 0
POLYLINE
 8
D_SE_INSTANCE_13_4
 66
1
 10
0.0
 20
0.0
 30
0.0
 70
64
 71
4
 72
3
 0
VERTEX
 8
D_SE_INSTANCE_13_4
 10
33.953
 20
7.9497
 30
1.3833
 70
192
 0
VERTEX
 8
D_SE_INSTANCE_13_4
 10
34.1134
 20
8.8528
 30
1.3833
 70
192
 0
VERTEX
 8
D_SE_INSTANCE_13_4
 10
33.1625
 20
8.6387
 30
1.3833
 70
192
 0
VERTEX
 8
D_SE_INSTANCE_13_4
 10
33.6895
 20
8.4526
 30
1.0102
 70
192
 0
VERTEX
 8
D_SE_INSTANCE_13_4
 10
0
 20
0
 30
0
 70
128
 71
1
 72
2
 73
4
 74
4
 0
VERTEX
 8
D_SE_INSTANCE_13_4
 10
0
 20
0
 30
0
 70
128
 71
4
 72
3
 73
1
 74
1
 0
VERTEX
 8
D_SE_INSTANCE_13_4
 10
0
 20
0
 30
0
 70
128
 71
2
 72
3
 73
4
 74
4
 0
SEQEND
 0
POLYLINE
 8
D_SE_INSTANCE_14_4
 66
1
 10
0.0
 20
0.0
 30
0.0
 70
64
 71
4
 72
3
 0
VERTEX
 8
D_SE_INSTANCE_14_4
 10
33.953
 20
10.0672
 30
1.3833
 70
192
 0
VERTEX
 8
D_SE_INSTANCE_14_4
 10
34.1134
 20
10.9703
 30
1.3833
 70
192
 0
VERTEX
 8
D_SE_INSTANCE_14_4
 10
33.1625
 20
10.7562
 30
1.3833
 70
192
 0
VERTEX
 8
D_SE_INSTANCE_14_4
 10
33.6895
 20
10.5701
 30
1.0102
 70
192
 0
VERTEX
 8
D_SE_INSTANCE_14_4
 10
0
 20
0
 30
0
 70
128
 71
1
 72
2
 73
4
 74
4
 0
VERTEX
 8
D_SE_INSTANCE_14_4
 10
0
 20
0
 30
0
 70
128
 71
4
 72
3
 73
1
 74
1
 0
VERTEX
 8
D_SE_INSTANCE_14_4
 10
0
 20
0
 30
0
 70
128
 71
2
 72
3
 73
4
 74
4
 0
SEQEND
 0
POLYLINE
 8
D_SE_INSTANCE_15_4
 66
1
 10
0.0
 20
0.0
 30
0.0
 70
64
 71
4
 72
3
 0
VERTEX
 8
D_SE_INSTANCE_15_4
 10
33.953
 20
12.1716
 30
1.3833
 70
192
 0
VERTEX
 8
D_SE_INSTANCE_15_4
 10
34.1134
 20
13.0747
 30
1.3833
 70
192
 0
VERTEX
 8
D_SE_INSTANCE_15_4
 10
33.1625
 20
12.8606
 30
1.3833
 70
192
 0
VERTEX
 8
D_SE_INSTANCE_15_4
 10
33.6895
 20
12.6744
 30
1.0102
 70
192
 0
VERTEX
 8
D_SE_INSTANCE_15_4
 10
0
 20
0
 30
0
 70
128
 71
1
 72
2
 73
4
 74
4
 0
VERTEX
 8
D_SE_INSTANCE_15_4
 10
0
 20
0
 30
0
 70
128
 71
4
 72
3
 73
1
 74
1
 0
VERTEX
 8
D_SE_INSTANCE_15_4
 10
0
 20
0
 30
0
 70
128
 71
2
 72
3
 73
4
 74
4
 0
SEQEND
 0
POLYLINE
 8
D_SE_INSTANCE_16_17
 66
1
 10
0.0
 20
0.0
 30
0.0
 70
64
 71
4
 72
3
 0
VERTEX
 8
D_SE_INSTANCE_16_17
 10
33.953
 20
14.2473
 30
1.3833
 70
192
 0
VERTEX
 8
D_SE_INSTANCE_16_17
 10
34.1134
 20
15.1504
 30
1.3833
 70
192
 0
VERTEX
 8
D_SE_INSTANCE_16_17
 10
33.1625
 20
14.9363
 30
1.3833
 70
192
 0
VERTEX
 8
D_SE_INSTANCE_16_17
 10
33.6895
 20
14.7501
 30
1.0102
 70
192
 0
VERTEX
 8
D_SE_INSTANCE_16_17
 10
0
 20
0
 30
0
 70
128
 71
1
 72
2
 73
4
 74
4
 0
VERTEX
 8
D_SE_INSTANCE_16_17
 10
0
 20
0
 30
0
 70
128
 71
4
 72
3
 73
1
 74
1
 0
VERTEX
 8
D_SE_INSTANCE_16_17
 10
0
 20
0
 30
0
 70
128
 71
2
 72
3
 73
4
 74
4
 0
SEQEND
 0
POLYLINE
 8
D_SE_INSTANCE_17_17
 66
1
 10
0.0
 20
0.0
 30
0.0
 70
64
 71
4
 72
3
 0
VERTEX
 8
D_SE_INSTANCE_17_17
 10
33.953
 20
16.3365
 30
1.3833
 70
192
 0
VERTEX
 8
D_SE_INSTANCE_17_17
 10
34.1134
 20
17.2396
 30
1.3833
 70
192
 0
VERTEX
 8
D_SE_INSTANCE_17_17
 10
33.1625
 20
17.0255
 30
1.3833
 70
192
 0
VERTEX
 8
D_SE_INSTANCE_17_17
 10
33.6895
 20
16.8394
 30
1.0102
 70
192
 0
VERTEX
 8
D_SE_INSTANCE_17_17
 10
0
 20
0
 30
0
 70
128
 71
1
 72
2
 73
4
 74
4
 0
VERTEX
 8
D_SE_INSTANCE_17_17
 10
0
 20
0
 30
0
 70
128
 71
4
 72
3
 73
1
 74
1
 0
VERTEX
 8
D_SE_INSTANCE_17_17
 10
0
 20
0
 30
0
 70
128
 71
2
 72
3
 73
4
 74
4
 0
SEQEND
 0
POLYLINE
 8
D_SE_INSTANCE_18_16
 66
1
 10
0.0
 20
0.0
 30
0.0
 70
64
 71
4
 72
3
 0
VERTEX
 8
D_SE_INSTANCE_18_16
 10
33.953
 20
18.4451
 30
1.3833
 70
192
 0
VERTEX
 8
D_SE_INSTANCE_18_16
 10
34.1134
 20
19.3482
 30
1.3833
 70
192
 0
VERTEX
 8
D_SE_INSTANCE_18_16
 10
33.1625
 20
19.1341
 30
1.3833
 70
192
 0
VERTEX
 8
D_SE_INSTANCE_18_16
 10
33.6895
 20
18.948
 30
1.0102
 70
192
 0
VERTEX
 8
D_SE_INSTANCE_18_16
 10
0
 20
0
 30
0
 70
128
 71
1
 72
2
 73
4
 74
4
 0
VERTEX
 8
D_SE_INSTANCE_18_16
 10
0
 20
0
 30
0
 70
128
 71
4
 72
3
 73
1
 74
1
 0
VERTEX
 8
D_SE_INSTANCE_18_16
 10
0
 20
0
 30
0
 70
128
 71
2
 72
3
 73
4
 74
4
 0
SEQEND
 0
POLYLINE
 8
D_SE_INSTANCE_19_16
 66
1
 10
0.0
 20
0.0
 30
0.0
 70
64
 71
4
 72
3
 0
VERTEX
 8
D_SE_INSTANCE_19_16
 10
33.953
 20
20.5588
 30
1.3833
 70
192
 0
VERTEX
 8
D_SE_INSTANCE_19_16
 10
34.1134
 20
21.4619
 30
1.3833
 70
192
 0
VERTEX
 8
D_SE_INSTANCE_19_16
 10
33.1625
 20
21.2478
 30
1.3833
 70
192
 0
VERTEX
 8
D_SE_INSTANCE_19_16
 10
33.6895
 20
21.0616
 30
1.0102
 70
192
 0
VERTEX
 8
D_SE_INSTANCE_19_16
 10
0
 20
0
 30
0
 70
128
 71
1
 72
2
 73
4
 74
4
 0
VERTEX
 8
D_SE_INSTANCE_19_16
 10
0
 20
0
 30
0
 70
128
 71
4
 72
3
 73
1
 74
1
 0
VERTEX
 8
D_SE_INSTANCE_19_16
 10
0
 20
0
 30
0
 70
128
 71
2
 72
3
 73
4
 74
4
 0
SEQEND
 0
POLYLINE
 8
D_SE_9
 66
1
 10
0.0
 20
0.0
 30
0.0
 70
64
 71
4
 72
3
 0
VERTEX
 8
D_SE_9
 10
4.4705
 20
-21.4404
 30
1.3833
 70
192
 0
VERTEX
 8
D_SE_9
 10
4.6309
 20
-20.5373
 30
1.3833
 70
192
 0
VERTEX
 8
D_SE_9
 10
3.68
 20
-20.7514
 30
1.3833
 70
192
 0
VERTEX
 8
D_SE_9
 10
4.207
 20
-20.9375
 30
1.0102
 70
192
 0
VERTEX
 8
D_SE_9
 10
0
 20
0
 30
0
 70
128
 71
1
 72
2
 73
4
 74
4
 0
VERTEX
 8
D_SE_9
 10
0
 20
0
 30
0
 70
128
 71
4
 72
3
 73
1
 74
1
 0
VERTEX
 8
D_SE_9
 10
0
 20
0
 30
0
 70
128
 71
2
 72
3
 73
4
 74
4
 0
SEQEND
 0
POLYLINE
 8
D_SE_INSTANCE_29
 66
1
 10
0.0
 20
0.0
 30
0.0
 70
64
 71
4
 72
3
 0
VERTEX
 8
D_SE_INSTANCE_29
 10
4.4705
 20
-19.3017
 30
1.3833
 70
192
 0
VERTEX
 8
D_SE_INSTANCE_29
 10
4.6309
 20
-18.3985
 30
1.3833
 70
192
 0
VERTEX
 8
D_SE_INSTANCE_29
 10
3.68
 20
-18.6126
 30
1.3833
 70
192
 0
VERTEX
 8
D_SE_INSTANCE_29
 10
4.207
 20
-18.7988
 30
1.0102
 70
192
 0
VERTEX
 8
D_SE_INSTANCE_29
 10
0
 20
0
 30
0
 70
128
 71
1
 72
2
 73
4
 74
4
 0
VERTEX
 8
D_SE_INSTANCE_29
 10
0
 20
0
 30
0
 70
128
 71
4
 72
3
 73
1
 74
1
 0
VERTEX
 8
D_SE_INSTANCE_29
 10
0
 20
0
 30
0
 70
128
 71
2
 72
3
 73
4
 74
4
 0
SEQEND
 0
POLYLINE
 8
D_SE_INSTANCE_1_29
 66
1
 10
0.0
 20
0.0
 30
0.0
 70
64
 71
4
 72
3
 0
VERTEX
 8
D_SE_INSTANCE_1_29
 10
4.4705
 20
-17.2304
 30
1.3833
 70
192
 0
VERTEX
 8
D_SE_INSTANCE_1_29
 10
4.6309
 20
-16.3273
 30
1.3833
 70
192
 0
VERTEX
 8
D_SE_INSTANCE_1_29
 10
3.68
 20
-16.5413
 30
1.3833
 70
192
 0
VERTEX
 8
D_SE_INSTANCE_1_29
 10
4.207
 20
-16.7275
 30
1.0102
 70
192
 0
VERTEX
 8
D_SE_INSTANCE_1_29
 10
0
 20
0
 30
0
 70
128
 71
1
 72
2
 73
4
 74
4
 0
VERTEX
 8
D_SE_INSTANCE_1_29
 10
0
 20
0
 30
0
 70
128
 71
4
 72
3
 73
1
 74
1
 0
VERTEX
 8
D_SE_INSTANCE_1_29
 10
0
 20
0
 30
0
 70
128
 71
2
 72
3
 73
4
 74
4
 0
SEQEND
 0
POLYLINE
 8
D_SE_INSTANCE_2_29
 66
1
 10
0.0
 20
0.0
 30
0.0
 70
64
 71
4
 72
3
 0
VERTEX
 8
D_SE_INSTANCE_2_29
 10
4.4705
 20
-15.1495
 30
1.3833
 70
192
 0
VERTEX
 8
D_SE_INSTANCE_2_29
 10
4.6309
 20
-14.2464
 30
1.3833
 70
192
 0
VERTEX
 8
D_SE_INSTANCE_2_29
 10
3.68
 20
-14.4605
 30
1.3833
 70
192
 0
VERTEX
 8
D_SE_INSTANCE_2_29
 10
4.207
 20
-14.6466
 30
1.0102
 70
192
 0
VERTEX
 8
D_SE_INSTANCE_2_29
 10
0
 20
0
 30
0
 70
128
 71
1
 72
2
 73
4
 74
4
 0
VERTEX
 8
D_SE_INSTANCE_2_29
 10
0
 20
0
 30
0
 70
128
 71
4
 72
3
 73
1
 74
1
 0
VERTEX
 8
D_SE_INSTANCE_2_29
 10
0
 20
0
 30
0
 70
128
 71
2
 72
3
 73
4
 74
4
 0
SEQEND
 0
POLYLINE
 8
D_SE_INSTANCE_3_16
 66
1
 10
0.0
 20
0.0
 30
0.0
 70
64
 71
4
 72
3
 0
VERTEX
 8
D_SE_INSTANCE_3_16
 10
4.4705
 20
-13.0381
 30
1.3833
 70
192
 0
VERTEX
 8
D_SE_INSTANCE_3_16
 10
4.6309
 20
-12.135
 30
1.3833
 70
192
 0
VERTEX
 8
D_SE_INSTANCE_3_16
 10
3.68
 20
-12.3491
 30
1.3833
 70
192
 0
VERTEX
 8
D_SE_INSTANCE_3_16
 10
4.207
 20
-12.5353
 30
1.0102
 70
192
 0
VERTEX
 8
D_SE_INSTANCE_3_16
 10
0
 20
0
 30
0
 70
128
 71
1
 72
2
 73
4
 74
4
 0
VERTEX
 8
D_SE_INSTANCE_3_16
 10
0
 20
0
 30
0
 70
128
 71
4
 72
3
 73
1
 74
1
 0
VERTEX
 8
D_SE_INSTANCE_3_16
 10
0
 20
0
 30
0
 70
128
 71
2
 72
3
 73
4
 74
4
 0
SEQEND
 0
POLYLINE
 8
D_SE_INSTANCE_4_16
 66
1
 10
0.0
 20
0.0
 30
0.0
 70
64
 71
4
 72
3
 0
VERTEX
 8
D_SE_INSTANCE_4_16
 10
4.4705
 20
-10.9461
 30
1.3833
 70
192
 0
VERTEX
 8
D_SE_INSTANCE_4_16
 10
4.6309
 20
-10.043
 30
1.3833
 70
192
 0
VERTEX
 8
D_SE_INSTANCE_4_16
 10
3.68
 20
-10.2571
 30
1.3833
 70
192
 0
VERTEX
 8
D_SE_INSTANCE_4_16
 10
4.207
 20
-10.4432
 30
1.0102
 70
192
 0
VERTEX
 8
D_SE_INSTANCE_4_16
 10
0
 20
0
 30
0
 70
128
 71
1
 72
2
 73
4
 74
4
 0
VERTEX
 8
D_SE_INSTANCE_4_16
 10
0
 20
0
 30
0
 70
128
 71
4
 72
3
 73
1
 74
1
 0
VERTEX
 8
D_SE_INSTANCE_4_16
 10
0
 20
0
 30
0
 70
128
 71
2
 72
3
 73
4
 74
4
 0
SEQEND
 0
POLYLINE
 8
D_SE_INSTANCE_5_16
 66
1
 10
0.0
 20
0.0
 30
0.0
 70
64
 71
4
 72
3
 0
VERTEX
 8
D_SE_INSTANCE_5_16
 10
4.4705
 20
-8.8295
 30
1.3833
 70
192
 0
VERTEX
 8
D_SE_INSTANCE_5_16
 10
4.6309
 20
-7.9264
 30
1.3833
 70
192
 0
VERTEX
 8
D_SE_INSTANCE_5_16
 10
3.68
 20
-8.1405
 30
1.3833
 70
192
 0
VERTEX
 8
D_SE_INSTANCE_5_16
 10
4.207
 20
-8.3266
 30
1.0102
 70
192
 0
VERTEX
 8
D_SE_INSTANCE_5_16
 10
0
 20
0
 30
0
 70
128
 71
1
 72
2
 73
4
 74
4
 0
VERTEX
 8
D_SE_INSTANCE_5_16
 10
0
 20
0
 30
0
 70
128
 71
4
 72
3
 73
1
 74
1
 0
VERTEX
 8
D_SE_INSTANCE_5_16
 10
0
 20
0
 30
0
 70
128
 71
2
 72
3
 73
4
 74
4
 0
SEQEND
 0
POLYLINE
 8
D_SE_INSTANCE_6_16
 66
1
 10
0.0
 20
0.0
 30
0.0
 70
64
 71
4
 72
3
 0
VERTEX
 8
D_SE_INSTANCE_6_16
 10
4.4705
 20
-6.772
 30
1.3833
 70
192
 0
VERTEX
 8
D_SE_INSTANCE_6_16
 10
4.6309
 20
-5.8689
 30
1.3833
 70
192
 0
VERTEX
 8
D_SE_INSTANCE_6_16
 10
3.68
 20
-6.083
 30
1.3833
 70
192
 0
VERTEX
 8
D_SE_INSTANCE_6_16
 10
4.207
 20
-6.2691
 30
1.0102
 70
192
 0
VERTEX
 8
D_SE_INSTANCE_6_16
 10
0
 20
0
 30
0
 70
128
 71
1
 72
2
 73
4
 74
4
 0
VERTEX
 8
D_SE_INSTANCE_6_16
 10
0
 20
0
 30
0
 70
128
 71
4
 72
3
 73
1
 74
1
 0
VERTEX
 8
D_SE_INSTANCE_6_16
 10
0
 20
0
 30
0
 70
128
 71
2
 72
3
 73
4
 74
4
 0
SEQEND
 0
POLYLINE
 8
D_SE_INSTANCE_7_15
 66
1
 10
0.0
 20
0.0
 30
0.0
 70
64
 71
4
 72
3
 0
VERTEX
 8
D_SE_INSTANCE_7_15
 10
4.4705
 20
-4.668
 30
1.3833
 70
192
 0
VERTEX
 8
D_SE_INSTANCE_7_15
 10
4.6309
 20
-3.7649
 30
1.3833
 70
192
 0
VERTEX
 8
D_SE_INSTANCE_7_15
 10
3.68
 20
-3.979
 30
1.3833
 70
192
 0
VERTEX
 8
D_SE_INSTANCE_7_15
 10
4.207
 20
-4.1652
 30
1.0102
 70
192
 0
VERTEX
 8
D_SE_INSTANCE_7_15
 10
0
 20
0
 30
0
 70
128
 71
1
 72
2
 73
4
 74
4
 0
VERTEX
 8
D_SE_INSTANCE_7_15
 10
0
 20
0
 30
0
 70
128
 71
4
 72
3
 73
1
 74
1
 0
VERTEX
 8
D_SE_INSTANCE_7_15
 10
0
 20
0
 30
0
 70
128
 71
2
 72
3
 73
4
 74
4
 0
SEQEND
 0
POLYLINE
 8
D_SE_INSTANCE_8_15
 66
1
 10
0.0
 20
0.0
 30
0.0
 70
64
 71
4
 72
3
 0
VERTEX
 8
D_SE_INSTANCE_8_15
 10
4.4705
 20
-2.5453
 30
1.3833
 70
192
 0
VERTEX
 8
D_SE_INSTANCE_8_15
 10
4.6309
 20
-1.6422
 30
1.3833
 70
192
 0
VERTEX
 8
D_SE_INSTANCE_8_15
 10
3.68
 20
-1.8563
 30
1.3833
 70
192
 0
VERTEX
 8
D_SE_INSTANCE_8_15
 10
4.207
 20
-2.0424
 30
1.0102
 70
192
 0
VERTEX
 8
D_SE_INSTANCE_8_15
 10
0
 20
0
 30
0
 70
128
 71
1
 72
2
 73
4
 74
4
 0
VERTEX
 8
D_SE_INSTANCE_8_15
 10
0
 20
0
 30
0
 70
128
 71
4
 72
3
 73
1
 74
1
 0
VERTEX
 8
D_SE_INSTANCE_8_15
 10
0
 20
0
 30
0
 70
128
 71
2
 72
3
 73
4
 74
4
 0
SEQEND
 0
POLYLINE
 8
D_SE_INSTANCE_9_15
 66
1
 10
0.0
 20
0.0
 30
0.0
 70
64
 71
4
 72
3
 0
VERTEX
 8
D_SE_INSTANCE_9_15
 10
4.4705
 20
-0.4135
 30
1.3833
 70
192
 0
VERTEX
 8
D_SE_INSTANCE_9_15
 10
4.6309
 20
0.4896
 30
1.3833
 70
192
 0
VERTEX
 8
D_SE_INSTANCE_9_15
 10
3.68
 20
0.2755
 30
1.3833
 70
192
 0
VERTEX
 8
D_SE_INSTANCE_9_15
 10
4.207
 20
0.0893
 30
1.0102
 70
192
 0
VERTEX
 8
D_SE_INSTANCE_9_15
 10
0
 20
0
 30
0
 70
128
 71
1
 72
2
 73
4
 74
4
 0
VERTEX
 8
D_SE_INSTANCE_9_15
 10
0
 20
0
 30
0
 70
128
 71
4
 72
3
 73
1
 74
1
 0
VERTEX
 8
D_SE_INSTANCE_9_15
 10
0
 20
0
 30
0
 70
128
 71
2
 72
3
 73
4
 74
4
 0
SEQEND
 0
POLYLINE
 8
D_SE_INSTANCE_10_15
 66
1
 10
0.0
 20
0.0
 30
0.0
 70
64
 71
4
 72
3
 0
VERTEX
 8
D_SE_INSTANCE_10_15
 10
4.4705
 20
1.6778
 30
1.3833
 70
192
 0
VERTEX
 8
D_SE_INSTANCE_10_15
 10
4.6309
 20
2.5809
 30
1.3833
 70
192
 0
VERTEX
 8
D_SE_INSTANCE_10_15
 10
3.68
 20
2.3668
 30
1.3833
 70
192
 0
VERTEX
 8
D_SE_INSTANCE_10_15
 10
4.207
 20
2.1806
 30
1.0102
 70
192
 0
VERTEX
 8
D_SE_INSTANCE_10_15
 10
0
 20
0
 30
0
 70
128
 71
1
 72
2
 73
4
 74
4
 0
VERTEX
 8
D_SE_INSTANCE_10_15
 10
0
 20
0
 30
0
 70
128
 71
4
 72
3
 73
1
 74
1
 0
VERTEX
 8
D_SE_INSTANCE_10_15
 10
0
 20
0
 30
0
 70
128
 71
2
 72
3
 73
4
 74
4
 0
SEQEND
 0
POLYLINE
 8
D_SE_INSTANCE_11_5
 66
1
 10
0.0
 20
0.0
 30
0.0
 70
64
 71
4
 72
3
 0
VERTEX
 8
D_SE_INSTANCE_11_5
 10
4.4705
 20
3.7593
 30
1.3833
 70
192
 0
VERTEX
 8
D_SE_INSTANCE_11_5
 10
4.6309
 20
4.6624
 30
1.3833
 70
192
 0
VERTEX
 8
D_SE_INSTANCE_11_5
 10
3.68
 20
4.4483
 30
1.3833
 70
192
 0
VERTEX
 8
D_SE_INSTANCE_11_5
 10
4.207
 20
4.2622
 30
1.0102
 70
192
 0
VERTEX
 8
D_SE_INSTANCE_11_5
 10
0
 20
0
 30
0
 70
128
 71
1
 72
2
 73
4
 74
4
 0
VERTEX
 8
D_SE_INSTANCE_11_5
 10
0
 20
0
 30
0
 70
128
 71
4
 72
3
 73
1
 74
1
 0
VERTEX
 8
D_SE_INSTANCE_11_5
 10
0
 20
0
 30
0
 70
128
 71
2
 72
3
 73
4
 74
4
 0
SEQEND
 0
POLYLINE
 8
D_SE_INSTANCE_12_5
 66
1
 10
0.0
 20
0.0
 30
0.0
 70
64
 71
4
 72
3
 0
VERTEX
 8
D_SE_INSTANCE_12_5
 10
4.4705
 20
5.8398
 30
1.3833
 70
192
 0
VERTEX
 8
D_SE_INSTANCE_12_5
 10
4.6309
 20
6.7429
 30
1.3833
 70
192
 0
VERTEX
 8
D_SE_INSTANCE_12_5
 10
3.68
 20
6.5288
 30
1.3833
 70
192
 0
VERTEX
 8
D_SE_INSTANCE_12_5
 10
4.207
 20
6.3427
 30
1.0102
 70
192
 0
VERTEX
 8
D_SE_INSTANCE_12_5
 10
0
 20
0
 30
0
 70
128
 71
1
 72
2
 73
4
 74
4
 0
VERTEX
 8
D_SE_INSTANCE_12_5
 10
0
 20
0
 30
0
 70
128
 71
4
 72
3
 73
1
 74
1
 0
VERTEX
 8
D_SE_INSTANCE_12_5
 10
0
 20
0
 30
0
 70
128
 71
2
 72
3
 73
4
 74
4
 0
SEQEND
 0
POLYLINE
 8
D_SE_INSTANCE_13_5
 66
1
 10
0.0
 20
0.0
 30
0.0
 70
64
 71
4
 72
3
 0
VERTEX
 8
D_SE_INSTANCE_13_5
 10
4.4705
 20
7.9497
 30
1.3833
 70
192
 0
VERTEX
 8
D_SE_INSTANCE_13_5
 10
4.6309
 20
8.8528
 30
1.3833
 70
192
 0
VERTEX
 8
D_SE_INSTANCE_13_5
 10
3.68
 20
8.6387
 30
1.3833
 70
192
 0
VERTEX
 8
D_SE_INSTANCE_13_5
 10
4.207
 20
8.4526
 30
1.0102
 70
192
 0
VERTEX
 8
D_SE_INSTANCE_13_5
 10
0
 20
0
 30
0
 70
128
 71
1
 72
2
 73
4
 74
4
 0
VERTEX
 8
D_SE_INSTANCE_13_5
 10
0
 20
0
 30
0
 70
128
 71
4
 72
3
 73
1
 74
1
 0
VERTEX
 8
D_SE_INSTANCE_13_5
 10
0
 20
0
 30
0
 70
128
 71
2
 72
3
 73
4
 74
4
 0
SEQEND
 0
POLYLINE
 8
D_SE_INSTANCE_14_5
 66
1
 10
0.0
 20
0.0
 30
0.0
 70
64
 71
4
 72
3
 0
VERTEX
 8
D_SE_INSTANCE_14_5
 10
4.4705
 20
10.0672
 30
1.3833
 70
192
 0
VERTEX
 8
D_SE_INSTANCE_14_5
 10
4.6309
 20
10.9703
 30
1.3833
 70
192
 0
VERTEX
 8
D_SE_INSTANCE_14_5
 10
3.68
 20
10.7562
 30
1.3833
 70
192
 0
VERTEX
 8
D_SE_INSTANCE_14_5
 10
4.207
 20
10.5701
 30
1.0102
 70
192
 0
VERTEX
 8
D_SE_INSTANCE_14_5
 10
0
 20
0
 30
0
 70
128
 71
1
 72
2
 73
4
 74
4
 0
VERTEX
 8
D_SE_INSTANCE_14_5
 10
0
 20
0
 30
0
 70
128
 71
4
 72
3
 73
1
 74
1
 0
VERTEX
 8
D_SE_INSTANCE_14_5
 10
0
 20
0
 30
0
 70
128
 71
2
 72
3
 73
4
 74
4
 0
SEQEND
 0
POLYLINE
 8
D_SE_INSTANCE_15_5
 66
1
 10
0.0
 20
0.0
 30
0.0
 70
64
 71
4
 72
3
 0
VERTEX
 8
D_SE_INSTANCE_15_5
 10
4.4705
 20
12.1716
 30
1.3833
 70
192
 0
VERTEX
 8
D_SE_INSTANCE_15_5
 10
4.6309
 20
13.0747
 30
1.3833
 70
192
 0
VERTEX
 8
D_SE_INSTANCE_15_5
 10
3.68
 20
12.8606
 30
1.3833
 70
192
 0
VERTEX
 8
D_SE_INSTANCE_15_5
 10
4.207
 20
12.6744
 30
1.0102
 70
192
 0
VERTEX
 8
D_SE_INSTANCE_15_5
 10
0
 20
0
 30
0
 70
128
 71
1
 72
2
 73
4
 74
4
 0
VERTEX
 8
D_SE_INSTANCE_15_5
 10
0
 20
0
 30
0
 70
128
 71
4
 72
3
 73
1
 74
1
 0
VERTEX
 8
D_SE_INSTANCE_15_5
 10
0
 20
0
 30
0
 70
128
 71
2
 72
3
 73
4
 74
4
 0
SEQEND
 0
POLYLINE
 8
D_SE_INSTANCE_16_18
 66
1
 10
0.0
 20
0.0
 30
0.0
 70
64
 71
4
 72
3
 0
VERTEX
 8
D_SE_INSTANCE_16_18
 10
4.4705
 20
14.2473
 30
1.3833
 70
192
 0
VERTEX
 8
D_SE_INSTANCE_16_18
 10
4.6309
 20
15.1504
 30
1.3833
 70
192
 0
VERTEX
 8
D_SE_INSTANCE_16_18
 10
3.68
 20
14.9363
 30
1.3833
 70
192
 0
VERTEX
 8
D_SE_INSTANCE_16_18
 10
4.207
 20
14.7501
 30
1.0102
 70
192
 0
VERTEX
 8
D_SE_INSTANCE_16_18
 10
0
 20
0
 30
0
 70
128
 71
1
 72
2
 73
4
 74
4
 0
VERTEX
 8
D_SE_INSTANCE_16_18
 10
0
 20
0
 30
0
 70
128
 71
4
 72
3
 73
1
 74
1
 0
VERTEX
 8
D_SE_INSTANCE_16_18
 10
0
 20
0
 30
0
 70
128
 71
2
 72
3
 73
4
 74
4
 0
SEQEND
 0
POLYLINE
 8
D_SE_INSTANCE_17_18
 66
1
 10
0.0
 20
0.0
 30
0.0
 70
64
 71
4
 72
3
 0
VERTEX
 8
D_SE_INSTANCE_17_18
 10
4.4705
 20
16.3365
 30
1.3833
 70
192
 0
VERTEX
 8
D_SE_INSTANCE_17_18
 10
4.6309
 20
17.2396
 30
1.3833
 70
192
 0
VERTEX
 8
D_SE_INSTANCE_17_18
 10
3.68
 20
17.0255
 30
1.3833
 70
192
 0
VERTEX
 8
D_SE_INSTANCE_17_18
 10
4.207
 20
16.8394
 30
1.0102
 70
192
 0
VERTEX
 8
D_SE_INSTANCE_17_18
 10
0
 20
0
 30
0
 70
128
 71
1
 72
2
 73
4
 74
4
 0
VERTEX
 8
D_SE_INSTANCE_17_18
 10
0
 20
0
 30
0
 70
128
 71
4
 72
3
 73
1
 74
1
 0
VERTEX
 8
D_SE_INSTANCE_17_18
 10
0
 20
0
 30
0
 70
128
 71
2
 72
3
 73
4
 74
4
 0
SEQEND
 0
POLYLINE
 8
D_SE_INSTANCE_18_17
 66
1
 10
0.0
 20
0.0
 30
0.0
 70
64
 71
4
 72
3
 0
VERTEX
 8
D_SE_INSTANCE_18_17
 10
4.4705
 20
18.4451
 30
1.3833
 70
192
 0
VERTEX
 8
D_SE_INSTANCE_18_17
 10
4.6309
 20
19.3482
 30
1.3833
 70
192
 0
VERTEX
 8
D_SE_INSTANCE_18_17
 10
3.68
 20
19.1341
 30
1.3833
 70
192
 0
VERTEX
 8
D_SE_INSTANCE_18_17
 10
4.207
 20
18.948
 30
1.0102
 70
192
 0
VERTEX
 8
D_SE_INSTANCE_18_17
 10
0
 20
0
 30
0
 70
128
 71
1
 72
2
 73
4
 74
4
 0
VERTEX
 8
D_SE_INSTANCE_18_17
 10
0
 20
0
 30
0
 70
128
 71
4
 72
3
 73
1
 74
1
 0
VERTEX
 8
D_SE_INSTANCE_18_17
 10
0
 20
0
 30
0
 70
128
 71
2
 72
3
 73
4
 74
4
 0
SEQEND
 0
POLYLINE
 8
D_SE_INSTANCE_19_17
 66
1
 10
0.0
 20
0.0
 30
0.0
 70
64
 71
4
 72
3
 0
VERTEX
 8
D_SE_INSTANCE_19_17
 10
4.4705
 20
20.5588
 30
1.3833
 70
192
 0
VERTEX
 8
D_SE_INSTANCE_19_17
 10
4.6309
 20
21.4619
 30
1.3833
 70
192
 0
VERTEX
 8
D_SE_INSTANCE_19_17
 10
3.68
 20
21.2478
 30
1.3833
 70
192
 0
VERTEX
 8
D_SE_INSTANCE_19_17
 10
4.207
 20
21.0616
 30
1.0102
 70
192
 0
VERTEX
 8
D_SE_INSTANCE_19_17
 10
0
 20
0
 30
0
 70
128
 71
1
 72
2
 73
4
 74
4
 0
VERTEX
 8
D_SE_INSTANCE_19_17
 10
0
 20
0
 30
0
 70
128
 71
4
 72
3
 73
1
 74
1
 0
VERTEX
 8
D_SE_INSTANCE_19_17
 10
0
 20
0
 30
0
 70
128
 71
2
 72
3
 73
4
 74
4
 0
SEQEND
 0
POLYLINE
 8
D_SE_11
 66
1
 10
0.0
 20
0.0
 30
0.0
 70
64
 71
4
 72
3
 0
VERTEX
 8
D_SE_11
 10
2.388
 20
-21.4404
 30
1.3833
 70
192
 0
VERTEX
 8
D_SE_11
 10
2.5484
 20
-20.5373
 30
1.3833
 70
192
 0
VERTEX
 8
D_SE_11
 10
1.5975
 20
-20.7514
 30
1.3833
 70
192
 0
VERTEX
 8
D_SE_11
 10
2.1245
 20
-20.9375
 30
1.0102
 70
192
 0
VERTEX
 8
D_SE_11
 10
0
 20
0
 30
0
 70
128
 71
1
 72
2
 73
4
 74
4
 0
VERTEX
 8
D_SE_11
 10
0
 20
0
 30
0
 70
128
 71
4
 72
3
 73
1
 74
1
 0
VERTEX
 8
D_SE_11
 10
0
 20
0
 30
0
 70
128
 71
2
 72
3
 73
4
 74
4
 0
SEQEND
 0
POLYLINE
 8
D_SE_INSTANCE_30
 66
1
 10
0.0
 20
0.0
 30
0.0
 70
64
 71
4
 72
3
 0
VERTEX
 8
D_SE_INSTANCE_30
 10
2.388
 20
-19.3017
 30
1.3833
 70
192
 0
VERTEX
 8
D_SE_INSTANCE_30
 10
2.5484
 20
-18.3985
 30
1.3833
 70
192
 0
VERTEX
 8
D_SE_INSTANCE_30
 10
1.5975
 20
-18.6126
 30
1.3833
 70
192
 0
VERTEX
 8
D_SE_INSTANCE_30
 10
2.1245
 20
-18.7988
 30
1.0102
 70
192
 0
VERTEX
 8
D_SE_INSTANCE_30
 10
0
 20
0
 30
0
 70
128
 71
1
 72
2
 73
4
 74
4
 0
VERTEX
 8
D_SE_INSTANCE_30
 10
0
 20
0
 30
0
 70
128
 71
4
 72
3
 73
1
 74
1
 0
VERTEX
 8
D_SE_INSTANCE_30
 10
0
 20
0
 30
0
 70
128
 71
2
 72
3
 73
4
 74
4
 0
SEQEND
 0
POLYLINE
 8
D_SE_INSTANCE_1_31
 66
1
 10
0.0
 20
0.0
 30
0.0
 70
64
 71
4
 72
3
 0
VERTEX
 8
D_SE_INSTANCE_1_31
 10
2.388
 20
-17.2304
 30
1.3833
 70
192
 0
VERTEX
 8
D_SE_INSTANCE_1_31
 10
2.5484
 20
-16.3273
 30
1.3833
 70
192
 0
VERTEX
 8
D_SE_INSTANCE_1_31
 10
1.5975
 20
-16.5413
 30
1.3833
 70
192
 0
VERTEX
 8
D_SE_INSTANCE_1_31
 10
2.1245
 20
-16.7275
 30
1.0102
 70
192
 0
VERTEX
 8
D_SE_INSTANCE_1_31
 10
0
 20
0
 30
0
 70
128
 71
1
 72
2
 73
4
 74
4
 0
VERTEX
 8
D_SE_INSTANCE_1_31
 10
0
 20
0
 30
0
 70
128
 71
4
 72
3
 73
1
 74
1
 0
VERTEX
 8
D_SE_INSTANCE_1_31
 10
0
 20
0
 30
0
 70
128
 71
2
 72
3
 73
4
 74
4
 0
SEQEND
 0
POLYLINE
 8
D_SE_INSTANCE_2_30
 66
1
 10
0.0
 20
0.0
 30
0.0
 70
64
 71
4
 72
3
 0
VERTEX
 8
D_SE_INSTANCE_2_30
 10
2.388
 20
-15.1495
 30
1.3833
 70
192
 0
VERTEX
 8
D_SE_INSTANCE_2_30
 10
2.5484
 20
-14.2464
 30
1.3833
 70
192
 0
VERTEX
 8
D_SE_INSTANCE_2_30
 10
1.5975
 20
-14.4605
 30
1.3833
 70
192
 0
VERTEX
 8
D_SE_INSTANCE_2_30
 10
2.1245
 20
-14.6466
 30
1.0102
 70
192
 0
VERTEX
 8
D_SE_INSTANCE_2_30
 10
0
 20
0
 30
0
 70
128
 71
1
 72
2
 73
4
 74
4
 0
VERTEX
 8
D_SE_INSTANCE_2_30
 10
0
 20
0
 30
0
 70
128
 71
4
 72
3
 73
1
 74
1
 0
VERTEX
 8
D_SE_INSTANCE_2_30
 10
0
 20
0
 30
0
 70
128
 71
2
 72
3
 73
4
 74
4
 0
SEQEND
 0
POLYLINE
 8
D_SE_INSTANCE_3_17
 66
1
 10
0.0
 20
0.0
 30
0.0
 70
64
 71
4
 72
3
 0
VERTEX
 8
D_SE_INSTANCE_3_17
 10
2.388
 20
-13.0381
 30
1.3833
 70
192
 0
VERTEX
 8
D_SE_INSTANCE_3_17
 10
2.5484
 20
-12.135
 30
1.3833
 70
192
 0
VERTEX
 8
D_SE_INSTANCE_3_17
 10
1.5975
 20
-12.3491
 30
1.3833
 70
192
 0
VERTEX
 8
D_SE_INSTANCE_3_17
 10
2.1245
 20
-12.5353
 30
1.0102
 70
192
 0
VERTEX
 8
D_SE_INSTANCE_3_17
 10
0
 20
0
 30
0
 70
128
 71
1
 72
2
 73
4
 74
4
 0
VERTEX
 8
D_SE_INSTANCE_3_17
 10
0
 20
0
 30
0
 70
128
 71
4
 72
3
 73
1
 74
1
 0
VERTEX
 8
D_SE_INSTANCE_3_17
 10
0
 20
0
 30
0
 70
128
 71
2
 72
3
 73
4
 74
4
 0
SEQEND
 0
POLYLINE
 8
D_SE_INSTANCE_4_17
 66
1
 10
0.0
 20
0.0
 30
0.0
 70
64
 71
4
 72
3
 0
VERTEX
 8
D_SE_INSTANCE_4_17
 10
2.388
 20
-10.9461
 30
1.3833
 70
192
 0
VERTEX
 8
D_SE_INSTANCE_4_17
 10
2.5484
 20
-10.043
 30
1.3833
 70
192
 0
VERTEX
 8
D_SE_INSTANCE_4_17
 10
1.5975
 20
-10.2571
 30
1.3833
 70
192
 0
VERTEX
 8
D_SE_INSTANCE_4_17
 10
2.1245
 20
-10.4432
 30
1.0102
 70
192
 0
VERTEX
 8
D_SE_INSTANCE_4_17
 10
0
 20
0
 30
0
 70
128
 71
1
 72
2
 73
4
 74
4
 0
VERTEX
 8
D_SE_INSTANCE_4_17
 10
0
 20
0
 30
0
 70
128
 71
4
 72
3
 73
1
 74
1
 0
VERTEX
 8
D_SE_INSTANCE_4_17
 10
0
 20
0
 30
0
 70
128
 71
2
 72
3
 73
4
 74
4
 0
SEQEND
 0
POLYLINE
 8
D_SE_INSTANCE_5_17
 66
1
 10
0.0
 20
0.0
 30
0.0
 70
64
 71
4
 72
3
 0
VERTEX
 8
D_SE_INSTANCE_5_17
 10
2.388
 20
-8.8295
 30
1.3833
 70
192
 0
VERTEX
 8
D_SE_INSTANCE_5_17
 10
2.5484
 20
-7.9264
 30
1.3833
 70
192
 0
VERTEX
 8
D_SE_INSTANCE_5_17
 10
1.5975
 20
-8.1405
 30
1.3833
 70
192
 0
VERTEX
 8
D_SE_INSTANCE_5_17
 10
2.1245
 20
-8.3266
 30
1.0102
 70
192
 0
VERTEX
 8
D_SE_INSTANCE_5_17
 10
0
 20
0
 30
0
 70
128
 71
1
 72
2
 73
4
 74
4
 0
VERTEX
 8
D_SE_INSTANCE_5_17
 10
0
 20
0
 30
0
 70
128
 71
4
 72
3
 73
1
 74
1
 0
VERTEX
 8
D_SE_INSTANCE_5_17
 10
0
 20
0
 30
0
 70
128
 71
2
 72
3
 73
4
 74
4
 0
SEQEND
 0
POLYLINE
 8
D_SE_INSTANCE_6_17
 66
1
 10
0.0
 20
0.0
 30
0.0
 70
64
 71
4
 72
3
 0
VERTEX
 8
D_SE_INSTANCE_6_17
 10
2.388
 20
-6.772
 30
1.3833
 70
192
 0
VERTEX
 8
D_SE_INSTANCE_6_17
 10
2.5484
 20
-5.8689
 30
1.3833
 70
192
 0
VERTEX
 8
D_SE_INSTANCE_6_17
 10
1.5975
 20
-6.083
 30
1.3833
 70
192
 0
VERTEX
 8
D_SE_INSTANCE_6_17
 10
2.1245
 20
-6.2691
 30
1.0102
 70
192
 0
VERTEX
 8
D_SE_INSTANCE_6_17
 10
0
 20
0
 30
0
 70
128
 71
1
 72
2
 73
4
 74
4
 0
VERTEX
 8
D_SE_INSTANCE_6_17
 10
0
 20
0
 30
0
 70
128
 71
4
 72
3
 73
1
 74
1
 0
VERTEX
 8
D_SE_INSTANCE_6_17
 10
0
 20
0
 30
0
 70
128
 71
2
 72
3
 73
4
 74
4
 0
SEQEND
 0
POLYLINE
 8
D_SE_INSTANCE_7_16
 66
1
 10
0.0
 20
0.0
 30
0.0
 70
64
 71
4
 72
3
 0
VERTEX
 8
D_SE_INSTANCE_7_16
 10
2.388
 20
-4.668
 30
1.3833
 70
192
 0
VERTEX
 8
D_SE_INSTANCE_7_16
 10
2.5484
 20
-3.7649
 30
1.3833
 70
192
 0
VERTEX
 8
D_SE_INSTANCE_7_16
 10
1.5975
 20
-3.979
 30
1.3833
 70
192
 0
VERTEX
 8
D_SE_INSTANCE_7_16
 10
2.1245
 20
-4.1652
 30
1.0102
 70
192
 0
VERTEX
 8
D_SE_INSTANCE_7_16
 10
0
 20
0
 30
0
 70
128
 71
1
 72
2
 73
4
 74
4
 0
VERTEX
 8
D_SE_INSTANCE_7_16
 10
0
 20
0
 30
0
 70
128
 71
4
 72
3
 73
1
 74
1
 0
VERTEX
 8
D_SE_INSTANCE_7_16
 10
0
 20
0
 30
0
 70
128
 71
2
 72
3
 73
4
 74
4
 0
SEQEND
 0
POLYLINE
 8
D_SE_INSTANCE_8_16
 66
1
 10
0.0
 20
0.0
 30
0.0
 70
64
 71
4
 72
3
 0
VERTEX
 8
D_SE_INSTANCE_8_16
 10
2.388
 20
-2.5453
 30
1.3833
 70
192
 0
VERTEX
 8
D_SE_INSTANCE_8_16
 10
2.5484
 20
-1.6422
 30
1.3833
 70
192
 0
VERTEX
 8
D_SE_INSTANCE_8_16
 10
1.5975
 20
-1.8563
 30
1.3833
 70
192
 0
VERTEX
 8
D_SE_INSTANCE_8_16
 10
2.1245
 20
-2.0424
 30
1.0102
 70
192
 0
VERTEX
 8
D_SE_INSTANCE_8_16
 10
0
 20
0
 30
0
 70
128
 71
1
 72
2
 73
4
 74
4
 0
VERTEX
 8
D_SE_INSTANCE_8_16
 10
0
 20
0
 30
0
 70
128
 71
4
 72
3
 73
1
 74
1
 0
VERTEX
 8
D_SE_INSTANCE_8_16
 10
0
 20
0
 30
0
 70
128
 71
2
 72
3
 73
4
 74
4
 0
SEQEND
 0
POLYLINE
 8
D_SE_INSTANCE_9_16
 66
1
 10
0.0
 20
0.0
 30
0.0
 70
64
 71
4
 72
3
 0
VERTEX
 8
D_SE_INSTANCE_9_16
 10
2.388
 20
-0.4135
 30
1.3833
 70
192
 0
VERTEX
 8
D_SE_INSTANCE_9_16
 10
2.5484
 20
0.4896
 30
1.3833
 70
192
 0
VERTEX
 8
D_SE_INSTANCE_9_16
 10
1.5975
 20
0.2755
 30
1.3833
 70
192
 0
VERTEX
 8
D_SE_INSTANCE_9_16
 10
2.1245
 20
0.0893
 30
1.0102
 70
192
 0
VERTEX
 8
D_SE_INSTANCE_9_16
 10
0
 20
0
 30
0
 70
128
 71
1
 72
2
 73
4
 74
4
 0
VERTEX
 8
D_SE_INSTANCE_9_16
 10
0
 20
0
 30
0
 70
128
 71
4
 72
3
 73
1
 74
1
 0
VERTEX
 8
D_SE_INSTANCE_9_16
 10
0
 20
0
 30
0
 70
128
 71
2
 72
3
 73
4
 74
4
 0
SEQEND
 0
POLYLINE
 8
D_SE_INSTANCE_10_16
 66
1
 10
0.0
 20
0.0
 30
0.0
 70
64
 71
4
 72
3
 0
VERTEX
 8
D_SE_INSTANCE_10_16
 10
2.388
 20
1.6778
 30
1.3833
 70
192
 0
VERTEX
 8
D_SE_INSTANCE_10_16
 10
2.5484
 20
2.5809
 30
1.3833
 70
192
 0
VERTEX
 8
D_SE_INSTANCE_10_16
 10
1.5975
 20
2.3668
 30
1.3833
 70
192
 0
VERTEX
 8
D_SE_INSTANCE_10_16
 10
2.1245
 20
2.1806
 30
1.0102
 70
192
 0
VERTEX
 8
D_SE_INSTANCE_10_16
 10
0
 20
0
 30
0
 70
128
 71
1
 72
2
 73
4
 74
4
 0
VERTEX
 8
D_SE_INSTANCE_10_16
 10
0
 20
0
 30
0
 70
128
 71
4
 72
3
 73
1
 74
1
 0
VERTEX
 8
D_SE_INSTANCE_10_16
 10
0
 20
0
 30
0
 70
128
 71
2
 72
3
 73
4
 74
4
 0
SEQEND
 0
POLYLINE
 8
D_SE_INSTANCE_11_6
 66
1
 10
0.0
 20
0.0
 30
0.0
 70
64
 71
4
 72
3
 0
VERTEX
 8
D_SE_INSTANCE_11_6
 10
2.388
 20
3.7593
 30
1.3833
 70
192
 0
VERTEX
 8
D_SE_INSTANCE_11_6
 10
2.5484
 20
4.6624
 30
1.3833
 70
192
 0
VERTEX
 8
D_SE_INSTANCE_11_6
 10
1.5975
 20
4.4483
 30
1.3833
 70
192
 0
VERTEX
 8
D_SE_INSTANCE_11_6
 10
2.1245
 20
4.2622
 30
1.0102
 70
192
 0
VERTEX
 8
D_SE_INSTANCE_11_6
 10
0
 20
0
 30
0
 70
128
 71
1
 72
2
 73
4
 74
4
 0
VERTEX
 8
D_SE_INSTANCE_11_6
 10
0
 20
0
 30
0
 70
128
 71
4
 72
3
 73
1
 74
1
 0
VERTEX
 8
D_SE_INSTANCE_11_6
 10
0
 20
0
 30
0
 70
128
 71
2
 72
3
 73
4
 74
4
 0
SEQEND
 0
POLYLINE
 8
D_SE_INSTANCE_12_6
 66
1
 10
0.0
 20
0.0
 30
0.0
 70
64
 71
4
 72
3
 0
VERTEX
 8
D_SE_INSTANCE_12_6
 10
2.388
 20
5.8398
 30
1.3833
 70
192
 0
VERTEX
 8
D_SE_INSTANCE_12_6
 10
2.5484
 20
6.7429
 30
1.3833
 70
192
 0
VERTEX
 8
D_SE_INSTANCE_12_6
 10
1.5975
 20
6.5288
 30
1.3833
 70
192
 0
VERTEX
 8
D_SE_INSTANCE_12_6
 10
2.1245
 20
6.3427
 30
1.0102
 70
192
 0
VERTEX
 8
D_SE_INSTANCE_12_6
 10
0
 20
0
 30
0
 70
128
 71
1
 72
2
 73
4
 74
4
 0
VERTEX
 8
D_SE_INSTANCE_12_6
 10
0
 20
0
 30
0
 70
128
 71
4
 72
3
 73
1
 74
1
 0
VERTEX
 8
D_SE_INSTANCE_12_6
 10
0
 20
0
 30
0
 70
128
 71
2
 72
3
 73
4
 74
4
 0
SEQEND
 0
POLYLINE
 8
D_SE_INSTANCE_13_6
 66
1
 10
0.0
 20
0.0
 30
0.0
 70
64
 71
4
 72
3
 0
VERTEX
 8
D_SE_INSTANCE_13_6
 10
2.388
 20
7.9497
 30
1.3833
 70
192
 0
VERTEX
 8
D_SE_INSTANCE_13_6
 10
2.5484
 20
8.8528
 30
1.3833
 70
192
 0
VERTEX
 8
D_SE_INSTANCE_13_6
 10
1.5975
 20
8.6387
 30
1.3833
 70
192
 0
VERTEX
 8
D_SE_INSTANCE_13_6
 10
2.1245
 20
8.4526
 30
1.0102
 70
192
 0
VERTEX
 8
D_SE_INSTANCE_13_6
 10
0
 20
0
 30
0
 70
128
 71
1
 72
2
 73
4
 74
4
 0
VERTEX
 8
D_SE_INSTANCE_13_6
 10
0
 20
0
 30
0
 70
128
 71
4
 72
3
 73
1
 74
1
 0
VERTEX
 8
D_SE_INSTANCE_13_6
 10
0
 20
0
 30
0
 70
128
 71
2
 72
3
 73
4
 74
4
 0
SEQEND
 0
POLYLINE
 8
D_SE_INSTANCE_14_6
 66
1
 10
0.0
 20
0.0
 30
0.0
 70
64
 71
4
 72
3
 0
VERTEX
 8
D_SE_INSTANCE_14_6
 10
2.388
 20
10.0672
 30
1.3833
 70
192
 0
VERTEX
 8
D_SE_INSTANCE_14_6
 10
2.5484
 20
10.9703
 30
1.3833
 70
192
 0
VERTEX
 8
D_SE_INSTANCE_14_6
 10
1.5975
 20
10.7562
 30
1.3833
 70
192
 0
VERTEX
 8
D_SE_INSTANCE_14_6
 10
2.1245
 20
10.5701
 30
1.0102
 70
192
 0
VERTEX
 8
D_SE_INSTANCE_14_6
 10
0
 20
0
 30
0
 70
128
 71
1
 72
2
 73
4
 74
4
 0
VERTEX
 8
D_SE_INSTANCE_14_6
 10
0
 20
0
 30
0
 70
128
 71
4
 72
3
 73
1
 74
1
 0
VERTEX
 8
D_SE_INSTANCE_14_6
 10
0
 20
0
 30
0
 70
128
 71
2
 72
3
 73
4
 74
4
 0
SEQEND
 0
POLYLINE
 8
D_SE_INSTANCE_15_6
 66
1
 10
0.0
 20
0.0
 30
0.0
 70
64
 71
4
 72
3
 0
VERTEX
 8
D_SE_INSTANCE_15_6
 10
2.388
 20
12.1716
 30
1.3833
 70
192
 0
VERTEX
 8
D_SE_INSTANCE_15_6
 10
2.5484
 20
13.0747
 30
1.3833
 70
192
 0
VERTEX
 8
D_SE_INSTANCE_15_6
 10
1.5975
 20
12.8606
 30
1.3833
 70
192
 0
VERTEX
 8
D_SE_INSTANCE_15_6
 10
2.1245
 20
12.6744
 30
1.0102
 70
192
 0
VERTEX
 8
D_SE_INSTANCE_15_6
 10
0
 20
0
 30
0
 70
128
 71
1
 72
2
 73
4
 74
4
 0
VERTEX
 8
D_SE_INSTANCE_15_6
 10
0
 20
0
 30
0
 70
128
 71
4
 72
3
 73
1
 74
1
 0
VERTEX
 8
D_SE_INSTANCE_15_6
 10
0
 20
0
 30
0
 70
128
 71
2
 72
3
 73
4
 74
4
 0
SEQEND
 0
POLYLINE
 8
D_SE_INSTANCE_16_19
 66
1
 10
0.0
 20
0.0
 30
0.0
 70
64
 71
4
 72
3
 0
VERTEX
 8
D_SE_INSTANCE_16_19
 10
2.388
 20
14.2473
 30
1.3833
 70
192
 0
VERTEX
 8
D_SE_INSTANCE_16_19
 10
2.5484
 20
15.1504
 30
1.3833
 70
192
 0
VERTEX
 8
D_SE_INSTANCE_16_19
 10
1.5975
 20
14.9363
 30
1.3833
 70
192
 0
VERTEX
 8
D_SE_INSTANCE_16_19
 10
2.1245
 20
14.7501
 30
1.0102
 70
192
 0
VERTEX
 8
D_SE_INSTANCE_16_19
 10
0
 20
0
 30
0
 70
128
 71
1
 72
2
 73
4
 74
4
 0
VERTEX
 8
D_SE_INSTANCE_16_19
 10
0
 20
0
 30
0
 70
128
 71
4
 72
3
 73
1
 74
1
 0
VERTEX
 8
D_SE_INSTANCE_16_19
 10
0
 20
0
 30
0
 70
128
 71
2
 72
3
 73
4
 74
4
 0
SEQEND
 0
POLYLINE
 8
D_SE_INSTANCE_17_19
 66
1
 10
0.0
 20
0.0
 30
0.0
 70
64
 71
4
 72
3
 0
VERTEX
 8
D_SE_INSTANCE_17_19
 10
2.388
 20
16.3365
 30
1.3833
 70
192
 0
VERTEX
 8
D_SE_INSTANCE_17_19
 10
2.5484
 20
17.2396
 30
1.3833
 70
192
 0
VERTEX
 8
D_SE_INSTANCE_17_19
 10
1.5975
 20
17.0255
 30
1.3833
 70
192
 0
VERTEX
 8
D_SE_INSTANCE_17_19
 10
2.1245
 20
16.8394
 30
1.0102
 70
192
 0
VERTEX
 8
D_SE_INSTANCE_17_19
 10
0
 20
0
 30
0
 70
128
 71
1
 72
2
 73
4
 74
4
 0
VERTEX
 8
D_SE_INSTANCE_17_19
 10
0
 20
0
 30
0
 70
128
 71
4
 72
3
 73
1
 74
1
 0
VERTEX
 8
D_SE_INSTANCE_17_19
 10
0
 20
0
 30
0
 70
128
 71
2
 72
3
 73
4
 74
4
 0
SEQEND
 0
POLYLINE
 8
D_SE_INSTANCE_18_18
 66
1
 10
0.0
 20
0.0
 30
0.0
 70
64
 71
4
 72
3
 0
VERTEX
 8
D_SE_INSTANCE_18_18
 10
2.388
 20
18.4451
 30
1.3833
 70
192
 0
VERTEX
 8
D_SE_INSTANCE_18_18
 10
2.5484
 20
19.3482
 30
1.3833
 70
192
 0
VERTEX
 8
D_SE_INSTANCE_18_18
 10
1.5975
 20
19.1341
 30
1.3833
 70
192
 0
VERTEX
 8
D_SE_INSTANCE_18_18
 10
2.1245
 20
18.948
 30
1.0102
 70
192
 0
VERTEX
 8
D_SE_INSTANCE_18_18
 10
0
 20
0
 30
0
 70
128
 71
1
 72
2
 73
4
 74
4
 0
VERTEX
 8
D_SE_INSTANCE_18_18
 10
0
 20
0
 30
0
 70
128
 71
4
 72
3
 73
1
 74
1
 0
VERTEX
 8
D_SE_INSTANCE_18_18
 10
0
 20
0
 30
0
 70
128
 71
2
 72
3
 73
4
 74
4
 0
SEQEND
 0
POLYLINE
 8
D_SE_INSTANCE_19_18
 66
1
 10
0.0
 20
0.0
 30
0.0
 70
64
 71
4
 72
3
 0
VERTEX
 8
D_SE_INSTANCE_19_18
 10
2.388
 20
20.5588
 30
1.3833
 70
192
 0
VERTEX
 8
D_SE_INSTANCE_19_18
 10
2.5484
 20
21.4619
 30
1.3833
 70
192
 0
VERTEX
 8
D_SE_INSTANCE_19_18
 10
1.5975
 20
21.2478
 30
1.3833
 70
192
 0
VERTEX
 8
D_SE_INSTANCE_19_18
 10
2.1245
 20
21.0616
 30
1.0102
 70
192
 0
VERTEX
 8
D_SE_INSTANCE_19_18
 10
0
 20
0
 30
0
 70
128
 71
1
 72
2
 73
4
 74
4
 0
VERTEX
 8
D_SE_INSTANCE_19_18
 10
0
 20
0
 30
0
 70
128
 71
4
 72
3
 73
1
 74
1
 0
VERTEX
 8
D_SE_INSTANCE_19_18
 10
0
 20
0
 30
0
 70
128
 71
2
 72
3
 73
4
 74
4
 0
SEQEND
 0
POLYLINE
 8
D_SE_13
 66
1
 10
0.0
 20
0.0
 30
0.0
 70
64
 71
4
 72
3
 0
VERTEX
 8
D_SE_13
 10
0.3266
 20
-21.4404
 30
1.3833
 70
192
 0
VERTEX
 8
D_SE_13
 10
0.487
 20
-20.5373
 30
1.3833
 70
192
 0
VERTEX
 8
D_SE_13
 10
-0.4639
 20
-20.7514
 30
1.3833
 70
192
 0
VERTEX
 8
D_SE_13
 10
0.0631
 20
-20.9375
 30
1.0102
 70
192
 0
VERTEX
 8
D_SE_13
 10
0
 20
0
 30
0
 70
128
 71
1
 72
2
 73
4
 74
4
 0
VERTEX
 8
D_SE_13
 10
0
 20
0
 30
0
 70
128
 71
4
 72
3
 73
1
 74
1
 0
VERTEX
 8
D_SE_13
 10
0
 20
0
 30
0
 70
128
 71
2
 72
3
 73
4
 74
4
 0
SEQEND
 0
POLYLINE
 8
D_SE_INSTANCE_32
 66
1
 10
0.0
 20
0.0
 30
0.0
 70
64
 71
4
 72
3
 0
VERTEX
 8
D_SE_INSTANCE_32
 10
0.3266
 20
-19.3017
 30
1.3833
 70
192
 0
VERTEX
 8
D_SE_INSTANCE_32
 10
0.487
 20
-18.3985
 30
1.3833
 70
192
 0
VERTEX
 8
D_SE_INSTANCE_32
 10
-0.4639
 20
-18.6126
 30
1.3833
 70
192
 0
VERTEX
 8
D_SE_INSTANCE_32
 10
0.0631
 20
-18.7988
 30
1.0102
 70
192
 0
VERTEX
 8
D_SE_INSTANCE_32
 10
0
 20
0
 30
0
 70
128
 71
1
 72
2
 73
4
 74
4
 0
VERTEX
 8
D_SE_INSTANCE_32
 10
0
 20
0
 30
0
 70
128
 71
4
 72
3
 73
1
 74
1
 0
VERTEX
 8
D_SE_INSTANCE_32
 10
0
 20
0
 30
0
 70
128
 71
2
 72
3
 73
4
 74
4
 0
SEQEND
 0
POLYLINE
 8
D_SE_INSTANCE_1_32
 66
1
 10
0.0
 20
0.0
 30
0.0
 70
64
 71
4
 72
3
 0
VERTEX
 8
D_SE_INSTANCE_1_32
 10
0.3266
 20
-17.2304
 30
1.3833
 70
192
 0
VERTEX
 8
D_SE_INSTANCE_1_32
 10
0.487
 20
-16.3273
 30
1.3833
 70
192
 0
VERTEX
 8
D_SE_INSTANCE_1_32
 10
-0.4639
 20
-16.5413
 30
1.3833
 70
192
 0
VERTEX
 8
D_SE_INSTANCE_1_32
 10
0.0631
 20
-16.7275
 30
1.0102
 70
192
 0
VERTEX
 8
D_SE_INSTANCE_1_32
 10
0
 20
0
 30
0
 70
128
 71
1
 72
2
 73
4
 74
4
 0
VERTEX
 8
D_SE_INSTANCE_1_32
 10
0
 20
0
 30
0
 70
128
 71
4
 72
3
 73
1
 74
1
 0
VERTEX
 8
D_SE_INSTANCE_1_32
 10
0
 20
0
 30
0
 70
128
 71
2
 72
3
 73
4
 74
4
 0
SEQEND
 0
POLYLINE
 8
D_SE_INSTANCE_2_31
 66
1
 10
0.0
 20
0.0
 30
0.0
 70
64
 71
4
 72
3
 0
VERTEX
 8
D_SE_INSTANCE_2_31
 10
0.3266
 20
-15.1495
 30
1.3833
 70
192
 0
VERTEX
 8
D_SE_INSTANCE_2_31
 10
0.487
 20
-14.2464
 30
1.3833
 70
192
 0
VERTEX
 8
D_SE_INSTANCE_2_31
 10
-0.4639
 20
-14.4605
 30
1.3833
 70
192
 0
VERTEX
 8
D_SE_INSTANCE_2_31
 10
0.0631
 20
-14.6466
 30
1.0102
 70
192
 0
VERTEX
 8
D_SE_INSTANCE_2_31
 10
0
 20
0
 30
0
 70
128
 71
1
 72
2
 73
4
 74
4
 0
VERTEX
 8
D_SE_INSTANCE_2_31
 10
0
 20
0
 30
0
 70
128
 71
4
 72
3
 73
1
 74
1
 0
VERTEX
 8
D_SE_INSTANCE_2_31
 10
0
 20
0
 30
0
 70
128
 71
2
 72
3
 73
4
 74
4
 0
SEQEND
 0
POLYLINE
 8
D_SE_INSTANCE_3_18
 66
1
 10
0.0
 20
0.0
 30
0.0
 70
64
 71
4
 72
3
 0
VERTEX
 8
D_SE_INSTANCE_3_18
 10
0.3266
 20
-13.0381
 30
1.3833
 70
192
 0
VERTEX
 8
D_SE_INSTANCE_3_18
 10
0.487
 20
-12.135
 30
1.3833
 70
192
 0
VERTEX
 8
D_SE_INSTANCE_3_18
 10
-0.4639
 20
-12.3491
 30
1.3833
 70
192
 0
VERTEX
 8
D_SE_INSTANCE_3_18
 10
0.0631
 20
-12.5353
 30
1.0102
 70
192
 0
VERTEX
 8
D_SE_INSTANCE_3_18
 10
0
 20
0
 30
0
 70
128
 71
1
 72
2
 73
4
 74
4
 0
VERTEX
 8
D_SE_INSTANCE_3_18
 10
0
 20
0
 30
0
 70
128
 71
4
 72
3
 73
1
 74
1
 0
VERTEX
 8
D_SE_INSTANCE_3_18
 10
0
 20
0
 30
0
 70
128
 71
2
 72
3
 73
4
 74
4
 0
SEQEND
 0
POLYLINE
 8
D_SE_INSTANCE_4_18
 66
1
 10
0.0
 20
0.0
 30
0.0
 70
64
 71
4
 72
3
 0
VERTEX
 8
D_SE_INSTANCE_4_18
 10
0.3266
 20
-10.9461
 30
1.3833
 70
192
 0
VERTEX
 8
D_SE_INSTANCE_4_18
 10
0.487
 20
-10.043
 30
1.3833
 70
192
 0
VERTEX
 8
D_SE_INSTANCE_4_18
 10
-0.4639
 20
-10.2571
 30
1.3833
 70
192
 0
VERTEX
 8
D_SE_INSTANCE_4_18
 10
0.0631
 20
-10.4432
 30
1.0102
 70
192
 0
VERTEX
 8
D_SE_INSTANCE_4_18
 10
0
 20
0
 30
0
 70
128
 71
1
 72
2
 73
4
 74
4
 0
VERTEX
 8
D_SE_INSTANCE_4_18
 10
0
 20
0
 30
0
 70
128
 71
4
 72
3
 73
1
 74
1
 0
VERTEX
 8
D_SE_INSTANCE_4_18
 10
0
 20
0
 30
0
 70
128
 71
2
 72
3
 73
4
 74
4
 0
SEQEND
 0
POLYLINE
 8
D_SE_INSTANCE_5_18
 66
1
 10
0.0
 20
0.0
 30
0.0
 70
64
 71
4
 72
3
 0
VERTEX
 8
D_SE_INSTANCE_5_18
 10
0.3266
 20
-8.8295
 30
1.3833
 70
192
 0
VERTEX
 8
D_SE_INSTANCE_5_18
 10
0.487
 20
-7.9264
 30
1.3833
 70
192
 0
VERTEX
 8
D_SE_INSTANCE_5_18
 10
-0.4639
 20
-8.1405
 30
1.3833
 70
192
 0
VERTEX
 8
D_SE_INSTANCE_5_18
 10
0.0631
 20
-8.3266
 30
1.0102
 70
192
 0
VERTEX
 8
D_SE_INSTANCE_5_18
 10
0
 20
0
 30
0
 70
128
 71
1
 72
2
 73
4
 74
4
 0
VERTEX
 8
D_SE_INSTANCE_5_18
 10
0
 20
0
 30
0
 70
128
 71
4
 72
3
 73
1
 74
1
 0
VERTEX
 8
D_SE_INSTANCE_5_18
 10
0
 20
0
 30
0
 70
128
 71
2
 72
3
 73
4
 74
4
 0
SEQEND
 0
POLYLINE
 8
D_SE_INSTANCE_6_18
 66
1
 10
0.0
 20
0.0
 30
0.0
 70
64
 71
4
 72
3
 0
VERTEX
 8
D_SE_INSTANCE_6_18
 10
0.3266
 20
-6.772
 30
1.3833
 70
192
 0
VERTEX
 8
D_SE_INSTANCE_6_18
 10
0.487
 20
-5.8689
 30
1.3833
 70
192
 0
VERTEX
 8
D_SE_INSTANCE_6_18
 10
-0.4639
 20
-6.083
 30
1.3833
 70
192
 0
VERTEX
 8
D_SE_INSTANCE_6_18
 10
0.0631
 20
-6.2691
 30
1.0102
 70
192
 0
VERTEX
 8
D_SE_INSTANCE_6_18
 10
0
 20
0
 30
0
 70
128
 71
1
 72
2
 73
4
 74
4
 0
VERTEX
 8
D_SE_INSTANCE_6_18
 10
0
 20
0
 30
0
 70
128
 71
4
 72
3
 73
1
 74
1
 0
VERTEX
 8
D_SE_INSTANCE_6_18
 10
0
 20
0
 30
0
 70
128
 71
2
 72
3
 73
4
 74
4
 0
SEQEND
 0
POLYLINE
 8
D_SE_INSTANCE_7_17
 66
1
 10
0.0
 20
0.0
 30
0.0
 70
64
 71
4
 72
3
 0
VERTEX
 8
D_SE_INSTANCE_7_17
 10
0.3266
 20
-4.668
 30
1.3833
 70
192
 0
VERTEX
 8
D_SE_INSTANCE_7_17
 10
0.487
 20
-3.7649
 30
1.3833
 70
192
 0
VERTEX
 8
D_SE_INSTANCE_7_17
 10
-0.4639
 20
-3.979
 30
1.3833
 70
192
 0
VERTEX
 8
D_SE_INSTANCE_7_17
 10
0.0631
 20
-4.1652
 30
1.0102
 70
192
 0
VERTEX
 8
D_SE_INSTANCE_7_17
 10
0
 20
0
 30
0
 70
128
 71
1
 72
2
 73
4
 74
4
 0
VERTEX
 8
D_SE_INSTANCE_7_17
 10
0
 20
0
 30
0
 70
128
 71
4
 72
3
 73
1
 74
1
 0
VERTEX
 8
D_SE_INSTANCE_7_17
 10
0
 20
0
 30
0
 70
128
 71
2
 72
3
 73
4
 74
4
 0
SEQEND
 0
POLYLINE
 8
D_SE_INSTANCE_8_17
 66
1
 10
0.0
 20
0.0
 30
0.0
 70
64
 71
4
 72
3
 0
VERTEX
 8
D_SE_INSTANCE_8_17
 10
0.3266
 20
-2.5453
 30
1.3833
 70
192
 0
VERTEX
 8
D_SE_INSTANCE_8_17
 10
0.487
 20
-1.6422
 30
1.3833
 70
192
 0
VERTEX
 8
D_SE_INSTANCE_8_17
 10
-0.4639
 20
-1.8563
 30
1.3833
 70
192
 0
VERTEX
 8
D_SE_INSTANCE_8_17
 10
0.0631
 20
-2.0424
 30
1.0102
 70
192
 0
VERTEX
 8
D_SE_INSTANCE_8_17
 10
0
 20
0
 30
0
 70
128
 71
1
 72
2
 73
4
 74
4
 0
VERTEX
 8
D_SE_INSTANCE_8_17
 10
0
 20
0
 30
0
 70
128
 71
4
 72
3
 73
1
 74
1
 0
VERTEX
 8
D_SE_INSTANCE_8_17
 10
0
 20
0
 30
0
 70
128
 71
2
 72
3
 73
4
 74
4
 0
SEQEND
 0
POLYLINE
 8
D_SE_INSTANCE_9_17
 66
1
 10
0.0
 20
0.0
 30
0.0
 70
64
 71
4
 72
3
 0
VERTEX
 8
D_SE_INSTANCE_9_17
 10
0.3266
 20
-0.4135
 30
1.3833
 70
192
 0
VERTEX
 8
D_SE_INSTANCE_9_17
 10
0.487
 20
0.4896
 30
1.3833
 70
192
 0
VERTEX
 8
D_SE_INSTANCE_9_17
 10
-0.4639
 20
0.2755
 30
1.3833
 70
192
 0
VERTEX
 8
D_SE_INSTANCE_9_17
 10
0.0631
 20
0.0893
 30
1.0102
 70
192
 0
VERTEX
 8
D_SE_INSTANCE_9_17
 10
0
 20
0
 30
0
 70
128
 71
1
 72
2
 73
4
 74
4
 0
VERTEX
 8
D_SE_INSTANCE_9_17
 10
0
 20
0
 30
0
 70
128
 71
4
 72
3
 73
1
 74
1
 0
VERTEX
 8
D_SE_INSTANCE_9_17
 10
0
 20
0
 30
0
 70
128
 71
2
 72
3
 73
4
 74
4
 0
SEQEND
 0
POLYLINE
 8
D_SE_INSTANCE_10_17
 66
1
 10
0.0
 20
0.0
 30
0.0
 70
64
 71
4
 72
3
 0
VERTEX
 8
D_SE_INSTANCE_10_17
 10
0.3266
 20
1.6778
 30
1.3833
 70
192
 0
VERTEX
 8
D_SE_INSTANCE_10_17
 10
0.487
 20
2.5809
 30
1.3833
 70
192
 0
VERTEX
 8
D_SE_INSTANCE_10_17
 10
-0.4639
 20
2.3668
 30
1.3833
 70
192
 0
VERTEX
 8
D_SE_INSTANCE_10_17
 10
0.0631
 20
2.1806
 30
1.0102
 70
192
 0
VERTEX
 8
D_SE_INSTANCE_10_17
 10
0
 20
0
 30
0
 70
128
 71
1
 72
2
 73
4
 74
4
 0
VERTEX
 8
D_SE_INSTANCE_10_17
 10
0
 20
0
 30
0
 70
128
 71
4
 72
3
 73
1
 74
1
 0
VERTEX
 8
D_SE_INSTANCE_10_17
 10
0
 20
0
 30
0
 70
128
 71
2
 72
3
 73
4
 74
4
 0
SEQEND
 0
POLYLINE
 8
D_SE_INSTANCE_11_7
 66
1
 10
0.0
 20
0.0
 30
0.0
 70
64
 71
4
 72
3
 0
VERTEX
 8
D_SE_INSTANCE_11_7
 10
0.3266
 20
3.7593
 30
1.3833
 70
192
 0
VERTEX
 8
D_SE_INSTANCE_11_7
 10
0.487
 20
4.6624
 30
1.3833
 70
192
 0
VERTEX
 8
D_SE_INSTANCE_11_7
 10
-0.4639
 20
4.4483
 30
1.3833
 70
192
 0
VERTEX
 8
D_SE_INSTANCE_11_7
 10
0.0631
 20
4.2622
 30
1.0102
 70
192
 0
VERTEX
 8
D_SE_INSTANCE_11_7
 10
0
 20
0
 30
0
 70
128
 71
1
 72
2
 73
4
 74
4
 0
VERTEX
 8
D_SE_INSTANCE_11_7
 10
0
 20
0
 30
0
 70
128
 71
4
 72
3
 73
1
 74
1
 0
VERTEX
 8
D_SE_INSTANCE_11_7
 10
0
 20
0
 30
0
 70
128
 71
2
 72
3
 73
4
 74
4
 0
SEQEND
 0
POLYLINE
 8
D_SE_INSTANCE_12_7
 66
1
 10
0.0
 20
0.0
 30
0.0
 70
64
 71
4
 72
3
 0
VERTEX
 8
D_SE_INSTANCE_12_7
 10
0.3266
 20
5.8398
 30
1.3833
 70
192
 0
VERTEX
 8
D_SE_INSTANCE_12_7
 10
0.487
 20
6.7429
 30
1.3833
 70
192
 0
VERTEX
 8
D_SE_INSTANCE_12_7
 10
-0.4639
 20
6.5288
 30
1.3833
 70
192
 0
VERTEX
 8
D_SE_INSTANCE_12_7
 10
0.0631
 20
6.3427
 30
1.0102
 70
192
 0
VERTEX
 8
D_SE_INSTANCE_12_7
 10
0
 20
0
 30
0
 70
128
 71
1
 72
2
 73
4
 74
4
 0
VERTEX
 8
D_SE_INSTANCE_12_7
 10
0
 20
0
 30
0
 70
128
 71
4
 72
3
 73
1
 74
1
 0
VERTEX
 8
D_SE_INSTANCE_12_7
 10
0
 20
0
 30
0
 70
128
 71
2
 72
3
 73
4
 74
4
 0
SEQEND
 0
POLYLINE
 8
D_SE_INSTANCE_13_7
 66
1
 10
0.0
 20
0.0
 30
0.0
 70
64
 71
4
 72
3
 0
VERTEX
 8
D_SE_INSTANCE_13_7
 10
0.3266
 20
7.9497
 30
1.3833
 70
192
 0
VERTEX
 8
D_SE_INSTANCE_13_7
 10
0.487
 20
8.8528
 30
1.3833
 70
192
 0
VERTEX
 8
D_SE_INSTANCE_13_7
 10
-0.4639
 20
8.6387
 30
1.3833
 70
192
 0
VERTEX
 8
D_SE_INSTANCE_13_7
 10
0.0631
 20
8.4526
 30
1.0102
 70
192
 0
VERTEX
 8
D_SE_INSTANCE_13_7
 10
0
 20
0
 30
0
 70
128
 71
1
 72
2
 73
4
 74
4
 0
VERTEX
 8
D_SE_INSTANCE_13_7
 10
0
 20
0
 30
0
 70
128
 71
4
 72
3
 73
1
 74
1
 0
VERTEX
 8
D_SE_INSTANCE_13_7
 10
0
 20
0
 30
0
 70
128
 71
2
 72
3
 73
4
 74
4
 0
SEQEND
 0
POLYLINE
 8
D_SE_INSTANCE_14_7
 66
1
 10
0.0
 20
0.0
 30
0.0
 70
64
 71
4
 72
3
 0
VERTEX
 8
D_SE_INSTANCE_14_7
 10
0.3266
 20
10.0672
 30
1.3833
 70
192
 0
VERTEX
 8
D_SE_INSTANCE_14_7
 10
0.487
 20
10.9703
 30
1.3833
 70
192
 0
VERTEX
 8
D_SE_INSTANCE_14_7
 10
-0.4639
 20
10.7562
 30
1.3833
 70
192
 0
VERTEX
 8
D_SE_INSTANCE_14_7
 10
0.0631
 20
10.5701
 30
1.0102
 70
192
 0
VERTEX
 8
D_SE_INSTANCE_14_7
 10
0
 20
0
 30
0
 70
128
 71
1
 72
2
 73
4
 74
4
 0
VERTEX
 8
D_SE_INSTANCE_14_7
 10
0
 20
0
 30
0
 70
128
 71
4
 72
3
 73
1
 74
1
 0
VERTEX
 8
D_SE_INSTANCE_14_7
 10
0
 20
0
 30
0
 70
128
 71
2
 72
3
 73
4
 74
4
 0
SEQEND
 0
POLYLINE
 8
D_SE_INSTANCE_15_7
 66
1
 10
0.0
 20
0.0
 30
0.0
 70
64
 71
4
 72
3
 0
VERTEX
 8
D_SE_INSTANCE_15_7
 10
0.3266
 20
12.1716
 30
1.3833
 70
192
 0
VERTEX
 8
D_SE_INSTANCE_15_7
 10
0.487
 20
13.0747
 30
1.3833
 70
192
 0
VERTEX
 8
D_SE_INSTANCE_15_7
 10
-0.4639
 20
12.8606
 30
1.3833
 70
192
 0
VERTEX
 8
D_SE_INSTANCE_15_7
 10
0.0631
 20
12.6744
 30
1.0102
 70
192
 0
VERTEX
 8
D_SE_INSTANCE_15_7
 10
0
 20
0
 30
0
 70
128
 71
1
 72
2
 73
4
 74
4
 0
VERTEX
 8
D_SE_INSTANCE_15_7
 10
0
 20
0
 30
0
 70
128
 71
4
 72
3
 73
1
 74
1
 0
VERTEX
 8
D_SE_INSTANCE_15_7
 10
0
 20
0
 30
0
 70
128
 71
2
 72
3
 73
4
 74
4
 0
SEQEND
 0
POLYLINE
 8
D_SE_INSTANCE_16_20
 66
1
 10
0.0
 20
0.0
 30
0.0
 70
64
 71
4
 72
3
 0
VERTEX
 8
D_SE_INSTANCE_16_20
 10
0.3266
 20
14.2473
 30
1.3833
 70
192
 0
VERTEX
 8
D_SE_INSTANCE_16_20
 10
0.487
 20
15.1504
 30
1.3833
 70
192
 0
VERTEX
 8
D_SE_INSTANCE_16_20
 10
-0.4639
 20
14.9363
 30
1.3833
 70
192
 0
VERTEX
 8
D_SE_INSTANCE_16_20
 10
0.0631
 20
14.7501
 30
1.0102
 70
192
 0
VERTEX
 8
D_SE_INSTANCE_16_20
 10
0
 20
0
 30
0
 70
128
 71
1
 72
2
 73
4
 74
4
 0
VERTEX
 8
D_SE_INSTANCE_16_20
 10
0
 20
0
 30
0
 70
128
 71
4
 72
3
 73
1
 74
1
 0
VERTEX
 8
D_SE_INSTANCE_16_20
 10
0
 20
0
 30
0
 70
128
 71
2
 72
3
 73
4
 74
4
 0
SEQEND
 0
POLYLINE
 8
D_SE_INSTANCE_17_20
 66
1
 10
0.0
 20
0.0
 30
0.0
 70
64
 71
4
 72
3
 0
VERTEX
 8
D_SE_INSTANCE_17_20
 10
0.3266
 20
16.3365
 30
1.3833
 70
192
 0
VERTEX
 8
D_SE_INSTANCE_17_20
 10
0.487
 20
17.2396
 30
1.3833
 70
192
 0
VERTEX
 8
D_SE_INSTANCE_17_20
 10
-0.4639
 20
17.0255
 30
1.3833
 70
192
 0
VERTEX
 8
D_SE_INSTANCE_17_20
 10
0.0631
 20
16.8394
 30
1.0102
 70
192
 0
VERTEX
 8
D_SE_INSTANCE_17_20
 10
0
 20
0
 30
0
 70
128
 71
1
 72
2
 73
4
 74
4
 0
VERTEX
 8
D_SE_INSTANCE_17_20
 10
0
 20
0
 30
0
 70
128
 71
4
 72
3
 73
1
 74
1
 0
VERTEX
 8
D_SE_INSTANCE_17_20
 10
0
 20
0
 30
0
 70
128
 71
2
 72
3
 73
4
 74
4
 0
SEQEND
 0
POLYLINE
 8
D_SE_INSTANCE_18_19
 66
1
 10
0.0
 20
0.0
 30
0.0
 70
64
 71
4
 72
3
 0
VERTEX
 8
D_SE_INSTANCE_18_19
 10
0.3266
 20
18.4451
 30
1.3833
 70
192
 0
VERTEX
 8
D_SE_INSTANCE_18_19
 10
0.487
 20
19.3482
 30
1.3833
 70
192
 0
VERTEX
 8
D_SE_INSTANCE_18_19
 10
-0.4639
 20
19.1341
 30
1.3833
 70
192
 0
VERTEX
 8
D_SE_INSTANCE_18_19
 10
0.0631
 20
18.948
 30
1.0102
 70
192
 0
VERTEX
 8
D_SE_INSTANCE_18_19
 10
0
 20
0
 30
0
 70
128
 71
1
 72
2
 73
4
 74
4
 0
VERTEX
 8
D_SE_INSTANCE_18_19
 10
0
 20
0
 30
0
 70
128
 71
4
 72
3
 73
1
 74
1
 0
VERTEX
 8
D_SE_INSTANCE_18_19
 10
0
 20
0
 30
0
 70
128
 71
2
 72
3
 73
4
 74
4
 0
SEQEND
 0
POLYLINE
 8
D_SE_INSTANCE_19_19
 66
1
 10
0.0
 20
0.0
 30
0.0
 70
64
 71
4
 72
3
 0
VERTEX
 8
D_SE_INSTANCE_19_19
 10
0.3266
 20
20.5588
 30
1.3833
 70
192
 0
VERTEX
 8
D_SE_INSTANCE_19_19
 10
0.487
 20
21.4619
 30
1.3833
 70
192
 0
VERTEX
 8
D_SE_INSTANCE_19_19
 10
-0.4639
 20
21.2478
 30
1.3833
 70
192
 0
VERTEX
 8
D_SE_INSTANCE_19_19
 10
0.0631
 20
21.0616
 30
1.0102
 70
192
 0
VERTEX
 8
D_SE_INSTANCE_19_19
 10
0
 20
0
 30
0
 70
128
 71
1
 72
2
 73
4
 74
4
 0
VERTEX
 8
D_SE_INSTANCE_19_19
 10
0
 20
0
 30
0
 70
128
 71
4
 72
3
 73
1
 74
1
 0
VERTEX
 8
D_SE_INSTANCE_19_19
 10
0
 20
0
 30
0
 70
128
 71
2
 72
3
 73
4
 74
4
 0
SEQEND
 0
POLYLINE
 8
D_SE_15
 66
1
 10
0.0
 20
0.0
 30
0.0
 70
64
 71
4
 72
3
 0
VERTEX
 8
D_SE_15
 10
-1.8001
 20
-21.4404
 30
1.3833
 70
192
 0
VERTEX
 8
D_SE_15
 10
-1.6396
 20
-20.5373
 30
1.3833
 70
192
 0
VERTEX
 8
D_SE_15
 10
-2.5905
 20
-20.7514
 30
1.3833
 70
192
 0
VERTEX
 8
D_SE_15
 10
-2.0635
 20
-20.9375
 30
1.0102
 70
192
 0
VERTEX
 8
D_SE_15
 10
0
 20
0
 30
0
 70
128
 71
1
 72
2
 73
4
 74
4
 0
VERTEX
 8
D_SE_15
 10
0
 20
0
 30
0
 70
128
 71
4
 72
3
 73
1
 74
1
 0
VERTEX
 8
D_SE_15
 10
0
 20
0
 30
0
 70
128
 71
2
 72
3
 73
4
 74
4
 0
SEQEND
 0
POLYLINE
 8
D_SE_INSTANCE_33
 66
1
 10
0.0
 20
0.0
 30
0.0
 70
64
 71
4
 72
3
 0
VERTEX
 8
D_SE_INSTANCE_33
 10
-1.8001
 20
-19.3017
 30
1.3833
 70
192
 0
VERTEX
 8
D_SE_INSTANCE_33
 10
-1.6396
 20
-18.3985
 30
1.3833
 70
192
 0
VERTEX
 8
D_SE_INSTANCE_33
 10
-2.5905
 20
-18.6126
 30
1.3833
 70
192
 0
VERTEX
 8
D_SE_INSTANCE_33
 10
-2.0635
 20
-18.7988
 30
1.0102
 70
192
 0
VERTEX
 8
D_SE_INSTANCE_33
 10
0
 20
0
 30
0
 70
128
 71
1
 72
2
 73
4
 74
4
 0
VERTEX
 8
D_SE_INSTANCE_33
 10
0
 20
0
 30
0
 70
128
 71
4
 72
3
 73
1
 74
1
 0
VERTEX
 8
D_SE_INSTANCE_33
 10
0
 20
0
 30
0
 70
128
 71
2
 72
3
 73
4
 74
4
 0
SEQEND
 0
POLYLINE
 8
D_SE_INSTANCE_1_33
 66
1
 10
0.0
 20
0.0
 30
0.0
 70
64
 71
4
 72
3
 0
VERTEX
 8
D_SE_INSTANCE_1_33
 10
-1.8001
 20
-17.2304
 30
1.3833
 70
192
 0
VERTEX
 8
D_SE_INSTANCE_1_33
 10
-1.6396
 20
-16.3273
 30
1.3833
 70
192
 0
VERTEX
 8
D_SE_INSTANCE_1_33
 10
-2.5905
 20
-16.5413
 30
1.3833
 70
192
 0
VERTEX
 8
D_SE_INSTANCE_1_33
 10
-2.0635
 20
-16.7275
 30
1.0102
 70
192
 0
VERTEX
 8
D_SE_INSTANCE_1_33
 10
0
 20
0
 30
0
 70
128
 71
1
 72
2
 73
4
 74
4
 0
VERTEX
 8
D_SE_INSTANCE_1_33
 10
0
 20
0
 30
0
 70
128
 71
4
 72
3
 73
1
 74
1
 0
VERTEX
 8
D_SE_INSTANCE_1_33
 10
0
 20
0
 30
0
 70
128
 71
2
 72
3
 73
4
 74
4
 0
SEQEND
 0
POLYLINE
 8
D_SE_INSTANCE_2_32
 66
1
 10
0.0
 20
0.0
 30
0.0
 70
64
 71
4
 72
3
 0
VERTEX
 8
D_SE_INSTANCE_2_32
 10
-1.8001
 20
-15.1495
 30
1.3833
 70
192
 0
VERTEX
 8
D_SE_INSTANCE_2_32
 10
-1.6396
 20
-14.2464
 30
1.3833
 70
192
 0
VERTEX
 8
D_SE_INSTANCE_2_32
 10
-2.5905
 20
-14.4605
 30
1.3833
 70
192
 0
VERTEX
 8
D_SE_INSTANCE_2_32
 10
-2.0635
 20
-14.6466
 30
1.0102
 70
192
 0
VERTEX
 8
D_SE_INSTANCE_2_32
 10
0
 20
0
 30
0
 70
128
 71
1
 72
2
 73
4
 74
4
 0
VERTEX
 8
D_SE_INSTANCE_2_32
 10
0
 20
0
 30
0
 70
128
 71
4
 72
3
 73
1
 74
1
 0
VERTEX
 8
D_SE_INSTANCE_2_32
 10
0
 20
0
 30
0
 70
128
 71
2
 72
3
 73
4
 74
4
 0
SEQEND
 0
POLYLINE
 8
D_SE_INSTANCE_3_19
 66
1
 10
0.0
 20
0.0
 30
0.0
 70
64
 71
4
 72
3
 0
VERTEX
 8
D_SE_INSTANCE_3_19
 10
-1.8001
 20
-13.0381
 30
1.3833
 70
192
 0
VERTEX
 8
D_SE_INSTANCE_3_19
 10
-1.6396
 20
-12.135
 30
1.3833
 70
192
 0
VERTEX
 8
D_SE_INSTANCE_3_19
 10
-2.5905
 20
-12.3491
 30
1.3833
 70
192
 0
VERTEX
 8
D_SE_INSTANCE_3_19
 10
-2.0635
 20
-12.5353
 30
1.0102
 70
192
 0
VERTEX
 8
D_SE_INSTANCE_3_19
 10
0
 20
0
 30
0
 70
128
 71
1
 72
2
 73
4
 74
4
 0
VERTEX
 8
D_SE_INSTANCE_3_19
 10
0
 20
0
 30
0
 70
128
 71
4
 72
3
 73
1
 74
1
 0
VERTEX
 8
D_SE_INSTANCE_3_19
 10
0
 20
0
 30
0
 70
128
 71
2
 72
3
 73
4
 74
4
 0
SEQEND
 0
POLYLINE
 8
D_SE_INSTANCE_4_19
 66
1
 10
0.0
 20
0.0
 30
0.0
 70
64
 71
4
 72
3
 0
VERTEX
 8
D_SE_INSTANCE_4_19
 10
-1.8001
 20
-10.9461
 30
1.3833
 70
192
 0
VERTEX
 8
D_SE_INSTANCE_4_19
 10
-1.6396
 20
-10.043
 30
1.3833
 70
192
 0
VERTEX
 8
D_SE_INSTANCE_4_19
 10
-2.5905
 20
-10.2571
 30
1.3833
 70
192
 0
VERTEX
 8
D_SE_INSTANCE_4_19
 10
-2.0635
 20
-10.4432
 30
1.0102
 70
192
 0
VERTEX
 8
D_SE_INSTANCE_4_19
 10
0
 20
0
 30
0
 70
128
 71
1
 72
2
 73
4
 74
4
 0
VERTEX
 8
D_SE_INSTANCE_4_19
 10
0
 20
0
 30
0
 70
128
 71
4
 72
3
 73
1
 74
1
 0
VERTEX
 8
D_SE_INSTANCE_4_19
 10
0
 20
0
 30
0
 70
128
 71
2
 72
3
 73
4
 74
4
 0
SEQEND
 0
POLYLINE
 8
D_SE_INSTANCE_5_19
 66
1
 10
0.0
 20
0.0
 30
0.0
 70
64
 71
4
 72
3
 0
VERTEX
 8
D_SE_INSTANCE_5_19
 10
-1.8001
 20
-8.8295
 30
1.3833
 70
192
 0
VERTEX
 8
D_SE_INSTANCE_5_19
 10
-1.6396
 20
-7.9264
 30
1.3833
 70
192
 0
VERTEX
 8
D_SE_INSTANCE_5_19
 10
-2.5905
 20
-8.1405
 30
1.3833
 70
192
 0
VERTEX
 8
D_SE_INSTANCE_5_19
 10
-2.0635
 20
-8.3266
 30
1.0102
 70
192
 0
VERTEX
 8
D_SE_INSTANCE_5_19
 10
0
 20
0
 30
0
 70
128
 71
1
 72
2
 73
4
 74
4
 0
VERTEX
 8
D_SE_INSTANCE_5_19
 10
0
 20
0
 30
0
 70
128
 71
4
 72
3
 73
1
 74
1
 0
VERTEX
 8
D_SE_INSTANCE_5_19
 10
0
 20
0
 30
0
 70
128
 71
2
 72
3
 73
4
 74
4
 0
SEQEND
 0
POLYLINE
 8
D_SE_INSTANCE_6_19
 66
1
 10
0.0
 20
0.0
 30
0.0
 70
64
 71
4
 72
3
 0
VERTEX
 8
D_SE_INSTANCE_6_19
 10
-1.8001
 20
-6.772
 30
1.3833
 70
192
 0
VERTEX
 8
D_SE_INSTANCE_6_19
 10
-1.6396
 20
-5.8689
 30
1.3833
 70
192
 0
VERTEX
 8
D_SE_INSTANCE_6_19
 10
-2.5905
 20
-6.083
 30
1.3833
 70
192
 0
VERTEX
 8
D_SE_INSTANCE_6_19
 10
-2.0635
 20
-6.2691
 30
1.0102
 70
192
 0
VERTEX
 8
D_SE_INSTANCE_6_19
 10
0
 20
0
 30
0
 70
128
 71
1
 72
2
 73
4
 74
4
 0
VERTEX
 8
D_SE_INSTANCE_6_19
 10
0
 20
0
 30
0
 70
128
 71
4
 72
3
 73
1
 74
1
 0
VERTEX
 8
D_SE_INSTANCE_6_19
 10
0
 20
0
 30
0
 70
128
 71
2
 72
3
 73
4
 74
4
 0
SEQEND
 0
POLYLINE
 8
D_SE_INSTANCE_7_18
 66
1
 10
0.0
 20
0.0
 30
0.0
 70
64
 71
4
 72
3
 0
VERTEX
 8
D_SE_INSTANCE_7_18
 10
-1.8001
 20
-4.668
 30
1.3833
 70
192
 0
VERTEX
 8
D_SE_INSTANCE_7_18
 10
-1.6396
 20
-3.7649
 30
1.3833
 70
192
 0
VERTEX
 8
D_SE_INSTANCE_7_18
 10
-2.5905
 20
-3.979
 30
1.3833
 70
192
 0
VERTEX
 8
D_SE_INSTANCE_7_18
 10
-2.0635
 20
-4.1652
 30
1.0102
 70
192
 0
VERTEX
 8
D_SE_INSTANCE_7_18
 10
0
 20
0
 30
0
 70
128
 71
1
 72
2
 73
4
 74
4
 0
VERTEX
 8
D_SE_INSTANCE_7_18
 10
0
 20
0
 30
0
 70
128
 71
4
 72
3
 73
1
 74
1
 0
VERTEX
 8
D_SE_INSTANCE_7_18
 10
0
 20
0
 30
0
 70
128
 71
2
 72
3
 73
4
 74
4
 0
SEQEND
 0
POLYLINE
 8
D_SE_INSTANCE_8_18
 66
1
 10
0.0
 20
0.0
 30
0.0
 70
64
 71
4
 72
3
 0
VERTEX
 8
D_SE_INSTANCE_8_18
 10
-1.8001
 20
-2.5453
 30
1.3833
 70
192
 0
VERTEX
 8
D_SE_INSTANCE_8_18
 10
-1.6396
 20
-1.6422
 30
1.3833
 70
192
 0
VERTEX
 8
D_SE_INSTANCE_8_18
 10
-2.5905
 20
-1.8563
 30
1.3833
 70
192
 0
VERTEX
 8
D_SE_INSTANCE_8_18
 10
-2.0635
 20
-2.0424
 30
1.0102
 70
192
 0
VERTEX
 8
D_SE_INSTANCE_8_18
 10
0
 20
0
 30
0
 70
128
 71
1
 72
2
 73
4
 74
4
 0
VERTEX
 8
D_SE_INSTANCE_8_18
 10
0
 20
0
 30
0
 70
128
 71
4
 72
3
 73
1
 74
1
 0
VERTEX
 8
D_SE_INSTANCE_8_18
 10
0
 20
0
 30
0
 70
128
 71
2
 72
3
 73
4
 74
4
 0
SEQEND
 0
POLYLINE
 8
D_SE_INSTANCE_9_18
 66
1
 10
0.0
 20
0.0
 30
0.0
 70
64
 71
4
 72
3
 0
VERTEX
 8
D_SE_INSTANCE_9_18
 10
-1.8001
 20
-0.4135
 30
1.3833
 70
192
 0
VERTEX
 8
D_SE_INSTANCE_9_18
 10
-1.6396
 20
0.4896
 30
1.3833
 70
192
 0
VERTEX
 8
D_SE_INSTANCE_9_18
 10
-2.5905
 20
0.2755
 30
1.3833
 70
192
 0
VERTEX
 8
D_SE_INSTANCE_9_18
 10
-2.0635
 20
0.0893
 30
1.0102
 70
192
 0
VERTEX
 8
D_SE_INSTANCE_9_18
 10
0
 20
0
 30
0
 70
128
 71
1
 72
2
 73
4
 74
4
 0
VERTEX
 8
D_SE_INSTANCE_9_18
 10
0
 20
0
 30
0
 70
128
 71
4
 72
3
 73
1
 74
1
 0
VERTEX
 8
D_SE_INSTANCE_9_18
 10
0
 20
0
 30
0
 70
128
 71
2
 72
3
 73
4
 74
4
 0
SEQEND
 0
POLYLINE
 8
D_SE_INSTANCE_10_18
 66
1
 10
0.0
 20
0.0
 30
0.0
 70
64
 71
4
 72
3
 0
VERTEX
 8
D_SE_INSTANCE_10_18
 10
-1.8001
 20
1.6778
 30
1.3833
 70
192
 0
VERTEX
 8
D_SE_INSTANCE_10_18
 10
-1.6396
 20
2.5809
 30
1.3833
 70
192
 0
VERTEX
 8
D_SE_INSTANCE_10_18
 10
-2.5905
 20
2.3668
 30
1.3833
 70
192
 0
VERTEX
 8
D_SE_INSTANCE_10_18
 10
-2.0635
 20
2.1806
 30
1.0102
 70
192
 0
VERTEX
 8
D_SE_INSTANCE_10_18
 10
0
 20
0
 30
0
 70
128
 71
1
 72
2
 73
4
 74
4
 0
VERTEX
 8
D_SE_INSTANCE_10_18
 10
0
 20
0
 30
0
 70
128
 71
4
 72
3
 73
1
 74
1
 0
VERTEX
 8
D_SE_INSTANCE_10_18
 10
0
 20
0
 30
0
 70
128
 71
2
 72
3
 73
4
 74
4
 0
SEQEND
 0
POLYLINE
 8
D_SE_INSTANCE_11_8
 66
1
 10
0.0
 20
0.0
 30
0.0
 70
64
 71
4
 72
3
 0
VERTEX
 8
D_SE_INSTANCE_11_8
 10
-1.8001
 20
3.7593
 30
1.3833
 70
192
 0
VERTEX
 8
D_SE_INSTANCE_11_8
 10
-1.6396
 20
4.6624
 30
1.3833
 70
192
 0
VERTEX
 8
D_SE_INSTANCE_11_8
 10
-2.5905
 20
4.4483
 30
1.3833
 70
192
 0
VERTEX
 8
D_SE_INSTANCE_11_8
 10
-2.0635
 20
4.2622
 30
1.0102
 70
192
 0
VERTEX
 8
D_SE_INSTANCE_11_8
 10
0
 20
0
 30
0
 70
128
 71
1
 72
2
 73
4
 74
4
 0
VERTEX
 8
D_SE_INSTANCE_11_8
 10
0
 20
0
 30
0
 70
128
 71
4
 72
3
 73
1
 74
1
 0
VERTEX
 8
D_SE_INSTANCE_11_8
 10
0
 20
0
 30
0
 70
128
 71
2
 72
3
 73
4
 74
4
 0
SEQEND
 0
POLYLINE
 8
D_SE_INSTANCE_12_8
 66
1
 10
0.0
 20
0.0
 30
0.0
 70
64
 71
4
 72
3
 0
VERTEX
 8
D_SE_INSTANCE_12_8
 10
-1.8001
 20
5.8398
 30
1.3833
 70
192
 0
VERTEX
 8
D_SE_INSTANCE_12_8
 10
-1.6396
 20
6.7429
 30
1.3833
 70
192
 0
VERTEX
 8
D_SE_INSTANCE_12_8
 10
-2.5905
 20
6.5288
 30
1.3833
 70
192
 0
VERTEX
 8
D_SE_INSTANCE_12_8
 10
-2.0635
 20
6.3427
 30
1.0102
 70
192
 0
VERTEX
 8
D_SE_INSTANCE_12_8
 10
0
 20
0
 30
0
 70
128
 71
1
 72
2
 73
4
 74
4
 0
VERTEX
 8
D_SE_INSTANCE_12_8
 10
0
 20
0
 30
0
 70
128
 71
4
 72
3
 73
1
 74
1
 0
VERTEX
 8
D_SE_INSTANCE_12_8
 10
0
 20
0
 30
0
 70
128
 71
2
 72
3
 73
4
 74
4
 0
SEQEND
 0
POLYLINE
 8
D_SE_INSTANCE_13_8
 66
1
 10
0.0
 20
0.0
 30
0.0
 70
64
 71
4
 72
3
 0
VERTEX
 8
D_SE_INSTANCE_13_8
 10
-1.8001
 20
7.9497
 30
1.3833
 70
192
 0
VERTEX
 8
D_SE_INSTANCE_13_8
 10
-1.6396
 20
8.8528
 30
1.3833
 70
192
 0
VERTEX
 8
D_SE_INSTANCE_13_8
 10
-2.5905
 20
8.6387
 30
1.3833
 70
192
 0
VERTEX
 8
D_SE_INSTANCE_13_8
 10
-2.0635
 20
8.4526
 30
1.0102
 70
192
 0
VERTEX
 8
D_SE_INSTANCE_13_8
 10
0
 20
0
 30
0
 70
128
 71
1
 72
2
 73
4
 74
4
 0
VERTEX
 8
D_SE_INSTANCE_13_8
 10
0
 20
0
 30
0
 70
128
 71
4
 72
3
 73
1
 74
1
 0
VERTEX
 8
D_SE_INSTANCE_13_8
 10
0
 20
0
 30
0
 70
128
 71
2
 72
3
 73
4
 74
4
 0
SEQEND
 0
POLYLINE
 8
D_SE_INSTANCE_14_8
 66
1
 10
0.0
 20
0.0
 30
0.0
 70
64
 71
4
 72
3
 0
VERTEX
 8
D_SE_INSTANCE_14_8
 10
-1.8001
 20
10.0672
 30
1.3833
 70
192
 0
VERTEX
 8
D_SE_INSTANCE_14_8
 10
-1.6396
 20
10.9703
 30
1.3833
 70
192
 0
VERTEX
 8
D_SE_INSTANCE_14_8
 10
-2.5905
 20
10.7562
 30
1.3833
 70
192
 0
VERTEX
 8
D_SE_INSTANCE_14_8
 10
-2.0635
 20
10.5701
 30
1.0102
 70
192
 0
VERTEX
 8
D_SE_INSTANCE_14_8
 10
0
 20
0
 30
0
 70
128
 71
1
 72
2
 73
4
 74
4
 0
VERTEX
 8
D_SE_INSTANCE_14_8
 10
0
 20
0
 30
0
 70
128
 71
4
 72
3
 73
1
 74
1
 0
VERTEX
 8
D_SE_INSTANCE_14_8
 10
0
 20
0
 30
0
 70
128
 71
2
 72
3
 73
4
 74
4
 0
SEQEND
 0
POLYLINE
 8
D_SE_INSTANCE_15_8
 66
1
 10
0.0
 20
0.0
 30
0.0
 70
64
 71
4
 72
3
 0
VERTEX
 8
D_SE_INSTANCE_15_8
 10
-1.8001
 20
12.1716
 30
1.3833
 70
192
 0
VERTEX
 8
D_SE_INSTANCE_15_8
 10
-1.6396
 20
13.0747
 30
1.3833
 70
192
 0
VERTEX
 8
D_SE_INSTANCE_15_8
 10
-2.5905
 20
12.8606
 30
1.3833
 70
192
 0
VERTEX
 8
D_SE_INSTANCE_15_8
 10
-2.0635
 20
12.6744
 30
1.0102
 70
192
 0
VERTEX
 8
D_SE_INSTANCE_15_8
 10
0
 20
0
 30
0
 70
128
 71
1
 72
2
 73
4
 74
4
 0
VERTEX
 8
D_SE_INSTANCE_15_8
 10
0
 20
0
 30
0
 70
128
 71
4
 72
3
 73
1
 74
1
 0
VERTEX
 8
D_SE_INSTANCE_15_8
 10
0
 20
0
 30
0
 70
128
 71
2
 72
3
 73
4
 74
4
 0
SEQEND
 0
POLYLINE
 8
D_SE_INSTANCE_16_21
 66
1
 10
0.0
 20
0.0
 30
0.0
 70
64
 71
4
 72
3
 0
VERTEX
 8
D_SE_INSTANCE_16_21
 10
-1.8001
 20
14.2473
 30
1.3833
 70
192
 0
VERTEX
 8
D_SE_INSTANCE_16_21
 10
-1.6396
 20
15.1504
 30
1.3833
 70
192
 0
VERTEX
 8
D_SE_INSTANCE_16_21
 10
-2.5905
 20
14.9363
 30
1.3833
 70
192
 0
VERTEX
 8
D_SE_INSTANCE_16_21
 10
-2.0635
 20
14.7501
 30
1.0102
 70
192
 0
VERTEX
 8
D_SE_INSTANCE_16_21
 10
0
 20
0
 30
0
 70
128
 71
1
 72
2
 73
4
 74
4
 0
VERTEX
 8
D_SE_INSTANCE_16_21
 10
0
 20
0
 30
0
 70
128
 71
4
 72
3
 73
1
 74
1
 0
VERTEX
 8
D_SE_INSTANCE_16_21
 10
0
 20
0
 30
0
 70
128
 71
2
 72
3
 73
4
 74
4
 0
SEQEND
 0
POLYLINE
 8
D_SE_INSTANCE_17_21
 66
1
 10
0.0
 20
0.0
 30
0.0
 70
64
 71
4
 72
3
 0
VERTEX
 8
D_SE_INSTANCE_17_21
 10
-1.8001
 20
16.3365
 30
1.3833
 70
192
 0
VERTEX
 8
D_SE_INSTANCE_17_21
 10
-1.6396
 20
17.2396
 30
1.3833
 70
192
 0
VERTEX
 8
D_SE_INSTANCE_17_21
 10
-2.5905
 20
17.0255
 30
1.3833
 70
192
 0
VERTEX
 8
D_SE_INSTANCE_17_21
 10
-2.0635
 20
16.8394
 30
1.0102
 70
192
 0
VERTEX
 8
D_SE_INSTANCE_17_21
 10
0
 20
0
 30
0
 70
128
 71
1
 72
2
 73
4
 74
4
 0
VERTEX
 8
D_SE_INSTANCE_17_21
 10
0
 20
0
 30
0
 70
128
 71
4
 72
3
 73
1
 74
1
 0
VERTEX
 8
D_SE_INSTANCE_17_21
 10
0
 20
0
 30
0
 70
128
 71
2
 72
3
 73
4
 74
4
 0
SEQEND
 0
POLYLINE
 8
D_SE_INSTANCE_18_20
 66
1
 10
0.0
 20
0.0
 30
0.0
 70
64
 71
4
 72
3
 0
VERTEX
 8
D_SE_INSTANCE_18_20
 10
-1.8001
 20
18.4451
 30
1.3833
 70
192
 0
VERTEX
 8
D_SE_INSTANCE_18_20
 10
-1.6396
 20
19.3482
 30
1.3833
 70
192
 0
VERTEX
 8
D_SE_INSTANCE_18_20
 10
-2.5905
 20
19.1341
 30
1.3833
 70
192
 0
VERTEX
 8
D_SE_INSTANCE_18_20
 10
-2.0635
 20
18.948
 30
1.0102
 70
192
 0
VERTEX
 8
D_SE_INSTANCE_18_20
 10
0
 20
0
 30
0
 70
128
 71
1
 72
2
 73
4
 74
4
 0
VERTEX
 8
D_SE_INSTANCE_18_20
 10
0
 20
0
 30
0
 70
128
 71
4
 72
3
 73
1
 74
1
 0
VERTEX
 8
D_SE_INSTANCE_18_20
 10
0
 20
0
 30
0
 70
128
 71
2
 72
3
 73
4
 74
4
 0
SEQEND
 0
POLYLINE
 8
D_SE_INSTANCE_19_20
 66
1
 10
0.0
 20
0.0
 30
0.0
 70
64
 71
4
 72
3
 0
VERTEX
 8
D_SE_INSTANCE_19_20
 10
-1.8001
 20
20.5588
 30
1.3833
 70
192
 0
VERTEX
 8
D_SE_INSTANCE_19_20
 10
-1.6396
 20
21.4619
 30
1.3833
 70
192
 0
VERTEX
 8
D_SE_INSTANCE_19_20
 10
-2.5905
 20
21.2478
 30
1.3833
 70
192
 0
VERTEX
 8
D_SE_INSTANCE_19_20
 10
-2.0635
 20
21.0616
 30
1.0102
 70
192
 0
VERTEX
 8
D_SE_INSTANCE_19_20
 10
0
 20
0
 30
0
 70
128
 71
1
 72
2
 73
4
 74
4
 0
VERTEX
 8
D_SE_INSTANCE_19_20
 10
0
 20
0
 30
0
 70
128
 71
4
 72
3
 73
1
 74
1
 0
VERTEX
 8
D_SE_INSTANCE_19_20
 10
0
 20
0
 30
0
 70
128
 71
2
 72
3
 73
4
 74
4
 0
SEQEND
 0
ENDSEC
 0
EOF
