 0
SECTION
 2
HEADER
 9
$ACADVER
 1
AC1009
 0
ENDSEC
 0
SECTION
 2
TABLES
 0
TABLE
 2
LTYPE
 70
1
 0
LTYPE
 2
CONTINUOUS
 70
64
 3
solid line
 72
65
 73
0
 40
0.0
 0
ENDTAB
 0
TABLE
 2
LAYER
 70
6
 0
LAYER
 2
0
 70
0
 62
7
 6
CONTINUOUS
 0
LAYER
 2
420_2300_M
 70
64
 62
7
 6
CONTINUOUS
 0
LAYER
 2
W_RFEL
 70
64
 62
250
 6
CONTINUOUS
 0
LAYER
 2
ZYLINDER_9
 70
64
 62
250
 6
CONTINUOUS
 0
LAYER
 2
ZYLINDER_8
 70
64
 62
250
 6
CONTINUOUS
 0
LAYER
 2
ZYLINDER_7
 70
64
 62
250
 6
CONTINUOUS
 0
LAYER
 2
ZYLINDER_6
 70
64
 62
250
 6
CONTINUOUS
 0
LAYER
 2
ZYLINDER_5
 70
64
 62
250
 6
CONTINUOUS
 0
LAYER
 2
ZYLINDER_4
 70
64
 62
250
 6
CONTINUOUS
 0
LAYER
 2
ZYLINDER_3
 70
64
 62
250
 6
CONTINUOUS
 0
LAYER
 2
ZYLINDER_2
 70
64
 62
250
 6
CONTINUOUS
 0
LAYER
 2
ZYLINDER_1
 70
64
 62
250
 6
CONTINUOUS
 0
LAYER
 2
ZYLINDER_0
 70
64
 62
250
 6
CONTINUOUS
 0
LAYER
 2
RING
 70
64
 62
250
 6
CONTINUOUS
 0
ENDTAB
 0
ENDSEC
 0
SECTION
 2
BLOCKS
 0
ENDSEC
 0
SECTION
 2
ENTITIES
 0
POLYLINE
 8
W_RFEL
 66
1
 10
0.0
 20
0.0
 30
0.0
 70
64
 71
24
 72
26
 0
VERTEX
 8
W_RFEL
 10
-5.3403
 20
7.6224
 30
14.746
 70
192
 0
VERTEX
 8
W_RFEL
 10
2.5597
 20
7.6224
 30
14.746
 70
192
 0
VERTEX
 8
W_RFEL
 10
2.5597
 20
8.4224
 30
14.746
 70
192
 0
VERTEX
 8
W_RFEL
 10
-5.3403
 20
8.4224
 30
14.746
 70
192
 0
VERTEX
 8
W_RFEL
 10
-5.3403
 20
7.5724
 30
14.796
 70
192
 0
VERTEX
 8
W_RFEL
 10
2.5597
 20
7.5724
 30
14.796
 70
192
 0
VERTEX
 8
W_RFEL
 10
2.6097
 20
7.6224
 30
14.796
 70
192
 0
VERTEX
 8
W_RFEL
 10
2.6097
 20
8.4224
 30
14.796
 70
192
 0
VERTEX
 8
W_RFEL
 10
2.5597
 20
8.4724
 30
14.796
 70
192
 0
VERTEX
 8
W_RFEL
 10
-5.3403
 20
8.4724
 30
14.796
 70
192
 0
VERTEX
 8
W_RFEL
 10
-5.3903
 20
8.4224
 30
14.796
 70
192
 0
VERTEX
 8
W_RFEL
 10
-5.3903
 20
7.6224
 30
14.796
 70
192
 0
VERTEX
 8
W_RFEL
 10
-5.3403
 20
7.5724
 30
17.096
 70
192
 0
VERTEX
 8
W_RFEL
 10
2.5597
 20
7.5724
 30
17.096
 70
192
 0
VERTEX
 8
W_RFEL
 10
2.6097
 20
7.6224
 30
17.096
 70
192
 0
VERTEX
 8
W_RFEL
 10
2.6097
 20
8.4224
 30
17.096
 70
192
 0
VERTEX
 8
W_RFEL
 10
2.5597
 20
8.4724
 30
17.096
 70
192
 0
VERTEX
 8
W_RFEL
 10
-5.3403
 20
8.4724
 30
17.096
 70
192
 0
VERTEX
 8
W_RFEL
 10
-5.3903
 20
8.4224
 30
17.096
 70
192
 0
VERTEX
 8
W_RFEL
 10
-5.3903
 20
7.6224
 30
17.096
 70
192
 0
VERTEX
 8
W_RFEL
 10
-5.3403
 20
7.6224
 30
17.146
 70
192
 0
VERTEX
 8
W_RFEL
 10
2.5597
 20
7.6224
 30
17.146
 70
192
 0
VERTEX
 8
W_RFEL
 10
2.5597
 20
8.4224
 30
17.146
 70
192
 0
VERTEX
 8
W_RFEL
 10
-5.3403
 20
8.4224
 30
17.146
 70
192
 0
VERTEX
 8
W_RFEL
 10
0
 20
0
 30
0
 70
128
 71
1
 72
5
 73
6
 74
2
 0
VERTEX
 8
W_RFEL
 10
0
 20
0
 30
0
 70
128
 71
5
 72
13
 73
14
 74
6
 0
VERTEX
 8
W_RFEL
 10
0
 20
0
 30
0
 70
128
 71
13
 72
21
 73
22
 74
14
 0
VERTEX
 8
W_RFEL
 10
0
 20
0
 30
0
 70
128
 71
2
 72
6
 73
7
 74
7
 0
VERTEX
 8
W_RFEL
 10
0
 20
0
 30
0
 70
128
 71
6
 72
14
 73
15
 74
7
 0
VERTEX
 8
W_RFEL
 10
0
 20
0
 30
0
 70
128
 71
14
 72
22
 73
15
 74
15
 0
VERTEX
 8
W_RFEL
 10
0
 20
0
 30
0
 70
128
 71
2
 72
7
 73
8
 74
3
 0
VERTEX
 8
W_RFEL
 10
0
 20
0
 30
0
 70
128
 71
7
 72
15
 73
16
 74
8
 0
VERTEX
 8
W_RFEL
 10
0
 20
0
 30
0
 70
128
 71
15
 72
22
 73
23
 74
16
 0
VERTEX
 8
W_RFEL
 10
0
 20
0
 30
0
 70
128
 71
3
 72
8
 73
9
 74
9
 0
VERTEX
 8
W_RFEL
 10
0
 20
0
 30
0
 70
128
 71
8
 72
16
 73
17
 74
9
 0
VERTEX
 8
W_RFEL
 10
0
 20
0
 30
0
 70
128
 71
16
 72
23
 73
17
 74
17
 0
VERTEX
 8
W_RFEL
 10
0
 20
0
 30
0
 70
128
 71
3
 72
9
 73
10
 74
4
 0
VERTEX
 8
W_RFEL
 10
0
 20
0
 30
0
 70
128
 71
9
 72
17
 73
18
 74
10
 0
VERTEX
 8
W_RFEL
 10
0
 20
0
 30
0
 70
128
 71
17
 72
23
 73
24
 74
18
 0
VERTEX
 8
W_RFEL
 10
0
 20
0
 30
0
 70
128
 71
4
 72
10
 73
11
 74
11
 0
VERTEX
 8
W_RFEL
 10
0
 20
0
 30
0
 70
128
 71
10
 72
18
 73
19
 74
11
 0
VERTEX
 8
W_RFEL
 10
0
 20
0
 30
0
 70
128
 71
18
 72
24
 73
19
 74
19
 0
VERTEX
 8
W_RFEL
 10
0
 20
0
 30
0
 70
128
 71
4
 72
11
 73
12
 74
1
 0
VERTEX
 8
W_RFEL
 10
0
 20
0
 30
0
 70
128
 71
11
 72
19
 73
20
 74
12
 0
VERTEX
 8
W_RFEL
 10
0
 20
0
 30
0
 70
128
 71
19
 72
24
 73
21
 74
20
 0
VERTEX
 8
W_RFEL
 10
0
 20
0
 30
0
 70
128
 71
1
 72
12
 73
5
 74
5
 0
VERTEX
 8
W_RFEL
 10
0
 20
0
 30
0
 70
128
 71
12
 72
20
 73
13
 74
5
 0
VERTEX
 8
W_RFEL
 10
0
 20
0
 30
0
 70
128
 71
20
 72
21
 73
13
 74
13
 0
VERTEX
 8
W_RFEL
 10
0
 20
0
 30
0
 70
128
 71
21
 72
24
 73
23
 74
22
 0
VERTEX
 8
W_RFEL
 10
0
 20
0
 30
0
 70
128
 71
1
 72
2
 73
3
 74
4
 0
SEQEND
 0
POLYLINE
 8
ZYLINDER_9
 66
1
 10
0.0
 20
0.0
 30
0.0
 70
64
 71
18
 72
9
 0
VERTEX
 8
ZYLINDER_9
 10
7.1809
 20
7.4113
 30
15.0295
 70
192
 0
VERTEX
 8
ZYLINDER_9
 10
7.1809
 20
-4.0676
 30
15.0295
 70
192
 0
VERTEX
 8
ZYLINDER_9
 10
7.2773
 20
7.4113
 30
15.0646
 70
192
 0
VERTEX
 8
ZYLINDER_9
 10
7.2773
 20
-4.0676
 30
15.0646
 70
192
 0
VERTEX
 8
ZYLINDER_9
 10
7.3286
 20
7.4113
 30
15.1535
 70
192
 0
VERTEX
 8
ZYLINDER_9
 10
7.3286
 20
-4.0676
 30
15.1535
 70
192
 0
VERTEX
 8
ZYLINDER_9
 10
7.3108
 20
7.4113
 30
15.2545
 70
192
 0
VERTEX
 8
ZYLINDER_9
 10
7.3108
 20
-4.0676
 30
15.2545
 70
192
 0
VERTEX
 8
ZYLINDER_9
 10
7.2322
 20
7.4113
 30
15.3205
 70
192
 0
VERTEX
 8
ZYLINDER_9
 10
7.2322
 20
-4.0676
 30
15.3205
 70
192
 0
VERTEX
 8
ZYLINDER_9
 10
7.1296
 20
7.4113
 30
15.3205
 70
192
 0
VERTEX
 8
ZYLINDER_9
 10
7.1296
 20
-4.0676
 30
15.3205
 70
192
 0
VERTEX
 8
ZYLINDER_9
 10
7.051
 20
7.4113
 30
15.2545
 70
192
 0
VERTEX
 8
ZYLINDER_9
 10
7.051
 20
-4.0676
 30
15.2545
 70
192
 0
VERTEX
 8
ZYLINDER_9
 10
7.0331
 20
7.4113
 30
15.1535
 70
192
 0
VERTEX
 8
ZYLINDER_9
 10
7.0331
 20
-4.0676
 30
15.1535
 70
192
 0
VERTEX
 8
ZYLINDER_9
 10
7.0844
 20
7.4113
 30
15.0646
 70
192
 0
VERTEX
 8
ZYLINDER_9
 10
7.0844
 20
-4.0676
 30
15.0646
 70
192
 0
VERTEX
 8
ZYLINDER_9
 10
0
 20
0
 30
0
 70
128
 71
1
 72
2
 73
4
 74
3
 0
VERTEX
 8
ZYLINDER_9
 10
0
 20
0
 30
0
 70
128
 71
3
 72
4
 73
6
 74
5
 0
VERTEX
 8
ZYLINDER_9
 10
0
 20
0
 30
0
 70
128
 71
5
 72
6
 73
8
 74
7
 0
VERTEX
 8
ZYLINDER_9
 10
0
 20
0
 30
0
 70
128
 71
7
 72
8
 73
10
 74
9
 0
VERTEX
 8
ZYLINDER_9
 10
0
 20
0
 30
0
 70
128
 71
9
 72
10
 73
12
 74
11
 0
VERTEX
 8
ZYLINDER_9
 10
0
 20
0
 30
0
 70
128
 71
11
 72
12
 73
14
 74
13
 0
VERTEX
 8
ZYLINDER_9
 10
0
 20
0
 30
0
 70
128
 71
13
 72
14
 73
16
 74
15
 0
VERTEX
 8
ZYLINDER_9
 10
0
 20
0
 30
0
 70
128
 71
15
 72
16
 73
18
 74
17
 0
VERTEX
 8
ZYLINDER_9
 10
0
 20
0
 30
0
 70
128
 71
17
 72
18
 73
2
 74
1
 0
SEQEND
 0
POLYLINE
 8
ZYLINDER_8
 66
1
 10
0.0
 20
0.0
 30
0.0
 70
64
 71
18
 72
9
 0
VERTEX
 8
ZYLINDER_8
 10
5.292
 20
7.4113
 30
15.0295
 70
192
 0
VERTEX
 8
ZYLINDER_8
 10
5.292
 20
-4.0676
 30
15.0295
 70
192
 0
VERTEX
 8
ZYLINDER_8
 10
5.3884
 20
7.4113
 30
15.0646
 70
192
 0
VERTEX
 8
ZYLINDER_8
 10
5.3884
 20
-4.0676
 30
15.0646
 70
192
 0
VERTEX
 8
ZYLINDER_8
 10
5.4397
 20
7.4113
 30
15.1535
 70
192
 0
VERTEX
 8
ZYLINDER_8
 10
5.4397
 20
-4.0676
 30
15.1535
 70
192
 0
VERTEX
 8
ZYLINDER_8
 10
5.4219
 20
7.4113
 30
15.2545
 70
192
 0
VERTEX
 8
ZYLINDER_8
 10
5.4219
 20
-4.0676
 30
15.2545
 70
192
 0
VERTEX
 8
ZYLINDER_8
 10
5.3433
 20
7.4113
 30
15.3205
 70
192
 0
VERTEX
 8
ZYLINDER_8
 10
5.3433
 20
-4.0676
 30
15.3205
 70
192
 0
VERTEX
 8
ZYLINDER_8
 10
5.2407
 20
7.4113
 30
15.3205
 70
192
 0
VERTEX
 8
ZYLINDER_8
 10
5.2407
 20
-4.0676
 30
15.3205
 70
192
 0
VERTEX
 8
ZYLINDER_8
 10
5.1621
 20
7.4113
 30
15.2545
 70
192
 0
VERTEX
 8
ZYLINDER_8
 10
5.1621
 20
-4.0676
 30
15.2545
 70
192
 0
VERTEX
 8
ZYLINDER_8
 10
5.1442
 20
7.4113
 30
15.1535
 70
192
 0
VERTEX
 8
ZYLINDER_8
 10
5.1442
 20
-4.0676
 30
15.1535
 70
192
 0
VERTEX
 8
ZYLINDER_8
 10
5.1956
 20
7.4113
 30
15.0646
 70
192
 0
VERTEX
 8
ZYLINDER_8
 10
5.1956
 20
-4.0676
 30
15.0646
 70
192
 0
VERTEX
 8
ZYLINDER_8
 10
0
 20
0
 30
0
 70
128
 71
1
 72
2
 73
4
 74
3
 0
VERTEX
 8
ZYLINDER_8
 10
0
 20
0
 30
0
 70
128
 71
3
 72
4
 73
6
 74
5
 0
VERTEX
 8
ZYLINDER_8
 10
0
 20
0
 30
0
 70
128
 71
5
 72
6
 73
8
 74
7
 0
VERTEX
 8
ZYLINDER_8
 10
0
 20
0
 30
0
 70
128
 71
7
 72
8
 73
10
 74
9
 0
VERTEX
 8
ZYLINDER_8
 10
0
 20
0
 30
0
 70
128
 71
9
 72
10
 73
12
 74
11
 0
VERTEX
 8
ZYLINDER_8
 10
0
 20
0
 30
0
 70
128
 71
11
 72
12
 73
14
 74
13
 0
VERTEX
 8
ZYLINDER_8
 10
0
 20
0
 30
0
 70
128
 71
13
 72
14
 73
16
 74
15
 0
VERTEX
 8
ZYLINDER_8
 10
0
 20
0
 30
0
 70
128
 71
15
 72
16
 73
18
 74
17
 0
VERTEX
 8
ZYLINDER_8
 10
0
 20
0
 30
0
 70
128
 71
17
 72
18
 73
2
 74
1
 0
SEQEND
 0
POLYLINE
 8
ZYLINDER_7
 66
1
 10
0.0
 20
0.0
 30
0.0
 70
64
 71
18
 72
9
 0
VERTEX
 8
ZYLINDER_7
 10
3.4031
 20
7.4113
 30
15.0295
 70
192
 0
VERTEX
 8
ZYLINDER_7
 10
3.4031
 20
-4.0676
 30
15.0295
 70
192
 0
VERTEX
 8
ZYLINDER_7
 10
3.4995
 20
7.4113
 30
15.0646
 70
192
 0
VERTEX
 8
ZYLINDER_7
 10
3.4995
 20
-4.0676
 30
15.0646
 70
192
 0
VERTEX
 8
ZYLINDER_7
 10
3.5508
 20
7.4113
 30
15.1535
 70
192
 0
VERTEX
 8
ZYLINDER_7
 10
3.5508
 20
-4.0676
 30
15.1535
 70
192
 0
VERTEX
 8
ZYLINDER_7
 10
3.533
 20
7.4113
 30
15.2545
 70
192
 0
VERTEX
 8
ZYLINDER_7
 10
3.533
 20
-4.0676
 30
15.2545
 70
192
 0
VERTEX
 8
ZYLINDER_7
 10
3.4544
 20
7.4113
 30
15.3205
 70
192
 0
VERTEX
 8
ZYLINDER_7
 10
3.4544
 20
-4.0676
 30
15.3205
 70
192
 0
VERTEX
 8
ZYLINDER_7
 10
3.3518
 20
7.4113
 30
15.3205
 70
192
 0
VERTEX
 8
ZYLINDER_7
 10
3.3518
 20
-4.0676
 30
15.3205
 70
192
 0
VERTEX
 8
ZYLINDER_7
 10
3.2732
 20
7.4113
 30
15.2545
 70
192
 0
VERTEX
 8
ZYLINDER_7
 10
3.2732
 20
-4.0676
 30
15.2545
 70
192
 0
VERTEX
 8
ZYLINDER_7
 10
3.2554
 20
7.4113
 30
15.1535
 70
192
 0
VERTEX
 8
ZYLINDER_7
 10
3.2554
 20
-4.0676
 30
15.1535
 70
192
 0
VERTEX
 8
ZYLINDER_7
 10
3.3067
 20
7.4113
 30
15.0646
 70
192
 0
VERTEX
 8
ZYLINDER_7
 10
3.3067
 20
-4.0676
 30
15.0646
 70
192
 0
VERTEX
 8
ZYLINDER_7
 10
0
 20
0
 30
0
 70
128
 71
1
 72
2
 73
4
 74
3
 0
VERTEX
 8
ZYLINDER_7
 10
0
 20
0
 30
0
 70
128
 71
3
 72
4
 73
6
 74
5
 0
VERTEX
 8
ZYLINDER_7
 10
0
 20
0
 30
0
 70
128
 71
5
 72
6
 73
8
 74
7
 0
VERTEX
 8
ZYLINDER_7
 10
0
 20
0
 30
0
 70
128
 71
7
 72
8
 73
10
 74
9
 0
VERTEX
 8
ZYLINDER_7
 10
0
 20
0
 30
0
 70
128
 71
9
 72
10
 73
12
 74
11
 0
VERTEX
 8
ZYLINDER_7
 10
0
 20
0
 30
0
 70
128
 71
11
 72
12
 73
14
 74
13
 0
VERTEX
 8
ZYLINDER_7
 10
0
 20
0
 30
0
 70
128
 71
13
 72
14
 73
16
 74
15
 0
VERTEX
 8
ZYLINDER_7
 10
0
 20
0
 30
0
 70
128
 71
15
 72
16
 73
18
 74
17
 0
VERTEX
 8
ZYLINDER_7
 10
0
 20
0
 30
0
 70
128
 71
17
 72
18
 73
2
 74
1
 0
SEQEND
 0
POLYLINE
 8
ZYLINDER_6
 66
1
 10
0.0
 20
0.0
 30
0.0
 70
64
 71
18
 72
9
 0
VERTEX
 8
ZYLINDER_6
 10
1.5142
 20
7.4113
 30
15.0295
 70
192
 0
VERTEX
 8
ZYLINDER_6
 10
1.5142
 20
-4.0676
 30
15.0295
 70
192
 0
VERTEX
 8
ZYLINDER_6
 10
1.6106
 20
7.4113
 30
15.0646
 70
192
 0
VERTEX
 8
ZYLINDER_6
 10
1.6106
 20
-4.0676
 30
15.0646
 70
192
 0
VERTEX
 8
ZYLINDER_6
 10
1.6619
 20
7.4113
 30
15.1535
 70
192
 0
VERTEX
 8
ZYLINDER_6
 10
1.6619
 20
-4.0676
 30
15.1535
 70
192
 0
VERTEX
 8
ZYLINDER_6
 10
1.6441
 20
7.4113
 30
15.2545
 70
192
 0
VERTEX
 8
ZYLINDER_6
 10
1.6441
 20
-4.0676
 30
15.2545
 70
192
 0
VERTEX
 8
ZYLINDER_6
 10
1.5655
 20
7.4113
 30
15.3205
 70
192
 0
VERTEX
 8
ZYLINDER_6
 10
1.5655
 20
-4.0676
 30
15.3205
 70
192
 0
VERTEX
 8
ZYLINDER_6
 10
1.4629
 20
7.4113
 30
15.3205
 70
192
 0
VERTEX
 8
ZYLINDER_6
 10
1.4629
 20
-4.0676
 30
15.3205
 70
192
 0
VERTEX
 8
ZYLINDER_6
 10
1.3843
 20
7.4113
 30
15.2545
 70
192
 0
VERTEX
 8
ZYLINDER_6
 10
1.3843
 20
-4.0676
 30
15.2545
 70
192
 0
VERTEX
 8
ZYLINDER_6
 10
1.3665
 20
7.4113
 30
15.1535
 70
192
 0
VERTEX
 8
ZYLINDER_6
 10
1.3665
 20
-4.0676
 30
15.1535
 70
192
 0
VERTEX
 8
ZYLINDER_6
 10
1.4178
 20
7.4113
 30
15.0646
 70
192
 0
VERTEX
 8
ZYLINDER_6
 10
1.4178
 20
-4.0676
 30
15.0646
 70
192
 0
VERTEX
 8
ZYLINDER_6
 10
0
 20
0
 30
0
 70
128
 71
1
 72
2
 73
4
 74
3
 0
VERTEX
 8
ZYLINDER_6
 10
0
 20
0
 30
0
 70
128
 71
3
 72
4
 73
6
 74
5
 0
VERTEX
 8
ZYLINDER_6
 10
0
 20
0
 30
0
 70
128
 71
5
 72
6
 73
8
 74
7
 0
VERTEX
 8
ZYLINDER_6
 10
0
 20
0
 30
0
 70
128
 71
7
 72
8
 73
10
 74
9
 0
VERTEX
 8
ZYLINDER_6
 10
0
 20
0
 30
0
 70
128
 71
9
 72
10
 73
12
 74
11
 0
VERTEX
 8
ZYLINDER_6
 10
0
 20
0
 30
0
 70
128
 71
11
 72
12
 73
14
 74
13
 0
VERTEX
 8
ZYLINDER_6
 10
0
 20
0
 30
0
 70
128
 71
13
 72
14
 73
16
 74
15
 0
VERTEX
 8
ZYLINDER_6
 10
0
 20
0
 30
0
 70
128
 71
15
 72
16
 73
18
 74
17
 0
VERTEX
 8
ZYLINDER_6
 10
0
 20
0
 30
0
 70
128
 71
17
 72
18
 73
2
 74
1
 0
SEQEND
 0
POLYLINE
 8
ZYLINDER_5
 66
1
 10
0.0
 20
0.0
 30
0.0
 70
64
 71
18
 72
9
 0
VERTEX
 8
ZYLINDER_5
 10
-0.3747
 20
7.4113
 30
15.0295
 70
192
 0
VERTEX
 8
ZYLINDER_5
 10
-0.3747
 20
-4.0676
 30
15.0295
 70
192
 0
VERTEX
 8
ZYLINDER_5
 10
-0.2783
 20
7.4113
 30
15.0646
 70
192
 0
VERTEX
 8
ZYLINDER_5
 10
-0.2783
 20
-4.0676
 30
15.0646
 70
192
 0
VERTEX
 8
ZYLINDER_5
 10
-0.227
 20
7.4113
 30
15.1535
 70
192
 0
VERTEX
 8
ZYLINDER_5
 10
-0.227
 20
-4.0676
 30
15.1535
 70
192
 0
VERTEX
 8
ZYLINDER_5
 10
-0.2448
 20
7.4113
 30
15.2545
 70
192
 0
VERTEX
 8
ZYLINDER_5
 10
-0.2448
 20
-4.0676
 30
15.2545
 70
192
 0
VERTEX
 8
ZYLINDER_5
 10
-0.3234
 20
7.4113
 30
15.3205
 70
192
 0
VERTEX
 8
ZYLINDER_5
 10
-0.3234
 20
-4.0676
 30
15.3205
 70
192
 0
VERTEX
 8
ZYLINDER_5
 10
-0.426
 20
7.4113
 30
15.3205
 70
192
 0
VERTEX
 8
ZYLINDER_5
 10
-0.426
 20
-4.0676
 30
15.3205
 70
192
 0
VERTEX
 8
ZYLINDER_5
 10
-0.5046
 20
7.4113
 30
15.2545
 70
192
 0
VERTEX
 8
ZYLINDER_5
 10
-0.5046
 20
-4.0676
 30
15.2545
 70
192
 0
VERTEX
 8
ZYLINDER_5
 10
-0.5224
 20
7.4113
 30
15.1535
 70
192
 0
VERTEX
 8
ZYLINDER_5
 10
-0.5224
 20
-4.0676
 30
15.1535
 70
192
 0
VERTEX
 8
ZYLINDER_5
 10
-0.4711
 20
7.4113
 30
15.0646
 70
192
 0
VERTEX
 8
ZYLINDER_5
 10
-0.4711
 20
-4.0676
 30
15.0646
 70
192
 0
VERTEX
 8
ZYLINDER_5
 10
0
 20
0
 30
0
 70
128
 71
1
 72
2
 73
4
 74
3
 0
VERTEX
 8
ZYLINDER_5
 10
0
 20
0
 30
0
 70
128
 71
3
 72
4
 73
6
 74
5
 0
VERTEX
 8
ZYLINDER_5
 10
0
 20
0
 30
0
 70
128
 71
5
 72
6
 73
8
 74
7
 0
VERTEX
 8
ZYLINDER_5
 10
0
 20
0
 30
0
 70
128
 71
7
 72
8
 73
10
 74
9
 0
VERTEX
 8
ZYLINDER_5
 10
0
 20
0
 30
0
 70
128
 71
9
 72
10
 73
12
 74
11
 0
VERTEX
 8
ZYLINDER_5
 10
0
 20
0
 30
0
 70
128
 71
11
 72
12
 73
14
 74
13
 0
VERTEX
 8
ZYLINDER_5
 10
0
 20
0
 30
0
 70
128
 71
13
 72
14
 73
16
 74
15
 0
VERTEX
 8
ZYLINDER_5
 10
0
 20
0
 30
0
 70
128
 71
15
 72
16
 73
18
 74
17
 0
VERTEX
 8
ZYLINDER_5
 10
0
 20
0
 30
0
 70
128
 71
17
 72
18
 73
2
 74
1
 0
SEQEND
 0
POLYLINE
 8
ZYLINDER_4
 66
1
 10
0.0
 20
0.0
 30
0.0
 70
64
 71
18
 72
9
 0
VERTEX
 8
ZYLINDER_4
 10
-2.2636
 20
7.4113
 30
15.0295
 70
192
 0
VERTEX
 8
ZYLINDER_4
 10
-2.2636
 20
-4.0676
 30
15.0295
 70
192
 0
VERTEX
 8
ZYLINDER_4
 10
-2.1672
 20
7.4113
 30
15.0646
 70
192
 0
VERTEX
 8
ZYLINDER_4
 10
-2.1672
 20
-4.0676
 30
15.0646
 70
192
 0
VERTEX
 8
ZYLINDER_4
 10
-2.1159
 20
7.4113
 30
15.1535
 70
192
 0
VERTEX
 8
ZYLINDER_4
 10
-2.1159
 20
-4.0676
 30
15.1535
 70
192
 0
VERTEX
 8
ZYLINDER_4
 10
-2.1337
 20
7.4113
 30
15.2545
 70
192
 0
VERTEX
 8
ZYLINDER_4
 10
-2.1337
 20
-4.0676
 30
15.2545
 70
192
 0
VERTEX
 8
ZYLINDER_4
 10
-2.2123
 20
7.4113
 30
15.3205
 70
192
 0
VERTEX
 8
ZYLINDER_4
 10
-2.2123
 20
-4.0676
 30
15.3205
 70
192
 0
VERTEX
 8
ZYLINDER_4
 10
-2.3149
 20
7.4113
 30
15.3205
 70
192
 0
VERTEX
 8
ZYLINDER_4
 10
-2.3149
 20
-4.0676
 30
15.3205
 70
192
 0
VERTEX
 8
ZYLINDER_4
 10
-2.3935
 20
7.4113
 30
15.2545
 70
192
 0
VERTEX
 8
ZYLINDER_4
 10
-2.3935
 20
-4.0676
 30
15.2545
 70
192
 0
VERTEX
 8
ZYLINDER_4
 10
-2.4113
 20
7.4113
 30
15.1535
 70
192
 0
VERTEX
 8
ZYLINDER_4
 10
-2.4113
 20
-4.0676
 30
15.1535
 70
192
 0
VERTEX
 8
ZYLINDER_4
 10
-2.36
 20
7.4113
 30
15.0646
 70
192
 0
VERTEX
 8
ZYLINDER_4
 10
-2.36
 20
-4.0676
 30
15.0646
 70
192
 0
VERTEX
 8
ZYLINDER_4
 10
0
 20
0
 30
0
 70
128
 71
1
 72
2
 73
4
 74
3
 0
VERTEX
 8
ZYLINDER_4
 10
0
 20
0
 30
0
 70
128
 71
3
 72
4
 73
6
 74
5
 0
VERTEX
 8
ZYLINDER_4
 10
0
 20
0
 30
0
 70
128
 71
5
 72
6
 73
8
 74
7
 0
VERTEX
 8
ZYLINDER_4
 10
0
 20
0
 30
0
 70
128
 71
7
 72
8
 73
10
 74
9
 0
VERTEX
 8
ZYLINDER_4
 10
0
 20
0
 30
0
 70
128
 71
9
 72
10
 73
12
 74
11
 0
VERTEX
 8
ZYLINDER_4
 10
0
 20
0
 30
0
 70
128
 71
11
 72
12
 73
14
 74
13
 0
VERTEX
 8
ZYLINDER_4
 10
0
 20
0
 30
0
 70
128
 71
13
 72
14
 73
16
 74
15
 0
VERTEX
 8
ZYLINDER_4
 10
0
 20
0
 30
0
 70
128
 71
15
 72
16
 73
18
 74
17
 0
VERTEX
 8
ZYLINDER_4
 10
0
 20
0
 30
0
 70
128
 71
17
 72
18
 73
2
 74
1
 0
SEQEND
 0
POLYLINE
 8
ZYLINDER_3
 66
1
 10
0.0
 20
0.0
 30
0.0
 70
64
 71
18
 72
9
 0
VERTEX
 8
ZYLINDER_3
 10
-4.1525
 20
7.4113
 30
15.0295
 70
192
 0
VERTEX
 8
ZYLINDER_3
 10
-4.1525
 20
-4.0676
 30
15.0295
 70
192
 0
VERTEX
 8
ZYLINDER_3
 10
-4.0561
 20
7.4113
 30
15.0646
 70
192
 0
VERTEX
 8
ZYLINDER_3
 10
-4.0561
 20
-4.0676
 30
15.0646
 70
192
 0
VERTEX
 8
ZYLINDER_3
 10
-4.0048
 20
7.4113
 30
15.1535
 70
192
 0
VERTEX
 8
ZYLINDER_3
 10
-4.0048
 20
-4.0676
 30
15.1535
 70
192
 0
VERTEX
 8
ZYLINDER_3
 10
-4.0226
 20
7.4113
 30
15.2545
 70
192
 0
VERTEX
 8
ZYLINDER_3
 10
-4.0226
 20
-4.0676
 30
15.2545
 70
192
 0
VERTEX
 8
ZYLINDER_3
 10
-4.1012
 20
7.4113
 30
15.3205
 70
192
 0
VERTEX
 8
ZYLINDER_3
 10
-4.1012
 20
-4.0676
 30
15.3205
 70
192
 0
VERTEX
 8
ZYLINDER_3
 10
-4.2038
 20
7.4113
 30
15.3205
 70
192
 0
VERTEX
 8
ZYLINDER_3
 10
-4.2038
 20
-4.0676
 30
15.3205
 70
192
 0
VERTEX
 8
ZYLINDER_3
 10
-4.2824
 20
7.4113
 30
15.2545
 70
192
 0
VERTEX
 8
ZYLINDER_3
 10
-4.2824
 20
-4.0676
 30
15.2545
 70
192
 0
VERTEX
 8
ZYLINDER_3
 10
-4.3002
 20
7.4113
 30
15.1535
 70
192
 0
VERTEX
 8
ZYLINDER_3
 10
-4.3002
 20
-4.0676
 30
15.1535
 70
192
 0
VERTEX
 8
ZYLINDER_3
 10
-4.2489
 20
7.4113
 30
15.0646
 70
192
 0
VERTEX
 8
ZYLINDER_3
 10
-4.2489
 20
-4.0676
 30
15.0646
 70
192
 0
VERTEX
 8
ZYLINDER_3
 10
0
 20
0
 30
0
 70
128
 71
1
 72
2
 73
4
 74
3
 0
VERTEX
 8
ZYLINDER_3
 10
0
 20
0
 30
0
 70
128
 71
3
 72
4
 73
6
 74
5
 0
VERTEX
 8
ZYLINDER_3
 10
0
 20
0
 30
0
 70
128
 71
5
 72
6
 73
8
 74
7
 0
VERTEX
 8
ZYLINDER_3
 10
0
 20
0
 30
0
 70
128
 71
7
 72
8
 73
10
 74
9
 0
VERTEX
 8
ZYLINDER_3
 10
0
 20
0
 30
0
 70
128
 71
9
 72
10
 73
12
 74
11
 0
VERTEX
 8
ZYLINDER_3
 10
0
 20
0
 30
0
 70
128
 71
11
 72
12
 73
14
 74
13
 0
VERTEX
 8
ZYLINDER_3
 10
0
 20
0
 30
0
 70
128
 71
13
 72
14
 73
16
 74
15
 0
VERTEX
 8
ZYLINDER_3
 10
0
 20
0
 30
0
 70
128
 71
15
 72
16
 73
18
 74
17
 0
VERTEX
 8
ZYLINDER_3
 10
0
 20
0
 30
0
 70
128
 71
17
 72
18
 73
2
 74
1
 0
SEQEND
 0
POLYLINE
 8
ZYLINDER_2
 66
1
 10
0.0
 20
0.0
 30
0.0
 70
64
 71
18
 72
9
 0
VERTEX
 8
ZYLINDER_2
 10
-6.0414
 20
7.4113
 30
15.0295
 70
192
 0
VERTEX
 8
ZYLINDER_2
 10
-6.0414
 20
-4.0676
 30
15.0295
 70
192
 0
VERTEX
 8
ZYLINDER_2
 10
-5.9449
 20
7.4113
 30
15.0646
 70
192
 0
VERTEX
 8
ZYLINDER_2
 10
-5.9449
 20
-4.0676
 30
15.0646
 70
192
 0
VERTEX
 8
ZYLINDER_2
 10
-5.8936
 20
7.4113
 30
15.1535
 70
192
 0
VERTEX
 8
ZYLINDER_2
 10
-5.8936
 20
-4.0676
 30
15.1535
 70
192
 0
VERTEX
 8
ZYLINDER_2
 10
-5.9115
 20
7.4113
 30
15.2545
 70
192
 0
VERTEX
 8
ZYLINDER_2
 10
-5.9115
 20
-4.0676
 30
15.2545
 70
192
 0
VERTEX
 8
ZYLINDER_2
 10
-5.9901
 20
7.4113
 30
15.3205
 70
192
 0
VERTEX
 8
ZYLINDER_2
 10
-5.9901
 20
-4.0676
 30
15.3205
 70
192
 0
VERTEX
 8
ZYLINDER_2
 10
-6.0927
 20
7.4113
 30
15.3205
 70
192
 0
VERTEX
 8
ZYLINDER_2
 10
-6.0927
 20
-4.0676
 30
15.3205
 70
192
 0
VERTEX
 8
ZYLINDER_2
 10
-6.1713
 20
7.4113
 30
15.2545
 70
192
 0
VERTEX
 8
ZYLINDER_2
 10
-6.1713
 20
-4.0676
 30
15.2545
 70
192
 0
VERTEX
 8
ZYLINDER_2
 10
-6.1891
 20
7.4113
 30
15.1535
 70
192
 0
VERTEX
 8
ZYLINDER_2
 10
-6.1891
 20
-4.0676
 30
15.1535
 70
192
 0
VERTEX
 8
ZYLINDER_2
 10
-6.1378
 20
7.4113
 30
15.0646
 70
192
 0
VERTEX
 8
ZYLINDER_2
 10
-6.1378
 20
-4.0676
 30
15.0646
 70
192
 0
VERTEX
 8
ZYLINDER_2
 10
0
 20
0
 30
0
 70
128
 71
1
 72
2
 73
4
 74
3
 0
VERTEX
 8
ZYLINDER_2
 10
0
 20
0
 30
0
 70
128
 71
3
 72
4
 73
6
 74
5
 0
VERTEX
 8
ZYLINDER_2
 10
0
 20
0
 30
0
 70
128
 71
5
 72
6
 73
8
 74
7
 0
VERTEX
 8
ZYLINDER_2
 10
0
 20
0
 30
0
 70
128
 71
7
 72
8
 73
10
 74
9
 0
VERTEX
 8
ZYLINDER_2
 10
0
 20
0
 30
0
 70
128
 71
9
 72
10
 73
12
 74
11
 0
VERTEX
 8
ZYLINDER_2
 10
0
 20
0
 30
0
 70
128
 71
11
 72
12
 73
14
 74
13
 0
VERTEX
 8
ZYLINDER_2
 10
0
 20
0
 30
0
 70
128
 71
13
 72
14
 73
16
 74
15
 0
VERTEX
 8
ZYLINDER_2
 10
0
 20
0
 30
0
 70
128
 71
15
 72
16
 73
18
 74
17
 0
VERTEX
 8
ZYLINDER_2
 10
0
 20
0
 30
0
 70
128
 71
17
 72
18
 73
2
 74
1
 0
SEQEND
 0
POLYLINE
 8
ZYLINDER_1
 66
1
 10
0.0
 20
0.0
 30
0.0
 70
64
 71
18
 72
9
 0
VERTEX
 8
ZYLINDER_1
 10
-7.9303
 20
7.4113
 30
15.0295
 70
192
 0
VERTEX
 8
ZYLINDER_1
 10
-7.9303
 20
-4.0676
 30
15.0295
 70
192
 0
VERTEX
 8
ZYLINDER_1
 10
-7.8338
 20
7.4113
 30
15.0646
 70
192
 0
VERTEX
 8
ZYLINDER_1
 10
-7.8338
 20
-4.0676
 30
15.0646
 70
192
 0
VERTEX
 8
ZYLINDER_1
 10
-7.7825
 20
7.4113
 30
15.1535
 70
192
 0
VERTEX
 8
ZYLINDER_1
 10
-7.7825
 20
-4.0676
 30
15.1535
 70
192
 0
VERTEX
 8
ZYLINDER_1
 10
-7.8003
 20
7.4113
 30
15.2545
 70
192
 0
VERTEX
 8
ZYLINDER_1
 10
-7.8003
 20
-4.0676
 30
15.2545
 70
192
 0
VERTEX
 8
ZYLINDER_1
 10
-7.8789
 20
7.4113
 30
15.3205
 70
192
 0
VERTEX
 8
ZYLINDER_1
 10
-7.8789
 20
-4.0676
 30
15.3205
 70
192
 0
VERTEX
 8
ZYLINDER_1
 10
-7.9816
 20
7.4113
 30
15.3205
 70
192
 0
VERTEX
 8
ZYLINDER_1
 10
-7.9816
 20
-4.0676
 30
15.3205
 70
192
 0
VERTEX
 8
ZYLINDER_1
 10
-8.0602
 20
7.4113
 30
15.2545
 70
192
 0
VERTEX
 8
ZYLINDER_1
 10
-8.0602
 20
-4.0676
 30
15.2545
 70
192
 0
VERTEX
 8
ZYLINDER_1
 10
-8.078
 20
7.4113
 30
15.1535
 70
192
 0
VERTEX
 8
ZYLINDER_1
 10
-8.078
 20
-4.0676
 30
15.1535
 70
192
 0
VERTEX
 8
ZYLINDER_1
 10
-8.0267
 20
7.4113
 30
15.0646
 70
192
 0
VERTEX
 8
ZYLINDER_1
 10
-8.0267
 20
-4.0676
 30
15.0646
 70
192
 0
VERTEX
 8
ZYLINDER_1
 10
0
 20
0
 30
0
 70
128
 71
1
 72
2
 73
4
 74
3
 0
VERTEX
 8
ZYLINDER_1
 10
0
 20
0
 30
0
 70
128
 71
3
 72
4
 73
6
 74
5
 0
VERTEX
 8
ZYLINDER_1
 10
0
 20
0
 30
0
 70
128
 71
5
 72
6
 73
8
 74
7
 0
VERTEX
 8
ZYLINDER_1
 10
0
 20
0
 30
0
 70
128
 71
7
 72
8
 73
10
 74
9
 0
VERTEX
 8
ZYLINDER_1
 10
0
 20
0
 30
0
 70
128
 71
9
 72
10
 73
12
 74
11
 0
VERTEX
 8
ZYLINDER_1
 10
0
 20
0
 30
0
 70
128
 71
11
 72
12
 73
14
 74
13
 0
VERTEX
 8
ZYLINDER_1
 10
0
 20
0
 30
0
 70
128
 71
13
 72
14
 73
16
 74
15
 0
VERTEX
 8
ZYLINDER_1
 10
0
 20
0
 30
0
 70
128
 71
15
 72
16
 73
18
 74
17
 0
VERTEX
 8
ZYLINDER_1
 10
0
 20
0
 30
0
 70
128
 71
17
 72
18
 73
2
 74
1
 0
SEQEND
 0
POLYLINE
 8
ZYLINDER_0
 66
1
 10
0.0
 20
0.0
 30
0.0
 70
64
 71
18
 72
9
 0
VERTEX
 8
ZYLINDER_0
 10
-9.8191
 20
7.4113
 30
15.0295
 70
192
 0
VERTEX
 8
ZYLINDER_0
 10
-9.8191
 20
-4.0676
 30
15.0295
 70
192
 0
VERTEX
 8
ZYLINDER_0
 10
-9.7227
 20
7.4113
 30
15.0646
 70
192
 0
VERTEX
 8
ZYLINDER_0
 10
-9.7227
 20
-4.0676
 30
15.0646
 70
192
 0
VERTEX
 8
ZYLINDER_0
 10
-9.6714
 20
7.4113
 30
15.1535
 70
192
 0
VERTEX
 8
ZYLINDER_0
 10
-9.6714
 20
-4.0676
 30
15.1535
 70
192
 0
VERTEX
 8
ZYLINDER_0
 10
-9.6892
 20
7.4113
 30
15.2545
 70
192
 0
VERTEX
 8
ZYLINDER_0
 10
-9.6892
 20
-4.0676
 30
15.2545
 70
192
 0
VERTEX
 8
ZYLINDER_0
 10
-9.7678
 20
7.4113
 30
15.3205
 70
192
 0
VERTEX
 8
ZYLINDER_0
 10
-9.7678
 20
-4.0676
 30
15.3205
 70
192
 0
VERTEX
 8
ZYLINDER_0
 10
-9.8704
 20
7.4113
 30
15.3205
 70
192
 0
VERTEX
 8
ZYLINDER_0
 10
-9.8704
 20
-4.0676
 30
15.3205
 70
192
 0
VERTEX
 8
ZYLINDER_0
 10
-9.949
 20
7.4113
 30
15.2545
 70
192
 0
VERTEX
 8
ZYLINDER_0
 10
-9.949
 20
-4.0676
 30
15.2545
 70
192
 0
VERTEX
 8
ZYLINDER_0
 10
-9.9669
 20
7.4113
 30
15.1535
 70
192
 0
VERTEX
 8
ZYLINDER_0
 10
-9.9669
 20
-4.0676
 30
15.1535
 70
192
 0
VERTEX
 8
ZYLINDER_0
 10
-9.9156
 20
7.4113
 30
15.0646
 70
192
 0
VERTEX
 8
ZYLINDER_0
 10
-9.9156
 20
-4.0676
 30
15.0646
 70
192
 0
VERTEX
 8
ZYLINDER_0
 10
0
 20
0
 30
0
 70
128
 71
1
 72
2
 73
4
 74
3
 0
VERTEX
 8
ZYLINDER_0
 10
0
 20
0
 30
0
 70
128
 71
3
 72
4
 73
6
 74
5
 0
VERTEX
 8
ZYLINDER_0
 10
0
 20
0
 30
0
 70
128
 71
5
 72
6
 73
8
 74
7
 0
VERTEX
 8
ZYLINDER_0
 10
0
 20
0
 30
0
 70
128
 71
7
 72
8
 73
10
 74
9
 0
VERTEX
 8
ZYLINDER_0
 10
0
 20
0
 30
0
 70
128
 71
9
 72
10
 73
12
 74
11
 0
VERTEX
 8
ZYLINDER_0
 10
0
 20
0
 30
0
 70
128
 71
11
 72
12
 73
14
 74
13
 0
VERTEX
 8
ZYLINDER_0
 10
0
 20
0
 30
0
 70
128
 71
13
 72
14
 73
16
 74
15
 0
VERTEX
 8
ZYLINDER_0
 10
0
 20
0
 30
0
 70
128
 71
15
 72
16
 73
18
 74
17
 0
VERTEX
 8
ZYLINDER_0
 10
0
 20
0
 30
0
 70
128
 71
17
 72
18
 73
2
 74
1
 0
SEQEND
 0
POLYLINE
 8
RING
 66
1
 10
0.0
 20
0.0
 30
0.0
 70
64
 71
624
 72
649
 0
VERTEX
 8
RING
 10
8.6219
 20
6.9853
 30
17.144
 70
192
 0
VERTEX
 8
RING
 10
-11.2585
 20
-3.6645
 30
14.7872
 70
192
 0
VERTEX
 8
RING
 10
-11.0555
 20
6.7594
 30
14.7907
 70
192
 0
VERTEX
 8
RING
 10
-10.7187
 20
-4.0853
 30
14.7907
 70
192
 0
VERTEX
 8
RING
 10
8.6043
 20
-3.2261
 30
17.144
 70
192
 0
VERTEX
 8
RING
 10
8.8479
 20
6.3929
 30
17.144
 70
192
 0
VERTEX
 8
RING
 10
-10.5579
 20
7.4378
 30
17.144
 70
192
 0
VERTEX
 8
RING
 10
-10.3688
 20
7.4751
 30
17.1436
 70
192
 0
VERTEX
 8
RING
 10
8.6696
 20
-2.9943
 30
17.1436
 70
192
 0
VERTEX
 8
RING
 10
8.6874
 20
-2.8727
 30
17.1436
 70
192
 0
VERTEX
 8
RING
 10
8.2039
 20
7.3433
 30
17.144
 70
192
 0
VERTEX
 8
RING
 10
8.8311
 20
-3.1595
 30
17.144
 70
192
 0
VERTEX
 8
RING
 10
-11.4473
 20
-3.0448
 30
17.144
 70
192
 0
VERTEX
 8
RING
 10
8.7227
 20
-3.4812
 30
17.1436
 70
192
 0
VERTEX
 8
RING
 10
-11.4473
 20
6.3925
 30
17.144
 70
192
 0
VERTEX
 8
RING
 10
-11.3826
 20
-3.3437
 30
17.1436
 70
192
 0
VERTEX
 8
RING
 10
-11.3356
 20
-3.4462
 30
17.144
 70
192
 0
VERTEX
 8
RING
 10
-11.4374
 20
-3.1212
 30
17.144
 70
192
 0
VERTEX
 8
RING
 10
8.6023
 20
-3.6689
 30
17.1436
 70
192
 0
VERTEX
 8
RING
 10
-11.4168
 20
-3.235
 30
17.1436
 70
192
 0
VERTEX
 8
RING
 10
-11.2632
 20
6.9242
 30
17.144
 70
192
 0
VERTEX
 8
RING
 10
8.5274
 20
-3.7509
 30
17.144
 70
192
 0
VERTEX
 8
RING
 10
-11.0473
 20
7.176
 30
17.144
 70
192
 0
VERTEX
 8
RING
 10
-11.4032
 20
6.6188
 30
17.144
 70
192
 0
VERTEX
 8
RING
 10
8.3616
 20
-3.8975
 30
17.144
 70
192
 0
VERTEX
 8
RING
 10
-11.3691
 20
6.727
 30
17.1436
 70
192
 0
VERTEX
 8
RING
 10
7.6492
 20
-4.1294
 30
17.144
 70
192
 0
VERTEX
 8
RING
 10
-10.4832
 20
-4.1068
 30
17.144
 70
192
 0
VERTEX
 8
RING
 10
-10.5955
 20
-4.0828
 30
17.1436
 70
192
 0
VERTEX
 8
RING
 10
-10.2486
 20
-4.1294
 30
17.144
 70
192
 0
VERTEX
 8
RING
 10
-10.3682
 20
-4.1236
 30
17.144
 70
192
 0
VERTEX
 8
RING
 10
7.9594
 20
-4.0931
 30
17.1436
 70
192
 0
VERTEX
 8
RING
 10
-10.8049
 20
-3.9984
 30
17.1436
 70
192
 0
VERTEX
 8
RING
 10
-11.2213
 20
-3.6372
 30
17.144
 70
192
 0
VERTEX
 8
RING
 10
7.8461
 20
-4.1171
 30
17.1436
 70
192
 0
VERTEX
 8
RING
 10
-10.9897
 20
6.8519
 30
14.7907
 70
192
 0
VERTEX
 8
RING
 10
8.8944
 20
6.397
 30
17.0941
 70
192
 0
VERTEX
 8
RING
 10
8.884
 20
6.4771
 30
17.0941
 70
192
 0
VERTEX
 8
RING
 10
8.8592
 20
6.594
 30
17.0941
 70
192
 0
VERTEX
 8
RING
 10
8.8592
 20
6.594
 30
14.7941
 70
192
 0
VERTEX
 8
RING
 10
8.8238
 20
6.7066
 30
17.0941
 70
192
 0
VERTEX
 8
RING
 10
8.9002
 20
0.3242
 30
16.8933
 70
192
 0
VERTEX
 8
RING
 10
8.7783
 20
6.8143
 30
17.0941
 70
192
 0
VERTEX
 8
RING
 10
8.7234
 20
6.9166
 30
17.0941
 70
192
 0
VERTEX
 8
RING
 10
8.6595
 20
7.0128
 30
17.0941
 70
192
 0
VERTEX
 8
RING
 10
8.6595
 20
7.0128
 30
14.7941
 70
192
 0
VERTEX
 8
RING
 10
8.5872
 20
7.1025
 30
17.0941
 70
192
 0
VERTEX
 8
RING
 10
8.5071
 20
7.1851
 30
17.0941
 70
192
 0
VERTEX
 8
RING
 10
8.4198
 20
7.26
 30
17.0941
 70
192
 0
VERTEX
 8
RING
 10
8.3256
 20
7.3268
 30
17.0941
 70
192
 0
VERTEX
 8
RING
 10
8.2253
 20
7.3847
 30
17.0941
 70
192
 0
VERTEX
 8
RING
 10
8.2253
 20
7.3847
 30
14.7941
 70
192
 0
VERTEX
 8
RING
 10
8.1194
 20
7.4334
 30
17.0941
 70
192
 0
VERTEX
 8
RING
 10
8.1194
 20
7.4334
 30
14.7941
 70
192
 0
VERTEX
 8
RING
 10
8.0084
 20
7.4722
 30
17.0941
 70
192
 0
VERTEX
 8
RING
 10
7.7733
 20
7.5181
 30
17.0941
 70
192
 0
VERTEX
 8
RING
 10
7.8928
 20
7.5006
 30
17.0941
 70
192
 0
VERTEX
 8
RING
 10
-10.2497
 20
7.524
 30
17.0941
 70
192
 0
VERTEX
 8
RING
 10
7.7733
 20
7.5181
 30
14.7941
 70
192
 0
VERTEX
 8
RING
 10
7.6503
 20
7.524
 30
17.0941
 70
192
 0
VERTEX
 8
RING
 10
8.9002
 20
0.3242
 30
14.9949
 70
192
 0
VERTEX
 8
RING
 10
-10.4528
 20
7.5077
 30
17.0941
 70
192
 0
VERTEX
 8
RING
 10
8.6969
 20
0.3707
 30
14.9941
 70
192
 0
VERTEX
 8
RING
 10
-10.3727
 20
7.5181
 30
17.0941
 70
192
 0
VERTEX
 8
RING
 10
-10.6823
 20
7.4475
 30
17.0941
 70
192
 0
VERTEX
 8
RING
 10
-10.5697
 20
7.4829
 30
17.0941
 70
192
 0
VERTEX
 8
RING
 10
-10.8922
 20
7.3471
 30
17.0941
 70
192
 0
VERTEX
 8
RING
 10
-10.79
 20
7.402
 30
17.0941
 70
192
 0
VERTEX
 8
RING
 10
-11.0782
 20
7.211
 30
17.0941
 70
192
 0
VERTEX
 8
RING
 10
8.6504
 20
0.3242
 30
16.8933
 70
192
 0
VERTEX
 8
RING
 10
-10.9885
 20
7.2832
 30
17.0941
 70
192
 0
VERTEX
 8
RING
 10
-11.1608
 20
7.1309
 30
14.7941
 70
192
 0
VERTEX
 8
RING
 10
-11.2357
 20
7.0435
 30
17.0941
 70
192
 0
VERTEX
 8
RING
 10
-11.1608
 20
7.1309
 30
17.0941
 70
192
 0
VERTEX
 8
RING
 10
-11.3024
 20
6.9494
 30
14.7941
 70
192
 0
VERTEX
 8
RING
 10
-11.3604
 20
6.849
 30
17.0941
 70
192
 0
VERTEX
 8
RING
 10
-11.3024
 20
6.9494
 30
17.0941
 70
192
 0
VERTEX
 8
RING
 10
8.7782
 20
6.8143
 30
14.7907
 70
192
 0
VERTEX
 8
RING
 10
7.619
 20
-3.9601
 30
14.7907
 70
192
 0
VERTEX
 8
RING
 10
-11.4479
 20
6.6321
 30
14.7941
 70
192
 0
VERTEX
 8
RING
 10
-11.4763
 20
6.5165
 30
17.0941
 70
192
 0
VERTEX
 8
RING
 10
8.9003
 20
3.4629
 30
14.8463
 70
192
 0
VERTEX
 8
RING
 10
8.4197
 20
7.2599
 30
14.7907
 70
192
 0
VERTEX
 8
RING
 10
-11.4938
 20
6.397
 30
17.0941
 70
192
 0
VERTEX
 8
RING
 10
8.6362
 20
-3.6954
 30
14.7907
 70
192
 0
VERTEX
 8
RING
 10
-11.4091
 20
6.7431
 30
17.0941
 70
192
 0
VERTEX
 8
RING
 10
-11.1716
 20
-3.2988
 30
17.144
 70
192
 0
VERTEX
 8
RING
 10
-11.4479
 20
6.6321
 30
17.0941
 70
192
 0
VERTEX
 8
RING
 10
8.516
 20
6.7511
 30
14.7442
 70
192
 0
VERTEX
 8
RING
 10
-11.4937
 20
-3.0489
 30
17.0941
 70
192
 0
VERTEX
 8
RING
 10
8.6934
 20
0.1208
 30
17.1436
 70
192
 0
VERTEX
 8
RING
 10
8.8537
 20
6.2729
 30
14.7442
 70
192
 0
VERTEX
 8
RING
 10
-11.4834
 20
-3.1291
 30
17.0941
 70
192
 0
VERTEX
 8
RING
 10
8.7233
 20
6.9165
 30
14.7907
 70
192
 0
VERTEX
 8
RING
 10
8.8939
 20
6.3969
 30
14.7872
 70
192
 0
VERTEX
 8
RING
 10
-11.4997
 20
6.274
 30
17.0941
 70
192
 0
VERTEX
 8
RING
 10
-11.218
 20
-3.1889
 30
17.144
 70
192
 0
VERTEX
 8
RING
 10
7.9951
 20
7.4275
 30
14.7442
 70
192
 0
VERTEX
 8
RING
 10
-11.4997
 20
-2.926
 30
17.0941
 70
192
 0
VERTEX
 8
RING
 10
8.2659
 20
-3.7033
 30
17.144
 70
192
 0
VERTEX
 8
RING
 10
7.6503
 20
7.5239
 30
14.7907
 70
192
 0
VERTEX
 8
RING
 10
-11.3777
 20
-3.4663
 30
17.0941
 70
192
 0
VERTEX
 8
RING
 10
-11.3228
 20
-3.5685
 30
17.0941
 70
192
 0
VERTEX
 8
RING
 10
8.8503
 20
0.3708
 30
14.9941
 70
192
 0
VERTEX
 8
RING
 10
8.8839
 20
6.4771
 30
14.7907
 70
192
 0
VERTEX
 8
RING
 10
-11.4585
 20
-3.246
 30
17.0941
 70
192
 0
VERTEX
 8
RING
 10
8.6503
 20
6.0958
 30
14.7941
 70
192
 0
VERTEX
 8
RING
 10
8.6503
 20
3.6217
 30
17.0945
 70
192
 0
VERTEX
 8
RING
 10
8.6768
 20
6.3026
 30
17.1436
 70
192
 0
VERTEX
 8
RING
 10
8.6515
 20
6.4212
 30
17.1436
 70
192
 0
VERTEX
 8
RING
 10
8.2928
 20
-3.999
 30
14.7907
 70
192
 0
VERTEX
 8
RING
 10
8.1705
 20
-4.0119
 30
14.7442
 70
192
 0
VERTEX
 8
RING
 10
8.1906
 20
-4.0539
 30
14.7907
 70
192
 0
VERTEX
 8
RING
 10
8.3768
 20
6.9408
 30
17.144
 70
192
 0
VERTEX
 8
RING
 10
8.0829
 20
-4.0993
 30
14.7907
 70
192
 0
VERTEX
 8
RING
 10
8.7609
 20
-3.5009
 30
14.7907
 70
192
 0
VERTEX
 8
RING
 10
8.7665
 20
-3.3776
 30
14.7442
 70
192
 0
VERTEX
 8
RING
 10
7.8971
 20
7.275
 30
17.1436
 70
192
 0
VERTEX
 8
RING
 10
7.666
 20
7.3434
 30
17.1436
 70
192
 0
VERTEX
 8
RING
 10
8.8346
 20
-3.1602
 30
14.7446
 70
192
 0
VERTEX
 8
RING
 10
8.6503
 20
3.4208
 30
16.8936
 70
192
 0
VERTEX
 8
RING
 10
8.6503
 20
3.4208
 30
14.9953
 70
192
 0
VERTEX
 8
RING
 10
-11.2356
 20
7.0434
 30
14.7907
 70
192
 0
VERTEX
 8
RING
 10
8.3903
 20
-3.5039
 30
14.7907
 70
192
 0
VERTEX
 8
RING
 10
7.6492
 20
-4.1294
 30
14.7442
 70
192
 0
VERTEX
 8
RING
 10
-11.4032
 20
6.6188
 30
14.7442
 70
192
 0
VERTEX
 8
RING
 10
-11.4762
 20
6.5165
 30
14.7907
 70
192
 0
VERTEX
 8
RING
 10
-10.2572
 20
-3.9531
 30
14.7907
 70
192
 0
VERTEX
 8
RING
 10
-10.4978
 20
-3.9302
 30
17.144
 70
192
 0
VERTEX
 8
RING
 10
-10.371
 20
-3.9252
 30
14.7907
 70
192
 0
VERTEX
 8
RING
 10
8.6347
 20
6.2954
 30
14.7872
 70
192
 0
VERTEX
 8
RING
 10
-11.3603
 20
6.849
 30
14.7907
 70
192
 0
VERTEX
 8
RING
 10
8.575
 20
6.5209
 30
14.7907
 70
192
 0
VERTEX
 8
RING
 10
-10.8922
 20
7.347
 30
14.7907
 70
192
 0
VERTEX
 8
RING
 10
8.6099
 20
6.4102
 30
14.7907
 70
192
 0
VERTEX
 8
RING
 10
-10.8049
 20
-3.7534
 30
14.7442
 70
192
 0
VERTEX
 8
RING
 10
-10.8683
 20
7.3071
 30
14.7442
 70
192
 0
VERTEX
 8
RING
 10
-11.4585
 20
-3.246
 30
14.7941
 70
192
 0
VERTEX
 8
RING
 10
-11.4231
 20
-3.3586
 30
17.0941
 70
192
 0
VERTEX
 8
RING
 10
8.9003
 20
3.6217
 30
14.7941
 70
192
 0
VERTEX
 8
RING
 10
8.3504
 20
-3.6217
 30
17.144
 70
192
 0
VERTEX
 8
RING
 10
8.5997
 20
-3.0997
 30
14.7872
 70
192
 0
VERTEX
 8
RING
 10
-10.7763
 20
-3.7167
 30
14.7907
 70
192
 0
VERTEX
 8
RING
 10
7.7451
 20
-3.9773
 30
14.7446
 70
192
 0
VERTEX
 8
RING
 10
-11.4168
 20
-3.235
 30
14.7446
 70
192
 0
VERTEX
 8
RING
 10
-10.3726
 20
7.518
 30
14.7907
 70
192
 0
VERTEX
 8
RING
 10
-11.2337
 20
-2.9473
 30
14.7907
 70
192
 0
VERTEX
 8
RING
 10
8.4787
 20
-3.8628
 30
14.7907
 70
192
 0
VERTEX
 8
RING
 10
8.9003
 20
3.4208
 30
14.995
 70
192
 0
VERTEX
 8
RING
 10
8.2659
 20
-3.7033
 30
14.7442
 70
192
 0
VERTEX
 8
RING
 10
8.2351
 20
-3.6684
 30
14.7907
 70
192
 0
VERTEX
 8
RING
 10
7.42
 20
-4.0226
 30
17.144
 70
192
 0
VERTEX
 8
RING
 10
8.3165
 20
-3.5897
 30
14.7907
 70
192
 0
VERTEX
 8
RING
 10
7.5438
 20
-4.0131
 30
17.1436
 70
192
 0
VERTEX
 8
RING
 10
7.6262
 20
-4.0025
 30
17.1436
 70
192
 0
VERTEX
 8
RING
 10
8.0519
 20
-3.8022
 30
14.7907
 70
192
 0
VERTEX
 8
RING
 10
8.1722
 20
-3.7742
 30
14.7446
 70
192
 0
VERTEX
 8
RING
 10
-11.0779
 20
7.2106
 30
14.7872
 70
192
 0
VERTEX
 8
RING
 10
-10.7087
 20
-3.8214
 30
17.144
 70
192
 0
VERTEX
 8
RING
 10
7.7451
 20
-3.9773
 30
17.1436
 70
192
 0
VERTEX
 8
RING
 10
7.8611
 20
-3.9446
 30
17.144
 70
192
 0
VERTEX
 8
RING
 10
8.1468
 20
-3.7395
 30
14.7907
 70
192
 0
VERTEX
 8
RING
 10
-10.6061
 20
-3.8806
 30
17.144
 70
192
 0
VERTEX
 8
RING
 10
8.9003
 20
3.6217
 30
17.0941
 70
192
 0
VERTEX
 8
RING
 10
8.9003
 20
6.274
 30
17.0941
 70
192
 0
VERTEX
 8
RING
 10
7.7343
 20
-3.936
 30
14.7872
 70
192
 0
VERTEX
 8
RING
 10
8.8554
 20
3.4281
 30
14.8068
 70
192
 0
VERTEX
 8
RING
 10
-11.1065
 20
-3.8371
 30
17.0941
 70
192
 0
VERTEX
 8
RING
 10
8.6219
 20
6.9853
 30
14.7442
 70
192
 0
VERTEX
 8
RING
 10
8.3932
 20
7.226
 30
14.7446
 70
192
 0
VERTEX
 8
RING
 10
-11.0191
 20
-3.912
 30
17.0941
 70
192
 0
VERTEX
 8
RING
 10
8.5872
 20
7.1024
 30
14.7907
 70
192
 0
VERTEX
 8
RING
 10
-11.2589
 20
-3.6648
 30
17.0941
 70
192
 0
VERTEX
 8
RING
 10
8.3256
 20
7.3267
 30
14.7907
 70
192
 0
VERTEX
 8
RING
 10
-11.1866
 20
-3.7545
 30
17.0941
 70
192
 0
VERTEX
 8
RING
 10
-10.6077
 20
-4.1242
 30
17.0941
 70
192
 0
VERTEX
 8
RING
 10
-10.7188
 20
-4.0854
 30
17.0941
 70
192
 0
VERTEX
 8
RING
 10
-10.925
 20
-3.9787
 30
14.7941
 70
192
 0
VERTEX
 8
RING
 10
-10.8247
 20
-4.0367
 30
17.0941
 70
192
 0
VERTEX
 8
RING
 10
-10.925
 20
-3.9787
 30
17.0941
 70
192
 0
VERTEX
 8
RING
 10
7.6503
 20
-4.176
 30
17.0941
 70
192
 0
VERTEX
 8
RING
 10
8.2949
 20
7.025
 30
14.7442
 70
192
 0
VERTEX
 8
RING
 10
8.2633
 20
6.9913
 30
14.7872
 70
192
 0
VERTEX
 8
RING
 10
8.3768
 20
6.9408
 30
14.7442
 70
192
 0
VERTEX
 8
RING
 10
7.9703
 20
-4.1347
 30
14.7907
 70
192
 0
VERTEX
 8
RING
 10
8.8503
 20
0.321
 30
14.809
 70
192
 0
VERTEX
 8
RING
 10
7.8461
 20
-4.1171
 30
14.7446
 70
192
 0
VERTEX
 8
RING
 10
8.342
 20
6.9099
 30
14.7907
 70
192
 0
VERTEX
 8
RING
 10
8.6934
 20
6.0968
 30
17.1436
 70
192
 0
VERTEX
 8
RING
 10
8.9002
 20
0.2825
 30
14.8467
 70
192
 0
VERTEX
 8
RING
 10
8.6504
 20
0.2788
 30
14.8447
 70
192
 0
VERTEX
 8
RING
 10
8.6504
 20
3.6216
 30
14.791
 70
192
 0
VERTEX
 8
RING
 10
8.6503
 20
0.3208
 30
14.995
 70
192
 0
VERTEX
 8
RING
 10
-11.4408
 20
-3.1218
 30
14.7446
 70
192
 0
VERTEX
 8
RING
 10
-11.1744
 20
-3.1728
 30
14.7907
 70
192
 0
VERTEX
 8
RING
 10
-10.9159
 20
6.9378
 30
14.7907
 70
192
 0
VERTEX
 8
RING
 10
-10.863
 20
7.0488
 30
14.7446
 70
192
 0
VERTEX
 8
RING
 10
-10.7013
 20
-4.0421
 30
14.7442
 70
192
 0
VERTEX
 8
RING
 10
-10.8247
 20
-4.0366
 30
14.7907
 70
192
 0
VERTEX
 8
RING
 10
-10.8345
 20
7.0165
 30
14.7907
 70
192
 0
VERTEX
 8
RING
 10
-10.6752
 20
7.1902
 30
14.7442
 70
192
 0
VERTEX
 8
RING
 10
-10.8049
 20
-3.9984
 30
14.7446
 70
192
 0
VERTEX
 8
RING
 10
-10.6513
 20
7.1503
 30
14.7907
 70
192
 0
VERTEX
 8
RING
 10
-10.5506
 20
7.2043
 30
14.7907
 70
192
 0
VERTEX
 8
RING
 10
-10.4445
 20
7.2489
 30
14.7907
 70
192
 0
VERTEX
 8
RING
 10
-11.0191
 20
-3.9119
 30
14.7907
 70
192
 0
VERTEX
 8
RING
 10
8.6503
 20
0.12
 30
17.0941
 70
192
 0
VERTEX
 8
RING
 10
8.6503
 20
-2.7477
 30
17.0941
 70
192
 0
VERTEX
 8
RING
 10
8.9003
 20
0.12
 30
17.0941
 70
192
 0
VERTEX
 8
RING
 10
-10.3336
 20
7.2841
 30
14.7872
 70
192
 0
VERTEX
 8
RING
 10
8.8537
 20
3.6208
 30
14.7443
 70
192
 0
VERTEX
 8
RING
 10
8.9002
 20
0.12
 30
14.7907
 70
192
 0
VERTEX
 8
RING
 10
-10.2183
 20
7.3081
 30
14.7907
 70
192
 0
VERTEX
 8
RING
 10
-10.2497
 20
-4.1759
 30
14.7907
 70
192
 0
VERTEX
 8
RING
 10
-10.1394
 20
7.3183
 30
14.7907
 70
192
 0
VERTEX
 8
RING
 10
-10.0193
 20
7.3671
 30
14.7446
 70
192
 0
VERTEX
 8
RING
 10
-10.0183
 20
7.3241
 30
14.7907
 70
192
 0
VERTEX
 8
RING
 10
7.4199
 20
7.3671
 30
14.7446
 70
192
 0
VERTEX
 8
RING
 10
-10.2486
 20
-4.1294
 30
14.7442
 70
192
 0
VERTEX
 8
RING
 10
-10.3726
 20
-4.1699
 30
14.7907
 70
192
 0
VERTEX
 8
RING
 10
7.4189
 20
7.3241
 30
14.7907
 70
192
 0
VERTEX
 8
RING
 10
7.54
 20
7.3183
 30
14.7907
 70
192
 0
VERTEX
 8
RING
 10
7.666
 20
7.3434
 30
14.7446
 70
192
 0
VERTEX
 8
RING
 10
-11.2096
 20
-3.0623
 30
14.7872
 70
192
 0
VERTEX
 8
RING
 10
-11.2796
 20
-2.9551
 30
14.7442
 70
192
 0
VERTEX
 8
RING
 10
8.6504
 20
0.12
 30
14.7907
 70
192
 0
VERTEX
 8
RING
 10
8.9002
 20
-2.926
 30
14.7907
 70
192
 0
VERTEX
 8
RING
 10
8.5274
 20
-3.7509
 30
14.7442
 70
192
 0
VERTEX
 8
RING
 10
-11.1154
 20
-3.4031
 30
17.144
 70
192
 0
VERTEX
 8
RING
 10
8.5613
 20
-3.7827
 30
14.7907
 70
192
 0
VERTEX
 8
RING
 10
8.6023
 20
-3.6689
 30
14.7446
 70
192
 0
VERTEX
 8
RING
 10
8.1033
 20
7.3934
 30
14.7446
 70
192
 0
VERTEX
 8
RING
 10
7.8928
 20
7.5005
 30
14.7907
 70
192
 0
VERTEX
 8
RING
 10
-10.9762
 20
-3.5927
 30
17.144
 70
192
 0
VERTEX
 8
RING
 10
8.0083
 20
7.4721
 30
14.7907
 70
192
 0
VERTEX
 8
RING
 10
-10.2497
 20
-4.176
 30
17.0941
 70
192
 0
VERTEX
 8
RING
 10
-10.3727
 20
-4.17
 30
17.0941
 70
192
 0
VERTEX
 8
RING
 10
8.7003
 20
3.6208
 30
14.7444
 70
192
 0
VERTEX
 8
RING
 10
8.8445
 20
6.3926
 30
14.7441
 70
192
 0
VERTEX
 8
RING
 10
8.8347
 20
6.4687
 30
14.7441
 70
192
 0
VERTEX
 8
RING
 10
8.8998
 20
3.4139
 30
16.8934
 70
192
 0
VERTEX
 8
RING
 10
8.7332
 20
6.7927
 30
14.7441
 70
192
 0
VERTEX
 8
RING
 10
8.6804
 20
6.8909
 30
14.7441
 70
192
 0
VERTEX
 8
RING
 10
8.5498
 20
7.0694
 30
14.7441
 70
192
 0
VERTEX
 8
RING
 10
8.2986
 20
7.2846
 30
14.7441
 70
192
 0
VERTEX
 8
RING
 10
8.2023
 20
7.3403
 30
14.7441
 70
192
 0
VERTEX
 8
RING
 10
8.8572
 20
3.3713
 30
16.8942
 70
192
 0
VERTEX
 8
RING
 10
7.8832
 20
7.4515
 30
14.7441
 70
192
 0
VERTEX
 8
RING
 10
7.7685
 20
7.4683
 30
14.7441
 70
192
 0
VERTEX
 8
RING
 10
7.6491
 20
7.474
 30
14.7441
 70
192
 0
VERTEX
 8
RING
 10
-10.2485
 20
7.474
 30
14.7441
 70
192
 0
VERTEX
 8
RING
 10
-10.665
 20
7.4005
 30
14.7441
 70
192
 0
VERTEX
 8
RING
 10
-10.7684
 20
7.3569
 30
14.7441
 70
192
 0
VERTEX
 8
RING
 10
-10.9589
 20
7.2428
 30
14.7441
 70
192
 0
VERTEX
 8
RING
 10
-11.1243
 20
7.0966
 30
14.7441
 70
192
 0
VERTEX
 8
RING
 10
-11.1963
 20
7.0127
 30
14.7441
 70
192
 0
VERTEX
 8
RING
 10
-11.2603
 20
6.9223
 30
14.7441
 70
192
 0
VERTEX
 8
RING
 10
-11.316
 20
6.826
 30
14.7441
 70
192
 0
VERTEX
 8
RING
 10
-11.3627
 20
6.7244
 30
14.7441
 70
192
 0
VERTEX
 8
RING
 10
8.8572
 20
3.3713
 30
14.9942
 70
192
 0
VERTEX
 8
RING
 10
-11.4272
 20
6.5069
 30
14.7441
 70
192
 0
VERTEX
 8
RING
 10
-11.4439
 20
6.3922
 30
14.7441
 70
192
 0
VERTEX
 8
RING
 10
-11.4497
 20
6.2728
 30
14.7441
 70
192
 0
VERTEX
 8
RING
 10
-11.4497
 20
-2.9248
 30
14.7441
 70
192
 0
VERTEX
 8
RING
 10
-10.3688
 20
7.4751
 30
14.7446
 70
192
 0
VERTEX
 8
RING
 10
-11.2798
 20
-3.5428
 30
14.7441
 70
192
 0
VERTEX
 8
RING
 10
-11.2185
 20
-3.6352
 30
14.7441
 70
192
 0
VERTEX
 8
RING
 10
-11.1491
 20
-3.7213
 30
14.7441
 70
192
 0
VERTEX
 8
RING
 10
-11.0722
 20
-3.8006
 30
14.7441
 70
192
 0
VERTEX
 8
RING
 10
-10.9883
 20
-3.8725
 30
14.7441
 70
192
 0
VERTEX
 8
RING
 10
-10.898
 20
-3.9366
 30
14.7441
 70
192
 0
VERTEX
 8
RING
 10
-10.2497
 20
7.5235
 30
14.7872
 70
192
 0
VERTEX
 8
RING
 10
-10.3678
 20
-4.1202
 30
14.7441
 70
192
 0
VERTEX
 8
RING
 10
7.7689
 20
-4.1202
 30
14.7441
 70
192
 0
VERTEX
 8
RING
 10
-11.4936
 20
-3.0489
 30
14.7907
 70
192
 0
VERTEX
 8
RING
 10
7.9576
 20
-4.0864
 30
14.7441
 70
192
 0
VERTEX
 8
RING
 10
8.0657
 20
-4.0524
 30
14.7441
 70
192
 0
VERTEX
 8
RING
 10
7.8534
 20
-4.1595
 30
14.7907
 70
192
 0
VERTEX
 8
RING
 10
8.2672
 20
-3.9561
 30
14.7441
 70
192
 0
VERTEX
 8
RING
 10
8.3595
 20
-3.8948
 30
14.7441
 70
192
 0
VERTEX
 8
RING
 10
8.4456
 20
-3.8254
 30
14.7441
 70
192
 0
VERTEX
 8
RING
 10
8.6609
 20
-3.5743
 30
14.7441
 70
192
 0
VERTEX
 8
RING
 10
8.7166
 20
-3.478
 30
14.7441
 70
192
 0
VERTEX
 8
RING
 10
8.8005
 20
-3.2698
 30
14.7441
 70
192
 0
VERTEX
 8
RING
 10
8.8445
 20
-3.0441
 30
14.7441
 70
192
 0
VERTEX
 8
RING
 10
8.8503
 20
-2.9248
 30
14.7441
 70
192
 0
VERTEX
 8
RING
 10
8.8503
 20
0.1208
 30
14.7441
 70
192
 0
VERTEX
 8
RING
 10
-10.5697
 20
7.4828
 30
14.7907
 70
192
 0
VERTEX
 8
RING
 10
8.6473
 20
-3.1138
 30
14.7441
 70
192
 0
VERTEX
 8
RING
 10
8.6075
 20
-3.2274
 30
14.7441
 70
192
 0
VERTEX
 8
RING
 10
8.5575
 20
-3.3358
 30
14.7441
 70
192
 0
VERTEX
 8
RING
 10
8.4981
 20
-3.4384
 30
14.7441
 70
192
 0
VERTEX
 8
RING
 10
8.3528
 20
-3.624
 30
14.7441
 70
192
 0
VERTEX
 8
RING
 10
8.0776
 20
-3.8451
 30
14.7441
 70
192
 0
VERTEX
 8
RING
 10
7.9727
 20
-3.9013
 30
14.7441
 70
192
 0
VERTEX
 8
RING
 10
8.4764
 20
6.7274
 30
14.7872
 70
192
 0
VERTEX
 8
RING
 10
7.6273
 20
-4.0093
 30
14.7441
 70
192
 0
VERTEX
 8
RING
 10
-10.2667
 20
-4.0021
 30
14.7441
 70
192
 0
VERTEX
 8
RING
 10
-10.3852
 20
-3.9731
 30
14.7441
 70
192
 0
VERTEX
 8
RING
 10
-10.4991
 20
-3.9334
 30
14.7441
 70
192
 0
VERTEX
 8
RING
 10
-10.6077
 20
-3.8836
 30
14.7441
 70
192
 0
VERTEX
 8
RING
 10
-10.8966
 20
-3.6795
 30
14.7441
 70
192
 0
VERTEX
 8
RING
 10
-11.0528
 20
-3.5033
 30
14.7441
 70
192
 0
VERTEX
 8
RING
 10
-11.1183
 20
-3.4049
 30
14.7441
 70
192
 0
VERTEX
 8
RING
 10
-10.5579
 20
7.4378
 30
14.7442
 70
192
 0
VERTEX
 8
RING
 10
-11.2576
 20
-3.0749
 30
14.7441
 70
192
 0
VERTEX
 8
RING
 10
-11.2937
 20
-2.873
 30
14.7441
 70
192
 0
VERTEX
 8
RING
 10
-11.2997
 20
-2.7489
 30
14.7441
 70
192
 0
VERTEX
 8
RING
 10
-11.2937
 20
6.2214
 30
14.7441
 70
192
 0
VERTEX
 8
RING
 10
-11.2758
 20
6.3437
 30
14.7441
 70
192
 0
VERTEX
 8
RING
 10
-11.2068
 20
6.5755
 30
14.7441
 70
192
 0
VERTEX
 8
RING
 10
-11.1569
 20
6.6838
 30
14.7441
 70
192
 0
VERTEX
 8
RING
 10
-11.0975
 20
6.7864
 30
14.7441
 70
192
 0
VERTEX
 8
RING
 10
-11.029
 20
6.8827
 30
14.7441
 70
192
 0
VERTEX
 8
RING
 10
-10.9522
 20
6.972
 30
14.7441
 70
192
 0
VERTEX
 8
RING
 10
-10.7756
 20
7.1278
 30
14.7441
 70
192
 0
VERTEX
 8
RING
 10
-10.5721
 20
7.2493
 30
14.7441
 70
192
 0
VERTEX
 8
RING
 10
-10.4617
 20
7.2958
 30
14.7441
 70
192
 0
VERTEX
 8
RING
 10
-10.3462
 20
7.332
 30
14.7441
 70
192
 0
VERTEX
 8
RING
 10
-10.2267
 20
7.3573
 30
14.7441
 70
192
 0
VERTEX
 8
RING
 10
-10.1438
 20
7.368
 30
14.7441
 70
192
 0
VERTEX
 8
RING
 10
-10.4527
 20
7.5076
 30
14.7907
 70
192
 0
VERTEX
 8
RING
 10
7.5448
 20
7.368
 30
14.7441
 70
192
 0
VERTEX
 8
RING
 10
7.7858
 20
7.3211
 30
14.7441
 70
192
 0
VERTEX
 8
RING
 10
8.5722
 20
6.6468
 30
14.7442
 70
192
 0
VERTEX
 8
RING
 10
8.6187
 20
6.537
 30
14.7442
 70
192
 0
VERTEX
 8
RING
 10
8.2077
 20
7.1041
 30
14.7441
 70
192
 0
VERTEX
 8
RING
 10
8.6582
 20
6.423
 30
14.7441
 70
192
 0
VERTEX
 8
RING
 10
8.6836
 20
6.3037
 30
14.7441
 70
192
 0
VERTEX
 8
RING
 10
8.7003
 20
6.097
 30
14.7441
 70
192
 0
VERTEX
 8
RING
 10
-10.4922
 20
-4.1526
 30
17.0941
 70
192
 0
VERTEX
 8
RING
 10
8.6943
 20
6.221
 30
17.1441
 70
192
 0
VERTEX
 8
RING
 10
-10.4449
 20
7.4617
 30
14.7442
 70
192
 0
VERTEX
 8
RING
 10
8.6219
 20
6.5381
 30
17.1441
 70
192
 0
VERTEX
 8
RING
 10
8.5753
 20
6.6483
 30
17.1441
 70
192
 0
VERTEX
 8
RING
 10
8.5189
 20
6.7529
 30
17.1441
 70
192
 0
VERTEX
 8
RING
 10
8.4534
 20
6.8513
 30
17.1441
 70
192
 0
VERTEX
 8
RING
 10
8.2972
 20
7.0275
 30
17.1441
 70
192
 0
VERTEX
 8
RING
 10
8.2077
 20
7.1041
 30
17.1441
 70
192
 0
VERTEX
 8
RING
 10
8.1112
 20
7.1724
 30
17.1441
 70
192
 0
VERTEX
 8
RING
 10
8.0083
 20
7.2317
 30
17.1441
 70
192
 0
VERTEX
 8
RING
 10
7.7858
 20
7.3211
 30
17.1441
 70
192
 0
VERTEX
 8
RING
 10
7.5448
 20
7.368
 30
17.1441
 70
192
 0
VERTEX
 8
RING
 10
-10.0195
 20
7.374
 30
17.1441
 70
192
 0
VERTEX
 8
RING
 10
-10.1438
 20
7.368
 30
17.1441
 70
192
 0
VERTEX
 8
RING
 10
-10.2267
 20
7.3573
 30
17.1441
 70
192
 0
VERTEX
 8
RING
 10
-10.3462
 20
7.332
 30
17.1441
 70
192
 0
VERTEX
 8
RING
 10
-10.4617
 20
7.2958
 30
17.1441
 70
192
 0
VERTEX
 8
RING
 10
-10.5721
 20
7.2493
 30
17.1441
 70
192
 0
VERTEX
 8
RING
 10
-10.7756
 20
7.1278
 30
17.1441
 70
192
 0
VERTEX
 8
RING
 10
-10.8676
 20
7.0539
 30
17.1441
 70
192
 0
VERTEX
 8
RING
 10
-10.9522
 20
6.972
 30
17.1441
 70
192
 0
VERTEX
 8
RING
 10
-11.1569
 20
6.6838
 30
17.1441
 70
192
 0
VERTEX
 8
RING
 10
-11.2068
 20
6.5755
 30
17.1441
 70
192
 0
VERTEX
 8
RING
 10
-11.2466
 20
6.4619
 30
17.1441
 70
192
 0
VERTEX
 8
RING
 10
-11.2758
 20
6.3437
 30
17.1441
 70
192
 0
VERTEX
 8
RING
 10
-11.2937
 20
6.2214
 30
17.1441
 70
192
 0
VERTEX
 8
RING
 10
-11.2937
 20
-2.873
 30
17.1441
 70
192
 0
VERTEX
 8
RING
 10
-11.2829
 20
-2.9557
 30
17.1441
 70
192
 0
VERTEX
 8
RING
 10
-10.7899
 20
7.4019
 30
14.7907
 70
192
 0
VERTEX
 8
RING
 10
-11.0528
 20
-3.5033
 30
17.1441
 70
192
 0
VERTEX
 8
RING
 10
-10.8966
 20
-3.6795
 30
17.1441
 70
192
 0
VERTEX
 8
RING
 10
7.7733
 20
-4.1699
 30
14.7907
 70
192
 0
VERTEX
 8
RING
 10
-10.3852
 20
-3.9731
 30
17.1441
 70
192
 0
VERTEX
 8
RING
 10
-10.2667
 20
-4.0021
 30
17.1441
 70
192
 0
VERTEX
 8
RING
 10
-10.1442
 20
-4.02
 30
17.1441
 70
192
 0
VERTEX
 8
RING
 10
-10.0195
 20
-4.026
 30
17.1441
 70
192
 0
VERTEX
 8
RING
 10
-11.1865
 20
-3.7544
 30
14.7907
 70
192
 0
VERTEX
 8
RING
 10
7.9727
 20
-3.9013
 30
17.1441
 70
192
 0
VERTEX
 8
RING
 10
8.0776
 20
-3.8451
 30
17.1441
 70
192
 0
VERTEX
 8
RING
 10
8.1762
 20
-3.7798
 30
17.1441
 70
192
 0
VERTEX
 8
RING
 10
8.4297
 20
-3.5346
 30
17.1441
 70
192
 0
VERTEX
 8
RING
 10
8.4981
 20
-3.4384
 30
17.1441
 70
192
 0
VERTEX
 8
RING
 10
8.5575
 20
-3.3358
 30
17.1441
 70
192
 0
VERTEX
 8
RING
 10
8.6473
 20
-3.1138
 30
17.1441
 70
192
 0
VERTEX
 8
RING
 10
8.7003
 20
-2.7489
 30
17.1441
 70
192
 0
VERTEX
 8
RING
 10
8.8503
 20
-2.9248
 30
17.1441
 70
192
 0
VERTEX
 8
RING
 10
8.8445
 20
-3.0441
 30
17.1441
 70
192
 0
VERTEX
 8
RING
 10
-11.1991
 20
6.4477
 30
14.7872
 70
192
 0
VERTEX
 8
RING
 10
8.8005
 20
-3.2698
 30
17.1441
 70
192
 0
VERTEX
 8
RING
 10
8.7633
 20
-3.3763
 30
17.1441
 70
192
 0
VERTEX
 8
RING
 10
-11.244
 20
-2.8686
 30
14.7907
 70
192
 0
VERTEX
 8
RING
 10
8.6609
 20
-3.5743
 30
17.1441
 70
192
 0
VERTEX
 8
RING
 10
8.4456
 20
-3.8254
 30
17.1441
 70
192
 0
VERTEX
 8
RING
 10
8.2672
 20
-3.9561
 30
17.1441
 70
192
 0
VERTEX
 8
RING
 10
8.169
 20
-4.0088
 30
17.1441
 70
192
 0
VERTEX
 8
RING
 10
8.0657
 20
-4.0524
 30
17.1441
 70
192
 0
VERTEX
 8
RING
 10
7.7689
 20
-4.1202
 30
17.1441
 70
192
 0
VERTEX
 8
RING
 10
-10.7
 20
-4.039
 30
17.1441
 70
192
 0
VERTEX
 8
RING
 10
-10.898
 20
-3.9366
 30
17.1441
 70
192
 0
VERTEX
 8
RING
 10
-10.9883
 20
-3.8725
 30
17.1441
 70
192
 0
VERTEX
 8
RING
 10
-11.0722
 20
-3.8006
 30
17.1441
 70
192
 0
VERTEX
 8
RING
 10
-11.1491
 20
-3.7213
 30
17.1441
 70
192
 0
VERTEX
 8
RING
 10
-11.2798
 20
-3.5428
 30
17.1441
 70
192
 0
VERTEX
 8
RING
 10
-11.4497
 20
-2.9248
 30
17.1441
 70
192
 0
VERTEX
 8
RING
 10
-11.4497
 20
6.2728
 30
17.1441
 70
192
 0
VERTEX
 8
RING
 10
-11.4272
 20
6.5069
 30
17.1441
 70
192
 0
VERTEX
 8
RING
 10
-11.316
 20
6.826
 30
17.1441
 70
192
 0
VERTEX
 8
RING
 10
-11.1963
 20
7.0127
 30
17.1441
 70
192
 0
VERTEX
 8
RING
 10
-11.1243
 20
7.0966
 30
17.1441
 70
192
 0
VERTEX
 8
RING
 10
-10.9589
 20
7.2428
 30
17.1441
 70
192
 0
VERTEX
 8
RING
 10
-10.8665
 20
7.3041
 30
17.1441
 70
192
 0
VERTEX
 8
RING
 10
-10.7684
 20
7.3569
 30
17.1441
 70
192
 0
VERTEX
 8
RING
 10
-10.665
 20
7.4005
 30
17.1441
 70
192
 0
VERTEX
 8
RING
 10
-10.4443
 20
7.4584
 30
17.1441
 70
192
 0
VERTEX
 8
RING
 10
-10.2485
 20
7.474
 30
17.1441
 70
192
 0
VERTEX
 8
RING
 10
7.6491
 20
7.474
 30
17.1441
 70
192
 0
VERTEX
 8
RING
 10
7.7685
 20
7.4683
 30
17.1441
 70
192
 0
VERTEX
 8
RING
 10
7.8832
 20
7.4515
 30
17.1441
 70
192
 0
VERTEX
 8
RING
 10
7.9941
 20
7.4242
 30
17.1441
 70
192
 0
VERTEX
 8
RING
 10
8.1007
 20
7.387
 30
17.1441
 70
192
 0
VERTEX
 8
RING
 10
8.6909
 20
6.2207
 30
14.7442
 70
192
 0
VERTEX
 8
RING
 10
8.2986
 20
7.2846
 30
17.1441
 70
192
 0
VERTEX
 8
RING
 10
8.389
 20
7.2206
 30
17.1441
 70
192
 0
VERTEX
 8
RING
 10
8.4729
 20
7.1486
 30
17.1441
 70
192
 0
VERTEX
 8
RING
 10
8.5498
 20
7.0694
 30
17.1441
 70
192
 0
VERTEX
 8
RING
 10
8.6804
 20
6.8909
 30
17.1441
 70
192
 0
VERTEX
 8
RING
 10
8.7332
 20
6.7927
 30
17.1441
 70
192
 0
VERTEX
 8
RING
 10
8.7768
 20
6.6894
 30
17.1441
 70
192
 0
VERTEX
 8
RING
 10
8.8108
 20
6.5813
 30
17.1441
 70
192
 0
VERTEX
 8
RING
 10
8.8347
 20
6.4687
 30
17.1441
 70
192
 0
VERTEX
 8
RING
 10
8.8503
 20
6.2728
 30
17.1441
 70
192
 0
VERTEX
 8
RING
 10
8.8503
 20
3.6208
 30
17.1442
 70
192
 0
VERTEX
 8
RING
 10
8.0829
 20
-4.0994
 30
17.0941
 70
192
 0
VERTEX
 8
RING
 10
7.9703
 20
-4.1348
 30
17.0941
 70
192
 0
VERTEX
 8
RING
 10
-11.4473
 20
-3.0448
 30
14.7442
 70
192
 0
VERTEX
 8
RING
 10
7.8534
 20
-4.1597
 30
17.0941
 70
192
 0
VERTEX
 8
RING
 10
-11.409
 20
6.7431
 30
14.7907
 70
192
 0
VERTEX
 8
RING
 10
7.7733
 20
-4.17
 30
17.0941
 70
192
 0
VERTEX
 8
RING
 10
8.3891
 20
-3.9352
 30
14.7941
 70
192
 0
VERTEX
 8
RING
 10
8.4788
 20
-3.8629
 30
17.0941
 70
192
 0
VERTEX
 8
RING
 10
8.3891
 20
-3.9352
 30
17.0941
 70
192
 0
VERTEX
 8
RING
 10
8.2929
 20
-3.9991
 30
17.0941
 70
192
 0
VERTEX
 8
RING
 10
8.1906
 20
-4.054
 30
17.0941
 70
192
 0
VERTEX
 8
RING
 10
8.8097
 20
-3.3951
 30
17.0941
 70
192
 0
VERTEX
 8
RING
 10
8.8097
 20
-3.3951
 30
14.7941
 70
192
 0
VERTEX
 8
RING
 10
8.8485
 20
-3.284
 30
17.0941
 70
192
 0
VERTEX
 8
RING
 10
8.8485
 20
-3.284
 30
14.7941
 70
192
 0
VERTEX
 8
RING
 10
8.8769
 20
-3.1685
 30
17.0941
 70
192
 0
VERTEX
 8
RING
 10
8.8944
 20
-3.0489
 30
17.0941
 70
192
 0
VERTEX
 8
RING
 10
8.5614
 20
-3.7828
 30
17.0941
 70
192
 0
VERTEX
 8
RING
 10
8.6363
 20
-3.6954
 30
17.0941
 70
192
 0
VERTEX
 8
RING
 10
8.7031
 20
-3.6013
 30
17.0941
 70
192
 0
VERTEX
 8
RING
 10
8.761
 20
-3.501
 30
17.0941
 70
192
 0
VERTEX
 8
RING
 10
8.6503
 20
-2.7477
 30
14.7941
 70
192
 0
VERTEX
 8
RING
 10
8.6445
 20
-2.8685
 30
17.0941
 70
192
 0
VERTEX
 8
RING
 10
8.6273
 20
-2.986
 30
17.0941
 70
192
 0
VERTEX
 8
RING
 10
8.5993
 20
-3.0996
 30
17.0941
 70
192
 0
VERTEX
 8
RING
 10
8.5611
 20
-3.2086
 30
17.0941
 70
192
 0
VERTEX
 8
RING
 10
8.9003
 20
-2.926
 30
17.0941
 70
192
 0
VERTEX
 8
RING
 10
-11.2928
 20
6.0968
 30
14.7446
 70
192
 0
VERTEX
 8
RING
 10
8.1467
 20
-3.7394
 30
17.0941
 70
192
 0
VERTEX
 8
RING
 10
8.2351
 20
-3.6684
 30
17.0941
 70
192
 0
VERTEX
 8
RING
 10
7.9512
 20
-3.8561
 30
17.0941
 70
192
 0
VERTEX
 8
RING
 10
8.0519
 20
-3.8021
 30
17.0941
 70
192
 0
VERTEX
 8
RING
 10
8.5131
 20
-3.3127
 30
14.7941
 70
192
 0
VERTEX
 8
RING
 10
8.456
 20
-3.4113
 30
17.0941
 70
192
 0
VERTEX
 8
RING
 10
8.5131
 20
-3.3127
 30
17.0941
 70
192
 0
VERTEX
 8
RING
 10
8.3164
 20
-3.5897
 30
17.0941
 70
192
 0
VERTEX
 8
RING
 10
8.3902
 20
-3.5038
 30
17.0941
 70
192
 0
VERTEX
 8
RING
 10
-10.6823
 20
7.4474
 30
14.7907
 70
192
 0
VERTEX
 8
RING
 10
-10.0183
 20
-3.976
 30
17.0941
 70
192
 0
VERTEX
 8
RING
 10
7.4189
 20
-3.976
 30
17.0941
 70
192
 0
VERTEX
 8
RING
 10
-10.2572
 20
-3.953
 30
17.0941
 70
192
 0
VERTEX
 8
RING
 10
-10.1394
 20
-3.9701
 30
17.0941
 70
192
 0
VERTEX
 8
RING
 10
7.7341
 20
-3.9356
 30
17.0941
 70
192
 0
VERTEX
 8
RING
 10
7.9512
 20
-3.8561
 30
14.7941
 70
192
 0
VERTEX
 8
RING
 10
7.8451
 20
-3.9008
 30
17.0941
 70
192
 0
VERTEX
 8
RING
 10
7.54
 20
-3.9701
 30
17.0941
 70
192
 0
VERTEX
 8
RING
 10
-11.1064
 20
-3.837
 30
14.7907
 70
192
 0
VERTEX
 8
RING
 10
7.6189
 20
-3.9599
 30
17.0941
 70
192
 0
VERTEX
 8
RING
 10
-10.9413
 20
-3.5618
 30
17.0941
 70
192
 0
VERTEX
 8
RING
 10
-11.0125
 20
-3.4737
 30
17.0941
 70
192
 0
VERTEX
 8
RING
 10
-10.7763
 20
-3.7166
 30
17.0941
 70
192
 0
VERTEX
 8
RING
 10
-10.8624
 20
-3.643
 30
17.0941
 70
192
 0
VERTEX
 8
RING
 10
-10.4804
 20
-3.887
 30
14.7941
 70
192
 0
VERTEX
 8
RING
 10
-10.5847
 20
-3.8391
 30
17.0941
 70
192
 0
VERTEX
 8
RING
 10
-10.5847
 20
-3.8391
 30
14.7941
 70
192
 0
VERTEX
 8
RING
 10
-10.6836
 20
-3.7822
 30
17.0941
 70
192
 0
VERTEX
 8
RING
 10
-10.371
 20
-3.9251
 30
17.0941
 70
192
 0
VERTEX
 8
RING
 10
-11.2498
 20
6.0958
 30
14.7907
 70
192
 0
VERTEX
 8
RING
 10
-10.4804
 20
-3.887
 30
17.0941
 70
192
 0
VERTEX
 8
RING
 10
-11.2497
 20
-2.7477
 30
17.0941
 70
192
 0
VERTEX
 8
RING
 10
-11.2497
 20
-2.7477
 30
14.7941
 70
192
 0
VERTEX
 8
RING
 10
-11.2497
 20
6.0958
 30
17.0941
 70
192
 0
VERTEX
 8
RING
 10
-11.2336
 20
-2.9473
 30
17.0941
 70
192
 0
VERTEX
 8
RING
 10
-11.2438
 20
-2.8685
 30
17.0941
 70
192
 0
VERTEX
 8
RING
 10
-11.1743
 20
-3.1728
 30
17.0941
 70
192
 0
VERTEX
 8
RING
 10
-11.2092
 20
-3.0622
 30
17.0941
 70
192
 0
VERTEX
 8
RING
 10
-11.0125
 20
-3.4737
 30
14.7941
 70
192
 0
VERTEX
 8
RING
 10
-11.0754
 20
-3.3791
 30
17.0941
 70
192
 0
VERTEX
 8
RING
 10
-11.0754
 20
-3.3791
 30
14.7941
 70
192
 0
VERTEX
 8
RING
 10
-11.1295
 20
-3.2786
 30
17.0941
 70
192
 0
VERTEX
 8
RING
 10
-11.244
 20
6.2166
 30
14.7907
 70
192
 0
VERTEX
 8
RING
 10
-10.9158
 20
6.9377
 30
17.0941
 70
192
 0
VERTEX
 8
RING
 10
-11.0264
 20
6.8806
 30
17.144
 70
192
 0
VERTEX
 8
RING
 10
-10.9896
 20
6.8518
 30
17.0941
 70
192
 0
VERTEX
 8
RING
 10
-11.1125
 20
6.6608
 30
14.7941
 70
192
 0
VERTEX
 8
RING
 10
-11.0554
 20
6.7593
 30
17.0941
 70
192
 0
VERTEX
 8
RING
 10
-11.1125
 20
6.6608
 30
17.0941
 70
192
 0
VERTEX
 8
RING
 10
-11.1604
 20
6.5567
 30
17.0941
 70
192
 0
VERTEX
 8
RING
 10
-11.1716
 20
-3.2988
 30
14.7442
 70
192
 0
VERTEX
 8
RING
 10
-11.1987
 20
6.4476
 30
17.0941
 70
192
 0
VERTEX
 8
RING
 10
-11.2267
 20
6.334
 30
17.0941
 70
192
 0
VERTEX
 8
RING
 10
-11.2438
 20
6.2166
 30
17.0941
 70
192
 0
VERTEX
 8
RING
 10
-10.1394
 20
7.3182
 30
17.0941
 70
192
 0
VERTEX
 8
RING
 10
-10.2183
 20
7.308
 30
17.0941
 70
192
 0
VERTEX
 8
RING
 10
-10.3335
 20
7.2836
 30
17.0941
 70
192
 0
VERTEX
 8
RING
 10
-11.4936
 20
6.397
 30
14.7907
 70
192
 0
VERTEX
 8
RING
 10
-10.4444
 20
7.2488
 30
17.0941
 70
192
 0
VERTEX
 8
RING
 10
-10.5505
 20
7.2042
 30
17.0941
 70
192
 0
VERTEX
 8
RING
 10
-10.7461
 20
7.0874
 30
14.7941
 70
192
 0
VERTEX
 8
RING
 10
-10.6513
 20
7.1502
 30
17.0941
 70
192
 0
VERTEX
 8
RING
 10
-10.7461
 20
7.0874
 30
17.0941
 70
192
 0
VERTEX
 8
RING
 10
-10.8344
 20
7.0164
 30
17.0941
 70
192
 0
VERTEX
 8
RING
 10
8.263
 20
6.991
 30
17.0941
 70
192
 0
VERTEX
 8
RING
 10
8.1769
 20
7.0646
 30
17.0941
 70
192
 0
VERTEX
 8
RING
 10
-11.4832
 20
-3.129
 30
14.7907
 70
192
 0
VERTEX
 8
RING
 10
8.4131
 20
6.8217
 30
17.0941
 70
192
 0
VERTEX
 8
RING
 10
8.3419
 20
6.9098
 30
17.0941
 70
192
 0
VERTEX
 8
RING
 10
8.5301
 20
6.6267
 30
17.0941
 70
192
 0
VERTEX
 8
RING
 10
8.476
 20
6.7271
 30
17.0941
 70
192
 0
VERTEX
 8
RING
 10
8.6098
 20
6.4102
 30
17.0941
 70
192
 0
VERTEX
 8
RING
 10
8.5301
 20
6.6267
 30
14.7941
 70
192
 0
VERTEX
 8
RING
 10
8.5749
 20
6.5209
 30
17.0941
 70
192
 0
VERTEX
 8
RING
 10
-11.1296
 20
-3.2787
 30
14.7907
 70
192
 0
VERTEX
 8
RING
 10
7.4189
 20
7.324
 30
17.0941
 70
192
 0
VERTEX
 8
RING
 10
8.4507
 20
6.8493
 30
14.7442
 70
192
 0
VERTEX
 8
RING
 10
-10.0183
 20
7.324
 30
17.0941
 70
192
 0
VERTEX
 8
RING
 10
7.6578
 20
7.301
 30
17.0941
 70
192
 0
VERTEX
 8
RING
 10
7.54
 20
7.3182
 30
17.0941
 70
192
 0
VERTEX
 8
RING
 10
7.881
 20
7.235
 30
17.0941
 70
192
 0
VERTEX
 8
RING
 10
7.7716
 20
7.2731
 30
17.0941
 70
192
 0
VERTEX
 8
RING
 10
7.9854
 20
7.1872
 30
14.7941
 70
192
 0
VERTEX
 8
RING
 10
8.0842
 20
7.1302
 30
17.0941
 70
192
 0
VERTEX
 8
RING
 10
7.881
 20
7.235
 30
14.7941
 70
192
 0
VERTEX
 8
RING
 10
7.9854
 20
7.1872
 30
17.0941
 70
192
 0
VERTEX
 8
RING
 10
8.8141
 20
6.5822
 30
14.7442
 70
192
 0
VERTEX
 8
RING
 10
8.6342
 20
6.2953
 30
17.0941
 70
192
 0
VERTEX
 8
RING
 10
8.4132
 20
6.8218
 30
14.7907
 70
192
 0
VERTEX
 8
RING
 10
8.6445
 20
6.2166
 30
17.0941
 70
192
 0
VERTEX
 8
RING
 10
8.6503
 20
6.0958
 30
17.0941
 70
192
 0
VERTEX
 8
RING
 10
8.5612
 20
-3.2087
 30
14.7907
 70
192
 0
VERTEX
 8
RING
 10
8.7003
 20
0.3708
 30
16.8941
 70
192
 0
VERTEX
 8
RING
 10
8.7003
 20
3.3708
 30
16.8944
 70
192
 0
VERTEX
 8
RING
 10
-10.7087
 20
-3.8214
 30
14.7442
 70
192
 0
VERTEX
 8
RING
 10
8.7003
 20
0.1208
 30
14.7441
 70
192
 0
VERTEX
 8
RING
 10
8.8503
 20
0.3708
 30
16.8941
 70
192
 0
VERTEX
 8
RING
 10
8.7003
 20
3.6208
 30
17.1444
 70
192
 0
VERTEX
 8
RING
 10
8.4561
 20
-3.4114
 30
14.7907
 70
192
 0
VERTEX
 8
RING
 10
7.6578
 20
7.3012
 30
14.7907
 70
192
 0
VERTEX
 8
RING
 10
-10.4921
 20
-4.1521
 30
14.7872
 70
192
 0
VERTEX
 8
RING
 10
8.8503
 20
0.1208
 30
17.1441
 70
192
 0
VERTEX
 8
RING
 10
7.7717
 20
7.2732
 30
14.7907
 70
192
 0
VERTEX
 8
RING
 10
7.8971
 20
7.275
 30
14.7446
 70
192
 0
VERTEX
 8
RING
 10
-10.4832
 20
-4.1068
 30
14.7442
 70
192
 0
VERTEX
 8
RING
 10
-10.6077
 20
-4.1241
 30
14.7907
 70
192
 0
VERTEX
 8
RING
 10
-10.6752
 20
7.1902
 30
17.144
 70
192
 0
VERTEX
 8
RING
 10
8.0051
 20
7.2255
 30
14.7446
 70
192
 0
VERTEX
 8
RING
 10
8.1074
 20
7.1665
 30
14.7446
 70
192
 0
VERTEX
 8
RING
 10
8.0842
 20
7.1303
 30
14.7907
 70
192
 0
VERTEX
 8
RING
 10
-10.5945
 20
-4.0795
 30
14.7442
 70
192
 0
VERTEX
 8
RING
 10
8.177
 20
7.0647
 30
14.7907
 70
192
 0
VERTEX
 8
RING
 10
8.7003
 20
3.3708
 30
14.9944
 70
192
 0
VERTEX
 8
RING
 10
-11.1605
 20
6.5567
 30
14.7907
 70
192
 0
VERTEX
 8
RING
 10
-11.0496
 20
7.1786
 30
14.7446
 70
192
 0
VERTEX
 8
RING
 10
8.8237
 20
6.7066
 30
14.7907
 70
192
 0
VERTEX
 8
RING
 10
8.427
 20
-3.5325
 30
14.7442
 70
192
 0
VERTEX
 8
RING
 10
8.6446
 20
6.2166
 30
14.7907
 70
192
 0
VERTEX
 8
RING
 10
-11.3227
 20
-3.5685
 30
14.7907
 70
192
 0
VERTEX
 8
RING
 10
8.6503
 20
3.4744
 30
17.0345
 70
192
 0
VERTEX
 8
RING
 10
8.7003
 20
3.4366
 30
17.0787
 70
192
 0
VERTEX
 8
RING
 10
-11.2271
 20
6.3341
 30
14.7872
 70
192
 0
VERTEX
 8
RING
 10
-11.4992
 20
-2.926
 30
14.7872
 70
192
 0
VERTEX
 8
RING
 10
-10.9884
 20
7.2831
 30
14.7907
 70
192
 0
VERTEX
 8
RING
 10
8.8539
 20
3.4329
 30
17.0746
 70
192
 0
VERTEX
 8
RING
 10
-11.2434
 20
6.4609
 30
14.7442
 70
192
 0
VERTEX
 8
RING
 10
-11.4992
 20
6.274
 30
14.7872
 70
192
 0
VERTEX
 8
RING
 10
7.6503
 20
-4.1755
 30
14.7872
 70
192
 0
VERTEX
 8
RING
 10
8.9001
 20
3.4743
 30
17.0376
 70
192
 0
VERTEX
 8
RING
 10
-11.218
 20
-3.1889
 30
14.7442
 70
192
 0
VERTEX
 8
RING
 10
-11.423
 20
-3.3586
 30
14.7907
 70
192
 0
VERTEX
 8
RING
 10
8.6969
 20
0.2996
 30
17.0798
 70
192
 0
VERTEX
 8
RING
 10
-10.8624
 20
-3.643
 30
14.7907
 70
192
 0
VERTEX
 8
RING
 10
8.8503
 20
0.2977
 30
17.0819
 70
192
 0
VERTEX
 8
RING
 10
8.9002
 20
0.2621
 30
17.0514
 70
192
 0
VERTEX
 8
RING
 10
-10.9762
 20
-3.5927
 30
14.7442
 70
192
 0
VERTEX
 8
RING
 10
-10.9414
 20
-3.5619
 30
14.7907
 70
192
 0
VERTEX
 8
RING
 10
-11.3794
 20
-3.3425
 30
14.7442
 70
192
 0
VERTEX
 8
RING
 10
-11.3776
 20
-3.4662
 30
14.7907
 70
192
 0
VERTEX
 8
RING
 10
8.6503
 20
0.2649
 30
17.0491
 70
192
 0
VERTEX
 8
RING
 10
-11.3388
 20
-3.4477
 30
14.7446
 70
192
 0
VERTEX
 8
RING
 10
8.5071
 20
7.185
 30
14.7907
 70
192
 0
VERTEX
 8
RING
 10
8.7003
 20
3.4267
 30
14.808
 70
192
 0
VERTEX
 8
RING
 10
-10.6838
 20
-3.7826
 30
14.7872
 70
192
 0
VERTEX
 8
RING
 10
7.4199
 20
7.3671
 30
17.1436
 70
192
 0
VERTEX
 8
RING
 10
8.8943
 20
-3.0489
 30
14.7907
 70
192
 0
VERTEX
 8
RING
 10
8.6503
 20
3.4643
 30
14.8434
 70
192
 0
VERTEX
 8
RING
 10
8.8768
 20
-3.1685
 30
14.7907
 70
192
 0
VERTEX
 8
RING
 10
8.78
 20
6.6906
 30
14.7442
 70
192
 0
VERTEX
 8
RING
 10
8.703
 20
-3.6012
 30
14.7907
 70
192
 0
VERTEX
 8
RING
 10
-11.0946
 20
6.7846
 30
17.144
 70
192
 0
VERTEX
 8
RING
 10
-10.8028
 20
-3.7506
 30
17.1436
 70
192
 0
VERTEX
 8
RING
 10
8.4752
 20
7.1511
 30
14.7442
 70
192
 0
VERTEX
 8
RING
 10
7.42
 20
-4.0226
 30
14.7442
 70
192
 0
VERTEX
 8
RING
 10
8.6969
 20
-2.7488
 30
14.7442
 70
192
 0
VERTEX
 8
RING
 10
7.4189
 20
-3.9761
 30
14.7907
 70
192
 0
VERTEX
 8
RING
 10
7.5438
 20
-4.0131
 30
14.7446
 70
192
 0
VERTEX
 8
RING
 10
7.54
 20
-3.9703
 30
14.7907
 70
192
 0
VERTEX
 8
RING
 10
8.6909
 20
-2.8731
 30
14.7442
 70
192
 0
VERTEX
 8
RING
 10
-10.1439
 20
-4.0166
 30
14.7442
 70
192
 0
VERTEX
 8
RING
 10
8.6446
 20
-2.8686
 30
14.7907
 70
192
 0
VERTEX
 8
RING
 10
-10.1394
 20
-3.9706
 30
14.7872
 70
192
 0
VERTEX
 8
RING
 10
8.6696
 20
-2.9943
 30
14.7446
 70
192
 0
VERTEX
 8
RING
 10
-10.0194
 20
-4.0226
 30
14.7442
 70
192
 0
VERTEX
 8
RING
 10
-11.2928
 20
6.0968
 30
17.1436
 70
192
 0
VERTEX
 8
RING
 10
-10.0183
 20
-3.9765
 30
14.7872
 70
192
 0
VERTEX
 8
RING
 10
-11.2963
 20
-2.7488
 30
17.144
 70
192
 0
VERTEX
 8
RING
 10
8.6274
 20
-2.986
 30
14.7907
 70
192
 0
VERTEX
 8
RING
 10
7.8611
 20
-3.9446
 30
14.7442
 70
192
 0
VERTEX
 8
RING
 10
8.9002
 20
6.274
 30
14.7907
 70
192
 0
VERTEX
 8
RING
 10
7.8451
 20
-3.9009
 30
14.7907
 70
192
 0
VERTEX
 8
RING
 10
-11.2543
 20
-3.0741
 30
17.144
 70
192
 0
VERTEX
 8
RING
 10
8.6986
 20
0.3201
 30
14.8082
 70
192
 0
VERTEX
 8
RING
 10
0
 20
0
 30
0
 70
128
 71
207
 72
226
 73
191
 74
70
 0
VERTEX
 8
RING
 10
0
 20
0
 30
0
 70
128
 71
586
 72
209
 73
553
 74
585
 0
VERTEX
 8
RING
 10
0
 20
0
 30
0
 70
128
 71
33
 72
389
 73
177
 74
179
 0
VERTEX
 8
RING
 10
0
 20
0
 30
0
 70
128
 71
389
 72
29
 73
176
 74
177
 0
VERTEX
 8
RING
 10
0
 20
0
 30
0
 70
128
 71
29
 72
28
 73
331
 74
176
 0
VERTEX
 8
RING
 10
0
 20
0
 30
0
 70
128
 71
28
 72
31
 73
237
 74
331
 0
VERTEX
 8
RING
 10
0
 20
0
 30
0
 70
128
 71
31
 72
30
 73
236
 74
237
 0
VERTEX
 8
RING
 10
0
 20
0
 30
0
 70
128
 71
488
 72
97
 73
623
 74
489
 0
VERTEX
 8
RING
 10
0
 20
0
 30
0
 70
128
 71
553
 72
91
 73
583
 74
585
 0
VERTEX
 8
RING
 10
0
 20
0
 30
0
 70
128
 71
227
 72
450
 73
209
 74
212
 0
VERTEX
 8
RING
 10
0
 20
0
 30
0
 70
128
 71
489
 72
623
 73
359
 74
486
 0
VERTEX
 8
RING
 10
0
 20
0
 30
0
 70
128
 71
486
 72
359
 73
358
 74
487
 0
VERTEX
 8
RING
 10
0
 20
0
 30
0
 70
128
 71
487
 72
358
 73
618
 74
483
 0
VERTEX
 8
RING
 10
0
 20
0
 30
0
 70
128
 71
42
 72
61
 73
190
 74
190
 0
VERTEX
 8
RING
 10
0
 20
0
 30
0
 70
128
 71
87
 72
493
 73
491
 74
229
 0
VERTEX
 8
RING
 10
0
 20
0
 30
0
 70
128
 71
229
 72
491
 73
473
 74
361
 0
VERTEX
 8
RING
 10
0
 20
0
 30
0
 70
128
 71
473
 72
472
 73
234
 74
361
 0
VERTEX
 8
RING
 10
0
 20
0
 30
0
 70
128
 71
234
 72
472
 73
475
 74
362
 0
VERTEX
 8
RING
 10
0
 20
0
 30
0
 70
128
 71
475
 72
474
 73
603
 74
362
 0
VERTEX
 8
RING
 10
0
 20
0
 30
0
 70
128
 71
603
 72
474
 73
479
 74
159
 0
VERTEX
 8
RING
 10
0
 20
0
 30
0
 70
128
 71
550
 72
292
 73
291
 74
456
 0
VERTEX
 8
RING
 10
0
 20
0
 30
0
 70
128
 71
568
 72
292
 73
550
 74
124
 0
VERTEX
 8
RING
 10
0
 20
0
 30
0
 70
128
 71
456
 72
291
 73
290
 74
543
 0
VERTEX
 8
RING
 10
0
 20
0
 30
0
 70
128
 71
543
 72
290
 73
289
 74
142
 0
VERTEX
 8
RING
 10
0
 20
0
 30
0
 70
128
 71
564
 72
260
 73
167
 74
594
 0
VERTEX
 8
RING
 10
0
 20
0
 30
0
 70
128
 71
557
 72
176
 73
331
 74
552
 0
VERTEX
 8
RING
 10
0
 20
0
 30
0
 70
128
 71
479
 72
477
 73
163
 74
159
 0
VERTEX
 8
RING
 10
0
 20
0
 30
0
 70
128
 71
95
 72
37
 73
38
 74
105
 0
VERTEX
 8
RING
 10
0
 20
0
 30
0
 70
128
 71
105
 72
38
 73
39
 74
40
 0
VERTEX
 8
RING
 10
0
 20
0
 30
0
 70
128
 71
40
 72
39
 73
41
 74
567
 0
VERTEX
 8
RING
 10
0
 20
0
 30
0
 70
128
 71
567
 72
41
 73
43
 74
78
 0
VERTEX
 8
RING
 10
0
 20
0
 30
0
 70
128
 71
78
 72
43
 73
44
 74
94
 0
VERTEX
 8
RING
 10
0
 20
0
 30
0
 70
128
 71
94
 72
44
 73
45
 74
46
 0
VERTEX
 8
RING
 10
0
 20
0
 30
0
 70
128
 71
46
 72
45
 73
47
 74
172
 0
VERTEX
 8
RING
 10
0
 20
0
 30
0
 70
128
 71
172
 72
47
 73
48
 74
593
 0
VERTEX
 8
RING
 10
0
 20
0
 30
0
 70
128
 71
593
 72
48
 73
49
 74
83
 0
VERTEX
 8
RING
 10
0
 20
0
 30
0
 70
128
 71
83
 72
49
 73
50
 74
174
 0
VERTEX
 8
RING
 10
0
 20
0
 30
0
 70
128
 71
174
 72
50
 73
51
 74
52
 0
VERTEX
 8
RING
 10
0
 20
0
 30
0
 70
128
 71
52
 72
51
 73
53
 74
54
 0
VERTEX
 8
RING
 10
0
 20
0
 30
0
 70
128
 71
54
 72
53
 73
55
 74
235
 0
VERTEX
 8
RING
 10
0
 20
0
 30
0
 70
128
 71
233
 72
57
 73
56
 74
59
 0
VERTEX
 8
RING
 10
0
 20
0
 30
0
 70
128
 71
101
 72
60
 73
58
 74
272
 0
VERTEX
 8
RING
 10
0
 20
0
 30
0
 70
128
 71
235
 72
55
 73
57
 74
233
 0
VERTEX
 8
RING
 10
0
 20
0
 30
0
 70
128
 71
146
 72
64
 73
62
 74
322
 0
VERTEX
 8
RING
 10
0
 20
0
 30
0
 70
128
 71
59
 72
56
 73
60
 74
101
 0
VERTEX
 8
RING
 10
0
 20
0
 30
0
 70
128
 71
288
 72
66
 73
65
 74
461
 0
VERTEX
 8
RING
 10
0
 20
0
 30
0
 70
128
 71
272
 72
58
 73
64
 74
146
 0
VERTEX
 8
RING
 10
0
 20
0
 30
0
 70
128
 71
360
 72
68
 73
67
 74
134
 0
VERTEX
 8
RING
 10
0
 20
0
 30
0
 70
128
 71
322
 72
62
 73
66
 74
288
 0
VERTEX
 8
RING
 10
0
 20
0
 30
0
 70
128
 71
575
 72
71
 73
69
 74
158
 0
VERTEX
 8
RING
 10
0
 20
0
 30
0
 70
128
 71
461
 72
65
 73
68
 74
360
 0
VERTEX
 8
RING
 10
0
 20
0
 30
0
 70
128
 71
72
 72
74
 73
73
 74
123
 0
VERTEX
 8
RING
 10
0
 20
0
 30
0
 70
128
 71
134
 72
67
 73
71
 74
575
 0
VERTEX
 8
RING
 10
0
 20
0
 30
0
 70
128
 71
75
 72
77
 73
76
 74
132
 0
VERTEX
 8
RING
 10
0
 20
0
 30
0
 70
128
 71
158
 72
69
 73
74
 74
72
 0
VERTEX
 8
RING
 10
0
 20
0
 30
0
 70
128
 71
460
 72
457
 73
373
 74
372
 0
VERTEX
 8
RING
 10
0
 20
0
 30
0
 70
128
 71
123
 72
73
 73
77
 74
75
 0
VERTEX
 8
RING
 10
0
 20
0
 30
0
 70
128
 71
457
 72
458
 73
374
 74
373
 0
VERTEX
 8
RING
 10
0
 20
0
 30
0
 70
128
 71
458
 72
449
 73
5
 74
374
 0
VERTEX
 8
RING
 10
0
 20
0
 30
0
 70
128
 71
116
 72
436
 73
117
 74
283
 0
VERTEX
 8
RING
 10
0
 20
0
 30
0
 70
128
 71
116
 72
283
 73
282
 74
601
 0
VERTEX
 8
RING
 10
0
 20
0
 30
0
 70
128
 71
117
 72
436
 73
438
 74
284
 0
VERTEX
 8
RING
 10
0
 20
0
 30
0
 70
128
 71
284
 72
438
 73
599
 74
120
 0
VERTEX
 8
RING
 10
0
 20
0
 30
0
 70
128
 71
120
 72
599
 73
597
 74
285
 0
VERTEX
 8
RING
 10
0
 20
0
 30
0
 70
128
 71
285
 72
597
 73
227
 74
286
 0
VERTEX
 8
RING
 10
0
 20
0
 30
0
 70
128
 71
82
 72
140
 73
211
 74
167
 0
VERTEX
 8
RING
 10
0
 20
0
 30
0
 70
128
 71
572
 72
545
 73
121
 74
571
 0
VERTEX
 8
RING
 10
0
 20
0
 30
0
 70
128
 71
576
 72
247
 73
545
 74
572
 0
VERTEX
 8
RING
 10
0
 20
0
 30
0
 70
128
 71
121
 72
122
 73
598
 74
598
 0
VERTEX
 8
RING
 10
0
 20
0
 30
0
 70
128
 71
107
 72
542
 73
108
 74
192
 0
VERTEX
 8
RING
 10
0
 20
0
 30
0
 70
128
 71
580
 72
241
 73
247
 74
576
 0
VERTEX
 8
RING
 10
0
 20
0
 30
0
 70
128
 71
418
 72
43
 73
41
 74
419
 0
VERTEX
 8
RING
 10
0
 20
0
 30
0
 70
128
 71
44
 72
417
 73
1
 74
45
 0
VERTEX
 8
RING
 10
0
 20
0
 30
0
 70
128
 71
1
 72
416
 73
47
 74
45
 0
VERTEX
 8
RING
 10
0
 20
0
 30
0
 70
128
 71
47
 72
416
 73
415
 74
48
 0
VERTEX
 8
RING
 10
0
 20
0
 30
0
 70
128
 71
415
 72
414
 73
49
 74
48
 0
VERTEX
 8
RING
 10
0
 20
0
 30
0
 70
128
 71
414
 72
413
 73
50
 74
49
 0
VERTEX
 8
RING
 10
0
 20
0
 30
0
 70
128
 71
598
 72
122
 73
564
 74
594
 0
VERTEX
 8
RING
 10
0
 20
0
 30
0
 70
128
 71
413
 72
11
 73
51
 74
50
 0
VERTEX
 8
RING
 10
0
 20
0
 30
0
 70
128
 71
11
 72
411
 73
53
 74
51
 0
VERTEX
 8
RING
 10
0
 20
0
 30
0
 70
128
 71
411
 72
410
 73
55
 74
53
 0
VERTEX
 8
RING
 10
0
 20
0
 30
0
 70
128
 71
410
 72
409
 73
57
 74
55
 0
VERTEX
 8
RING
 10
0
 20
0
 30
0
 70
128
 71
409
 72
408
 73
56
 74
57
 0
VERTEX
 8
RING
 10
0
 20
0
 30
0
 70
128
 71
408
 72
407
 73
60
 74
56
 0
VERTEX
 8
RING
 10
0
 20
0
 30
0
 70
128
 71
419
 72
41
 73
39
 74
420
 0
VERTEX
 8
RING
 10
0
 20
0
 30
0
 70
128
 71
420
 72
39
 73
38
 74
421
 0
VERTEX
 8
RING
 10
0
 20
0
 30
0
 70
128
 71
421
 72
38
 73
37
 74
6
 0
VERTEX
 8
RING
 10
0
 20
0
 30
0
 70
128
 71
6
 72
37
 73
165
 74
422
 0
VERTEX
 8
RING
 10
0
 20
0
 30
0
 70
128
 71
522
 72
336
 73
335
 74
521
 0
VERTEX
 8
RING
 10
0
 20
0
 30
0
 70
128
 71
521
 72
335
 73
334
 74
525
 0
VERTEX
 8
RING
 10
0
 20
0
 30
0
 70
128
 71
82
 72
149
 73
241
 74
241
 0
VERTEX
 8
RING
 10
0
 20
0
 30
0
 70
128
 71
140
 72
164
 73
165
 74
621
 0
VERTEX
 8
RING
 10
0
 20
0
 30
0
 70
128
 71
525
 72
334
 73
110
 74
523
 0
VERTEX
 8
RING
 10
0
 20
0
 30
0
 70
128
 71
523
 72
110
 73
109
 74
539
 0
VERTEX
 8
RING
 10
0
 20
0
 30
0
 70
128
 71
539
 72
109
 73
332
 74
541
 0
VERTEX
 8
RING
 10
0
 20
0
 30
0
 70
128
 71
541
 72
332
 73
189
 74
542
 0
VERTEX
 8
RING
 10
0
 20
0
 30
0
 70
128
 71
336
 72
522
 73
519
 74
337
 0
VERTEX
 8
RING
 10
0
 20
0
 30
0
 70
128
 71
519
 72
520
 73
114
 74
337
 0
VERTEX
 8
RING
 10
0
 20
0
 30
0
 70
128
 71
114
 72
520
 73
516
 74
338
 0
VERTEX
 8
RING
 10
0
 20
0
 30
0
 70
128
 71
516
 72
517
 73
339
 74
338
 0
VERTEX
 8
RING
 10
0
 20
0
 30
0
 70
128
 71
517
 72
535
 73
340
 74
339
 0
VERTEX
 8
RING
 10
0
 20
0
 30
0
 70
128
 71
535
 72
537
 73
341
 74
340
 0
VERTEX
 8
RING
 10
0
 20
0
 30
0
 70
128
 71
537
 72
532
 73
118
 74
341
 0
VERTEX
 8
RING
 10
0
 20
0
 30
0
 70
128
 71
532
 72
533
 73
342
 74
118
 0
VERTEX
 8
RING
 10
0
 20
0
 30
0
 70
128
 71
533
 72
530
 73
119
 74
342
 0
VERTEX
 8
RING
 10
0
 20
0
 30
0
 70
128
 71
530
 72
531
 73
343
 74
119
 0
VERTEX
 8
RING
 10
0
 20
0
 30
0
 70
128
 71
531
 72
527
 73
596
 74
343
 0
VERTEX
 8
RING
 10
0
 20
0
 30
0
 70
128
 71
169
 72
46
 73
172
 74
244
 0
VERTEX
 8
RING
 10
0
 20
0
 30
0
 70
128
 71
94
 72
46
 73
169
 74
243
 0
VERTEX
 8
RING
 10
0
 20
0
 30
0
 70
128
 71
590
 72
102
 73
103
 74
570
 0
VERTEX
 8
RING
 10
0
 20
0
 30
0
 70
128
 71
601
 72
282
 73
231
 74
85
 0
VERTEX
 8
RING
 10
0
 20
0
 30
0
 70
128
 71
231
 72
228
 73
230
 74
85
 0
VERTEX
 8
RING
 10
0
 20
0
 30
0
 70
128
 71
4
 72
177
 73
176
 74
557
 0
VERTEX
 8
RING
 10
0
 20
0
 30
0
 70
128
 71
228
 72
281
 73
148
 74
230
 0
VERTEX
 8
RING
 10
0
 20
0
 30
0
 70
128
 71
148
 72
281
 73
280
 74
430
 0
VERTEX
 8
RING
 10
0
 20
0
 30
0
 70
128
 71
214
 72
236
 73
181
 74
579
 0
VERTEX
 8
RING
 10
0
 20
0
 30
0
 70
128
 71
206
 72
171
 73
180
 74
178
 0
VERTEX
 8
RING
 10
0
 20
0
 30
0
 70
128
 71
178
 72
180
 73
179
 74
199
 0
VERTEX
 8
RING
 10
0
 20
0
 30
0
 70
128
 71
199
 72
179
 73
177
 74
4
 0
VERTEX
 8
RING
 10
0
 20
0
 30
0
 70
128
 71
100
 72
384
 73
25
 74
25
 0
VERTEX
 8
RING
 10
0
 20
0
 30
0
 70
128
 71
152
 72
154
 73
27
 74
27
 0
VERTEX
 8
RING
 10
0
 20
0
 30
0
 70
128
 71
154
 72
155
 73
27
 74
27
 0
VERTEX
 8
RING
 10
0
 20
0
 30
0
 70
128
 71
27
 72
155
 73
160
 74
388
 0
VERTEX
 8
RING
 10
0
 20
0
 30
0
 70
128
 71
35
 72
160
 73
161
 74
32
 0
VERTEX
 8
RING
 10
0
 20
0
 30
0
 70
128
 71
384
 72
100
 73
141
 74
22
 0
VERTEX
 8
RING
 10
0
 20
0
 30
0
 70
128
 71
160
 72
35
 73
388
 74
388
 0
VERTEX
 8
RING
 10
0
 20
0
 30
0
 70
128
 71
32
 72
161
 73
369
 74
387
 0
VERTEX
 8
RING
 10
0
 20
0
 30
0
 70
128
 71
387
 72
369
 73
370
 74
386
 0
VERTEX
 8
RING
 10
0
 20
0
 30
0
 70
128
 71
370
 72
371
 73
385
 74
386
 0
VERTEX
 8
RING
 10
0
 20
0
 30
0
 70
128
 71
371
 72
100
 73
25
 74
385
 0
VERTEX
 8
RING
 10
0
 20
0
 30
0
 70
128
 71
17
 72
87
 73
229
 74
394
 0
VERTEX
 8
RING
 10
0
 20
0
 30
0
 70
128
 71
87
 72
17
 73
16
 74
16
 0
VERTEX
 8
RING
 10
0
 20
0
 30
0
 70
128
 71
394
 72
229
 73
361
 74
34
 0
VERTEX
 8
RING
 10
0
 20
0
 30
0
 70
128
 71
361
 72
234
 73
393
 74
34
 0
VERTEX
 8
RING
 10
0
 20
0
 30
0
 70
128
 71
372
 72
373
 73
383
 74
19
 0
VERTEX
 8
RING
 10
0
 20
0
 30
0
 70
128
 71
234
 72
362
 73
392
 74
393
 0
VERTEX
 8
RING
 10
0
 20
0
 30
0
 70
128
 71
391
 72
362
 73
603
 74
390
 0
VERTEX
 8
RING
 10
0
 20
0
 30
0
 70
128
 71
362
 72
391
 73
392
 74
392
 0
VERTEX
 8
RING
 10
0
 20
0
 30
0
 70
128
 71
390
 72
603
 73
159
 74
33
 0
VERTEX
 8
RING
 10
0
 20
0
 30
0
 70
128
 71
159
 72
163
 73
389
 74
33
 0
VERTEX
 8
RING
 10
0
 20
0
 30
0
 70
128
 71
163
 72
129
 73
29
 74
389
 0
VERTEX
 8
RING
 10
0
 20
0
 30
0
 70
128
 71
129
 72
364
 73
28
 74
29
 0
VERTEX
 8
RING
 10
0
 20
0
 30
0
 70
128
 71
22
 72
141
 73
372
 74
19
 0
VERTEX
 8
RING
 10
0
 20
0
 30
0
 70
128
 71
31
 72
364
 73
365
 74
30
 0
VERTEX
 8
RING
 10
0
 20
0
 30
0
 70
128
 71
364
 72
31
 73
28
 74
28
 0
VERTEX
 8
RING
 10
0
 20
0
 30
0
 70
128
 71
365
 72
366
 73
30
 74
30
 0
VERTEX
 8
RING
 10
0
 20
0
 30
0
 70
128
 71
366
 72
367
 73
30
 74
30
 0
VERTEX
 8
RING
 10
0
 20
0
 30
0
 70
128
 71
367
 72
152
 73
27
 74
30
 0
VERTEX
 8
RING
 10
0
 20
0
 30
0
 70
128
 71
189
 72
332
 73
422
 74
422
 0
VERTEX
 8
RING
 10
0
 20
0
 30
0
 70
128
 71
422
 72
332
 73
109
 74
6
 0
VERTEX
 8
RING
 10
0
 20
0
 30
0
 70
128
 71
423
 72
549
 73
189
 74
422
 0
VERTEX
 8
RING
 10
0
 20
0
 30
0
 70
128
 71
417
 72
336
 73
337
 74
1
 0
VERTEX
 8
RING
 10
0
 20
0
 30
0
 70
128
 71
337
 72
114
 73
416
 74
1
 0
VERTEX
 8
RING
 10
0
 20
0
 30
0
 70
128
 71
114
 72
338
 73
415
 74
416
 0
VERTEX
 8
RING
 10
0
 20
0
 30
0
 70
128
 71
10
 72
376
 73
377
 74
377
 0
VERTEX
 8
RING
 10
0
 20
0
 30
0
 70
128
 71
414
 72
338
 73
339
 74
413
 0
VERTEX
 8
RING
 10
0
 20
0
 30
0
 70
128
 71
338
 72
414
 73
415
 74
415
 0
VERTEX
 8
RING
 10
0
 20
0
 30
0
 70
128
 71
413
 72
339
 73
340
 74
11
 0
VERTEX
 8
RING
 10
0
 20
0
 30
0
 70
128
 71
6
 72
109
 73
110
 74
421
 0
VERTEX
 8
RING
 10
0
 20
0
 30
0
 70
128
 71
421
 72
110
 73
334
 74
420
 0
VERTEX
 8
RING
 10
0
 20
0
 30
0
 70
128
 71
334
 72
335
 73
419
 74
420
 0
VERTEX
 8
RING
 10
0
 20
0
 30
0
 70
128
 71
418
 72
335
 73
336
 74
417
 0
VERTEX
 8
RING
 10
0
 20
0
 30
0
 70
128
 71
376
 72
91
 73
553
 74
377
 0
VERTEX
 8
RING
 10
0
 20
0
 30
0
 70
128
 71
335
 72
418
 73
419
 74
419
 0
VERTEX
 8
RING
 10
0
 20
0
 30
0
 70
128
 71
381
 72
374
 73
5
 74
380
 0
VERTEX
 8
RING
 10
0
 20
0
 30
0
 70
128
 71
618
 72
358
 73
395
 74
395
 0
VERTEX
 8
RING
 10
0
 20
0
 30
0
 70
128
 71
395
 72
358
 73
359
 74
13
 0
VERTEX
 8
RING
 10
0
 20
0
 30
0
 70
128
 71
13
 72
359
 73
623
 74
18
 0
VERTEX
 8
RING
 10
0
 20
0
 30
0
 70
128
 71
623
 72
97
 73
20
 74
18
 0
VERTEX
 8
RING
 10
0
 20
0
 30
0
 70
128
 71
373
 72
374
 73
14
 74
383
 0
VERTEX
 8
RING
 10
0
 20
0
 30
0
 70
128
 71
97
 72
87
 73
16
 74
20
 0
VERTEX
 8
RING
 10
0
 20
0
 30
0
 70
128
 71
340
 72
341
 73
411
 74
11
 0
VERTEX
 8
RING
 10
0
 20
0
 30
0
 70
128
 71
341
 72
118
 73
410
 74
411
 0
VERTEX
 8
RING
 10
0
 20
0
 30
0
 70
128
 71
9
 72
10
 73
377
 74
378
 0
VERTEX
 8
RING
 10
0
 20
0
 30
0
 70
128
 71
118
 72
342
 73
409
 74
410
 0
VERTEX
 8
RING
 10
0
 20
0
 30
0
 70
128
 71
408
 72
342
 73
119
 74
407
 0
VERTEX
 8
RING
 10
0
 20
0
 30
0
 70
128
 71
342
 72
408
 73
409
 74
409
 0
VERTEX
 8
RING
 10
0
 20
0
 30
0
 70
128
 71
119
 72
343
 73
407
 74
407
 0
VERTEX
 8
RING
 10
0
 20
0
 30
0
 70
128
 71
343
 72
596
 73
407
 74
407
 0
VERTEX
 8
RING
 10
0
 20
0
 30
0
 70
128
 71
407
 72
596
 73
344
 74
406
 0
VERTEX
 8
RING
 10
0
 20
0
 30
0
 70
128
 71
375
 72
9
 73
378
 74
12
 0
VERTEX
 8
RING
 10
0
 20
0
 30
0
 70
128
 71
344
 72
345
 73
406
 74
406
 0
VERTEX
 8
RING
 10
0
 20
0
 30
0
 70
128
 71
345
 72
346
 73
406
 74
406
 0
VERTEX
 8
RING
 10
0
 20
0
 30
0
 70
128
 71
406
 72
346
 73
347
 74
8
 0
VERTEX
 8
RING
 10
0
 20
0
 30
0
 70
128
 71
347
 72
405
 73
8
 74
8
 0
VERTEX
 8
RING
 10
0
 20
0
 30
0
 70
128
 71
405
 72
347
 73
348
 74
7
 0
VERTEX
 8
RING
 10
0
 20
0
 30
0
 70
128
 71
380
 72
5
 73
375
 74
12
 0
VERTEX
 8
RING
 10
0
 20
0
 30
0
 70
128
 71
7
 72
348
 73
349
 74
404
 0
VERTEX
 8
RING
 10
0
 20
0
 30
0
 70
128
 71
404
 72
349
 73
558
 74
403
 0
VERTEX
 8
RING
 10
0
 20
0
 30
0
 70
128
 71
402
 72
403
 73
558
 74
350
 0
VERTEX
 8
RING
 10
0
 20
0
 30
0
 70
128
 71
401
 72
402
 73
350
 74
351
 0
VERTEX
 8
RING
 10
0
 20
0
 30
0
 70
128
 71
374
 72
381
 73
14
 74
14
 0
VERTEX
 8
RING
 10
0
 20
0
 30
0
 70
128
 71
351
 72
23
 73
401
 74
401
 0
VERTEX
 8
RING
 10
0
 20
0
 30
0
 70
128
 71
23
 72
351
 73
352
 74
400
 0
VERTEX
 8
RING
 10
0
 20
0
 30
0
 70
128
 71
400
 72
352
 73
496
 74
399
 0
VERTEX
 8
RING
 10
0
 20
0
 30
0
 70
128
 71
21
 72
399
 73
496
 74
602
 0
VERTEX
 8
RING
 10
0
 20
0
 30
0
 70
128
 71
398
 72
21
 73
602
 74
353
 0
VERTEX
 8
RING
 10
0
 20
0
 30
0
 70
128
 71
353
 72
26
 73
398
 74
398
 0
VERTEX
 8
RING
 10
0
 20
0
 30
0
 70
128
 71
26
 72
353
 73
354
 74
24
 0
VERTEX
 8
RING
 10
0
 20
0
 30
0
 70
128
 71
24
 72
354
 73
355
 74
397
 0
VERTEX
 8
RING
 10
0
 20
0
 30
0
 70
128
 71
355
 72
356
 73
15
 74
397
 0
VERTEX
 8
RING
 10
0
 20
0
 30
0
 70
128
 71
356
 72
357
 73
396
 74
15
 0
VERTEX
 8
RING
 10
0
 20
0
 30
0
 70
128
 71
357
 72
616
 73
396
 74
396
 0
VERTEX
 8
RING
 10
0
 20
0
 30
0
 70
128
 71
396
 72
616
 73
618
 74
395
 0
VERTEX
 8
RING
 10
0
 20
0
 30
0
 70
128
 71
581
 72
145
 73
589
 74
502
 0
VERTEX
 8
RING
 10
0
 20
0
 30
0
 70
128
 71
589
 72
592
 73
502
 74
502
 0
VERTEX
 8
RING
 10
0
 20
0
 30
0
 70
128
 71
304
 72
502
 73
592
 74
266
 0
VERTEX
 8
RING
 10
0
 20
0
 30
0
 70
128
 71
303
 72
304
 73
266
 74
267
 0
VERTEX
 8
RING
 10
0
 20
0
 30
0
 70
128
 71
303
 72
267
 73
268
 74
587
 0
VERTEX
 8
RING
 10
0
 20
0
 30
0
 70
128
 71
587
 72
268
 73
269
 74
302
 0
VERTEX
 8
RING
 10
0
 20
0
 30
0
 70
128
 71
269
 72
270
 73
302
 74
302
 0
VERTEX
 8
RING
 10
0
 20
0
 30
0
 70
128
 71
136
 72
302
 73
270
 74
271
 0
VERTEX
 8
RING
 10
0
 20
0
 30
0
 70
128
 71
292
 72
282
 73
283
 74
291
 0
VERTEX
 8
RING
 10
0
 20
0
 30
0
 70
128
 71
283
 72
117
 73
291
 74
291
 0
VERTEX
 8
RING
 10
0
 20
0
 30
0
 70
128
 71
546
 72
136
 73
271
 74
202
 0
VERTEX
 8
RING
 10
0
 20
0
 30
0
 70
128
 71
228
 72
231
 73
568
 74
293
 0
VERTEX
 8
RING
 10
0
 20
0
 30
0
 70
128
 71
568
 72
231
 73
282
 74
292
 0
VERTEX
 8
RING
 10
0
 20
0
 30
0
 70
128
 71
546
 72
202
 73
198
 74
301
 0
VERTEX
 8
RING
 10
0
 20
0
 30
0
 70
128
 71
301
 72
198
 73
562
 74
300
 0
VERTEX
 8
RING
 10
0
 20
0
 30
0
 70
128
 71
300
 72
562
 73
556
 74
299
 0
VERTEX
 8
RING
 10
0
 20
0
 30
0
 70
128
 71
556
 72
273
 73
299
 74
299
 0
VERTEX
 8
RING
 10
0
 20
0
 30
0
 70
128
 71
298
 72
299
 73
273
 74
219
 0
VERTEX
 8
RING
 10
0
 20
0
 30
0
 70
128
 71
615
 72
219
 73
125
 74
605
 0
VERTEX
 8
RING
 10
0
 20
0
 30
0
 70
128
 71
219
 72
615
 73
611
 74
611
 0
VERTEX
 8
RING
 10
0
 20
0
 30
0
 70
128
 71
219
 72
611
 73
298
 74
298
 0
VERTEX
 8
RING
 10
0
 20
0
 30
0
 70
128
 71
125
 72
274
 73
144
 74
297
 0
VERTEX
 8
RING
 10
0
 20
0
 30
0
 70
128
 71
125
 72
297
 73
608
 74
605
 0
VERTEX
 8
RING
 10
0
 20
0
 30
0
 70
128
 71
274
 72
187
 73
144
 74
144
 0
VERTEX
 8
RING
 10
0
 20
0
 30
0
 70
128
 71
255
 72
256
 73
314
 74
315
 0
VERTEX
 8
RING
 10
0
 20
0
 30
0
 70
128
 71
314
 72
256
 73
257
 74
313
 0
VERTEX
 8
RING
 10
0
 20
0
 30
0
 70
128
 71
313
 72
257
 73
258
 74
312
 0
VERTEX
 8
RING
 10
0
 20
0
 30
0
 70
128
 71
258
 72
259
 73
312
 74
312
 0
VERTEX
 8
RING
 10
0
 20
0
 30
0
 70
128
 71
284
 72
120
 73
289
 74
290
 0
VERTEX
 8
RING
 10
0
 20
0
 30
0
 70
128
 71
117
 72
284
 73
290
 74
291
 0
VERTEX
 8
RING
 10
0
 20
0
 30
0
 70
128
 71
259
 72
126
 73
311
 74
312
 0
VERTEX
 8
RING
 10
0
 20
0
 30
0
 70
128
 71
126
 72
261
 73
577
 74
311
 0
VERTEX
 8
RING
 10
0
 20
0
 30
0
 70
128
 71
577
 72
261
 73
262
 74
310
 0
VERTEX
 8
RING
 10
0
 20
0
 30
0
 70
128
 71
310
 72
262
 73
263
 74
309
 0
VERTEX
 8
RING
 10
0
 20
0
 30
0
 70
128
 71
263
 72
264
 73
308
 74
451
 0
VERTEX
 8
RING
 10
0
 20
0
 30
0
 70
128
 71
263
 72
451
 73
309
 74
309
 0
VERTEX
 8
RING
 10
0
 20
0
 30
0
 70
128
 71
264
 72
307
 73
308
 74
308
 0
VERTEX
 8
RING
 10
0
 20
0
 30
0
 70
128
 71
264
 72
426
 73
225
 74
307
 0
VERTEX
 8
RING
 10
0
 20
0
 30
0
 70
128
 71
426
 72
194
 73
306
 74
225
 0
VERTEX
 8
RING
 10
0
 20
0
 30
0
 70
128
 71
306
 72
194
 73
145
 74
581
 0
VERTEX
 8
RING
 10
0
 20
0
 30
0
 70
128
 71
294
 72
112
 73
279
 74
157
 0
VERTEX
 8
RING
 10
0
 20
0
 30
0
 70
128
 71
187
 72
276
 73
620
 74
144
 0
VERTEX
 8
RING
 10
0
 20
0
 30
0
 70
128
 71
276
 72
277
 73
295
 74
620
 0
VERTEX
 8
RING
 10
0
 20
0
 30
0
 70
128
 71
277
 72
112
 73
294
 74
295
 0
VERTEX
 8
RING
 10
0
 20
0
 30
0
 70
128
 71
281
 72
228
 73
293
 74
150
 0
VERTEX
 8
RING
 10
0
 20
0
 30
0
 70
128
 71
157
 72
279
 73
280
 74
150
 0
VERTEX
 8
RING
 10
0
 20
0
 30
0
 70
128
 71
280
 72
281
 73
150
 74
150
 0
VERTEX
 8
RING
 10
0
 20
0
 30
0
 70
128
 71
606
 72
286
 73
287
 74
547
 0
VERTEX
 8
RING
 10
0
 20
0
 30
0
 70
128
 71
286
 72
606
 73
610
 74
610
 0
VERTEX
 8
RING
 10
0
 20
0
 30
0
 70
128
 71
250
 72
251
 73
216
 74
218
 0
VERTEX
 8
RING
 10
0
 20
0
 30
0
 70
128
 71
289
 72
120
 73
285
 74
614
 0
VERTEX
 8
RING
 10
0
 20
0
 30
0
 70
128
 71
614
 72
285
 73
286
 74
610
 0
VERTEX
 8
RING
 10
0
 20
0
 30
0
 70
128
 71
250
 72
218
 73
323
 74
323
 0
VERTEX
 8
RING
 10
0
 20
0
 30
0
 70
128
 71
250
 72
323
 73
223
 74
223
 0
VERTEX
 8
RING
 10
0
 20
0
 30
0
 70
128
 71
251
 72
265
 73
319
 74
320
 0
VERTEX
 8
RING
 10
0
 20
0
 30
0
 70
128
 71
251
 72
320
 73
321
 74
321
 0
VERTEX
 8
RING
 10
0
 20
0
 30
0
 70
128
 71
251
 72
321
 73
216
 74
216
 0
VERTEX
 8
RING
 10
0
 20
0
 30
0
 70
128
 71
265
 72
333
 73
319
 74
319
 0
VERTEX
 8
RING
 10
0
 20
0
 30
0
 70
128
 71
333
 72
305
 73
318
 74
319
 0
VERTEX
 8
RING
 10
0
 20
0
 30
0
 70
128
 71
305
 72
252
 73
317
 74
318
 0
VERTEX
 8
RING
 10
0
 20
0
 30
0
 70
128
 71
252
 72
253
 73
201
 74
317
 0
VERTEX
 8
RING
 10
0
 20
0
 30
0
 70
128
 71
201
 72
253
 73
137
 74
316
 0
VERTEX
 8
RING
 10
0
 20
0
 30
0
 70
128
 71
137
 72
254
 73
316
 74
316
 0
VERTEX
 8
RING
 10
0
 20
0
 30
0
 70
128
 71
254
 72
566
 73
197
 74
316
 0
VERTEX
 8
RING
 10
0
 20
0
 30
0
 70
128
 71
566
 72
255
 73
315
 74
197
 0
VERTEX
 8
RING
 10
0
 20
0
 30
0
 70
128
 71
92
 72
239
 73
329
 74
412
 0
VERTEX
 8
RING
 10
0
 20
0
 30
0
 70
128
 71
142
 72
289
 73
614
 74
619
 0
VERTEX
 8
RING
 10
0
 20
0
 30
0
 70
128
 71
330
 72
238
 73
211
 74
92
 0
VERTEX
 8
RING
 10
0
 20
0
 30
0
 70
128
 71
239
 72
240
 73
328
 74
329
 0
VERTEX
 8
RING
 10
0
 20
0
 30
0
 70
128
 71
328
 72
240
 73
538
 74
326
 0
VERTEX
 8
RING
 10
0
 20
0
 30
0
 70
128
 71
326
 72
538
 73
600
 74
325
 0
VERTEX
 8
RING
 10
0
 20
0
 30
0
 70
128
 71
92
 72
412
 73
330
 74
330
 0
VERTEX
 8
RING
 10
0
 20
0
 30
0
 70
128
 71
555
 72
98
 73
248
 74
324
 0
VERTEX
 8
RING
 10
0
 20
0
 30
0
 70
128
 71
248
 72
249
 73
324
 74
324
 0
VERTEX
 8
RING
 10
0
 20
0
 30
0
 70
128
 71
249
 72
250
 73
223
 74
324
 0
VERTEX
 8
RING
 10
0
 20
0
 30
0
 70
128
 71
600
 72
242
 73
325
 74
325
 0
VERTEX
 8
RING
 10
0
 20
0
 30
0
 70
128
 71
242
 72
243
 73
89
 74
325
 0
VERTEX
 8
RING
 10
0
 20
0
 30
0
 70
128
 71
243
 72
169
 73
528
 74
89
 0
VERTEX
 8
RING
 10
0
 20
0
 30
0
 70
128
 71
528
 72
169
 73
244
 74
184
 0
VERTEX
 8
RING
 10
0
 20
0
 30
0
 70
128
 71
184
 72
244
 73
604
 74
182
 0
VERTEX
 8
RING
 10
0
 20
0
 30
0
 70
128
 71
182
 72
604
 73
170
 74
327
 0
VERTEX
 8
RING
 10
0
 20
0
 30
0
 70
128
 71
170
 72
245
 73
327
 74
327
 0
VERTEX
 8
RING
 10
0
 20
0
 30
0
 70
128
 71
245
 72
246
 73
560
 74
327
 0
VERTEX
 8
RING
 10
0
 20
0
 30
0
 70
128
 71
560
 72
246
 73
232
 74
559
 0
VERTEX
 8
RING
 10
0
 20
0
 30
0
 70
128
 71
559
 72
232
 73
98
 74
555
 0
VERTEX
 8
RING
 10
0
 20
0
 30
0
 70
128
 71
552
 72
331
 73
237
 74
220
 0
VERTEX
 8
RING
 10
0
 20
0
 30
0
 70
128
 71
619
 72
614
 73
610
 74
612
 0
VERTEX
 8
RING
 10
0
 20
0
 30
0
 70
128
 71
172
 72
593
 73
604
 74
244
 0
VERTEX
 8
RING
 10
0
 20
0
 30
0
 70
128
 71
97
 72
488
 73
493
 74
87
 0
VERTEX
 8
RING
 10
0
 20
0
 30
0
 70
128
 71
191
 72
193
 73
70
 74
70
 0
VERTEX
 8
RING
 10
0
 20
0
 30
0
 70
128
 71
445
 72
226
 73
207
 74
208
 0
VERTEX
 8
RING
 10
0
 20
0
 30
0
 70
128
 71
477
 72
482
 73
129
 74
163
 0
VERTEX
 8
RING
 10
0
 20
0
 30
0
 70
128
 71
482
 72
480
 73
364
 74
129
 0
VERTEX
 8
RING
 10
0
 20
0
 30
0
 70
128
 71
480
 72
464
 73
365
 74
364
 0
VERTEX
 8
RING
 10
0
 20
0
 30
0
 70
128
 71
464
 72
465
 73
366
 74
365
 0
VERTEX
 8
RING
 10
0
 20
0
 30
0
 70
128
 71
465
 72
462
 73
367
 74
366
 0
VERTEX
 8
RING
 10
0
 20
0
 30
0
 70
128
 71
141
 72
459
 73
460
 74
372
 0
VERTEX
 8
RING
 10
0
 20
0
 30
0
 70
128
 71
459
 72
141
 73
100
 74
453
 0
VERTEX
 8
RING
 10
0
 20
0
 30
0
 70
128
 71
100
 72
371
 73
452
 74
453
 0
VERTEX
 8
RING
 10
0
 20
0
 30
0
 70
128
 71
452
 72
371
 73
370
 74
455
 0
VERTEX
 8
RING
 10
0
 20
0
 30
0
 70
128
 71
593
 72
83
 73
170
 74
604
 0
VERTEX
 8
RING
 10
0
 20
0
 30
0
 70
128
 71
170
 72
83
 73
174
 74
245
 0
VERTEX
 8
RING
 10
0
 20
0
 30
0
 70
128
 71
455
 72
370
 73
369
 74
454
 0
VERTEX
 8
RING
 10
0
 20
0
 30
0
 70
128
 71
449
 72
448
 73
375
 74
5
 0
VERTEX
 8
RING
 10
0
 20
0
 30
0
 70
128
 71
448
 72
447
 73
9
 74
375
 0
VERTEX
 8
RING
 10
0
 20
0
 30
0
 70
128
 71
454
 72
369
 73
161
 74
468
 0
VERTEX
 8
RING
 10
0
 20
0
 30
0
 70
128
 71
447
 72
446
 73
10
 74
9
 0
VERTEX
 8
RING
 10
0
 20
0
 30
0
 70
128
 71
468
 72
161
 73
160
 74
466
 0
VERTEX
 8
RING
 10
0
 20
0
 30
0
 70
128
 71
430
 72
432
 73
431
 74
148
 0
VERTEX
 8
RING
 10
0
 20
0
 30
0
 70
128
 71
579
 72
181
 73
429
 74
363
 0
VERTEX
 8
RING
 10
0
 20
0
 30
0
 70
128
 71
363
 72
429
 73
427
 74
278
 0
VERTEX
 8
RING
 10
0
 20
0
 30
0
 70
128
 71
278
 72
427
 73
425
 74
185
 0
VERTEX
 8
RING
 10
0
 20
0
 30
0
 70
128
 71
116
 72
444
 73
435
 74
436
 0
VERTEX
 8
RING
 10
0
 20
0
 30
0
 70
128
 71
115
 72
424
 73
434
 74
113
 0
VERTEX
 8
RING
 10
0
 20
0
 30
0
 70
128
 71
113
 72
434
 73
433
 74
111
 0
VERTEX
 8
RING
 10
0
 20
0
 30
0
 70
128
 71
111
 72
433
 73
432
 74
430
 0
VERTEX
 8
RING
 10
0
 20
0
 30
0
 70
128
 71
230
 72
441
 73
442
 74
85
 0
VERTEX
 8
RING
 10
0
 20
0
 30
0
 70
128
 71
85
 72
442
 73
443
 74
601
 0
VERTEX
 8
RING
 10
0
 20
0
 30
0
 70
128
 71
601
 72
443
 73
444
 74
116
 0
VERTEX
 8
RING
 10
0
 20
0
 30
0
 70
128
 71
445
 72
208
 73
446
 74
612
 0
VERTEX
 8
RING
 10
0
 20
0
 30
0
 70
128
 71
436
 72
435
 73
437
 74
438
 0
VERTEX
 8
RING
 10
0
 20
0
 30
0
 70
128
 71
438
 72
437
 73
439
 74
599
 0
VERTEX
 8
RING
 10
0
 20
0
 30
0
 70
128
 71
599
 72
439
 73
440
 74
597
 0
VERTEX
 8
RING
 10
0
 20
0
 30
0
 70
128
 71
148
 72
431
 73
441
 74
230
 0
VERTEX
 8
RING
 10
0
 20
0
 30
0
 70
128
 71
151
 72
453
 73
452
 74
162
 0
VERTEX
 8
RING
 10
0
 20
0
 30
0
 70
128
 71
220
 72
237
 73
236
 74
214
 0
VERTEX
 8
RING
 10
0
 20
0
 30
0
 70
128
 71
446
 72
208
 73
376
 74
10
 0
VERTEX
 8
RING
 10
0
 20
0
 30
0
 70
128
 71
441
 72
22
 73
19
 74
442
 0
VERTEX
 8
RING
 10
0
 20
0
 30
0
 70
128
 71
612
 72
446
 73
447
 74
619
 0
VERTEX
 8
RING
 10
0
 20
0
 30
0
 70
128
 71
619
 72
447
 73
448
 74
142
 0
VERTEX
 8
RING
 10
0
 20
0
 30
0
 70
128
 71
142
 72
448
 73
449
 74
543
 0
VERTEX
 8
RING
 10
0
 20
0
 30
0
 70
128
 71
597
 72
440
 73
450
 74
227
 0
VERTEX
 8
RING
 10
0
 20
0
 30
0
 70
128
 71
124
 72
460
 73
459
 74
153
 0
VERTEX
 8
RING
 10
0
 20
0
 30
0
 70
128
 71
543
 72
449
 73
458
 74
456
 0
VERTEX
 8
RING
 10
0
 20
0
 30
0
 70
128
 71
607
 72
463
 73
462
 74
617
 0
VERTEX
 8
RING
 10
0
 20
0
 30
0
 70
128
 71
550
 72
457
 73
460
 74
124
 0
VERTEX
 8
RING
 10
0
 20
0
 30
0
 70
128
 71
156
 72
455
 73
454
 74
467
 0
VERTEX
 8
RING
 10
0
 20
0
 30
0
 70
128
 71
153
 72
459
 73
453
 74
151
 0
VERTEX
 8
RING
 10
0
 20
0
 30
0
 70
128
 71
456
 72
458
 73
457
 74
550
 0
VERTEX
 8
RING
 10
0
 20
0
 30
0
 70
128
 71
162
 72
452
 73
455
 74
156
 0
VERTEX
 8
RING
 10
0
 20
0
 30
0
 70
128
 71
79
 72
471
 73
469
 74
609
 0
VERTEX
 8
RING
 10
0
 20
0
 30
0
 70
128
 71
467
 72
454
 73
468
 74
622
 0
VERTEX
 8
RING
 10
0
 20
0
 30
0
 70
128
 71
584
 72
475
 73
472
 74
588
 0
VERTEX
 8
RING
 10
0
 20
0
 30
0
 70
128
 71
166
 72
466
 73
471
 74
79
 0
VERTEX
 8
RING
 10
0
 20
0
 30
0
 70
128
 71
613
 72
465
 73
464
 74
128
 0
VERTEX
 8
RING
 10
0
 20
0
 30
0
 70
128
 71
609
 72
469
 73
463
 74
607
 0
VERTEX
 8
RING
 10
0
 20
0
 30
0
 70
128
 71
622
 72
468
 73
466
 74
166
 0
VERTEX
 8
RING
 10
0
 20
0
 30
0
 70
128
 71
617
 72
462
 73
465
 74
613
 0
VERTEX
 8
RING
 10
0
 20
0
 30
0
 70
128
 71
130
 72
480
 73
482
 74
476
 0
VERTEX
 8
RING
 10
0
 20
0
 30
0
 70
128
 71
382
 72
487
 73
483
 74
484
 0
VERTEX
 8
RING
 10
0
 20
0
 30
0
 70
128
 71
478
 72
477
 73
479
 74
595
 0
VERTEX
 8
RING
 10
0
 20
0
 30
0
 70
128
 71
128
 72
464
 73
480
 74
130
 0
VERTEX
 8
RING
 10
0
 20
0
 30
0
 70
128
 71
143
 72
474
 73
475
 74
584
 0
VERTEX
 8
RING
 10
0
 20
0
 30
0
 70
128
 71
476
 72
482
 73
477
 74
478
 0
VERTEX
 8
RING
 10
0
 20
0
 30
0
 70
128
 71
588
 72
472
 73
473
 74
490
 0
VERTEX
 8
RING
 10
0
 20
0
 30
0
 70
128
 71
595
 72
479
 73
474
 74
143
 0
VERTEX
 8
RING
 10
0
 20
0
 30
0
 70
128
 71
492
 72
491
 73
493
 74
526
 0
VERTEX
 8
RING
 10
0
 20
0
 30
0
 70
128
 71
36
 72
497
 73
495
 74
196
 0
VERTEX
 8
RING
 10
0
 20
0
 30
0
 70
128
 71
195
 72
488
 73
489
 74
224
 0
VERTEX
 8
RING
 10
0
 20
0
 30
0
 70
128
 71
490
 72
473
 73
491
 74
492
 0
VERTEX
 8
RING
 10
0
 20
0
 30
0
 70
128
 71
147
 72
486
 73
487
 74
382
 0
VERTEX
 8
RING
 10
0
 20
0
 30
0
 70
128
 71
526
 72
493
 73
488
 74
195
 0
VERTEX
 8
RING
 10
0
 20
0
 30
0
 70
128
 71
484
 72
483
 73
485
 74
481
 0
VERTEX
 8
RING
 10
0
 20
0
 30
0
 70
128
 71
224
 72
489
 73
486
 74
147
 0
VERTEX
 8
RING
 10
0
 20
0
 30
0
 70
128
 71
213
 72
507
 73
506
 74
215
 0
VERTEX
 8
RING
 10
0
 20
0
 30
0
 70
128
 71
481
 72
485
 73
505
 74
494
 0
VERTEX
 8
RING
 10
0
 20
0
 30
0
 70
128
 71
494
 72
505
 73
504
 74
573
 0
VERTEX
 8
RING
 10
0
 20
0
 30
0
 70
128
 71
573
 72
504
 73
503
 74
379
 0
VERTEX
 8
RING
 10
0
 20
0
 30
0
 70
128
 71
379
 72
503
 73
501
 74
565
 0
VERTEX
 8
RING
 10
0
 20
0
 30
0
 70
128
 71
565
 72
501
 73
500
 74
498
 0
VERTEX
 8
RING
 10
0
 20
0
 30
0
 70
128
 71
498
 72
500
 73
499
 74
3
 0
VERTEX
 8
RING
 10
0
 20
0
 30
0
 70
128
 71
174
 72
52
 73
246
 74
245
 0
VERTEX
 8
RING
 10
0
 20
0
 30
0
 70
128
 71
563
 72
517
 73
516
 74
183
 0
VERTEX
 8
RING
 10
0
 20
0
 30
0
 70
128
 71
196
 72
495
 73
515
 74
200
 0
VERTEX
 8
RING
 10
0
 20
0
 30
0
 70
128
 71
200
 72
515
 73
514
 74
512
 0
VERTEX
 8
RING
 10
0
 20
0
 30
0
 70
128
 71
512
 72
514
 73
513
 74
203
 0
VERTEX
 8
RING
 10
0
 20
0
 30
0
 70
128
 71
203
 72
513
 73
511
 74
204
 0
VERTEX
 8
RING
 10
0
 20
0
 30
0
 70
128
 71
204
 72
511
 73
510
 74
205
 0
VERTEX
 8
RING
 10
0
 20
0
 30
0
 70
128
 71
205
 72
510
 73
508
 74
210
 0
VERTEX
 8
RING
 10
0
 20
0
 30
0
 70
128
 71
210
 72
508
 73
507
 74
213
 0
VERTEX
 8
RING
 10
0
 20
0
 30
0
 70
128
 71
222
 72
531
 73
530
 74
551
 0
VERTEX
 8
RING
 10
0
 20
0
 30
0
 70
128
 71
215
 72
506
 73
529
 74
217
 0
VERTEX
 8
RING
 10
0
 20
0
 30
0
 70
128
 71
554
 72
533
 73
532
 74
536
 0
VERTEX
 8
RING
 10
0
 20
0
 30
0
 70
128
 71
221
 72
527
 73
531
 74
222
 0
VERTEX
 8
RING
 10
0
 20
0
 30
0
 70
128
 71
534
 72
537
 73
535
 74
561
 0
VERTEX
 8
RING
 10
0
 20
0
 30
0
 70
128
 71
551
 72
530
 73
533
 74
554
 0
VERTEX
 8
RING
 10
0
 20
0
 30
0
 70
128
 71
135
 72
523
 73
539
 74
131
 0
VERTEX
 8
RING
 10
0
 20
0
 30
0
 70
128
 71
536
 72
532
 73
537
 74
534
 0
VERTEX
 8
RING
 10
0
 20
0
 30
0
 70
128
 71
188
 72
520
 73
519
 74
540
 0
VERTEX
 8
RING
 10
0
 20
0
 30
0
 70
128
 71
561
 72
535
 73
517
 74
563
 0
VERTEX
 8
RING
 10
0
 20
0
 30
0
 70
128
 71
296
 72
522
 73
521
 74
524
 0
VERTEX
 8
RING
 10
0
 20
0
 30
0
 70
128
 71
183
 72
516
 73
520
 74
188
 0
VERTEX
 8
RING
 10
0
 20
0
 30
0
 70
128
 71
133
 72
525
 73
523
 74
135
 0
VERTEX
 8
RING
 10
0
 20
0
 30
0
 70
128
 71
540
 72
519
 73
522
 74
296
 0
VERTEX
 8
RING
 10
0
 20
0
 30
0
 70
128
 71
217
 72
529
 73
527
 74
221
 0
VERTEX
 8
RING
 10
0
 20
0
 30
0
 70
128
 71
524
 72
521
 73
525
 74
133
 0
VERTEX
 8
RING
 10
0
 20
0
 30
0
 70
128
 71
131
 72
539
 73
541
 74
569
 0
VERTEX
 8
RING
 10
0
 20
0
 30
0
 70
128
 71
569
 72
541
 73
542
 74
107
 0
VERTEX
 8
RING
 10
0
 20
0
 30
0
 70
128
 71
246
 72
52
 73
54
 74
232
 0
VERTEX
 8
RING
 10
0
 20
0
 30
0
 70
128
 71
138
 72
106
 73
139
 74
582
 0
VERTEX
 8
RING
 10
0
 20
0
 30
0
 70
128
 71
22
 72
441
 73
431
 74
384
 0
VERTEX
 8
RING
 10
0
 20
0
 30
0
 70
128
 71
19
 72
383
 73
443
 74
442
 0
VERTEX
 8
RING
 10
0
 20
0
 30
0
 70
128
 71
185
 72
425
 73
424
 74
115
 0
VERTEX
 8
RING
 10
0
 20
0
 30
0
 70
128
 71
443
 72
383
 73
14
 74
444
 0
VERTEX
 8
RING
 10
0
 20
0
 30
0
 70
128
 71
14
 72
381
 73
435
 74
444
 0
VERTEX
 8
RING
 10
0
 20
0
 30
0
 70
128
 71
232
 72
54
 73
235
 74
98
 0
VERTEX
 8
RING
 10
0
 20
0
 30
0
 70
128
 71
104
 72
548
 73
544
 74
63
 0
VERTEX
 8
RING
 10
0
 20
0
 30
0
 70
128
 71
249
 72
59
 73
101
 74
250
 0
VERTEX
 8
RING
 10
0
 20
0
 30
0
 70
128
 71
280
 72
279
 73
111
 74
430
 0
VERTEX
 8
RING
 10
0
 20
0
 30
0
 70
128
 71
3
 72
499
 73
497
 74
36
 0
VERTEX
 8
RING
 10
0
 20
0
 30
0
 70
128
 71
518
 72
93
 73
106
 74
138
 0
VERTEX
 8
RING
 10
0
 20
0
 30
0
 70
128
 71
243
 72
242
 73
78
 74
94
 0
VERTEX
 8
RING
 10
0
 20
0
 30
0
 70
128
 71
564
 72
545
 73
247
 74
260
 0
VERTEX
 8
RING
 10
0
 20
0
 30
0
 70
128
 71
381
 72
380
 73
437
 74
435
 0
VERTEX
 8
RING
 10
0
 20
0
 30
0
 70
128
 71
98
 72
235
 73
233
 74
248
 0
VERTEX
 8
RING
 10
0
 20
0
 30
0
 70
128
 71
242
 72
600
 73
567
 74
78
 0
VERTEX
 8
RING
 10
0
 20
0
 30
0
 70
128
 71
600
 72
538
 73
40
 74
567
 0
VERTEX
 8
RING
 10
0
 20
0
 30
0
 70
128
 71
538
 72
240
 73
105
 74
40
 0
VERTEX
 8
RING
 10
0
 20
0
 30
0
 70
128
 71
240
 72
239
 73
95
 74
105
 0
VERTEX
 8
RING
 10
0
 20
0
 30
0
 70
128
 71
239
 72
92
 73
621
 74
95
 0
VERTEX
 8
RING
 10
0
 20
0
 30
0
 70
128
 71
108
 72
571
 73
121
 74
121
 0
VERTEX
 8
RING
 10
0
 20
0
 30
0
 70
128
 71
554
 72
324
 73
223
 74
551
 0
VERTEX
 8
RING
 10
0
 20
0
 30
0
 70
128
 71
551
 72
223
 73
323
 74
222
 0
VERTEX
 8
RING
 10
0
 20
0
 30
0
 70
128
 71
222
 72
323
 73
218
 74
221
 0
VERTEX
 8
RING
 10
0
 20
0
 30
0
 70
128
 71
528
 72
540
 73
296
 74
89
 0
VERTEX
 8
RING
 10
0
 20
0
 30
0
 70
128
 71
296
 72
524
 73
325
 74
89
 0
VERTEX
 8
RING
 10
0
 20
0
 30
0
 70
128
 71
524
 72
133
 73
326
 74
325
 0
VERTEX
 8
RING
 10
0
 20
0
 30
0
 70
128
 71
133
 72
135
 73
328
 74
326
 0
VERTEX
 8
RING
 10
0
 20
0
 30
0
 70
128
 71
135
 72
131
 73
329
 74
328
 0
VERTEX
 8
RING
 10
0
 20
0
 30
0
 70
128
 71
131
 72
569
 73
412
 74
329
 0
VERTEX
 8
RING
 10
0
 20
0
 30
0
 70
128
 71
569
 72
107
 73
330
 74
412
 0
VERTEX
 8
RING
 10
0
 20
0
 30
0
 70
128
 71
466
 72
160
 73
155
 74
471
 0
VERTEX
 8
RING
 10
0
 20
0
 30
0
 70
128
 71
279
 72
112
 73
113
 74
111
 0
VERTEX
 8
RING
 10
0
 20
0
 30
0
 70
128
 71
112
 72
277
 73
115
 74
113
 0
VERTEX
 8
RING
 10
0
 20
0
 30
0
 70
128
 71
277
 72
276
 73
185
 74
115
 0
VERTEX
 8
RING
 10
0
 20
0
 30
0
 70
128
 71
276
 72
187
 73
278
 74
185
 0
VERTEX
 8
RING
 10
0
 20
0
 30
0
 70
128
 71
187
 72
274
 73
363
 74
278
 0
VERTEX
 8
RING
 10
0
 20
0
 30
0
 70
128
 71
274
 72
125
 73
579
 74
363
 0
VERTEX
 8
RING
 10
0
 20
0
 30
0
 70
128
 71
612
 72
610
 73
606
 74
445
 0
VERTEX
 8
RING
 10
0
 20
0
 30
0
 70
128
 71
574
 72
99
 73
90
 74
275
 0
VERTEX
 8
RING
 10
0
 20
0
 30
0
 70
128
 71
275
 72
90
 73
93
 74
518
 0
VERTEX
 8
RING
 10
0
 20
0
 30
0
 70
128
 71
509
 72
84
 73
96
 74
578
 0
VERTEX
 8
RING
 10
0
 20
0
 30
0
 70
128
 71
578
 72
96
 73
99
 74
574
 0
VERTEX
 8
RING
 10
0
 20
0
 30
0
 70
128
 71
80
 72
88
 73
81
 74
127
 0
VERTEX
 8
RING
 10
0
 20
0
 30
0
 70
128
 71
127
 72
81
 73
84
 74
509
 0
VERTEX
 8
RING
 10
0
 20
0
 30
0
 70
128
 71
132
 72
76
 73
86
 74
428
 0
VERTEX
 8
RING
 10
0
 20
0
 30
0
 70
128
 71
428
 72
86
 73
88
 74
80
 0
VERTEX
 8
RING
 10
0
 20
0
 30
0
 70
128
 71
368
 72
175
 73
168
 74
470
 0
VERTEX
 8
RING
 10
0
 20
0
 30
0
 70
128
 71
470
 72
168
 73
171
 74
206
 0
VERTEX
 8
RING
 10
0
 20
0
 30
0
 70
128
 71
570
 72
103
 73
173
 74
2
 0
VERTEX
 8
RING
 10
0
 20
0
 30
0
 70
128
 71
2
 72
173
 73
175
 74
368
 0
VERTEX
 8
RING
 10
0
 20
0
 30
0
 70
128
 71
582
 72
139
 73
102
 74
590
 0
VERTEX
 8
RING
 10
0
 20
0
 30
0
 70
128
 71
568
 72
124
 73
153
 74
293
 0
VERTEX
 8
RING
 10
0
 20
0
 30
0
 70
128
 71
153
 72
151
 73
150
 74
293
 0
VERTEX
 8
RING
 10
0
 20
0
 30
0
 70
128
 71
248
 72
233
 73
59
 74
249
 0
VERTEX
 8
RING
 10
0
 20
0
 30
0
 70
128
 71
151
 72
162
 73
157
 74
150
 0
VERTEX
 8
RING
 10
0
 20
0
 30
0
 70
128
 71
572
 72
549
 73
423
 74
576
 0
VERTEX
 8
RING
 10
0
 20
0
 30
0
 70
128
 71
576
 72
423
 73
164
 74
580
 0
VERTEX
 8
RING
 10
0
 20
0
 30
0
 70
128
 71
157
 72
162
 73
156
 74
294
 0
VERTEX
 8
RING
 10
0
 20
0
 30
0
 70
128
 71
156
 72
467
 73
295
 74
294
 0
VERTEX
 8
RING
 10
0
 20
0
 30
0
 70
128
 71
467
 72
622
 73
620
 74
295
 0
VERTEX
 8
RING
 10
0
 20
0
 30
0
 70
128
 71
622
 72
166
 73
144
 74
620
 0
VERTEX
 8
RING
 10
0
 20
0
 30
0
 70
128
 71
166
 72
79
 73
297
 74
144
 0
VERTEX
 8
RING
 10
0
 20
0
 30
0
 70
128
 71
79
 72
609
 73
608
 74
297
 0
VERTEX
 8
RING
 10
0
 20
0
 30
0
 70
128
 71
609
 72
607
 73
605
 74
608
 0
VERTEX
 8
RING
 10
0
 20
0
 30
0
 70
128
 71
209
 72
586
 73
42
 74
42
 0
VERTEX
 8
RING
 10
0
 20
0
 30
0
 70
128
 71
164
 72
140
 73
82
 74
241
 0
VERTEX
 8
RING
 10
0
 20
0
 30
0
 70
128
 71
184
 72
182
 73
183
 74
188
 0
VERTEX
 8
RING
 10
0
 20
0
 30
0
 70
128
 71
528
 72
184
 73
188
 74
540
 0
VERTEX
 8
RING
 10
0
 20
0
 30
0
 70
128
 71
183
 72
182
 73
327
 74
563
 0
VERTEX
 8
RING
 10
0
 20
0
 30
0
 70
128
 71
43
 72
418
 73
417
 74
44
 0
VERTEX
 8
RING
 10
0
 20
0
 30
0
 70
128
 71
164
 72
241
 73
580
 74
580
 0
VERTEX
 8
RING
 10
0
 20
0
 30
0
 70
128
 71
380
 72
12
 73
439
 74
437
 0
VERTEX
 8
RING
 10
0
 20
0
 30
0
 70
128
 71
12
 72
378
 73
440
 74
439
 0
VERTEX
 8
RING
 10
0
 20
0
 30
0
 70
128
 71
471
 72
155
 73
154
 74
469
 0
VERTEX
 8
RING
 10
0
 20
0
 30
0
 70
128
 71
378
 72
377
 73
450
 74
440
 0
VERTEX
 8
RING
 10
0
 20
0
 30
0
 70
128
 71
431
 72
432
 73
25
 74
384
 0
VERTEX
 8
RING
 10
0
 20
0
 30
0
 70
128
 71
25
 72
432
 73
433
 74
385
 0
VERTEX
 8
RING
 10
0
 20
0
 30
0
 70
128
 71
385
 72
433
 73
434
 74
386
 0
VERTEX
 8
RING
 10
0
 20
0
 30
0
 70
128
 71
386
 72
434
 73
424
 74
387
 0
VERTEX
 8
RING
 10
0
 20
0
 30
0
 70
128
 71
469
 72
154
 73
152
 74
463
 0
VERTEX
 8
RING
 10
0
 20
0
 30
0
 70
128
 71
621
 72
165
 73
37
 74
95
 0
VERTEX
 8
RING
 10
0
 20
0
 30
0
 70
128
 71
108
 72
121
 73
598
 74
192
 0
VERTEX
 8
RING
 10
0
 20
0
 30
0
 70
128
 71
167
 72
211
 73
238
 74
594
 0
VERTEX
 8
RING
 10
0
 20
0
 30
0
 70
128
 71
594
 72
238
 73
192
 74
598
 0
VERTEX
 8
RING
 10
0
 20
0
 30
0
 70
128
 71
571
 72
108
 73
549
 74
572
 0
VERTEX
 8
RING
 10
0
 20
0
 30
0
 70
128
 71
563
 72
327
 73
560
 74
561
 0
VERTEX
 8
RING
 10
0
 20
0
 30
0
 70
128
 71
561
 72
560
 73
559
 74
534
 0
VERTEX
 8
RING
 10
0
 20
0
 30
0
 70
128
 71
534
 72
559
 73
555
 74
536
 0
VERTEX
 8
RING
 10
0
 20
0
 30
0
 70
128
 71
555
 72
324
 73
554
 74
536
 0
VERTEX
 8
RING
 10
0
 20
0
 30
0
 70
128
 71
167
 72
260
 73
149
 74
82
 0
VERTEX
 8
RING
 10
0
 20
0
 30
0
 70
128
 71
591
 72
70
 73
544
 74
583
 0
VERTEX
 8
RING
 10
0
 20
0
 30
0
 70
128
 71
583
 72
544
 73
548
 74
585
 0
VERTEX
 8
RING
 10
0
 20
0
 30
0
 70
128
 71
585
 72
548
 73
42
 74
586
 0
VERTEX
 8
RING
 10
0
 20
0
 30
0
 70
128
 71
583
 72
91
 73
207
 74
591
 0
VERTEX
 8
RING
 10
0
 20
0
 30
0
 70
128
 71
387
 72
424
 73
425
 74
32
 0
VERTEX
 8
RING
 10
0
 20
0
 30
0
 70
128
 71
32
 72
425
 73
427
 74
35
 0
VERTEX
 8
RING
 10
0
 20
0
 30
0
 70
128
 71
35
 72
427
 73
429
 74
388
 0
VERTEX
 8
RING
 10
0
 20
0
 30
0
 70
128
 71
388
 72
429
 73
181
 74
27
 0
VERTEX
 8
RING
 10
0
 20
0
 30
0
 70
128
 71
208
 72
207
 73
91
 74
376
 0
VERTEX
 8
RING
 10
0
 20
0
 30
0
 70
128
 71
377
 72
553
 73
209
 74
450
 0
VERTEX
 8
RING
 10
0
 20
0
 30
0
 70
128
 71
226
 72
445
 73
606
 74
547
 0
VERTEX
 8
RING
 10
0
 20
0
 30
0
 70
128
 71
287
 72
286
 73
227
 74
212
 0
VERTEX
 8
RING
 10
0
 20
0
 30
0
 70
128
 71
63
 72
544
 73
70
 74
193
 0
VERTEX
 8
RING
 10
0
 20
0
 30
0
 70
128
 71
61
 72
42
 73
548
 74
104
 0
VERTEX
 8
RING
 10
0
 20
0
 30
0
 70
128
 71
152
 72
367
 73
462
 74
463
 0
VERTEX
 8
RING
 10
0
 20
0
 30
0
 70
128
 71
30
 72
27
 73
181
 74
236
 0
VERTEX
 8
RING
 10
0
 20
0
 30
0
 70
128
 71
607
 72
617
 73
615
 74
605
 0
VERTEX
 8
RING
 10
0
 20
0
 30
0
 70
128
 71
125
 72
219
 73
214
 74
579
 0
VERTEX
 8
RING
 10
0
 20
0
 30
0
 70
128
 71
260
 72
247
 73
241
 74
149
 0
VERTEX
 8
RING
 10
0
 20
0
 30
0
 70
128
 71
165
 72
164
 73
423
 74
422
 0
VERTEX
 8
RING
 10
0
 20
0
 30
0
 70
128
 71
189
 72
549
 73
108
 74
542
 0
VERTEX
 8
RING
 10
0
 20
0
 30
0
 70
128
 71
107
 72
192
 73
238
 74
330
 0
VERTEX
 8
RING
 10
0
 20
0
 30
0
 70
128
 71
92
 72
211
 73
140
 74
621
 0
VERTEX
 8
RING
 10
0
 20
0
 30
0
 70
128
 71
122
 72
121
 73
545
 74
564
 0
VERTEX
 8
RING
 10
0
 20
0
 30
0
 70
128
 71
407
 72
406
 73
58
 74
60
 0
VERTEX
 8
RING
 10
0
 20
0
 30
0
 70
128
 71
344
 72
596
 73
527
 74
529
 0
VERTEX
 8
RING
 10
0
 20
0
 30
0
 70
128
 71
101
 72
272
 73
251
 74
250
 0
VERTEX
 8
RING
 10
0
 20
0
 30
0
 70
128
 71
218
 72
216
 73
217
 74
221
 0
VERTEX
 8
RING
 10
0
 20
0
 30
0
 70
128
 71
99
 72
96
 73
396
 74
395
 0
VERTEX
 8
RING
 10
0
 20
0
 30
0
 70
128
 71
618
 72
616
 73
485
 74
483
 0
VERTEX
 8
RING
 10
0
 20
0
 30
0
 70
128
 71
578
 72
574
 73
264
 74
263
 0
VERTEX
 8
RING
 10
0
 20
0
 30
0
 70
128
 71
451
 72
308
 73
484
 74
481
 0
VERTEX
 8
RING
 10
0
 20
0
 30
0
 70
128
 71
400
 72
399
 73
73
 74
74
 0
VERTEX
 8
RING
 10
0
 20
0
 30
0
 70
128
 71
73
 72
399
 73
21
 74
77
 0
VERTEX
 8
RING
 10
0
 20
0
 30
0
 70
128
 71
21
 72
398
 73
76
 74
77
 0
VERTEX
 8
RING
 10
0
 20
0
 30
0
 70
128
 71
398
 72
26
 73
86
 74
76
 0
VERTEX
 8
RING
 10
0
 20
0
 30
0
 70
128
 71
26
 72
24
 73
88
 74
86
 0
VERTEX
 8
RING
 10
0
 20
0
 30
0
 70
128
 71
24
 72
397
 73
81
 74
88
 0
VERTEX
 8
RING
 10
0
 20
0
 30
0
 70
128
 71
397
 72
15
 73
84
 74
81
 0
VERTEX
 8
RING
 10
0
 20
0
 30
0
 70
128
 71
15
 72
396
 73
96
 74
84
 0
VERTEX
 8
RING
 10
0
 20
0
 30
0
 70
128
 71
74
 72
69
 73
23
 74
400
 0
VERTEX
 8
RING
 10
0
 20
0
 30
0
 70
128
 71
23
 72
69
 73
71
 74
401
 0
VERTEX
 8
RING
 10
0
 20
0
 30
0
 70
128
 71
401
 72
71
 73
67
 74
402
 0
VERTEX
 8
RING
 10
0
 20
0
 30
0
 70
128
 71
402
 72
67
 73
68
 74
403
 0
VERTEX
 8
RING
 10
0
 20
0
 30
0
 70
128
 71
403
 72
68
 73
65
 74
404
 0
VERTEX
 8
RING
 10
0
 20
0
 30
0
 70
128
 71
404
 72
65
 73
66
 74
7
 0
VERTEX
 8
RING
 10
0
 20
0
 30
0
 70
128
 71
7
 72
66
 73
62
 74
405
 0
VERTEX
 8
RING
 10
0
 20
0
 30
0
 70
128
 71
405
 72
62
 73
64
 74
8
 0
VERTEX
 8
RING
 10
0
 20
0
 30
0
 70
128
 71
8
 72
64
 73
58
 74
406
 0
VERTEX
 8
RING
 10
0
 20
0
 30
0
 70
128
 71
495
 72
352
 73
351
 74
515
 0
VERTEX
 8
RING
 10
0
 20
0
 30
0
 70
128
 71
496
 72
352
 73
495
 74
497
 0
VERTEX
 8
RING
 10
0
 20
0
 30
0
 70
128
 71
515
 72
351
 73
350
 74
514
 0
VERTEX
 8
RING
 10
0
 20
0
 30
0
 70
128
 71
514
 72
350
 73
558
 74
513
 0
VERTEX
 8
RING
 10
0
 20
0
 30
0
 70
128
 71
513
 72
558
 73
349
 74
511
 0
VERTEX
 8
RING
 10
0
 20
0
 30
0
 70
128
 71
511
 72
349
 73
348
 74
510
 0
VERTEX
 8
RING
 10
0
 20
0
 30
0
 70
128
 71
510
 72
348
 73
347
 74
508
 0
VERTEX
 8
RING
 10
0
 20
0
 30
0
 70
128
 71
508
 72
347
 73
346
 74
507
 0
VERTEX
 8
RING
 10
0
 20
0
 30
0
 70
128
 71
507
 72
346
 73
345
 74
506
 0
VERTEX
 8
RING
 10
0
 20
0
 30
0
 70
128
 71
506
 72
345
 73
344
 74
529
 0
VERTEX
 8
RING
 10
0
 20
0
 30
0
 70
128
 71
497
 72
499
 73
602
 74
496
 0
VERTEX
 8
RING
 10
0
 20
0
 30
0
 70
128
 71
499
 72
500
 73
353
 74
602
 0
VERTEX
 8
RING
 10
0
 20
0
 30
0
 70
128
 71
500
 72
501
 73
354
 74
353
 0
VERTEX
 8
RING
 10
0
 20
0
 30
0
 70
128
 71
501
 72
503
 73
355
 74
354
 0
VERTEX
 8
RING
 10
0
 20
0
 30
0
 70
128
 71
503
 72
504
 73
356
 74
355
 0
VERTEX
 8
RING
 10
0
 20
0
 30
0
 70
128
 71
504
 72
505
 73
357
 74
356
 0
VERTEX
 8
RING
 10
0
 20
0
 30
0
 70
128
 71
505
 72
485
 73
616
 74
357
 0
VERTEX
 8
RING
 10
0
 20
0
 30
0
 70
128
 71
312
 72
498
 73
3
 74
313
 0
VERTEX
 8
RING
 10
0
 20
0
 30
0
 70
128
 71
498
 72
312
 73
311
 74
565
 0
VERTEX
 8
RING
 10
0
 20
0
 30
0
 70
128
 71
313
 72
3
 73
36
 74
314
 0
VERTEX
 8
RING
 10
0
 20
0
 30
0
 70
128
 71
314
 72
36
 73
196
 74
315
 0
VERTEX
 8
RING
 10
0
 20
0
 30
0
 70
128
 71
196
 72
200
 73
197
 74
315
 0
VERTEX
 8
RING
 10
0
 20
0
 30
0
 70
128
 71
197
 72
200
 73
512
 74
316
 0
VERTEX
 8
RING
 10
0
 20
0
 30
0
 70
128
 71
512
 72
203
 73
201
 74
316
 0
VERTEX
 8
RING
 10
0
 20
0
 30
0
 70
128
 71
203
 72
204
 73
317
 74
201
 0
VERTEX
 8
RING
 10
0
 20
0
 30
0
 70
128
 71
204
 72
205
 73
318
 74
317
 0
VERTEX
 8
RING
 10
0
 20
0
 30
0
 70
128
 71
205
 72
210
 73
319
 74
318
 0
VERTEX
 8
RING
 10
0
 20
0
 30
0
 70
128
 71
210
 72
213
 73
320
 74
319
 0
VERTEX
 8
RING
 10
0
 20
0
 30
0
 70
128
 71
213
 72
215
 73
321
 74
320
 0
VERTEX
 8
RING
 10
0
 20
0
 30
0
 70
128
 71
215
 72
217
 73
216
 74
321
 0
VERTEX
 8
RING
 10
0
 20
0
 30
0
 70
128
 71
565
 72
311
 73
577
 74
379
 0
VERTEX
 8
RING
 10
0
 20
0
 30
0
 70
128
 71
379
 72
577
 73
310
 74
573
 0
VERTEX
 8
RING
 10
0
 20
0
 30
0
 70
128
 71
573
 72
310
 73
309
 74
494
 0
VERTEX
 8
RING
 10
0
 20
0
 30
0
 70
128
 71
494
 72
309
 73
451
 74
481
 0
VERTEX
 8
RING
 10
0
 20
0
 30
0
 70
128
 71
132
 72
258
 73
257
 74
75
 0
VERTEX
 8
RING
 10
0
 20
0
 30
0
 70
128
 71
258
 72
132
 73
428
 74
259
 0
VERTEX
 8
RING
 10
0
 20
0
 30
0
 70
128
 71
257
 72
256
 73
123
 74
75
 0
VERTEX
 8
RING
 10
0
 20
0
 30
0
 70
128
 71
123
 72
256
 73
255
 74
72
 0
VERTEX
 8
RING
 10
0
 20
0
 30
0
 70
128
 71
72
 72
255
 73
566
 74
158
 0
VERTEX
 8
RING
 10
0
 20
0
 30
0
 70
128
 71
566
 72
254
 73
575
 74
158
 0
VERTEX
 8
RING
 10
0
 20
0
 30
0
 70
128
 71
575
 72
254
 73
137
 74
134
 0
VERTEX
 8
RING
 10
0
 20
0
 30
0
 70
128
 71
137
 72
253
 73
360
 74
134
 0
VERTEX
 8
RING
 10
0
 20
0
 30
0
 70
128
 71
253
 72
252
 73
461
 74
360
 0
VERTEX
 8
RING
 10
0
 20
0
 30
0
 70
128
 71
252
 72
305
 73
288
 74
461
 0
VERTEX
 8
RING
 10
0
 20
0
 30
0
 70
128
 71
305
 72
333
 73
322
 74
288
 0
VERTEX
 8
RING
 10
0
 20
0
 30
0
 70
128
 71
333
 72
265
 73
146
 74
322
 0
VERTEX
 8
RING
 10
0
 20
0
 30
0
 70
128
 71
265
 72
251
 73
272
 74
146
 0
VERTEX
 8
RING
 10
0
 20
0
 30
0
 70
128
 71
259
 72
428
 73
80
 74
126
 0
VERTEX
 8
RING
 10
0
 20
0
 30
0
 70
128
 71
126
 72
80
 73
127
 74
261
 0
VERTEX
 8
RING
 10
0
 20
0
 30
0
 70
128
 71
261
 72
127
 73
509
 74
262
 0
VERTEX
 8
RING
 10
0
 20
0
 30
0
 70
128
 71
262
 72
509
 73
578
 74
263
 0
VERTEX
 8
RING
 10
0
 20
0
 30
0
 70
128
 71
2
 72
267
 73
266
 74
570
 0
VERTEX
 8
RING
 10
0
 20
0
 30
0
 70
128
 71
2
 72
368
 73
268
 74
267
 0
VERTEX
 8
RING
 10
0
 20
0
 30
0
 70
128
 71
368
 72
470
 73
269
 74
268
 0
VERTEX
 8
RING
 10
0
 20
0
 30
0
 70
128
 71
269
 72
470
 73
206
 74
270
 0
VERTEX
 8
RING
 10
0
 20
0
 30
0
 70
128
 71
206
 72
178
 73
271
 74
270
 0
VERTEX
 8
RING
 10
0
 20
0
 30
0
 70
128
 71
271
 72
178
 73
199
 74
202
 0
VERTEX
 8
RING
 10
0
 20
0
 30
0
 70
128
 71
202
 72
199
 73
4
 74
198
 0
VERTEX
 8
RING
 10
0
 20
0
 30
0
 70
128
 71
198
 72
4
 73
557
 74
562
 0
VERTEX
 8
RING
 10
0
 20
0
 30
0
 70
128
 71
562
 72
557
 73
552
 74
556
 0
VERTEX
 8
RING
 10
0
 20
0
 30
0
 70
128
 71
556
 72
552
 73
220
 74
273
 0
VERTEX
 8
RING
 10
0
 20
0
 30
0
 70
128
 71
273
 72
220
 73
214
 74
219
 0
VERTEX
 8
RING
 10
0
 20
0
 30
0
 70
128
 71
570
 72
266
 73
592
 74
590
 0
VERTEX
 8
RING
 10
0
 20
0
 30
0
 70
128
 71
592
 72
589
 73
582
 74
590
 0
VERTEX
 8
RING
 10
0
 20
0
 30
0
 70
128
 71
589
 72
145
 73
138
 74
582
 0
VERTEX
 8
RING
 10
0
 20
0
 30
0
 70
128
 71
145
 72
194
 73
518
 74
138
 0
VERTEX
 8
RING
 10
0
 20
0
 30
0
 70
128
 71
194
 72
426
 73
275
 74
518
 0
VERTEX
 8
RING
 10
0
 20
0
 30
0
 70
128
 71
426
 72
264
 73
574
 74
275
 0
VERTEX
 8
RING
 10
0
 20
0
 30
0
 70
128
 71
303
 72
587
 73
588
 74
490
 0
VERTEX
 8
RING
 10
0
 20
0
 30
0
 70
128
 71
587
 72
302
 73
584
 74
588
 0
VERTEX
 8
RING
 10
0
 20
0
 30
0
 70
128
 71
584
 72
302
 73
136
 74
143
 0
VERTEX
 8
RING
 10
0
 20
0
 30
0
 70
128
 71
136
 72
546
 73
595
 74
143
 0
VERTEX
 8
RING
 10
0
 20
0
 30
0
 70
128
 71
595
 72
546
 73
301
 74
478
 0
VERTEX
 8
RING
 10
0
 20
0
 30
0
 70
128
 71
478
 72
301
 73
300
 74
476
 0
VERTEX
 8
RING
 10
0
 20
0
 30
0
 70
128
 71
476
 72
300
 73
299
 74
130
 0
VERTEX
 8
RING
 10
0
 20
0
 30
0
 70
128
 71
130
 72
299
 73
298
 74
128
 0
VERTEX
 8
RING
 10
0
 20
0
 30
0
 70
128
 71
128
 72
298
 73
611
 74
613
 0
VERTEX
 8
RING
 10
0
 20
0
 30
0
 70
128
 71
613
 72
611
 73
615
 74
617
 0
VERTEX
 8
RING
 10
0
 20
0
 30
0
 70
128
 71
490
 72
492
 73
304
 74
303
 0
VERTEX
 8
RING
 10
0
 20
0
 30
0
 70
128
 71
492
 72
526
 73
502
 74
304
 0
VERTEX
 8
RING
 10
0
 20
0
 30
0
 70
128
 71
526
 72
195
 73
581
 74
502
 0
VERTEX
 8
RING
 10
0
 20
0
 30
0
 70
128
 71
195
 72
224
 73
306
 74
581
 0
VERTEX
 8
RING
 10
0
 20
0
 30
0
 70
128
 71
224
 72
147
 73
225
 74
306
 0
VERTEX
 8
RING
 10
0
 20
0
 30
0
 70
128
 71
147
 72
382
 73
307
 74
225
 0
VERTEX
 8
RING
 10
0
 20
0
 30
0
 70
128
 71
382
 72
484
 73
308
 74
307
 0
VERTEX
 8
RING
 10
0
 20
0
 30
0
 70
128
 71
20
 72
106
 73
93
 74
18
 0
VERTEX
 8
RING
 10
0
 20
0
 30
0
 70
128
 71
106
 72
20
 73
16
 74
139
 0
VERTEX
 8
RING
 10
0
 20
0
 30
0
 70
128
 71
18
 72
93
 73
90
 74
13
 0
VERTEX
 8
RING
 10
0
 20
0
 30
0
 70
128
 71
13
 72
90
 73
99
 74
395
 0
VERTEX
 8
RING
 10
0
 20
0
 30
0
 70
128
 71
139
 72
16
 73
17
 74
102
 0
VERTEX
 8
RING
 10
0
 20
0
 30
0
 70
128
 71
102
 72
17
 73
394
 74
103
 0
VERTEX
 8
RING
 10
0
 20
0
 30
0
 70
128
 71
103
 72
394
 73
34
 74
173
 0
VERTEX
 8
RING
 10
0
 20
0
 30
0
 70
128
 71
34
 72
393
 73
175
 74
173
 0
VERTEX
 8
RING
 10
0
 20
0
 30
0
 70
128
 71
175
 72
393
 73
392
 74
168
 0
VERTEX
 8
RING
 10
0
 20
0
 30
0
 70
128
 71
392
 72
391
 73
171
 74
168
 0
VERTEX
 8
RING
 10
0
 20
0
 30
0
 70
128
 71
391
 72
390
 73
180
 74
171
 0
VERTEX
 8
RING
 10
0
 20
0
 30
0
 70
128
 71
180
 72
390
 73
33
 74
179
 0
VERTEX
 8
RING
 10
0
 20
0
 30
0
 70
128
 71
190
 72
61
 73
104
 74
186
 0
VERTEX
 8
RING
 10
0
 20
0
 30
0
 70
128
 71
191
 72
226
 73
547
 74
624
 0
VERTEX
 8
RING
 10
0
 20
0
 30
0
 70
128
 71
186
 72
104
 73
63
 74
624
 0
VERTEX
 8
RING
 10
0
 20
0
 30
0
 70
128
 71
209
 72
42
 73
190
 74
212
 0
VERTEX
 8
RING
 10
0
 20
0
 30
0
 70
128
 71
207
 72
70
 73
591
 74
591
 0
VERTEX
 8
RING
 10
0
 20
0
 30
0
 70
128
 71
624
 72
547
 73
287
 74
186
 0
VERTEX
 8
RING
 10
0
 20
0
 30
0
 70
128
 71
186
 72
287
 73
212
 74
190
 0
VERTEX
 8
RING
 10
0
 20
0
 30
0
 70
128
 71
624
 72
63
 73
193
 74
191
 0
SEQEND
 0
ENDSEC
 0
EOF
