 0
SECTION
 2
HEADER
 9
$ACADVER
 1
AC1009
 0
ENDSEC
 0
SECTION
 2
TABLES
 0
TABLE
 2
LTYPE
 70
1
 0
LTYPE
 2
CONTINUOUS
 70
64
 3
solid line
 72
65
 73
0
 40
0.0
 0
ENDTAB
 0
TABLE
 2
LAYER
 70
6
 0
LAYER
 2
0
 70
0
 62
7
 6
CONTINUOUS
 0
LAYER
 2
650_9020_M
 70
64
 62
7
 6
CONTINUOUS
 0
LAYER
 2
CAP_1
 70
64
 62
7
 6
CONTINUOUS
 0
LAYER
 2
CAP_1_1
 70
64
 62
7
 6
CONTINUOUS
 0
LAYER
 2
W_RFEL_1
 70
64
 62
18
 6
CONTINUOUS
 0
LAYER
 2
W_RFEL
 70
64
 62
18
 6
CONTINUOUS
 0
LAYER
 2
ZYLINDER
 70
64
 62
59
 6
CONTINUOUS
 0
LAYER
 2
MATT
 70
64
 62
7
 6
CONTINUOUS
 0
LAYER
 2
R_HRE_1
 70
64
 62
250
 6
CONTINUOUS
 0
LAYER
 2
ZYLINDER_13
 70
64
 62
250
 6
CONTINUOUS
 0
LAYER
 2
ZYLINDER_12
 70
64
 62
250
 6
CONTINUOUS
 0
LAYER
 2
ZYLINDER_10
 70
64
 62
250
 6
CONTINUOUS
 0
LAYER
 2
ZYLINDER_9
 70
64
 62
250
 6
CONTINUOUS
 0
LAYER
 2
ZYLINDER_7
 70
64
 62
250
 6
CONTINUOUS
 0
LAYER
 2
ZYLINDER_6
 70
64
 62
250
 6
CONTINUOUS
 0
LAYER
 2
R_HRE
 70
64
 62
253
 6
CONTINUOUS
 0
LAYER
 2
ZYLINDER_5
 70
64
 62
250
 6
CONTINUOUS
 0
LAYER
 2
ZYLINDER_4
 70
64
 62
250
 6
CONTINUOUS
 0
LAYER
 2
ZYLIN4
 70
64
 62
250
 6
CONTINUOUS
 0
LAYER
 2
ZYLINDER_1
 70
64
 62
250
 6
CONTINUOUS
 0
ENDTAB
 0
ENDSEC
 0
SECTION
 2
BLOCKS
 0
ENDSEC
 0
SECTION
 2
ENTITIES
 0
POLYLINE
 8
CAP_1
 66
1
 10
0.0
 20
0.0
 30
0.0
 70
64
 71
19
 72
19
 0
VERTEX
 8
CAP_1
 10
-16.6298
 20
-2.626
 30
21.1667
 70
192
 0
VERTEX
 8
CAP_1
 10
-16.6228
 20
-2.6179
 30
21.2112
 70
192
 0
VERTEX
 8
CAP_1
 10
-16.6017
 20
-2.5937
 30
21.2447
 70
192
 0
VERTEX
 8
CAP_1
 10
-16.5204
 20
-2.5001
 30
21.2727
 70
192
 0
VERTEX
 8
CAP_1
 10
-16.4319
 20
-2.3984
 30
21.2435
 70
192
 0
VERTEX
 8
CAP_1
 10
-16.4095
 20
-2.3725
 30
21.2078
 70
192
 0
VERTEX
 8
CAP_1
 10
-16.402
 20
-2.3639
 30
21.1592
 70
192
 0
VERTEX
 8
CAP_1
 10
-16.4302
 20
-2.3964
 30
21.0801
 70
192
 0
VERTEX
 8
CAP_1
 10
-16.515
 20
-2.4939
 30
21.0538
 70
192
 0
VERTEX
 8
CAP_1
 10
-16.6004
 20
-2.5922
 30
21.0835
 70
192
 0
VERTEX
 8
CAP_1
 10
-16.6225
 20
-2.6176
 30
21.1192
 70
192
 0
VERTEX
 8
CAP_1
 10
-16.4233
 20
-2.3885
 30
21.1614
 70
192
 0
VERTEX
 8
CAP_1
 10
-16.4473
 20
-2.416
 30
21.2153
 70
192
 0
VERTEX
 8
CAP_1
 10
-16.5191
 20
-2.4987
 30
21.2333
 70
192
 0
VERTEX
 8
CAP_1
 10
-16.5862
 20
-2.5759
 30
21.2157
 70
192
 0
VERTEX
 8
CAP_1
 10
-16.6086
 20
-2.6016
 30
21.1628
 70
192
 0
VERTEX
 8
CAP_1
 10
-16.5859
 20
-2.5755
 30
21.1106
 70
192
 0
VERTEX
 8
CAP_1
 10
-16.5176
 20
-2.4969
 30
21.0932
 70
192
 0
VERTEX
 8
CAP_1
 10
-16.4469
 20
-2.4156
 30
21.1102
 70
192
 0
VERTEX
 8
CAP_1
 10
0
 20
0
 30
0
 70
128
 71
1
 72
16
 73
11
 74
11
 0
VERTEX
 8
CAP_1
 10
0
 20
0
 30
0
 70
128
 71
1
 72
2
 73
16
 74
16
 0
VERTEX
 8
CAP_1
 10
0
 20
0
 30
0
 70
128
 71
2
 72
3
 73
15
 74
15
 0
VERTEX
 8
CAP_1
 10
0
 20
0
 30
0
 70
128
 71
2
 72
15
 73
16
 74
16
 0
VERTEX
 8
CAP_1
 10
0
 20
0
 30
0
 70
128
 71
3
 72
4
 73
15
 74
15
 0
VERTEX
 8
CAP_1
 10
0
 20
0
 30
0
 70
128
 71
4
 72
5
 73
13
 74
13
 0
VERTEX
 8
CAP_1
 10
0
 20
0
 30
0
 70
128
 71
4
 72
13
 73
14
 74
14
 0
VERTEX
 8
CAP_1
 10
0
 20
0
 30
0
 70
128
 71
4
 72
14
 73
15
 74
15
 0
VERTEX
 8
CAP_1
 10
0
 20
0
 30
0
 70
128
 71
5
 72
6
 73
13
 74
13
 0
VERTEX
 8
CAP_1
 10
0
 20
0
 30
0
 70
128
 71
6
 72
7
 73
12
 74
12
 0
VERTEX
 8
CAP_1
 10
0
 20
0
 30
0
 70
128
 71
6
 72
12
 73
13
 74
13
 0
VERTEX
 8
CAP_1
 10
0
 20
0
 30
0
 70
128
 71
7
 72
8
 73
12
 74
12
 0
VERTEX
 8
CAP_1
 10
0
 20
0
 30
0
 70
128
 71
8
 72
9
 73
19
 74
19
 0
VERTEX
 8
CAP_1
 10
0
 20
0
 30
0
 70
128
 71
8
 72
19
 73
12
 74
12
 0
VERTEX
 8
CAP_1
 10
0
 20
0
 30
0
 70
128
 71
9
 72
10
 73
17
 74
17
 0
VERTEX
 8
CAP_1
 10
0
 20
0
 30
0
 70
128
 71
9
 72
17
 73
18
 74
18
 0
VERTEX
 8
CAP_1
 10
0
 20
0
 30
0
 70
128
 71
9
 72
18
 73
19
 74
19
 0
VERTEX
 8
CAP_1
 10
0
 20
0
 30
0
 70
128
 71
10
 72
11
 73
17
 74
17
 0
VERTEX
 8
CAP_1
 10
0
 20
0
 30
0
 70
128
 71
11
 72
16
 73
17
 74
17
 0
SEQEND
 0
POLYLINE
 8
CAP_1_1
 66
1
 10
0.0
 20
0.0
 30
0.0
 70
64
 71
4
 72
2
 0
VERTEX
 8
CAP_1_1
 10
-15.8967
 20
-2.076
 30
21.1856
 70
192
 0
VERTEX
 8
CAP_1_1
 10
-15.8967
 20
-2.076
 30
21.1309
 70
192
 0
VERTEX
 8
CAP_1_1
 10
-16.2429
 20
-2.2374
 30
21.1309
 70
192
 0
VERTEX
 8
CAP_1_1
 10
-16.2429
 20
-2.2374
 30
21.1856
 70
192
 0
VERTEX
 8
CAP_1_1
 10
0
 20
0
 30
0
 70
128
 71
1
 72
2
 73
3
 74
3
 0
VERTEX
 8
CAP_1_1
 10
0
 20
0
 30
0
 70
128
 71
1
 72
3
 73
4
 74
4
 0
SEQEND
 0
POLYLINE
 8
W_RFEL_1
 66
1
 10
0.0
 20
0.0
 30
0.0
 70
64
 71
1992
 72
34
 0
VERTEX
 8
W_RFEL_1
 10
-16.7022
 20
-2.6304
 30
20.8
 70
192
 0
VERTEX
 8
W_RFEL_1
 10
-16.3509
 20
-2.2252
 30
20.8
 70
192
 0
VERTEX
 8
W_RFEL_1
 10
-15.8028
 20
-1.9699
 30
20.8
 70
192
 0
VERTEX
 8
W_RFEL_1
 10
-16.0818
 20
-1.7177
 30
20.8
 70
192
 0
VERTEX
 8
W_RFEL_1
 10
-16.3916
 20
-2.1338
 30
20.8
 70
192
 0
VERTEX
 8
W_RFEL_1
 10
-16.7429
 20
-2.5391
 30
20.8
 70
192
 0
VERTEX
 8
W_RFEL_1
 10
-16.7001
 20
-2.6352
 30
20.8003
 70
192
 0
VERTEX
 8
W_RFEL_1
 10
-16.3488
 20
-2.23
 30
20.8003
 70
192
 0
VERTEX
 8
W_RFEL_1
 10
-15.8007
 20
-1.9747
 30
20.8003
 70
192
 0
VERTEX
 8
W_RFEL_1
 10
-15.8002
 20
-1.9744
 30
20.8003
 70
192
 0
VERTEX
 8
W_RFEL_1
 10
-15.7997
 20
-1.9741
 30
20.8003
 70
192
 0
VERTEX
 8
W_RFEL_1
 10
-15.7993
 20
-1.9738
 30
20.8003
 70
192
 0
VERTEX
 8
W_RFEL_1
 10
-15.7989
 20
-1.9734
 30
20.8003
 70
192
 0
VERTEX
 8
W_RFEL_1
 10
-15.7986
 20
-1.973
 30
20.8003
 70
192
 0
VERTEX
 8
W_RFEL_1
 10
-15.7983
 20
-1.9725
 30
20.8003
 70
192
 0
VERTEX
 8
W_RFEL_1
 10
-15.798
 20
-1.972
 30
20.8003
 70
192
 0
VERTEX
 8
W_RFEL_1
 10
-15.7978
 20
-1.9715
 30
20.8003
 70
192
 0
VERTEX
 8
W_RFEL_1
 10
-15.7977
 20
-1.971
 30
20.8003
 70
192
 0
VERTEX
 8
W_RFEL_1
 10
-15.7976
 20
-1.9704
 30
20.8003
 70
192
 0
VERTEX
 8
W_RFEL_1
 10
-15.7976
 20
-1.9699
 30
20.8003
 70
192
 0
VERTEX
 8
W_RFEL_1
 10
-15.7976
 20
-1.9693
 30
20.8003
 70
192
 0
VERTEX
 8
W_RFEL_1
 10
-15.7977
 20
-1.9688
 30
20.8003
 70
192
 0
VERTEX
 8
W_RFEL_1
 10
-15.7978
 20
-1.9683
 30
20.8003
 70
192
 0
VERTEX
 8
W_RFEL_1
 10
-15.798
 20
-1.9678
 30
20.8003
 70
192
 0
VERTEX
 8
W_RFEL_1
 10
-16.077
 20
-1.7156
 30
20.8003
 70
192
 0
VERTEX
 8
W_RFEL_1
 10
-16.0773
 20
-1.7151
 30
20.8003
 70
192
 0
VERTEX
 8
W_RFEL_1
 10
-16.0776
 20
-1.7146
 30
20.8003
 70
192
 0
VERTEX
 8
W_RFEL_1
 10
-16.0779
 20
-1.7142
 30
20.8003
 70
192
 0
VERTEX
 8
W_RFEL_1
 10
-16.0783
 20
-1.7138
 30
20.8003
 70
192
 0
VERTEX
 8
W_RFEL_1
 10
-16.0787
 20
-1.7135
 30
20.8003
 70
192
 0
VERTEX
 8
W_RFEL_1
 10
-16.0792
 20
-1.7132
 30
20.8003
 70
192
 0
VERTEX
 8
W_RFEL_1
 10
-16.0797
 20
-1.7129
 30
20.8003
 70
192
 0
VERTEX
 8
W_RFEL_1
 10
-16.0802
 20
-1.7127
 30
20.8003
 70
192
 0
VERTEX
 8
W_RFEL_1
 10
-16.0807
 20
-1.7126
 30
20.8003
 70
192
 0
VERTEX
 8
W_RFEL_1
 10
-16.0813
 20
-1.7125
 30
20.8003
 70
192
 0
VERTEX
 8
W_RFEL_1
 10
-16.0818
 20
-1.7125
 30
20.8003
 70
192
 0
VERTEX
 8
W_RFEL_1
 10
-16.0824
 20
-1.7125
 30
20.8003
 70
192
 0
VERTEX
 8
W_RFEL_1
 10
-16.0829
 20
-1.7126
 30
20.8003
 70
192
 0
VERTEX
 8
W_RFEL_1
 10
-16.0834
 20
-1.7127
 30
20.8003
 70
192
 0
VERTEX
 8
W_RFEL_1
 10
-16.0839
 20
-1.7129
 30
20.8003
 70
192
 0
VERTEX
 8
W_RFEL_1
 10
-16.3937
 20
-2.1291
 30
20.8003
 70
192
 0
VERTEX
 8
W_RFEL_1
 10
-16.745
 20
-2.5343
 30
20.8003
 70
192
 0
VERTEX
 8
W_RFEL_1
 10
-16.7455
 20
-2.5346
 30
20.8003
 70
192
 0
VERTEX
 8
W_RFEL_1
 10
-16.746
 20
-2.5349
 30
20.8003
 70
192
 0
VERTEX
 8
W_RFEL_1
 10
-16.7464
 20
-2.5352
 30
20.8003
 70
192
 0
VERTEX
 8
W_RFEL_1
 10
-16.7468
 20
-2.5356
 30
20.8003
 70
192
 0
VERTEX
 8
W_RFEL_1
 10
-16.7471
 20
-2.536
 30
20.8003
 70
192
 0
VERTEX
 8
W_RFEL_1
 10
-16.7474
 20
-2.5365
 30
20.8003
 70
192
 0
VERTEX
 8
W_RFEL_1
 10
-16.7477
 20
-2.537
 30
20.8003
 70
192
 0
VERTEX
 8
W_RFEL_1
 10
-16.7479
 20
-2.5375
 30
20.8003
 70
192
 0
VERTEX
 8
W_RFEL_1
 10
-16.748
 20
-2.538
 30
20.8003
 70
192
 0
VERTEX
 8
W_RFEL_1
 10
-16.7481
 20
-2.5385
 30
20.8003
 70
192
 0
VERTEX
 8
W_RFEL_1
 10
-16.7481
 20
-2.5391
 30
20.8003
 70
192
 0
VERTEX
 8
W_RFEL_1
 10
-16.7481
 20
-2.5396
 30
20.8003
 70
192
 0
VERTEX
 8
W_RFEL_1
 10
-16.748
 20
-2.5402
 30
20.8003
 70
192
 0
VERTEX
 8
W_RFEL_1
 10
-16.7479
 20
-2.5407
 30
20.8003
 70
192
 0
VERTEX
 8
W_RFEL_1
 10
-16.7477
 20
-2.5412
 30
20.8003
 70
192
 0
VERTEX
 8
W_RFEL_1
 10
-16.707
 20
-2.6326
 30
20.8003
 70
192
 0
VERTEX
 8
W_RFEL_1
 10
-16.7068
 20
-2.633
 30
20.8003
 70
192
 0
VERTEX
 8
W_RFEL_1
 10
-16.7065
 20
-2.6335
 30
20.8003
 70
192
 0
VERTEX
 8
W_RFEL_1
 10
-16.7061
 20
-2.6339
 30
20.8003
 70
192
 0
VERTEX
 8
W_RFEL_1
 10
-16.7057
 20
-2.6343
 30
20.8003
 70
192
 0
VERTEX
 8
W_RFEL_1
 10
-16.7053
 20
-2.6347
 30
20.8003
 70
192
 0
VERTEX
 8
W_RFEL_1
 10
-16.7049
 20
-2.635
 30
20.8003
 70
192
 0
VERTEX
 8
W_RFEL_1
 10
-16.7044
 20
-2.6352
 30
20.8003
 70
192
 0
VERTEX
 8
W_RFEL_1
 10
-16.7039
 20
-2.6354
 30
20.8003
 70
192
 0
VERTEX
 8
W_RFEL_1
 10
-16.7033
 20
-2.6355
 30
20.8003
 70
192
 0
VERTEX
 8
W_RFEL_1
 10
-16.7028
 20
-2.6356
 30
20.8003
 70
192
 0
VERTEX
 8
W_RFEL_1
 10
-16.7022
 20
-2.6357
 30
20.8003
 70
192
 0
VERTEX
 8
W_RFEL_1
 10
-16.7017
 20
-2.6356
 30
20.8003
 70
192
 0
VERTEX
 8
W_RFEL_1
 10
-16.7012
 20
-2.6355
 30
20.8003
 70
192
 0
VERTEX
 8
W_RFEL_1
 10
-16.7006
 20
-2.6354
 30
20.8003
 70
192
 0
VERTEX
 8
W_RFEL_1
 10
-16.698
 20
-2.6399
 30
20.8011
 70
192
 0
VERTEX
 8
W_RFEL_1
 10
-16.3467
 20
-2.2347
 30
20.8011
 70
192
 0
VERTEX
 8
W_RFEL_1
 10
-15.7986
 20
-1.9794
 30
20.8011
 70
192
 0
VERTEX
 8
W_RFEL_1
 10
-15.7976
 20
-1.9789
 30
20.8011
 70
192
 0
VERTEX
 8
W_RFEL_1
 10
-15.7967
 20
-1.9783
 30
20.8011
 70
192
 0
VERTEX
 8
W_RFEL_1
 10
-15.7958
 20
-1.9776
 30
20.8011
 70
192
 0
VERTEX
 8
W_RFEL_1
 10
-15.7951
 20
-1.9768
 30
20.8011
 70
192
 0
VERTEX
 8
W_RFEL_1
 10
-15.7944
 20
-1.976
 30
20.8011
 70
192
 0
VERTEX
 8
W_RFEL_1
 10
-15.7938
 20
-1.9751
 30
20.8011
 70
192
 0
VERTEX
 8
W_RFEL_1
 10
-15.7933
 20
-1.9741
 30
20.8011
 70
192
 0
VERTEX
 8
W_RFEL_1
 10
-15.7929
 20
-1.9731
 30
20.8011
 70
192
 0
VERTEX
 8
W_RFEL_1
 10
-15.7926
 20
-1.972
 30
20.8011
 70
192
 0
VERTEX
 8
W_RFEL_1
 10
-15.7924
 20
-1.971
 30
20.8011
 70
192
 0
VERTEX
 8
W_RFEL_1
 10
-15.7924
 20
-1.9699
 30
20.8011
 70
192
 0
VERTEX
 8
W_RFEL_1
 10
-15.7924
 20
-1.9688
 30
20.8011
 70
192
 0
VERTEX
 8
W_RFEL_1
 10
-15.7926
 20
-1.9677
 30
20.8011
 70
192
 0
VERTEX
 8
W_RFEL_1
 10
-15.7929
 20
-1.9667
 30
20.8011
 70
192
 0
VERTEX
 8
W_RFEL_1
 10
-15.7933
 20
-1.9657
 30
20.8011
 70
192
 0
VERTEX
 8
W_RFEL_1
 10
-16.0723
 20
-1.7135
 30
20.8011
 70
192
 0
VERTEX
 8
W_RFEL_1
 10
-16.0728
 20
-1.7125
 30
20.8011
 70
192
 0
VERTEX
 8
W_RFEL_1
 10
-16.0734
 20
-1.7116
 30
20.8011
 70
192
 0
VERTEX
 8
W_RFEL_1
 10
-16.0741
 20
-1.7107
 30
20.8011
 70
192
 0
VERTEX
 8
W_RFEL_1
 10
-16.0749
 20
-1.71
 30
20.8011
 70
192
 0
VERTEX
 8
W_RFEL_1
 10
-16.0757
 20
-1.7093
 30
20.8011
 70
192
 0
VERTEX
 8
W_RFEL_1
 10
-16.0766
 20
-1.7087
 30
20.8011
 70
192
 0
VERTEX
 8
W_RFEL_1
 10
-16.0776
 20
-1.7082
 30
20.8011
 70
192
 0
VERTEX
 8
W_RFEL_1
 10
-16.0786
 20
-1.7078
 30
20.8011
 70
192
 0
VERTEX
 8
W_RFEL_1
 10
-16.0797
 20
-1.7075
 30
20.8011
 70
192
 0
VERTEX
 8
W_RFEL_1
 10
-16.0807
 20
-1.7073
 30
20.8011
 70
192
 0
VERTEX
 8
W_RFEL_1
 10
-16.0818
 20
-1.7073
 30
20.8011
 70
192
 0
VERTEX
 8
W_RFEL_1
 10
-16.0829
 20
-1.7073
 30
20.8011
 70
192
 0
VERTEX
 8
W_RFEL_1
 10
-16.084
 20
-1.7075
 30
20.8011
 70
192
 0
VERTEX
 8
W_RFEL_1
 10
-16.085
 20
-1.7078
 30
20.8011
 70
192
 0
VERTEX
 8
W_RFEL_1
 10
-16.0861
 20
-1.7082
 30
20.8011
 70
192
 0
VERTEX
 8
W_RFEL_1
 10
-16.3958
 20
-2.1244
 30
20.8011
 70
192
 0
VERTEX
 8
W_RFEL_1
 10
-16.7471
 20
-2.5296
 30
20.8011
 70
192
 0
VERTEX
 8
W_RFEL_1
 10
-16.7481
 20
-2.5301
 30
20.8011
 70
192
 0
VERTEX
 8
W_RFEL_1
 10
-16.749
 20
-2.5307
 30
20.8011
 70
192
 0
VERTEX
 8
W_RFEL_1
 10
-16.7499
 20
-2.5314
 30
20.8011
 70
192
 0
VERTEX
 8
W_RFEL_1
 10
-16.7506
 20
-2.5321
 30
20.8011
 70
192
 0
VERTEX
 8
W_RFEL_1
 10
-16.7513
 20
-2.533
 30
20.8011
 70
192
 0
VERTEX
 8
W_RFEL_1
 10
-16.7519
 20
-2.5339
 30
20.8011
 70
192
 0
VERTEX
 8
W_RFEL_1
 10
-16.7524
 20
-2.5349
 30
20.8011
 70
192
 0
VERTEX
 8
W_RFEL_1
 10
-16.7528
 20
-2.5359
 30
20.8011
 70
192
 0
VERTEX
 8
W_RFEL_1
 10
-16.7531
 20
-2.5369
 30
20.8011
 70
192
 0
VERTEX
 8
W_RFEL_1
 10
-16.7533
 20
-2.538
 30
20.8011
 70
192
 0
VERTEX
 8
W_RFEL_1
 10
-16.7533
 20
-2.5391
 30
20.8011
 70
192
 0
VERTEX
 8
W_RFEL_1
 10
-16.7533
 20
-2.5402
 30
20.8011
 70
192
 0
VERTEX
 8
W_RFEL_1
 10
-16.7531
 20
-2.5412
 30
20.8011
 70
192
 0
VERTEX
 8
W_RFEL_1
 10
-16.7528
 20
-2.5423
 30
20.8011
 70
192
 0
VERTEX
 8
W_RFEL_1
 10
-16.7524
 20
-2.5433
 30
20.8011
 70
192
 0
VERTEX
 8
W_RFEL_1
 10
-16.7117
 20
-2.6347
 30
20.8011
 70
192
 0
VERTEX
 8
W_RFEL_1
 10
-16.7112
 20
-2.6356
 30
20.8011
 70
192
 0
VERTEX
 8
W_RFEL_1
 10
-16.7106
 20
-2.6365
 30
20.8011
 70
192
 0
VERTEX
 8
W_RFEL_1
 10
-16.71
 20
-2.6374
 30
20.8011
 70
192
 0
VERTEX
 8
W_RFEL_1
 10
-16.7092
 20
-2.6382
 30
20.8011
 70
192
 0
VERTEX
 8
W_RFEL_1
 10
-16.7083
 20
-2.6388
 30
20.8011
 70
192
 0
VERTEX
 8
W_RFEL_1
 10
-16.7074
 20
-2.6394
 30
20.8011
 70
192
 0
VERTEX
 8
W_RFEL_1
 10
-16.7065
 20
-2.6399
 30
20.8011
 70
192
 0
VERTEX
 8
W_RFEL_1
 10
-16.7055
 20
-2.6403
 30
20.8011
 70
192
 0
VERTEX
 8
W_RFEL_1
 10
-16.7044
 20
-2.6406
 30
20.8011
 70
192
 0
VERTEX
 8
W_RFEL_1
 10
-16.7033
 20
-2.6408
 30
20.8011
 70
192
 0
VERTEX
 8
W_RFEL_1
 10
-16.7022
 20
-2.6408
 30
20.8011
 70
192
 0
VERTEX
 8
W_RFEL_1
 10
-16.7012
 20
-2.6408
 30
20.8011
 70
192
 0
VERTEX
 8
W_RFEL_1
 10
-16.7001
 20
-2.6406
 30
20.8011
 70
192
 0
VERTEX
 8
W_RFEL_1
 10
-16.699
 20
-2.6403
 30
20.8011
 70
192
 0
VERTEX
 8
W_RFEL_1
 10
-16.696
 20
-2.6446
 30
20.8024
 70
192
 0
VERTEX
 8
W_RFEL_1
 10
-16.3446
 20
-2.2393
 30
20.8024
 70
192
 0
VERTEX
 8
W_RFEL_1
 10
-15.7965
 20
-1.984
 30
20.8024
 70
192
 0
VERTEX
 8
W_RFEL_1
 10
-15.7951
 20
-1.9833
 30
20.8024
 70
192
 0
VERTEX
 8
W_RFEL_1
 10
-15.7937
 20
-1.9824
 30
20.8024
 70
192
 0
VERTEX
 8
W_RFEL_1
 10
-15.7924
 20
-1.9814
 30
20.8024
 70
192
 0
VERTEX
 8
W_RFEL_1
 10
-15.7913
 20
-1.9802
 30
20.8024
 70
192
 0
VERTEX
 8
W_RFEL_1
 10
-15.7903
 20
-1.979
 30
20.8024
 70
192
 0
VERTEX
 8
W_RFEL_1
 10
-15.7894
 20
-1.9776
 30
20.8024
 70
192
 0
VERTEX
 8
W_RFEL_1
 10
-15.7887
 20
-1.9762
 30
20.8024
 70
192
 0
VERTEX
 8
W_RFEL_1
 10
-15.7881
 20
-1.9747
 30
20.8024
 70
192
 0
VERTEX
 8
W_RFEL_1
 10
-15.7877
 20
-1.9731
 30
20.8024
 70
192
 0
VERTEX
 8
W_RFEL_1
 10
-15.7874
 20
-1.9715
 30
20.8024
 70
192
 0
VERTEX
 8
W_RFEL_1
 10
-15.7873
 20
-1.9699
 30
20.8024
 70
192
 0
VERTEX
 8
W_RFEL_1
 10
-15.7874
 20
-1.9683
 30
20.8024
 70
192
 0
VERTEX
 8
W_RFEL_1
 10
-15.7877
 20
-1.9667
 30
20.8024
 70
192
 0
VERTEX
 8
W_RFEL_1
 10
-15.7881
 20
-1.9651
 30
20.8024
 70
192
 0
VERTEX
 8
W_RFEL_1
 10
-15.7887
 20
-1.9636
 30
20.8024
 70
192
 0
VERTEX
 8
W_RFEL_1
 10
-16.0677
 20
-1.7114
 30
20.8024
 70
192
 0
VERTEX
 8
W_RFEL_1
 10
-16.0684
 20
-1.71
 30
20.8024
 70
192
 0
VERTEX
 8
W_RFEL_1
 10
-16.0693
 20
-1.7086
 30
20.8024
 70
192
 0
VERTEX
 8
W_RFEL_1
 10
-16.0703
 20
-1.7073
 30
20.8024
 70
192
 0
VERTEX
 8
W_RFEL_1
 10
-16.0715
 20
-1.7062
 30
20.8024
 70
192
 0
VERTEX
 8
W_RFEL_1
 10
-16.0727
 20
-1.7052
 30
20.8024
 70
192
 0
VERTEX
 8
W_RFEL_1
 10
-16.0741
 20
-1.7043
 30
20.8024
 70
192
 0
VERTEX
 8
W_RFEL_1
 10
-16.0755
 20
-1.7036
 30
20.8024
 70
192
 0
VERTEX
 8
W_RFEL_1
 10
-16.077
 20
-1.703
 30
20.8024
 70
192
 0
VERTEX
 8
W_RFEL_1
 10
-16.0786
 20
-1.7026
 30
20.8024
 70
192
 0
VERTEX
 8
W_RFEL_1
 10
-16.0802
 20
-1.7023
 30
20.8024
 70
192
 0
VERTEX
 8
W_RFEL_1
 10
-16.0818
 20
-1.7022
 30
20.8024
 70
192
 0
VERTEX
 8
W_RFEL_1
 10
-16.0834
 20
-1.7023
 30
20.8024
 70
192
 0
VERTEX
 8
W_RFEL_1
 10
-16.085
 20
-1.7026
 30
20.8024
 70
192
 0
VERTEX
 8
W_RFEL_1
 10
-16.0866
 20
-1.703
 30
20.8024
 70
192
 0
VERTEX
 8
W_RFEL_1
 10
-16.0881
 20
-1.7036
 30
20.8024
 70
192
 0
VERTEX
 8
W_RFEL_1
 10
-16.3978
 20
-2.1197
 30
20.8024
 70
192
 0
VERTEX
 8
W_RFEL_1
 10
-16.7492
 20
-2.525
 30
20.8024
 70
192
 0
VERTEX
 8
W_RFEL_1
 10
-16.7506
 20
-2.5257
 30
20.8024
 70
192
 0
VERTEX
 8
W_RFEL_1
 10
-16.752
 20
-2.5266
 30
20.8024
 70
192
 0
VERTEX
 8
W_RFEL_1
 10
-16.7533
 20
-2.5276
 30
20.8024
 70
192
 0
VERTEX
 8
W_RFEL_1
 10
-16.7544
 20
-2.5287
 30
20.8024
 70
192
 0
VERTEX
 8
W_RFEL_1
 10
-16.7554
 20
-2.53
 30
20.8024
 70
192
 0
VERTEX
 8
W_RFEL_1
 10
-16.7563
 20
-2.5314
 30
20.8024
 70
192
 0
VERTEX
 8
W_RFEL_1
 10
-16.757
 20
-2.5328
 30
20.8024
 70
192
 0
VERTEX
 8
W_RFEL_1
 10
-16.7576
 20
-2.5343
 30
20.8024
 70
192
 0
VERTEX
 8
W_RFEL_1
 10
-16.758
 20
-2.5359
 30
20.8024
 70
192
 0
VERTEX
 8
W_RFEL_1
 10
-16.7583
 20
-2.5375
 30
20.8024
 70
192
 0
VERTEX
 8
W_RFEL_1
 10
-16.7584
 20
-2.5391
 30
20.8024
 70
192
 0
VERTEX
 8
W_RFEL_1
 10
-16.7583
 20
-2.5407
 30
20.8024
 70
192
 0
VERTEX
 8
W_RFEL_1
 10
-16.758
 20
-2.5423
 30
20.8024
 70
192
 0
VERTEX
 8
W_RFEL_1
 10
-16.7576
 20
-2.5439
 30
20.8024
 70
192
 0
VERTEX
 8
W_RFEL_1
 10
-16.757
 20
-2.5454
 30
20.8024
 70
192
 0
VERTEX
 8
W_RFEL_1
 10
-16.7164
 20
-2.6367
 30
20.8024
 70
192
 0
VERTEX
 8
W_RFEL_1
 10
-16.7156
 20
-2.6382
 30
20.8024
 70
192
 0
VERTEX
 8
W_RFEL_1
 10
-16.7147
 20
-2.6395
 30
20.8024
 70
192
 0
VERTEX
 8
W_RFEL_1
 10
-16.7137
 20
-2.6408
 30
20.8024
 70
192
 0
VERTEX
 8
W_RFEL_1
 10
-16.7126
 20
-2.6419
 30
20.8024
 70
192
 0
VERTEX
 8
W_RFEL_1
 10
-16.7113
 20
-2.6429
 30
20.8024
 70
192
 0
VERTEX
 8
W_RFEL_1
 10
-16.71
 20
-2.6438
 30
20.8024
 70
192
 0
VERTEX
 8
W_RFEL_1
 10
-16.7085
 20
-2.6446
 30
20.8024
 70
192
 0
VERTEX
 8
W_RFEL_1
 10
-16.707
 20
-2.6451
 30
20.8024
 70
192
 0
VERTEX
 8
W_RFEL_1
 10
-16.7055
 20
-2.6455
 30
20.8024
 70
192
 0
VERTEX
 8
W_RFEL_1
 10
-16.7039
 20
-2.6458
 30
20.8024
 70
192
 0
VERTEX
 8
W_RFEL_1
 10
-16.7022
 20
-2.6459
 30
20.8024
 70
192
 0
VERTEX
 8
W_RFEL_1
 10
-16.7006
 20
-2.6458
 30
20.8024
 70
192
 0
VERTEX
 8
W_RFEL_1
 10
-16.699
 20
-2.6455
 30
20.8024
 70
192
 0
VERTEX
 8
W_RFEL_1
 10
-16.6975
 20
-2.6451
 30
20.8024
 70
192
 0
VERTEX
 8
W_RFEL_1
 10
-16.694
 20
-2.649
 30
20.8043
 70
192
 0
VERTEX
 8
W_RFEL_1
 10
-16.3426
 20
-2.2438
 30
20.8043
 70
192
 0
VERTEX
 8
W_RFEL_1
 10
-15.7945
 20
-1.9885
 30
20.8043
 70
192
 0
VERTEX
 8
W_RFEL_1
 10
-15.7926
 20
-1.9875
 30
20.8043
 70
192
 0
VERTEX
 8
W_RFEL_1
 10
-15.7908
 20
-1.9863
 30
20.8043
 70
192
 0
VERTEX
 8
W_RFEL_1
 10
-15.7892
 20
-1.985
 30
20.8043
 70
192
 0
VERTEX
 8
W_RFEL_1
 10
-15.7877
 20
-1.9835
 30
20.8043
 70
192
 0
VERTEX
 8
W_RFEL_1
 10
-15.7863
 20
-1.9818
 30
20.8043
 70
192
 0
VERTEX
 8
W_RFEL_1
 10
-15.7852
 20
-1.9801
 30
20.8043
 70
192
 0
VERTEX
 8
W_RFEL_1
 10
-15.7842
 20
-1.9782
 30
20.8043
 70
192
 0
VERTEX
 8
W_RFEL_1
 10
-15.7834
 20
-1.9762
 30
20.8043
 70
192
 0
VERTEX
 8
W_RFEL_1
 10
-15.7829
 20
-1.9741
 30
20.8043
 70
192
 0
VERTEX
 8
W_RFEL_1
 10
-15.7826
 20
-1.972
 30
20.8043
 70
192
 0
VERTEX
 8
W_RFEL_1
 10
-15.7824
 20
-1.9699
 30
20.8043
 70
192
 0
VERTEX
 8
W_RFEL_1
 10
-15.7826
 20
-1.9678
 30
20.8043
 70
192
 0
VERTEX
 8
W_RFEL_1
 10
-15.7829
 20
-1.9657
 30
20.8043
 70
192
 0
VERTEX
 8
W_RFEL_1
 10
-15.7834
 20
-1.9636
 30
20.8043
 70
192
 0
VERTEX
 8
W_RFEL_1
 10
-15.7842
 20
-1.9616
 30
20.8043
 70
192
 0
VERTEX
 8
W_RFEL_1
 10
-16.0632
 20
-1.7094
 30
20.8043
 70
192
 0
VERTEX
 8
W_RFEL_1
 10
-16.0642
 20
-1.7075
 30
20.8043
 70
192
 0
VERTEX
 8
W_RFEL_1
 10
-16.0654
 20
-1.7057
 30
20.8043
 70
192
 0
VERTEX
 8
W_RFEL_1
 10
-16.0667
 20
-1.7041
 30
20.8043
 70
192
 0
VERTEX
 8
W_RFEL_1
 10
-16.0682
 20
-1.7026
 30
20.8043
 70
192
 0
VERTEX
 8
W_RFEL_1
 10
-16.0699
 20
-1.7012
 30
20.8043
 70
192
 0
VERTEX
 8
W_RFEL_1
 10
-16.0717
 20
-1.7001
 30
20.8043
 70
192
 0
VERTEX
 8
W_RFEL_1
 10
-16.0736
 20
-1.6991
 30
20.8043
 70
192
 0
VERTEX
 8
W_RFEL_1
 10
-16.0755
 20
-1.6983
 30
20.8043
 70
192
 0
VERTEX
 8
W_RFEL_1
 10
-16.0776
 20
-1.6978
 30
20.8043
 70
192
 0
VERTEX
 8
W_RFEL_1
 10
-16.0797
 20
-1.6975
 30
20.8043
 70
192
 0
VERTEX
 8
W_RFEL_1
 10
-16.0818
 20
-1.6973
 30
20.8043
 70
192
 0
VERTEX
 8
W_RFEL_1
 10
-16.0839
 20
-1.6975
 30
20.8043
 70
192
 0
VERTEX
 8
W_RFEL_1
 10
-16.0861
 20
-1.6978
 30
20.8043
 70
192
 0
VERTEX
 8
W_RFEL_1
 10
-16.0881
 20
-1.6983
 30
20.8043
 70
192
 0
VERTEX
 8
W_RFEL_1
 10
-16.0901
 20
-1.6991
 30
20.8043
 70
192
 0
VERTEX
 8
W_RFEL_1
 10
-16.3998
 20
-2.1153
 30
20.8043
 70
192
 0
VERTEX
 8
W_RFEL_1
 10
-16.7512
 20
-2.5205
 30
20.8043
 70
192
 0
VERTEX
 8
W_RFEL_1
 10
-16.7531
 20
-2.5215
 30
20.8043
 70
192
 0
VERTEX
 8
W_RFEL_1
 10
-16.7549
 20
-2.5226
 30
20.8043
 70
192
 0
VERTEX
 8
W_RFEL_1
 10
-16.7565
 20
-2.524
 30
20.8043
 70
192
 0
VERTEX
 8
W_RFEL_1
 10
-16.758
 20
-2.5255
 30
20.8043
 70
192
 0
VERTEX
 8
W_RFEL_1
 10
-16.7594
 20
-2.5271
 30
20.8043
 70
192
 0
VERTEX
 8
W_RFEL_1
 10
-16.7605
 20
-2.5289
 30
20.8043
 70
192
 0
VERTEX
 8
W_RFEL_1
 10
-16.7615
 20
-2.5308
 30
20.8043
 70
192
 0
VERTEX
 8
W_RFEL_1
 10
-16.7623
 20
-2.5328
 30
20.8043
 70
192
 0
VERTEX
 8
W_RFEL_1
 10
-16.7628
 20
-2.5349
 30
20.8043
 70
192
 0
VERTEX
 8
W_RFEL_1
 10
-16.7631
 20
-2.537
 30
20.8043
 70
192
 0
VERTEX
 8
W_RFEL_1
 10
-16.7632
 20
-2.5391
 30
20.8043
 70
192
 0
VERTEX
 8
W_RFEL_1
 10
-16.7631
 20
-2.5412
 30
20.8043
 70
192
 0
VERTEX
 8
W_RFEL_1
 10
-16.7628
 20
-2.5433
 30
20.8043
 70
192
 0
VERTEX
 8
W_RFEL_1
 10
-16.7623
 20
-2.5454
 30
20.8043
 70
192
 0
VERTEX
 8
W_RFEL_1
 10
-16.7615
 20
-2.5474
 30
20.8043
 70
192
 0
VERTEX
 8
W_RFEL_1
 10
-16.7208
 20
-2.6387
 30
20.8043
 70
192
 0
VERTEX
 8
W_RFEL_1
 10
-16.7199
 20
-2.6406
 30
20.8043
 70
192
 0
VERTEX
 8
W_RFEL_1
 10
-16.7187
 20
-2.6424
 30
20.8043
 70
192
 0
VERTEX
 8
W_RFEL_1
 10
-16.7174
 20
-2.644
 30
20.8043
 70
192
 0
VERTEX
 8
W_RFEL_1
 10
-16.7158
 20
-2.6455
 30
20.8043
 70
192
 0
VERTEX
 8
W_RFEL_1
 10
-16.7142
 20
-2.6469
 30
20.8043
 70
192
 0
VERTEX
 8
W_RFEL_1
 10
-16.7124
 20
-2.648
 30
20.8043
 70
192
 0
VERTEX
 8
W_RFEL_1
 10
-16.7105
 20
-2.649
 30
20.8043
 70
192
 0
VERTEX
 8
W_RFEL_1
 10
-16.7085
 20
-2.6498
 30
20.8043
 70
192
 0
VERTEX
 8
W_RFEL_1
 10
-16.7065
 20
-2.6503
 30
20.8043
 70
192
 0
VERTEX
 8
W_RFEL_1
 10
-16.7044
 20
-2.6507
 30
20.8043
 70
192
 0
VERTEX
 8
W_RFEL_1
 10
-16.7022
 20
-2.6508
 30
20.8043
 70
192
 0
VERTEX
 8
W_RFEL_1
 10
-16.7001
 20
-2.6507
 30
20.8043
 70
192
 0
VERTEX
 8
W_RFEL_1
 10
-16.698
 20
-2.6503
 30
20.8043
 70
192
 0
VERTEX
 8
W_RFEL_1
 10
-16.696
 20
-2.6498
 30
20.8043
 70
192
 0
VERTEX
 8
W_RFEL_1
 10
-16.6921
 20
-2.6533
 30
20.8067
 70
192
 0
VERTEX
 8
W_RFEL_1
 10
-16.3407
 20
-2.248
 30
20.8067
 70
192
 0
VERTEX
 8
W_RFEL_1
 10
-15.7926
 20
-1.9927
 30
20.8067
 70
192
 0
VERTEX
 8
W_RFEL_1
 10
-15.7903
 20
-1.9915
 30
20.8067
 70
192
 0
VERTEX
 8
W_RFEL_1
 10
-15.7881
 20
-1.9901
 30
20.8067
 70
192
 0
VERTEX
 8
W_RFEL_1
 10
-15.7861
 20
-1.9885
 30
20.8067
 70
192
 0
VERTEX
 8
W_RFEL_1
 10
-15.7842
 20
-1.9866
 30
20.8067
 70
192
 0
VERTEX
 8
W_RFEL_1
 10
-15.7826
 20
-1.9846
 30
20.8067
 70
192
 0
VERTEX
 8
W_RFEL_1
 10
-15.7811
 20
-1.9824
 30
20.8067
 70
192
 0
VERTEX
 8
W_RFEL_1
 10
-15.7799
 20
-1.9801
 30
20.8067
 70
192
 0
VERTEX
 8
W_RFEL_1
 10
-15.779
 20
-1.9776
 30
20.8067
 70
192
 0
VERTEX
 8
W_RFEL_1
 10
-15.7783
 20
-1.9751
 30
20.8067
 70
192
 0
VERTEX
 8
W_RFEL_1
 10
-15.7779
 20
-1.9725
 30
20.8067
 70
192
 0
VERTEX
 8
W_RFEL_1
 10
-15.7778
 20
-1.9699
 30
20.8067
 70
192
 0
VERTEX
 8
W_RFEL_1
 10
-15.7779
 20
-1.9673
 30
20.8067
 70
192
 0
VERTEX
 8
W_RFEL_1
 10
-15.7783
 20
-1.9647
 30
20.8067
 70
192
 0
VERTEX
 8
W_RFEL_1
 10
-15.779
 20
-1.9622
 30
20.8067
 70
192
 0
VERTEX
 8
W_RFEL_1
 10
-15.7799
 20
-1.9597
 30
20.8067
 70
192
 0
VERTEX
 8
W_RFEL_1
 10
-16.059
 20
-1.7075
 30
20.8067
 70
192
 0
VERTEX
 8
W_RFEL_1
 10
-16.0602
 20
-1.7052
 30
20.8067
 70
192
 0
VERTEX
 8
W_RFEL_1
 10
-16.0616
 20
-1.703
 30
20.8067
 70
192
 0
VERTEX
 8
W_RFEL_1
 10
-16.0632
 20
-1.701
 30
20.8067
 70
192
 0
VERTEX
 8
W_RFEL_1
 10
-16.0651
 20
-1.6991
 30
20.8067
 70
192
 0
VERTEX
 8
W_RFEL_1
 10
-16.0671
 20
-1.6975
 30
20.8067
 70
192
 0
VERTEX
 8
W_RFEL_1
 10
-16.0693
 20
-1.696
 30
20.8067
 70
192
 0
VERTEX
 8
W_RFEL_1
 10
-16.0717
 20
-1.6948
 30
20.8067
 70
192
 0
VERTEX
 8
W_RFEL_1
 10
-16.0741
 20
-1.6939
 30
20.8067
 70
192
 0
VERTEX
 8
W_RFEL_1
 10
-16.0766
 20
-1.6932
 30
20.8067
 70
192
 0
VERTEX
 8
W_RFEL_1
 10
-16.0792
 20
-1.6928
 30
20.8067
 70
192
 0
VERTEX
 8
W_RFEL_1
 10
-16.0818
 20
-1.6927
 30
20.8067
 70
192
 0
VERTEX
 8
W_RFEL_1
 10
-16.0844
 20
-1.6928
 30
20.8067
 70
192
 0
VERTEX
 8
W_RFEL_1
 10
-16.087
 20
-1.6932
 30
20.8067
 70
192
 0
VERTEX
 8
W_RFEL_1
 10
-16.0895
 20
-1.6939
 30
20.8067
 70
192
 0
VERTEX
 8
W_RFEL_1
 10
-16.092
 20
-1.6948
 30
20.8067
 70
192
 0
VERTEX
 8
W_RFEL_1
 10
-16.4017
 20
-2.111
 30
20.8067
 70
192
 0
VERTEX
 8
W_RFEL_1
 10
-16.7531
 20
-2.5162
 30
20.8067
 70
192
 0
VERTEX
 8
W_RFEL_1
 10
-16.7554
 20
-2.5174
 30
20.8067
 70
192
 0
VERTEX
 8
W_RFEL_1
 10
-16.7576
 20
-2.5189
 30
20.8067
 70
192
 0
VERTEX
 8
W_RFEL_1
 10
-16.7596
 20
-2.5205
 30
20.8067
 70
192
 0
VERTEX
 8
W_RFEL_1
 10
-16.7615
 20
-2.5224
 30
20.8067
 70
192
 0
VERTEX
 8
W_RFEL_1
 10
-16.7631
 20
-2.5244
 30
20.8067
 70
192
 0
VERTEX
 8
W_RFEL_1
 10
-16.7646
 20
-2.5266
 30
20.8067
 70
192
 0
VERTEX
 8
W_RFEL_1
 10
-16.7658
 20
-2.5289
 30
20.8067
 70
192
 0
VERTEX
 8
W_RFEL_1
 10
-16.7667
 20
-2.5314
 30
20.8067
 70
192
 0
VERTEX
 8
W_RFEL_1
 10
-16.7674
 20
-2.5339
 30
20.8067
 70
192
 0
VERTEX
 8
W_RFEL_1
 10
-16.7678
 20
-2.5365
 30
20.8067
 70
192
 0
VERTEX
 8
W_RFEL_1
 10
-16.7679
 20
-2.5391
 30
20.8067
 70
192
 0
VERTEX
 8
W_RFEL_1
 10
-16.7678
 20
-2.5417
 30
20.8067
 70
192
 0
VERTEX
 8
W_RFEL_1
 10
-16.7674
 20
-2.5443
 30
20.8067
 70
192
 0
VERTEX
 8
W_RFEL_1
 10
-16.7667
 20
-2.5468
 30
20.8067
 70
192
 0
VERTEX
 8
W_RFEL_1
 10
-16.7658
 20
-2.5493
 30
20.8067
 70
192
 0
VERTEX
 8
W_RFEL_1
 10
-16.7251
 20
-2.6406
 30
20.8067
 70
192
 0
VERTEX
 8
W_RFEL_1
 10
-16.7239
 20
-2.6429
 30
20.8067
 70
192
 0
VERTEX
 8
W_RFEL_1
 10
-16.7225
 20
-2.6451
 30
20.8067
 70
192
 0
VERTEX
 8
W_RFEL_1
 10
-16.7208
 20
-2.6472
 30
20.8067
 70
192
 0
VERTEX
 8
W_RFEL_1
 10
-16.719
 20
-2.649
 30
20.8067
 70
192
 0
VERTEX
 8
W_RFEL_1
 10
-16.7169
 20
-2.6507
 30
20.8067
 70
192
 0
VERTEX
 8
W_RFEL_1
 10
-16.7147
 20
-2.6521
 30
20.8067
 70
192
 0
VERTEX
 8
W_RFEL_1
 10
-16.7124
 20
-2.6533
 30
20.8067
 70
192
 0
VERTEX
 8
W_RFEL_1
 10
-16.71
 20
-2.6542
 30
20.8067
 70
192
 0
VERTEX
 8
W_RFEL_1
 10
-16.7074
 20
-2.6549
 30
20.8067
 70
192
 0
VERTEX
 8
W_RFEL_1
 10
-16.7049
 20
-2.6553
 30
20.8067
 70
192
 0
VERTEX
 8
W_RFEL_1
 10
-16.7022
 20
-2.6554
 30
20.8067
 70
192
 0
VERTEX
 8
W_RFEL_1
 10
-16.6996
 20
-2.6553
 30
20.8067
 70
192
 0
VERTEX
 8
W_RFEL_1
 10
-16.697
 20
-2.6549
 30
20.8067
 70
192
 0
VERTEX
 8
W_RFEL_1
 10
-16.6945
 20
-2.6542
 30
20.8067
 70
192
 0
VERTEX
 8
W_RFEL_1
 10
-16.6903
 20
-2.6573
 30
20.8095
 70
192
 0
VERTEX
 8
W_RFEL_1
 10
-16.3389
 20
-2.2521
 30
20.8095
 70
192
 0
VERTEX
 8
W_RFEL_1
 10
-15.7908
 20
-1.9967
 30
20.8095
 70
192
 0
VERTEX
 8
W_RFEL_1
 10
-15.7881
 20
-1.9953
 30
20.8095
 70
192
 0
VERTEX
 8
W_RFEL_1
 10
-15.7855
 20
-1.9937
 30
20.8095
 70
192
 0
VERTEX
 8
W_RFEL_1
 10
-15.7831
 20
-1.9917
 30
20.8095
 70
192
 0
VERTEX
 8
W_RFEL_1
 10
-15.7809
 20
-1.9895
 30
20.8095
 70
192
 0
VERTEX
 8
W_RFEL_1
 10
-15.779
 20
-1.9872
 30
20.8095
 70
192
 0
VERTEX
 8
W_RFEL_1
 10
-15.7773
 20
-1.9846
 30
20.8095
 70
192
 0
VERTEX
 8
W_RFEL_1
 10
-15.7759
 20
-1.9818
 30
20.8095
 70
192
 0
VERTEX
 8
W_RFEL_1
 10
-15.7748
 20
-1.979
 30
20.8095
 70
192
 0
VERTEX
 8
W_RFEL_1
 10
-15.774
 20
-1.976
 30
20.8095
 70
192
 0
VERTEX
 8
W_RFEL_1
 10
-15.7736
 20
-1.973
 30
20.8095
 70
192
 0
VERTEX
 8
W_RFEL_1
 10
-15.7734
 20
-1.9699
 30
20.8095
 70
192
 0
VERTEX
 8
W_RFEL_1
 10
-15.7736
 20
-1.9668
 30
20.8095
 70
192
 0
VERTEX
 8
W_RFEL_1
 10
-15.774
 20
-1.9638
 30
20.8095
 70
192
 0
VERTEX
 8
W_RFEL_1
 10
-15.7748
 20
-1.9608
 30
20.8095
 70
192
 0
VERTEX
 8
W_RFEL_1
 10
-15.7759
 20
-1.9579
 30
20.8095
 70
192
 0
VERTEX
 8
W_RFEL_1
 10
-16.055
 20
-1.7057
 30
20.8095
 70
192
 0
VERTEX
 8
W_RFEL_1
 10
-16.0564
 20
-1.703
 30
20.8095
 70
192
 0
VERTEX
 8
W_RFEL_1
 10
-16.058
 20
-1.7004
 30
20.8095
 70
192
 0
VERTEX
 8
W_RFEL_1
 10
-16.06
 20
-1.698
 30
20.8095
 70
192
 0
VERTEX
 8
W_RFEL_1
 10
-16.0622
 20
-1.6958
 30
20.8095
 70
192
 0
VERTEX
 8
W_RFEL_1
 10
-16.0645
 20
-1.6939
 30
20.8095
 70
192
 0
VERTEX
 8
W_RFEL_1
 10
-16.0671
 20
-1.6922
 30
20.8095
 70
192
 0
VERTEX
 8
W_RFEL_1
 10
-16.0699
 20
-1.6908
 30
20.8095
 70
192
 0
VERTEX
 8
W_RFEL_1
 10
-16.0727
 20
-1.6897
 30
20.8095
 70
192
 0
VERTEX
 8
W_RFEL_1
 10
-16.0757
 20
-1.6889
 30
20.8095
 70
192
 0
VERTEX
 8
W_RFEL_1
 10
-16.0787
 20
-1.6885
 30
20.8095
 70
192
 0
VERTEX
 8
W_RFEL_1
 10
-16.0818
 20
-1.6883
 30
20.8095
 70
192
 0
VERTEX
 8
W_RFEL_1
 10
-16.0849
 20
-1.6885
 30
20.8095
 70
192
 0
VERTEX
 8
W_RFEL_1
 10
-16.0879
 20
-1.6889
 30
20.8095
 70
192
 0
VERTEX
 8
W_RFEL_1
 10
-16.0909
 20
-1.6897
 30
20.8095
 70
192
 0
VERTEX
 8
W_RFEL_1
 10
-16.0938
 20
-1.6908
 30
20.8095
 70
192
 0
VERTEX
 8
W_RFEL_1
 10
-16.4035
 20
-2.107
 30
20.8095
 70
192
 0
VERTEX
 8
W_RFEL_1
 10
-16.7549
 20
-2.5122
 30
20.8095
 70
192
 0
VERTEX
 8
W_RFEL_1
 10
-16.7576
 20
-2.5136
 30
20.8095
 70
192
 0
VERTEX
 8
W_RFEL_1
 10
-16.7602
 20
-2.5153
 30
20.8095
 70
192
 0
VERTEX
 8
W_RFEL_1
 10
-16.7626
 20
-2.5172
 30
20.8095
 70
192
 0
VERTEX
 8
W_RFEL_1
 10
-16.7648
 20
-2.5194
 30
20.8095
 70
192
 0
VERTEX
 8
W_RFEL_1
 10
-16.7667
 20
-2.5218
 30
20.8095
 70
192
 0
VERTEX
 8
W_RFEL_1
 10
-16.7684
 20
-2.5244
 30
20.8095
 70
192
 0
VERTEX
 8
W_RFEL_1
 10
-16.7698
 20
-2.5271
 30
20.8095
 70
192
 0
VERTEX
 8
W_RFEL_1
 10
-16.7709
 20
-2.53
 30
20.8095
 70
192
 0
VERTEX
 8
W_RFEL_1
 10
-16.7717
 20
-2.533
 30
20.8095
 70
192
 0
VERTEX
 8
W_RFEL_1
 10
-16.7721
 20
-2.536
 30
20.8095
 70
192
 0
VERTEX
 8
W_RFEL_1
 10
-16.7723
 20
-2.5391
 30
20.8095
 70
192
 0
VERTEX
 8
W_RFEL_1
 10
-16.7721
 20
-2.5422
 30
20.8095
 70
192
 0
VERTEX
 8
W_RFEL_1
 10
-16.7717
 20
-2.5452
 30
20.8095
 70
192
 0
VERTEX
 8
W_RFEL_1
 10
-16.7709
 20
-2.5482
 30
20.8095
 70
192
 0
VERTEX
 8
W_RFEL_1
 10
-16.7698
 20
-2.551
 30
20.8095
 70
192
 0
VERTEX
 8
W_RFEL_1
 10
-16.7291
 20
-2.6424
 30
20.8095
 70
192
 0
VERTEX
 8
W_RFEL_1
 10
-16.7277
 20
-2.6451
 30
20.8095
 70
192
 0
VERTEX
 8
W_RFEL_1
 10
-16.726
 20
-2.6477
 30
20.8095
 70
192
 0
VERTEX
 8
W_RFEL_1
 10
-16.7241
 20
-2.6501
 30
20.8095
 70
192
 0
VERTEX
 8
W_RFEL_1
 10
-16.7219
 20
-2.6523
 30
20.8095
 70
192
 0
VERTEX
 8
W_RFEL_1
 10
-16.7195
 20
-2.6542
 30
20.8095
 70
192
 0
VERTEX
 8
W_RFEL_1
 10
-16.7169
 20
-2.6559
 30
20.8095
 70
192
 0
VERTEX
 8
W_RFEL_1
 10
-16.7142
 20
-2.6573
 30
20.8095
 70
192
 0
VERTEX
 8
W_RFEL_1
 10
-16.7113
 20
-2.6584
 30
20.8095
 70
192
 0
VERTEX
 8
W_RFEL_1
 10
-16.7083
 20
-2.6592
 30
20.8095
 70
192
 0
VERTEX
 8
W_RFEL_1
 10
-16.7053
 20
-2.6597
 30
20.8095
 70
192
 0
VERTEX
 8
W_RFEL_1
 10
-16.7022
 20
-2.6598
 30
20.8095
 70
192
 0
VERTEX
 8
W_RFEL_1
 10
-16.6992
 20
-2.6597
 30
20.8095
 70
192
 0
VERTEX
 8
W_RFEL_1
 10
-16.6961
 20
-2.6592
 30
20.8095
 70
192
 0
VERTEX
 8
W_RFEL_1
 10
-16.6932
 20
-2.6584
 30
20.8095
 70
192
 0
VERTEX
 8
W_RFEL_1
 10
-16.6886
 20
-2.661
 30
20.8128
 70
192
 0
VERTEX
 8
W_RFEL_1
 10
-16.3373
 20
-2.2558
 30
20.8128
 70
192
 0
VERTEX
 8
W_RFEL_1
 10
-15.7892
 20
-2.0004
 30
20.8128
 70
192
 0
VERTEX
 8
W_RFEL_1
 10
-15.7861
 20
-1.9989
 30
20.8128
 70
192
 0
VERTEX
 8
W_RFEL_1
 10
-15.7831
 20
-1.9969
 30
20.8128
 70
192
 0
VERTEX
 8
W_RFEL_1
 10
-15.7804
 20
-1.9947
 30
20.8128
 70
192
 0
VERTEX
 8
W_RFEL_1
 10
-15.7779
 20
-1.9923
 30
20.8128
 70
192
 0
VERTEX
 8
W_RFEL_1
 10
-15.7757
 20
-1.9895
 30
20.8128
 70
192
 0
VERTEX
 8
W_RFEL_1
 10
-15.7738
 20
-1.9866
 30
20.8128
 70
192
 0
VERTEX
 8
W_RFEL_1
 10
-15.7722
 20
-1.9835
 30
20.8128
 70
192
 0
VERTEX
 8
W_RFEL_1
 10
-15.771
 20
-1.9802
 30
20.8128
 70
192
 0
VERTEX
 8
W_RFEL_1
 10
-15.7701
 20
-1.9768
 30
20.8128
 70
192
 0
VERTEX
 8
W_RFEL_1
 10
-15.7695
 20
-1.9734
 30
20.8128
 70
192
 0
VERTEX
 8
W_RFEL_1
 10
-15.7693
 20
-1.9699
 30
20.8128
 70
192
 0
VERTEX
 8
W_RFEL_1
 10
-15.7695
 20
-1.9664
 30
20.8128
 70
192
 0
VERTEX
 8
W_RFEL_1
 10
-15.7701
 20
-1.9629
 30
20.8128
 70
192
 0
VERTEX
 8
W_RFEL_1
 10
-15.771
 20
-1.9595
 30
20.8128
 70
192
 0
VERTEX
 8
W_RFEL_1
 10
-15.7722
 20
-1.9563
 30
20.8128
 70
192
 0
VERTEX
 8
W_RFEL_1
 10
-16.0513
 20
-1.7041
 30
20.8128
 70
192
 0
VERTEX
 8
W_RFEL_1
 10
-16.0528
 20
-1.701
 30
20.8128
 70
192
 0
VERTEX
 8
W_RFEL_1
 10
-16.0548
 20
-1.698
 30
20.8128
 70
192
 0
VERTEX
 8
W_RFEL_1
 10
-16.057
 20
-1.6953
 30
20.8128
 70
192
 0
VERTEX
 8
W_RFEL_1
 10
-16.0594
 20
-1.6928
 30
20.8128
 70
192
 0
VERTEX
 8
W_RFEL_1
 10
-16.0622
 20
-1.6906
 30
20.8128
 70
192
 0
VERTEX
 8
W_RFEL_1
 10
-16.0651
 20
-1.6887
 30
20.8128
 70
192
 0
VERTEX
 8
W_RFEL_1
 10
-16.0682
 20
-1.6871
 30
20.8128
 70
192
 0
VERTEX
 8
W_RFEL_1
 10
-16.0715
 20
-1.6859
 30
20.8128
 70
192
 0
VERTEX
 8
W_RFEL_1
 10
-16.0749
 20
-1.685
 30
20.8128
 70
192
 0
VERTEX
 8
W_RFEL_1
 10
-16.0783
 20
-1.6844
 30
20.8128
 70
192
 0
VERTEX
 8
W_RFEL_1
 10
-16.0818
 20
-1.6842
 30
20.8128
 70
192
 0
VERTEX
 8
W_RFEL_1
 10
-16.0853
 20
-1.6844
 30
20.8128
 70
192
 0
VERTEX
 8
W_RFEL_1
 10
-16.0888
 20
-1.685
 30
20.8128
 70
192
 0
VERTEX
 8
W_RFEL_1
 10
-16.0922
 20
-1.6859
 30
20.8128
 70
192
 0
VERTEX
 8
W_RFEL_1
 10
-16.0954
 20
-1.6871
 30
20.8128
 70
192
 0
VERTEX
 8
W_RFEL_1
 10
-16.4052
 20
-2.1033
 30
20.8128
 70
192
 0
VERTEX
 8
W_RFEL_1
 10
-16.7565
 20
-2.5085
 30
20.8128
 70
192
 0
VERTEX
 8
W_RFEL_1
 10
-16.7596
 20
-2.5101
 30
20.8128
 70
192
 0
VERTEX
 8
W_RFEL_1
 10
-16.7626
 20
-2.512
 30
20.8128
 70
192
 0
VERTEX
 8
W_RFEL_1
 10
-16.7653
 20
-2.5142
 30
20.8128
 70
192
 0
VERTEX
 8
W_RFEL_1
 10
-16.7678
 20
-2.5167
 30
20.8128
 70
192
 0
VERTEX
 8
W_RFEL_1
 10
-16.77
 20
-2.5194
 30
20.8128
 70
192
 0
VERTEX
 8
W_RFEL_1
 10
-16.7719
 20
-2.5224
 30
20.8128
 70
192
 0
VERTEX
 8
W_RFEL_1
 10
-16.7735
 20
-2.5255
 30
20.8128
 70
192
 0
VERTEX
 8
W_RFEL_1
 10
-16.7747
 20
-2.5287
 30
20.8128
 70
192
 0
VERTEX
 8
W_RFEL_1
 10
-16.7756
 20
-2.5321
 30
20.8128
 70
192
 0
VERTEX
 8
W_RFEL_1
 10
-16.7762
 20
-2.5356
 30
20.8128
 70
192
 0
VERTEX
 8
W_RFEL_1
 10
-16.7764
 20
-2.5391
 30
20.8128
 70
192
 0
VERTEX
 8
W_RFEL_1
 10
-16.7762
 20
-2.5426
 30
20.8128
 70
192
 0
VERTEX
 8
W_RFEL_1
 10
-16.7756
 20
-2.546
 30
20.8128
 70
192
 0
VERTEX
 8
W_RFEL_1
 10
-16.7747
 20
-2.5494
 30
20.8128
 70
192
 0
VERTEX
 8
W_RFEL_1
 10
-16.7735
 20
-2.5527
 30
20.8128
 70
192
 0
VERTEX
 8
W_RFEL_1
 10
-16.7328
 20
-2.644
 30
20.8128
 70
192
 0
VERTEX
 8
W_RFEL_1
 10
-16.7312
 20
-2.6472
 30
20.8128
 70
192
 0
VERTEX
 8
W_RFEL_1
 10
-16.7293
 20
-2.6501
 30
20.8128
 70
192
 0
VERTEX
 8
W_RFEL_1
 10
-16.7271
 20
-2.6528
 30
20.8128
 70
192
 0
VERTEX
 8
W_RFEL_1
 10
-16.7246
 20
-2.6553
 30
20.8128
 70
192
 0
VERTEX
 8
W_RFEL_1
 10
-16.7219
 20
-2.6575
 30
20.8128
 70
192
 0
VERTEX
 8
W_RFEL_1
 10
-16.719
 20
-2.6594
 30
20.8128
 70
192
 0
VERTEX
 8
W_RFEL_1
 10
-16.7158
 20
-2.661
 30
20.8128
 70
192
 0
VERTEX
 8
W_RFEL_1
 10
-16.7126
 20
-2.6623
 30
20.8128
 70
192
 0
VERTEX
 8
W_RFEL_1
 10
-16.7092
 20
-2.6632
 30
20.8128
 70
192
 0
VERTEX
 8
W_RFEL_1
 10
-16.7057
 20
-2.6637
 30
20.8128
 70
192
 0
VERTEX
 8
W_RFEL_1
 10
-16.7022
 20
-2.6639
 30
20.8128
 70
192
 0
VERTEX
 8
W_RFEL_1
 10
-16.6987
 20
-2.6637
 30
20.8128
 70
192
 0
VERTEX
 8
W_RFEL_1
 10
-16.6953
 20
-2.6632
 30
20.8128
 70
192
 0
VERTEX
 8
W_RFEL_1
 10
-16.6919
 20
-2.6623
 30
20.8128
 70
192
 0
VERTEX
 8
W_RFEL_1
 10
-16.6871
 20
-2.6644
 30
20.8165
 70
192
 0
VERTEX
 8
W_RFEL_1
 10
-16.3358
 20
-2.2591
 30
20.8165
 70
192
 0
VERTEX
 8
W_RFEL_1
 10
-15.7877
 20
-2.0038
 30
20.8165
 70
192
 0
VERTEX
 8
W_RFEL_1
 10
-15.7842
 20
-2.0021
 30
20.8165
 70
192
 0
VERTEX
 8
W_RFEL_1
 10
-15.7809
 20
-1.9999
 30
20.8165
 70
192
 0
VERTEX
 8
W_RFEL_1
 10
-15.7779
 20
-1.9975
 30
20.8165
 70
192
 0
VERTEX
 8
W_RFEL_1
 10
-15.7752
 20
-1.9947
 30
20.8165
 70
192
 0
VERTEX
 8
W_RFEL_1
 10
-15.7727
 20
-1.9917
 30
20.8165
 70
192
 0
VERTEX
 8
W_RFEL_1
 10
-15.7706
 20
-1.9885
 30
20.8165
 70
192
 0
VERTEX
 8
W_RFEL_1
 10
-15.7688
 20
-1.985
 30
20.8165
 70
192
 0
VERTEX
 8
W_RFEL_1
 10
-15.7674
 20
-1.9814
 30
20.8165
 70
192
 0
VERTEX
 8
W_RFEL_1
 10
-15.7664
 20
-1.9776
 30
20.8165
 70
192
 0
VERTEX
 8
W_RFEL_1
 10
-15.7658
 20
-1.9738
 30
20.8165
 70
192
 0
VERTEX
 8
W_RFEL_1
 10
-15.7656
 20
-1.9699
 30
20.8165
 70
192
 0
VERTEX
 8
W_RFEL_1
 10
-15.7658
 20
-1.966
 30
20.8165
 70
192
 0
VERTEX
 8
W_RFEL_1
 10
-15.7664
 20
-1.9622
 30
20.8165
 70
192
 0
VERTEX
 8
W_RFEL_1
 10
-15.7674
 20
-1.9584
 30
20.8165
 70
192
 0
VERTEX
 8
W_RFEL_1
 10
-15.7688
 20
-1.9548
 30
20.8165
 70
192
 0
VERTEX
 8
W_RFEL_1
 10
-16.0479
 20
-1.7026
 30
20.8165
 70
192
 0
VERTEX
 8
W_RFEL_1
 10
-16.0496
 20
-1.6991
 30
20.8165
 70
192
 0
VERTEX
 8
W_RFEL_1
 10
-16.0518
 20
-1.6958
 30
20.8165
 70
192
 0
VERTEX
 8
W_RFEL_1
 10
-16.0542
 20
-1.6928
 30
20.8165
 70
192
 0
VERTEX
 8
W_RFEL_1
 10
-16.057
 20
-1.6901
 30
20.8165
 70
192
 0
VERTEX
 8
W_RFEL_1
 10
-16.06
 20
-1.6876
 30
20.8165
 70
192
 0
VERTEX
 8
W_RFEL_1
 10
-16.0632
 20
-1.6855
 30
20.8165
 70
192
 0
VERTEX
 8
W_RFEL_1
 10
-16.0667
 20
-1.6837
 30
20.8165
 70
192
 0
VERTEX
 8
W_RFEL_1
 10
-16.0703
 20
-1.6823
 30
20.8165
 70
192
 0
VERTEX
 8
W_RFEL_1
 10
-16.0741
 20
-1.6813
 30
20.8165
 70
192
 0
VERTEX
 8
W_RFEL_1
 10
-16.0779
 20
-1.6807
 30
20.8165
 70
192
 0
VERTEX
 8
W_RFEL_1
 10
-16.0818
 20
-1.6805
 30
20.8165
 70
192
 0
VERTEX
 8
W_RFEL_1
 10
-16.0857
 20
-1.6807
 30
20.8165
 70
192
 0
VERTEX
 8
W_RFEL_1
 10
-16.0895
 20
-1.6813
 30
20.8165
 70
192
 0
VERTEX
 8
W_RFEL_1
 10
-16.0933
 20
-1.6823
 30
20.8165
 70
192
 0
VERTEX
 8
W_RFEL_1
 10
-16.0969
 20
-1.6837
 30
20.8165
 70
192
 0
VERTEX
 8
W_RFEL_1
 10
-16.4067
 20
-2.0999
 30
20.8165
 70
192
 0
VERTEX
 8
W_RFEL_1
 10
-16.758
 20
-2.5051
 30
20.8165
 70
192
 0
VERTEX
 8
W_RFEL_1
 10
-16.7615
 20
-2.5069
 30
20.8165
 70
192
 0
VERTEX
 8
W_RFEL_1
 10
-16.7648
 20
-2.509
 30
20.8165
 70
192
 0
VERTEX
 8
W_RFEL_1
 10
-16.7678
 20
-2.5115
 30
20.8165
 70
192
 0
VERTEX
 8
W_RFEL_1
 10
-16.7705
 20
-2.5142
 30
20.8165
 70
192
 0
VERTEX
 8
W_RFEL_1
 10
-16.773
 20
-2.5172
 30
20.8165
 70
192
 0
VERTEX
 8
W_RFEL_1
 10
-16.7751
 20
-2.5205
 30
20.8165
 70
192
 0
VERTEX
 8
W_RFEL_1
 10
-16.7769
 20
-2.524
 30
20.8165
 70
192
 0
VERTEX
 8
W_RFEL_1
 10
-16.7783
 20
-2.5276
 30
20.8165
 70
192
 0
VERTEX
 8
W_RFEL_1
 10
-16.7793
 20
-2.5314
 30
20.8165
 70
192
 0
VERTEX
 8
W_RFEL_1
 10
-16.7799
 20
-2.5352
 30
20.8165
 70
192
 0
VERTEX
 8
W_RFEL_1
 10
-16.7801
 20
-2.5391
 30
20.8165
 70
192
 0
VERTEX
 8
W_RFEL_1
 10
-16.7799
 20
-2.543
 30
20.8165
 70
192
 0
VERTEX
 8
W_RFEL_1
 10
-16.7793
 20
-2.5468
 30
20.8165
 70
192
 0
VERTEX
 8
W_RFEL_1
 10
-16.7783
 20
-2.5506
 30
20.8165
 70
192
 0
VERTEX
 8
W_RFEL_1
 10
-16.7769
 20
-2.5542
 30
20.8165
 70
192
 0
VERTEX
 8
W_RFEL_1
 10
-16.7362
 20
-2.6455
 30
20.8165
 70
192
 0
VERTEX
 8
W_RFEL_1
 10
-16.7344
 20
-2.649
 30
20.8165
 70
192
 0
VERTEX
 8
W_RFEL_1
 10
-16.7323
 20
-2.6523
 30
20.8165
 70
192
 0
VERTEX
 8
W_RFEL_1
 10
-16.7299
 20
-2.6553
 30
20.8165
 70
192
 0
VERTEX
 8
W_RFEL_1
 10
-16.7271
 20
-2.658
 30
20.8165
 70
192
 0
VERTEX
 8
W_RFEL_1
 10
-16.7241
 20
-2.6605
 30
20.8165
 70
192
 0
VERTEX
 8
W_RFEL_1
 10
-16.7208
 20
-2.6626
 30
20.8165
 70
192
 0
VERTEX
 8
W_RFEL_1
 10
-16.7174
 20
-2.6644
 30
20.8165
 70
192
 0
VERTEX
 8
W_RFEL_1
 10
-16.7137
 20
-2.6658
 30
20.8165
 70
192
 0
VERTEX
 8
W_RFEL_1
 10
-16.71
 20
-2.6668
 30
20.8165
 70
192
 0
VERTEX
 8
W_RFEL_1
 10
-16.7061
 20
-2.6674
 30
20.8165
 70
192
 0
VERTEX
 8
W_RFEL_1
 10
-16.7022
 20
-2.6676
 30
20.8165
 70
192
 0
VERTEX
 8
W_RFEL_1
 10
-16.6984
 20
-2.6674
 30
20.8165
 70
192
 0
VERTEX
 8
W_RFEL_1
 10
-16.6945
 20
-2.6668
 30
20.8165
 70
192
 0
VERTEX
 8
W_RFEL_1
 10
-16.6908
 20
-2.6658
 30
20.8165
 70
192
 0
VERTEX
 8
W_RFEL_1
 10
-16.6858
 20
-2.6674
 30
20.8206
 70
192
 0
VERTEX
 8
W_RFEL_1
 10
-16.3344
 20
-2.2622
 30
20.8206
 70
192
 0
VERTEX
 8
W_RFEL_1
 10
-15.7863
 20
-2.0068
 30
20.8206
 70
192
 0
VERTEX
 8
W_RFEL_1
 10
-15.7826
 20
-2.0049
 30
20.8206
 70
192
 0
VERTEX
 8
W_RFEL_1
 10
-15.779
 20
-2.0026
 30
20.8206
 70
192
 0
VERTEX
 8
W_RFEL_1
 10
-15.7757
 20
-1.9999
 30
20.8206
 70
192
 0
VERTEX
 8
W_RFEL_1
 10
-15.7727
 20
-1.9969
 30
20.8206
 70
192
 0
VERTEX
 8
W_RFEL_1
 10
-15.7701
 20
-1.9937
 30
20.8206
 70
192
 0
VERTEX
 8
W_RFEL_1
 10
-15.7677
 20
-1.9901
 30
20.8206
 70
192
 0
VERTEX
 8
W_RFEL_1
 10
-15.7658
 20
-1.9863
 30
20.8206
 70
192
 0
VERTEX
 8
W_RFEL_1
 10
-15.7643
 20
-1.9824
 30
20.8206
 70
192
 0
VERTEX
 8
W_RFEL_1
 10
-15.7632
 20
-1.9783
 30
20.8206
 70
192
 0
VERTEX
 8
W_RFEL_1
 10
-15.7625
 20
-1.9741
 30
20.8206
 70
192
 0
VERTEX
 8
W_RFEL_1
 10
-15.7623
 20
-1.9699
 30
20.8206
 70
192
 0
VERTEX
 8
W_RFEL_1
 10
-15.7625
 20
-1.9657
 30
20.8206
 70
192
 0
VERTEX
 8
W_RFEL_1
 10
-15.7632
 20
-1.9615
 30
20.8206
 70
192
 0
VERTEX
 8
W_RFEL_1
 10
-15.7643
 20
-1.9574
 30
20.8206
 70
192
 0
VERTEX
 8
W_RFEL_1
 10
-15.7658
 20
-1.9534
 30
20.8206
 70
192
 0
VERTEX
 8
W_RFEL_1
 10
-16.0449
 20
-1.7012
 30
20.8206
 70
192
 0
VERTEX
 8
W_RFEL_1
 10
-16.0468
 20
-1.6975
 30
20.8206
 70
192
 0
VERTEX
 8
W_RFEL_1
 10
-16.0491
 20
-1.6939
 30
20.8206
 70
192
 0
VERTEX
 8
W_RFEL_1
 10
-16.0518
 20
-1.6906
 30
20.8206
 70
192
 0
VERTEX
 8
W_RFEL_1
 10
-16.0548
 20
-1.6876
 30
20.8206
 70
192
 0
VERTEX
 8
W_RFEL_1
 10
-16.058
 20
-1.685
 30
20.8206
 70
192
 0
VERTEX
 8
W_RFEL_1
 10
-16.0616
 20
-1.6827
 30
20.8206
 70
192
 0
VERTEX
 8
W_RFEL_1
 10
-16.0654
 20
-1.6807
 30
20.8206
 70
192
 0
VERTEX
 8
W_RFEL_1
 10
-16.0693
 20
-1.6792
 30
20.8206
 70
192
 0
VERTEX
 8
W_RFEL_1
 10
-16.0734
 20
-1.6781
 30
20.8206
 70
192
 0
VERTEX
 8
W_RFEL_1
 10
-16.0776
 20
-1.6775
 30
20.8206
 70
192
 0
VERTEX
 8
W_RFEL_1
 10
-16.0818
 20
-1.6772
 30
20.8206
 70
192
 0
VERTEX
 8
W_RFEL_1
 10
-16.0861
 20
-1.6775
 30
20.8206
 70
192
 0
VERTEX
 8
W_RFEL_1
 10
-16.0902
 20
-1.6781
 30
20.8206
 70
192
 0
VERTEX
 8
W_RFEL_1
 10
-16.0943
 20
-1.6792
 30
20.8206
 70
192
 0
VERTEX
 8
W_RFEL_1
 10
-16.0983
 20
-1.6807
 30
20.8206
 70
192
 0
VERTEX
 8
W_RFEL_1
 10
-16.408
 20
-2.0969
 30
20.8206
 70
192
 0
VERTEX
 8
W_RFEL_1
 10
-16.7594
 20
-2.5021
 30
20.8206
 70
192
 0
VERTEX
 8
W_RFEL_1
 10
-16.7631
 20
-2.5041
 30
20.8206
 70
192
 0
VERTEX
 8
W_RFEL_1
 10
-16.7667
 20
-2.5064
 30
20.8206
 70
192
 0
VERTEX
 8
W_RFEL_1
 10
-16.77
 20
-2.509
 30
20.8206
 70
192
 0
VERTEX
 8
W_RFEL_1
 10
-16.773
 20
-2.512
 30
20.8206
 70
192
 0
VERTEX
 8
W_RFEL_1
 10
-16.7756
 20
-2.5153
 30
20.8206
 70
192
 0
VERTEX
 8
W_RFEL_1
 10
-16.7779
 20
-2.5189
 30
20.8206
 70
192
 0
VERTEX
 8
W_RFEL_1
 10
-16.7799
 20
-2.5226
 30
20.8206
 70
192
 0
VERTEX
 8
W_RFEL_1
 10
-16.7814
 20
-2.5266
 30
20.8206
 70
192
 0
VERTEX
 8
W_RFEL_1
 10
-16.7825
 20
-2.5307
 30
20.8206
 70
192
 0
VERTEX
 8
W_RFEL_1
 10
-16.7831
 20
-2.5349
 30
20.8206
 70
192
 0
VERTEX
 8
W_RFEL_1
 10
-16.7834
 20
-2.5391
 30
20.8206
 70
192
 0
VERTEX
 8
W_RFEL_1
 10
-16.7831
 20
-2.5433
 30
20.8206
 70
192
 0
VERTEX
 8
W_RFEL_1
 10
-16.7825
 20
-2.5475
 30
20.8206
 70
192
 0
VERTEX
 8
W_RFEL_1
 10
-16.7814
 20
-2.5516
 30
20.8206
 70
192
 0
VERTEX
 8
W_RFEL_1
 10
-16.7799
 20
-2.5555
 30
20.8206
 70
192
 0
VERTEX
 8
W_RFEL_1
 10
-16.7392
 20
-2.6469
 30
20.8206
 70
192
 0
VERTEX
 8
W_RFEL_1
 10
-16.7373
 20
-2.6507
 30
20.8206
 70
192
 0
VERTEX
 8
W_RFEL_1
 10
-16.735
 20
-2.6542
 30
20.8206
 70
192
 0
VERTEX
 8
W_RFEL_1
 10
-16.7323
 20
-2.6575
 30
20.8206
 70
192
 0
VERTEX
 8
W_RFEL_1
 10
-16.7293
 20
-2.6605
 30
20.8206
 70
192
 0
VERTEX
 8
W_RFEL_1
 10
-16.726
 20
-2.6632
 30
20.8206
 70
192
 0
VERTEX
 8
W_RFEL_1
 10
-16.7225
 20
-2.6655
 30
20.8206
 70
192
 0
VERTEX
 8
W_RFEL_1
 10
-16.7187
 20
-2.6674
 30
20.8206
 70
192
 0
VERTEX
 8
W_RFEL_1
 10
-16.7147
 20
-2.6689
 30
20.8206
 70
192
 0
VERTEX
 8
W_RFEL_1
 10
-16.7106
 20
-2.67
 30
20.8206
 70
192
 0
VERTEX
 8
W_RFEL_1
 10
-16.7065
 20
-2.6707
 30
20.8206
 70
192
 0
VERTEX
 8
W_RFEL_1
 10
-16.7022
 20
-2.6709
 30
20.8206
 70
192
 0
VERTEX
 8
W_RFEL_1
 10
-16.698
 20
-2.6707
 30
20.8206
 70
192
 0
VERTEX
 8
W_RFEL_1
 10
-16.6938
 20
-2.67
 30
20.8206
 70
192
 0
VERTEX
 8
W_RFEL_1
 10
-16.6897
 20
-2.6689
 30
20.8206
 70
192
 0
VERTEX
 8
W_RFEL_1
 10
-16.6846
 20
-2.67
 30
20.825
 70
192
 0
VERTEX
 8
W_RFEL_1
 10
-16.3333
 20
-2.2648
 30
20.825
 70
192
 0
VERTEX
 8
W_RFEL_1
 10
-15.7852
 20
-2.0094
 30
20.825
 70
192
 0
VERTEX
 8
W_RFEL_1
 10
-15.7811
 20
-2.0074
 30
20.825
 70
192
 0
VERTEX
 8
W_RFEL_1
 10
-15.7773
 20
-2.0049
 30
20.825
 70
192
 0
VERTEX
 8
W_RFEL_1
 10
-15.7738
 20
-2.0021
 30
20.825
 70
192
 0
VERTEX
 8
W_RFEL_1
 10
-15.7706
 20
-1.9989
 30
20.825
 70
192
 0
VERTEX
 8
W_RFEL_1
 10
-15.7677
 20
-1.9953
 30
20.825
 70
192
 0
VERTEX
 8
W_RFEL_1
 10
-15.7653
 20
-1.9915
 30
20.825
 70
192
 0
VERTEX
 8
W_RFEL_1
 10
-15.7632
 20
-1.9875
 30
20.825
 70
192
 0
VERTEX
 8
W_RFEL_1
 10
-15.7616
 20
-1.9833
 30
20.825
 70
192
 0
VERTEX
 8
W_RFEL_1
 10
-15.7604
 20
-1.9789
 30
20.825
 70
192
 0
VERTEX
 8
W_RFEL_1
 10
-15.7597
 20
-1.9744
 30
20.825
 70
192
 0
VERTEX
 8
W_RFEL_1
 10
-15.7595
 20
-1.9699
 30
20.825
 70
192
 0
VERTEX
 8
W_RFEL_1
 10
-15.7597
 20
-1.9654
 30
20.825
 70
192
 0
VERTEX
 8
W_RFEL_1
 10
-15.7604
 20
-1.9609
 30
20.825
 70
192
 0
VERTEX
 8
W_RFEL_1
 10
-15.7616
 20
-1.9565
 30
20.825
 70
192
 0
VERTEX
 8
W_RFEL_1
 10
-15.7632
 20
-1.9523
 30
20.825
 70
192
 0
VERTEX
 8
W_RFEL_1
 10
-16.0423
 20
-1.7001
 30
20.825
 70
192
 0
VERTEX
 8
W_RFEL_1
 10
-16.0443
 20
-1.696
 30
20.825
 70
192
 0
VERTEX
 8
W_RFEL_1
 10
-16.0468
 20
-1.6922
 30
20.825
 70
192
 0
VERTEX
 8
W_RFEL_1
 10
-16.0496
 20
-1.6887
 30
20.825
 70
192
 0
VERTEX
 8
W_RFEL_1
 10
-16.0528
 20
-1.6855
 30
20.825
 70
192
 0
VERTEX
 8
W_RFEL_1
 10
-16.0564
 20
-1.6827
 30
20.825
 70
192
 0
VERTEX
 8
W_RFEL_1
 10
-16.0602
 20
-1.6802
 30
20.825
 70
192
 0
VERTEX
 8
W_RFEL_1
 10
-16.0642
 20
-1.6781
 30
20.825
 70
192
 0
VERTEX
 8
W_RFEL_1
 10
-16.0684
 20
-1.6765
 30
20.825
 70
192
 0
VERTEX
 8
W_RFEL_1
 10
-16.0728
 20
-1.6753
 30
20.825
 70
192
 0
VERTEX
 8
W_RFEL_1
 10
-16.0773
 20
-1.6746
 30
20.825
 70
192
 0
VERTEX
 8
W_RFEL_1
 10
-16.0818
 20
-1.6744
 30
20.825
 70
192
 0
VERTEX
 8
W_RFEL_1
 10
-16.0863
 20
-1.6746
 30
20.825
 70
192
 0
VERTEX
 8
W_RFEL_1
 10
-16.0908
 20
-1.6753
 30
20.825
 70
192
 0
VERTEX
 8
W_RFEL_1
 10
-16.0952
 20
-1.6765
 30
20.825
 70
192
 0
VERTEX
 8
W_RFEL_1
 10
-16.0994
 20
-1.6781
 30
20.825
 70
192
 0
VERTEX
 8
W_RFEL_1
 10
-16.4092
 20
-2.0943
 30
20.825
 70
192
 0
VERTEX
 8
W_RFEL_1
 10
-16.7605
 20
-2.4995
 30
20.825
 70
192
 0
VERTEX
 8
W_RFEL_1
 10
-16.7646
 20
-2.5016
 30
20.825
 70
192
 0
VERTEX
 8
W_RFEL_1
 10
-16.7684
 20
-2.5041
 30
20.825
 70
192
 0
VERTEX
 8
W_RFEL_1
 10
-16.7719
 20
-2.5069
 30
20.825
 70
192
 0
VERTEX
 8
W_RFEL_1
 10
-16.7751
 20
-2.5101
 30
20.825
 70
192
 0
VERTEX
 8
W_RFEL_1
 10
-16.7779
 20
-2.5136
 30
20.825
 70
192
 0
VERTEX
 8
W_RFEL_1
 10
-16.7804
 20
-2.5174
 30
20.825
 70
192
 0
VERTEX
 8
W_RFEL_1
 10
-16.7825
 20
-2.5215
 30
20.825
 70
192
 0
VERTEX
 8
W_RFEL_1
 10
-16.7841
 20
-2.5257
 30
20.825
 70
192
 0
VERTEX
 8
W_RFEL_1
 10
-16.7853
 20
-2.5301
 30
20.825
 70
192
 0
VERTEX
 8
W_RFEL_1
 10
-16.786
 20
-2.5346
 30
20.825
 70
192
 0
VERTEX
 8
W_RFEL_1
 10
-16.7862
 20
-2.5391
 30
20.825
 70
192
 0
VERTEX
 8
W_RFEL_1
 10
-16.786
 20
-2.5436
 30
20.825
 70
192
 0
VERTEX
 8
W_RFEL_1
 10
-16.7853
 20
-2.5481
 30
20.825
 70
192
 0
VERTEX
 8
W_RFEL_1
 10
-16.7841
 20
-2.5525
 30
20.825
 70
192
 0
VERTEX
 8
W_RFEL_1
 10
-16.7825
 20
-2.5567
 30
20.825
 70
192
 0
VERTEX
 8
W_RFEL_1
 10
-16.7418
 20
-2.648
 30
20.825
 70
192
 0
VERTEX
 8
W_RFEL_1
 10
-16.7397
 20
-2.6521
 30
20.825
 70
192
 0
VERTEX
 8
W_RFEL_1
 10
-16.7373
 20
-2.6559
 30
20.825
 70
192
 0
VERTEX
 8
W_RFEL_1
 10
-16.7344
 20
-2.6594
 30
20.825
 70
192
 0
VERTEX
 8
W_RFEL_1
 10
-16.7312
 20
-2.6626
 30
20.825
 70
192
 0
VERTEX
 8
W_RFEL_1
 10
-16.7277
 20
-2.6655
 30
20.825
 70
192
 0
VERTEX
 8
W_RFEL_1
 10
-16.7239
 20
-2.6679
 30
20.825
 70
192
 0
VERTEX
 8
W_RFEL_1
 10
-16.7199
 20
-2.67
 30
20.825
 70
192
 0
VERTEX
 8
W_RFEL_1
 10
-16.7156
 20
-2.6716
 30
20.825
 70
192
 0
VERTEX
 8
W_RFEL_1
 10
-16.7112
 20
-2.6728
 30
20.825
 70
192
 0
VERTEX
 8
W_RFEL_1
 10
-16.7068
 20
-2.6735
 30
20.825
 70
192
 0
VERTEX
 8
W_RFEL_1
 10
-16.7022
 20
-2.6737
 30
20.825
 70
192
 0
VERTEX
 8
W_RFEL_1
 10
-16.6977
 20
-2.6735
 30
20.825
 70
192
 0
VERTEX
 8
W_RFEL_1
 10
-16.6932
 20
-2.6728
 30
20.825
 70
192
 0
VERTEX
 8
W_RFEL_1
 10
-16.6889
 20
-2.6716
 30
20.825
 70
192
 0
VERTEX
 8
W_RFEL_1
 10
-16.6837
 20
-2.6722
 30
20.8296
 70
192
 0
VERTEX
 8
W_RFEL_1
 10
-16.3323
 20
-2.2669
 30
20.8296
 70
192
 0
VERTEX
 8
W_RFEL_1
 10
-15.7842
 20
-2.0116
 30
20.8296
 70
192
 0
VERTEX
 8
W_RFEL_1
 10
-15.7799
 20
-2.0094
 30
20.8296
 70
192
 0
VERTEX
 8
W_RFEL_1
 10
-15.7759
 20
-2.0068
 30
20.8296
 70
192
 0
VERTEX
 8
W_RFEL_1
 10
-15.7722
 20
-2.0038
 30
20.8296
 70
192
 0
VERTEX
 8
W_RFEL_1
 10
-15.7688
 20
-2.0004
 30
20.8296
 70
192
 0
VERTEX
 8
W_RFEL_1
 10
-15.7658
 20
-1.9967
 30
20.8296
 70
192
 0
VERTEX
 8
W_RFEL_1
 10
-15.7632
 20
-1.9927
 30
20.8296
 70
192
 0
VERTEX
 8
W_RFEL_1
 10
-15.7611
 20
-1.9885
 30
20.8296
 70
192
 0
VERTEX
 8
W_RFEL_1
 10
-15.7593
 20
-1.984
 30
20.8296
 70
192
 0
VERTEX
 8
W_RFEL_1
 10
-15.7581
 20
-1.9794
 30
20.8296
 70
192
 0
VERTEX
 8
W_RFEL_1
 10
-15.7574
 20
-1.9747
 30
20.8296
 70
192
 0
VERTEX
 8
W_RFEL_1
 10
-15.7571
 20
-1.9699
 30
20.8296
 70
192
 0
VERTEX
 8
W_RFEL_1
 10
-15.7574
 20
-1.9651
 30
20.8296
 70
192
 0
VERTEX
 8
W_RFEL_1
 10
-15.7581
 20
-1.9604
 30
20.8296
 70
192
 0
VERTEX
 8
W_RFEL_1
 10
-15.7593
 20
-1.9558
 30
20.8296
 70
192
 0
VERTEX
 8
W_RFEL_1
 10
-15.7611
 20
-1.9513
 30
20.8296
 70
192
 0
VERTEX
 8
W_RFEL_1
 10
-16.0401
 20
-1.6991
 30
20.8296
 70
192
 0
VERTEX
 8
W_RFEL_1
 10
-16.0423
 20
-1.6948
 30
20.8296
 70
192
 0
VERTEX
 8
W_RFEL_1
 10
-16.0449
 20
-1.6908
 30
20.8296
 70
192
 0
VERTEX
 8
W_RFEL_1
 10
-16.0479
 20
-1.6871
 30
20.8296
 70
192
 0
VERTEX
 8
W_RFEL_1
 10
-16.0513
 20
-1.6837
 30
20.8296
 70
192
 0
VERTEX
 8
W_RFEL_1
 10
-16.055
 20
-1.6807
 30
20.8296
 70
192
 0
VERTEX
 8
W_RFEL_1
 10
-16.059
 20
-1.6781
 30
20.8296
 70
192
 0
VERTEX
 8
W_RFEL_1
 10
-16.0632
 20
-1.676
 30
20.8296
 70
192
 0
VERTEX
 8
W_RFEL_1
 10
-16.0677
 20
-1.6742
 30
20.8296
 70
192
 0
VERTEX
 8
W_RFEL_1
 10
-16.0723
 20
-1.673
 30
20.8296
 70
192
 0
VERTEX
 8
W_RFEL_1
 10
-16.077
 20
-1.6723
 30
20.8296
 70
192
 0
VERTEX
 8
W_RFEL_1
 10
-16.0818
 20
-1.672
 30
20.8296
 70
192
 0
VERTEX
 8
W_RFEL_1
 10
-16.0866
 20
-1.6723
 30
20.8296
 70
192
 0
VERTEX
 8
W_RFEL_1
 10
-16.0913
 20
-1.673
 30
20.8296
 70
192
 0
VERTEX
 8
W_RFEL_1
 10
-16.0959
 20
-1.6742
 30
20.8296
 70
192
 0
VERTEX
 8
W_RFEL_1
 10
-16.1004
 20
-1.676
 30
20.8296
 70
192
 0
VERTEX
 8
W_RFEL_1
 10
-16.4101
 20
-2.0921
 30
20.8296
 70
192
 0
VERTEX
 8
W_RFEL_1
 10
-16.7615
 20
-2.4974
 30
20.8296
 70
192
 0
VERTEX
 8
W_RFEL_1
 10
-16.7658
 20
-2.4995
 30
20.8296
 70
192
 0
VERTEX
 8
W_RFEL_1
 10
-16.7698
 20
-2.5021
 30
20.8296
 70
192
 0
VERTEX
 8
W_RFEL_1
 10
-16.7735
 20
-2.5051
 30
20.8296
 70
192
 0
VERTEX
 8
W_RFEL_1
 10
-16.7769
 20
-2.5085
 30
20.8296
 70
192
 0
VERTEX
 8
W_RFEL_1
 10
-16.7799
 20
-2.5122
 30
20.8296
 70
192
 0
VERTEX
 8
W_RFEL_1
 10
-16.7825
 20
-2.5162
 30
20.8296
 70
192
 0
VERTEX
 8
W_RFEL_1
 10
-16.7846
 20
-2.5205
 30
20.8296
 70
192
 0
VERTEX
 8
W_RFEL_1
 10
-16.7864
 20
-2.525
 30
20.8296
 70
192
 0
VERTEX
 8
W_RFEL_1
 10
-16.7876
 20
-2.5296
 30
20.8296
 70
192
 0
VERTEX
 8
W_RFEL_1
 10
-16.7883
 20
-2.5343
 30
20.8296
 70
192
 0
VERTEX
 8
W_RFEL_1
 10
-16.7886
 20
-2.5391
 30
20.8296
 70
192
 0
VERTEX
 8
W_RFEL_1
 10
-16.7883
 20
-2.5439
 30
20.8296
 70
192
 0
VERTEX
 8
W_RFEL_1
 10
-16.7876
 20
-2.5486
 30
20.8296
 70
192
 0
VERTEX
 8
W_RFEL_1
 10
-16.7864
 20
-2.5532
 30
20.8296
 70
192
 0
VERTEX
 8
W_RFEL_1
 10
-16.7846
 20
-2.5577
 30
20.8296
 70
192
 0
VERTEX
 8
W_RFEL_1
 10
-16.744
 20
-2.649
 30
20.8296
 70
192
 0
VERTEX
 8
W_RFEL_1
 10
-16.7418
 20
-2.6533
 30
20.8296
 70
192
 0
VERTEX
 8
W_RFEL_1
 10
-16.7392
 20
-2.6573
 30
20.8296
 70
192
 0
VERTEX
 8
W_RFEL_1
 10
-16.7362
 20
-2.661
 30
20.8296
 70
192
 0
VERTEX
 8
W_RFEL_1
 10
-16.7328
 20
-2.6644
 30
20.8296
 70
192
 0
VERTEX
 8
W_RFEL_1
 10
-16.7291
 20
-2.6674
 30
20.8296
 70
192
 0
VERTEX
 8
W_RFEL_1
 10
-16.7251
 20
-2.67
 30
20.8296
 70
192
 0
VERTEX
 8
W_RFEL_1
 10
-16.7208
 20
-2.6722
 30
20.8296
 70
192
 0
VERTEX
 8
W_RFEL_1
 10
-16.7164
 20
-2.6739
 30
20.8296
 70
192
 0
VERTEX
 8
W_RFEL_1
 10
-16.7117
 20
-2.6751
 30
20.8296
 70
192
 0
VERTEX
 8
W_RFEL_1
 10
-16.707
 20
-2.6759
 30
20.8296
 70
192
 0
VERTEX
 8
W_RFEL_1
 10
-16.7022
 20
-2.6761
 30
20.8296
 70
192
 0
VERTEX
 8
W_RFEL_1
 10
-16.6975
 20
-2.6759
 30
20.8296
 70
192
 0
VERTEX
 8
W_RFEL_1
 10
-16.6927
 20
-2.6751
 30
20.8296
 70
192
 0
VERTEX
 8
W_RFEL_1
 10
-16.6881
 20
-2.6739
 30
20.8296
 70
192
 0
VERTEX
 8
W_RFEL_1
 10
-16.6829
 20
-2.6739
 30
20.8345
 70
192
 0
VERTEX
 8
W_RFEL_1
 10
-16.3315
 20
-2.2686
 30
20.8345
 70
192
 0
VERTEX
 8
W_RFEL_1
 10
-15.7834
 20
-2.0133
 30
20.8345
 70
192
 0
VERTEX
 8
W_RFEL_1
 10
-15.779
 20
-2.0111
 30
20.8345
 70
192
 0
VERTEX
 8
W_RFEL_1
 10
-15.7748
 20
-2.0084
 30
20.8345
 70
192
 0
VERTEX
 8
W_RFEL_1
 10
-15.771
 20
-2.0052
 30
20.8345
 70
192
 0
VERTEX
 8
W_RFEL_1
 10
-15.7674
 20
-2.0017
 30
20.8345
 70
192
 0
VERTEX
 8
W_RFEL_1
 10
-15.7643
 20
-1.9978
 30
20.8345
 70
192
 0
VERTEX
 8
W_RFEL_1
 10
-15.7616
 20
-1.9937
 30
20.8345
 70
192
 0
VERTEX
 8
W_RFEL_1
 10
-15.7593
 20
-1.9892
 30
20.8345
 70
192
 0
VERTEX
 8
W_RFEL_1
 10
-15.7576
 20
-1.9846
 30
20.8345
 70
192
 0
VERTEX
 8
W_RFEL_1
 10
-15.7563
 20
-1.9798
 30
20.8345
 70
192
 0
VERTEX
 8
W_RFEL_1
 10
-15.7555
 20
-1.9749
 30
20.8345
 70
192
 0
VERTEX
 8
W_RFEL_1
 10
-15.7552
 20
-1.9699
 30
20.8345
 70
192
 0
VERTEX
 8
W_RFEL_1
 10
-15.7555
 20
-1.9649
 30
20.8345
 70
192
 0
VERTEX
 8
W_RFEL_1
 10
-15.7563
 20
-1.96
 30
20.8345
 70
192
 0
VERTEX
 8
W_RFEL_1
 10
-15.7576
 20
-1.9552
 30
20.8345
 70
192
 0
VERTEX
 8
W_RFEL_1
 10
-15.7593
 20
-1.9505
 30
20.8345
 70
192
 0
VERTEX
 8
W_RFEL_1
 10
-16.0384
 20
-1.6983
 30
20.8345
 70
192
 0
VERTEX
 8
W_RFEL_1
 10
-16.0406
 20
-1.6939
 30
20.8345
 70
192
 0
VERTEX
 8
W_RFEL_1
 10
-16.0434
 20
-1.6897
 30
20.8345
 70
192
 0
VERTEX
 8
W_RFEL_1
 10
-16.0465
 20
-1.6859
 30
20.8345
 70
192
 0
VERTEX
 8
W_RFEL_1
 10
-16.05
 20
-1.6823
 30
20.8345
 70
192
 0
VERTEX
 8
W_RFEL_1
 10
-16.0539
 20
-1.6792
 30
20.8345
 70
192
 0
VERTEX
 8
W_RFEL_1
 10
-16.058
 20
-1.6765
 30
20.8345
 70
192
 0
VERTEX
 8
W_RFEL_1
 10
-16.0625
 20
-1.6742
 30
20.8345
 70
192
 0
VERTEX
 8
W_RFEL_1
 10
-16.0671
 20
-1.6725
 30
20.8345
 70
192
 0
VERTEX
 8
W_RFEL_1
 10
-16.0719
 20
-1.6712
 30
20.8345
 70
192
 0
VERTEX
 8
W_RFEL_1
 10
-16.0769
 20
-1.6704
 30
20.8345
 70
192
 0
VERTEX
 8
W_RFEL_1
 10
-16.0818
 20
-1.6701
 30
20.8345
 70
192
 0
VERTEX
 8
W_RFEL_1
 10
-16.0868
 20
-1.6704
 30
20.8345
 70
192
 0
VERTEX
 8
W_RFEL_1
 10
-16.0917
 20
-1.6712
 30
20.8345
 70
192
 0
VERTEX
 8
W_RFEL_1
 10
-16.0965
 20
-1.6725
 30
20.8345
 70
192
 0
VERTEX
 8
W_RFEL_1
 10
-16.1012
 20
-1.6742
 30
20.8345
 70
192
 0
VERTEX
 8
W_RFEL_1
 10
-16.4109
 20
-2.0904
 30
20.8345
 70
192
 0
VERTEX
 8
W_RFEL_1
 10
-16.7623
 20
-2.4956
 30
20.8345
 70
192
 0
VERTEX
 8
W_RFEL_1
 10
-16.7667
 20
-2.4979
 30
20.8345
 70
192
 0
VERTEX
 8
W_RFEL_1
 10
-16.7709
 20
-2.5006
 30
20.8345
 70
192
 0
VERTEX
 8
W_RFEL_1
 10
-16.7747
 20
-2.5037
 30
20.8345
 70
192
 0
VERTEX
 8
W_RFEL_1
 10
-16.7783
 20
-2.5073
 30
20.8345
 70
192
 0
VERTEX
 8
W_RFEL_1
 10
-16.7814
 20
-2.5111
 30
20.8345
 70
192
 0
VERTEX
 8
W_RFEL_1
 10
-16.7841
 20
-2.5153
 30
20.8345
 70
192
 0
VERTEX
 8
W_RFEL_1
 10
-16.7864
 20
-2.5197
 30
20.8345
 70
192
 0
VERTEX
 8
W_RFEL_1
 10
-16.7881
 20
-2.5244
 30
20.8345
 70
192
 0
VERTEX
 8
W_RFEL_1
 10
-16.7894
 20
-2.5292
 30
20.8345
 70
192
 0
VERTEX
 8
W_RFEL_1
 10
-16.7902
 20
-2.5341
 30
20.8345
 70
192
 0
VERTEX
 8
W_RFEL_1
 10
-16.7905
 20
-2.5391
 30
20.8345
 70
192
 0
VERTEX
 8
W_RFEL_1
 10
-16.7902
 20
-2.5441
 30
20.8345
 70
192
 0
VERTEX
 8
W_RFEL_1
 10
-16.7894
 20
-2.549
 30
20.8345
 70
192
 0
VERTEX
 8
W_RFEL_1
 10
-16.7881
 20
-2.5538
 30
20.8345
 70
192
 0
VERTEX
 8
W_RFEL_1
 10
-16.7864
 20
-2.5584
 30
20.8345
 70
192
 0
VERTEX
 8
W_RFEL_1
 10
-16.7457
 20
-2.6498
 30
20.8345
 70
192
 0
VERTEX
 8
W_RFEL_1
 10
-16.7434
 20
-2.6542
 30
20.8345
 70
192
 0
VERTEX
 8
W_RFEL_1
 10
-16.7407
 20
-2.6584
 30
20.8345
 70
192
 0
VERTEX
 8
W_RFEL_1
 10
-16.7376
 20
-2.6623
 30
20.8345
 70
192
 0
VERTEX
 8
W_RFEL_1
 10
-16.7341
 20
-2.6658
 30
20.8345
 70
192
 0
VERTEX
 8
W_RFEL_1
 10
-16.7302
 20
-2.6689
 30
20.8345
 70
192
 0
VERTEX
 8
W_RFEL_1
 10
-16.726
 20
-2.6716
 30
20.8345
 70
192
 0
VERTEX
 8
W_RFEL_1
 10
-16.7216
 20
-2.6739
 30
20.8345
 70
192
 0
VERTEX
 8
W_RFEL_1
 10
-16.7169
 20
-2.6757
 30
20.8345
 70
192
 0
VERTEX
 8
W_RFEL_1
 10
-16.7121
 20
-2.677
 30
20.8345
 70
192
 0
VERTEX
 8
W_RFEL_1
 10
-16.7072
 20
-2.6777
 30
20.8345
 70
192
 0
VERTEX
 8
W_RFEL_1
 10
-16.7022
 20
-2.678
 30
20.8345
 70
192
 0
VERTEX
 8
W_RFEL_1
 10
-16.6973
 20
-2.6777
 30
20.8345
 70
192
 0
VERTEX
 8
W_RFEL_1
 10
-16.6924
 20
-2.677
 30
20.8345
 70
192
 0
VERTEX
 8
W_RFEL_1
 10
-16.6875
 20
-2.6757
 30
20.8345
 70
192
 0
VERTEX
 8
W_RFEL_1
 10
-16.6823
 20
-2.6751
 30
20.8396
 70
192
 0
VERTEX
 8
W_RFEL_1
 10
-16.331
 20
-2.2699
 30
20.8396
 70
192
 0
VERTEX
 8
W_RFEL_1
 10
-15.7829
 20
-2.0146
 30
20.8396
 70
192
 0
VERTEX
 8
W_RFEL_1
 10
-15.7783
 20
-2.0122
 30
20.8396
 70
192
 0
VERTEX
 8
W_RFEL_1
 10
-15.774
 20
-2.0094
 30
20.8396
 70
192
 0
VERTEX
 8
W_RFEL_1
 10
-15.7701
 20
-2.0062
 30
20.8396
 70
192
 0
VERTEX
 8
W_RFEL_1
 10
-15.7664
 20
-2.0026
 30
20.8396
 70
192
 0
VERTEX
 8
W_RFEL_1
 10
-15.7632
 20
-1.9986
 30
20.8396
 70
192
 0
VERTEX
 8
W_RFEL_1
 10
-15.7604
 20
-1.9943
 30
20.8396
 70
192
 0
VERTEX
 8
W_RFEL_1
 10
-15.7581
 20
-1.9898
 30
20.8396
 70
192
 0
VERTEX
 8
W_RFEL_1
 10
-15.7563
 20
-1.985
 30
20.8396
 70
192
 0
VERTEX
 8
W_RFEL_1
 10
-15.7549
 20
-1.9801
 30
20.8396
 70
192
 0
VERTEX
 8
W_RFEL_1
 10
-15.7541
 20
-1.975
 30
20.8396
 70
192
 0
VERTEX
 8
W_RFEL_1
 10
-15.7539
 20
-1.9699
 30
20.8396
 70
192
 0
VERTEX
 8
W_RFEL_1
 10
-15.7541
 20
-1.9648
 30
20.8396
 70
192
 0
VERTEX
 8
W_RFEL_1
 10
-15.7549
 20
-1.9597
 30
20.8396
 70
192
 0
VERTEX
 8
W_RFEL_1
 10
-15.7563
 20
-1.9548
 30
20.8396
 70
192
 0
VERTEX
 8
W_RFEL_1
 10
-15.7581
 20
-1.95
 30
20.8396
 70
192
 0
VERTEX
 8
W_RFEL_1
 10
-16.0371
 20
-1.6978
 30
20.8396
 70
192
 0
VERTEX
 8
W_RFEL_1
 10
-16.0395
 20
-1.6932
 30
20.8396
 70
192
 0
VERTEX
 8
W_RFEL_1
 10
-16.0423
 20
-1.6889
 30
20.8396
 70
192
 0
VERTEX
 8
W_RFEL_1
 10
-16.0455
 20
-1.685
 30
20.8396
 70
192
 0
VERTEX
 8
W_RFEL_1
 10
-16.0491
 20
-1.6813
 30
20.8396
 70
192
 0
VERTEX
 8
W_RFEL_1
 10
-16.0531
 20
-1.6781
 30
20.8396
 70
192
 0
VERTEX
 8
W_RFEL_1
 10
-16.0574
 20
-1.6753
 30
20.8396
 70
192
 0
VERTEX
 8
W_RFEL_1
 10
-16.0619
 20
-1.673
 30
20.8396
 70
192
 0
VERTEX
 8
W_RFEL_1
 10
-16.0667
 20
-1.6712
 30
20.8396
 70
192
 0
VERTEX
 8
W_RFEL_1
 10
-16.0717
 20
-1.6698
 30
20.8396
 70
192
 0
VERTEX
 8
W_RFEL_1
 10
-16.0767
 20
-1.669
 30
20.8396
 70
192
 0
VERTEX
 8
W_RFEL_1
 10
-16.0818
 20
-1.6688
 30
20.8396
 70
192
 0
VERTEX
 8
W_RFEL_1
 10
-16.0869
 20
-1.669
 30
20.8396
 70
192
 0
VERTEX
 8
W_RFEL_1
 10
-16.092
 20
-1.6698
 30
20.8396
 70
192
 0
VERTEX
 8
W_RFEL_1
 10
-16.0969
 20
-1.6712
 30
20.8396
 70
192
 0
VERTEX
 8
W_RFEL_1
 10
-16.1017
 20
-1.673
 30
20.8396
 70
192
 0
VERTEX
 8
W_RFEL_1
 10
-16.4115
 20
-2.0892
 30
20.8396
 70
192
 0
VERTEX
 8
W_RFEL_1
 10
-16.7628
 20
-2.4944
 30
20.8396
 70
192
 0
VERTEX
 8
W_RFEL_1
 10
-16.7674
 20
-2.4967
 30
20.8396
 70
192
 0
VERTEX
 8
W_RFEL_1
 10
-16.7717
 20
-2.4995
 30
20.8396
 70
192
 0
VERTEX
 8
W_RFEL_1
 10
-16.7756
 20
-2.5027
 30
20.8396
 70
192
 0
VERTEX
 8
W_RFEL_1
 10
-16.7793
 20
-2.5064
 30
20.8396
 70
192
 0
VERTEX
 8
W_RFEL_1
 10
-16.7825
 20
-2.5103
 30
20.8396
 70
192
 0
VERTEX
 8
W_RFEL_1
 10
-16.7853
 20
-2.5146
 30
20.8396
 70
192
 0
VERTEX
 8
W_RFEL_1
 10
-16.7876
 20
-2.5192
 30
20.8396
 70
192
 0
VERTEX
 8
W_RFEL_1
 10
-16.7894
 20
-2.524
 30
20.8396
 70
192
 0
VERTEX
 8
W_RFEL_1
 10
-16.7908
 20
-2.5289
 30
20.8396
 70
192
 0
VERTEX
 8
W_RFEL_1
 10
-16.7916
 20
-2.534
 30
20.8396
 70
192
 0
VERTEX
 8
W_RFEL_1
 10
-16.7918
 20
-2.5391
 30
20.8396
 70
192
 0
VERTEX
 8
W_RFEL_1
 10
-16.7916
 20
-2.5442
 30
20.8396
 70
192
 0
VERTEX
 8
W_RFEL_1
 10
-16.7908
 20
-2.5493
 30
20.8396
 70
192
 0
VERTEX
 8
W_RFEL_1
 10
-16.7894
 20
-2.5542
 30
20.8396
 70
192
 0
VERTEX
 8
W_RFEL_1
 10
-16.7876
 20
-2.559
 30
20.8396
 70
192
 0
VERTEX
 8
W_RFEL_1
 10
-16.7469
 20
-2.6503
 30
20.8396
 70
192
 0
VERTEX
 8
W_RFEL_1
 10
-16.7446
 20
-2.6549
 30
20.8396
 70
192
 0
VERTEX
 8
W_RFEL_1
 10
-16.7418
 20
-2.6592
 30
20.8396
 70
192
 0
VERTEX
 8
W_RFEL_1
 10
-16.7386
 20
-2.6632
 30
20.8396
 70
192
 0
VERTEX
 8
W_RFEL_1
 10
-16.735
 20
-2.6668
 30
20.8396
 70
192
 0
VERTEX
 8
W_RFEL_1
 10
-16.731
 20
-2.67
 30
20.8396
 70
192
 0
VERTEX
 8
W_RFEL_1
 10
-16.7267
 20
-2.6728
 30
20.8396
 70
192
 0
VERTEX
 8
W_RFEL_1
 10
-16.7221
 20
-2.6751
 30
20.8396
 70
192
 0
VERTEX
 8
W_RFEL_1
 10
-16.7174
 20
-2.677
 30
20.8396
 70
192
 0
VERTEX
 8
W_RFEL_1
 10
-16.7124
 20
-2.6783
 30
20.8396
 70
192
 0
VERTEX
 8
W_RFEL_1
 10
-16.7074
 20
-2.6791
 30
20.8396
 70
192
 0
VERTEX
 8
W_RFEL_1
 10
-16.7022
 20
-2.6793
 30
20.8396
 70
192
 0
VERTEX
 8
W_RFEL_1
 10
-16.6971
 20
-2.6791
 30
20.8396
 70
192
 0
VERTEX
 8
W_RFEL_1
 10
-16.6921
 20
-2.6783
 30
20.8396
 70
192
 0
VERTEX
 8
W_RFEL_1
 10
-16.6871
 20
-2.677
 30
20.8396
 70
192
 0
VERTEX
 8
W_RFEL_1
 10
-16.682
 20
-2.6759
 30
20.8448
 70
192
 0
VERTEX
 8
W_RFEL_1
 10
-16.3307
 20
-2.2706
 30
20.8448
 70
192
 0
VERTEX
 8
W_RFEL_1
 10
-15.7826
 20
-2.0153
 30
20.8448
 70
192
 0
VERTEX
 8
W_RFEL_1
 10
-15.7779
 20
-2.0129
 30
20.8448
 70
192
 0
VERTEX
 8
W_RFEL_1
 10
-15.7736
 20
-2.0101
 30
20.8448
 70
192
 0
VERTEX
 8
W_RFEL_1
 10
-15.7695
 20
-2.0068
 30
20.8448
 70
192
 0
VERTEX
 8
W_RFEL_1
 10
-15.7658
 20
-2.0032
 30
20.8448
 70
192
 0
VERTEX
 8
W_RFEL_1
 10
-15.7625
 20
-1.9991
 30
20.8448
 70
192
 0
VERTEX
 8
W_RFEL_1
 10
-15.7597
 20
-1.9947
 30
20.8448
 70
192
 0
VERTEX
 8
W_RFEL_1
 10
-15.7574
 20
-1.9901
 30
20.8448
 70
192
 0
VERTEX
 8
W_RFEL_1
 10
-15.7555
 20
-1.9852
 30
20.8448
 70
192
 0
VERTEX
 8
W_RFEL_1
 10
-15.7541
 20
-1.9802
 30
20.8448
 70
192
 0
VERTEX
 8
W_RFEL_1
 10
-15.7533
 20
-1.9751
 30
20.8448
 70
192
 0
VERTEX
 8
W_RFEL_1
 10
-15.7531
 20
-1.9699
 30
20.8448
 70
192
 0
VERTEX
 8
W_RFEL_1
 10
-15.7533
 20
-1.9647
 30
20.8448
 70
192
 0
VERTEX
 8
W_RFEL_1
 10
-15.7541
 20
-1.9595
 30
20.8448
 70
192
 0
VERTEX
 8
W_RFEL_1
 10
-15.7555
 20
-1.9545
 30
20.8448
 70
192
 0
VERTEX
 8
W_RFEL_1
 10
-15.7574
 20
-1.9497
 30
20.8448
 70
192
 0
VERTEX
 8
W_RFEL_1
 10
-16.0364
 20
-1.6975
 30
20.8448
 70
192
 0
VERTEX
 8
W_RFEL_1
 10
-16.0388
 20
-1.6928
 30
20.8448
 70
192
 0
VERTEX
 8
W_RFEL_1
 10
-16.0416
 20
-1.6885
 30
20.8448
 70
192
 0
VERTEX
 8
W_RFEL_1
 10
-16.0449
 20
-1.6844
 30
20.8448
 70
192
 0
VERTEX
 8
W_RFEL_1
 10
-16.0485
 20
-1.6807
 30
20.8448
 70
192
 0
VERTEX
 8
W_RFEL_1
 10
-16.0526
 20
-1.6775
 30
20.8448
 70
192
 0
VERTEX
 8
W_RFEL_1
 10
-16.057
 20
-1.6746
 30
20.8448
 70
192
 0
VERTEX
 8
W_RFEL_1
 10
-16.0616
 20
-1.6723
 30
20.8448
 70
192
 0
VERTEX
 8
W_RFEL_1
 10
-16.0665
 20
-1.6704
 30
20.8448
 70
192
 0
VERTEX
 8
W_RFEL_1
 10
-16.0715
 20
-1.669
 30
20.8448
 70
192
 0
VERTEX
 8
W_RFEL_1
 10
-16.0766
 20
-1.6682
 30
20.8448
 70
192
 0
VERTEX
 8
W_RFEL_1
 10
-16.0818
 20
-1.668
 30
20.8448
 70
192
 0
VERTEX
 8
W_RFEL_1
 10
-16.087
 20
-1.6682
 30
20.8448
 70
192
 0
VERTEX
 8
W_RFEL_1
 10
-16.0922
 20
-1.669
 30
20.8448
 70
192
 0
VERTEX
 8
W_RFEL_1
 10
-16.0972
 20
-1.6704
 30
20.8448
 70
192
 0
VERTEX
 8
W_RFEL_1
 10
-16.102
 20
-1.6723
 30
20.8448
 70
192
 0
VERTEX
 8
W_RFEL_1
 10
-16.4118
 20
-2.0884
 30
20.8448
 70
192
 0
VERTEX
 8
W_RFEL_1
 10
-16.7631
 20
-2.4937
 30
20.8448
 70
192
 0
VERTEX
 8
W_RFEL_1
 10
-16.7678
 20
-2.496
 30
20.8448
 70
192
 0
VERTEX
 8
W_RFEL_1
 10
-16.7721
 20
-2.4989
 30
20.8448
 70
192
 0
VERTEX
 8
W_RFEL_1
 10
-16.7762
 20
-2.5021
 30
20.8448
 70
192
 0
VERTEX
 8
W_RFEL_1
 10
-16.7799
 20
-2.5058
 30
20.8448
 70
192
 0
VERTEX
 8
W_RFEL_1
 10
-16.7831
 20
-2.5099
 30
20.8448
 70
192
 0
VERTEX
 8
W_RFEL_1
 10
-16.786
 20
-2.5142
 30
20.8448
 70
192
 0
VERTEX
 8
W_RFEL_1
 10
-16.7883
 20
-2.5189
 30
20.8448
 70
192
 0
VERTEX
 8
W_RFEL_1
 10
-16.7902
 20
-2.5237
 30
20.8448
 70
192
 0
VERTEX
 8
W_RFEL_1
 10
-16.7916
 20
-2.5287
 30
20.8448
 70
192
 0
VERTEX
 8
W_RFEL_1
 10
-16.7924
 20
-2.5339
 30
20.8448
 70
192
 0
VERTEX
 8
W_RFEL_1
 10
-16.7926
 20
-2.5391
 30
20.8448
 70
192
 0
VERTEX
 8
W_RFEL_1
 10
-16.7924
 20
-2.5443
 30
20.8448
 70
192
 0
VERTEX
 8
W_RFEL_1
 10
-16.7916
 20
-2.5494
 30
20.8448
 70
192
 0
VERTEX
 8
W_RFEL_1
 10
-16.7902
 20
-2.5544
 30
20.8448
 70
192
 0
VERTEX
 8
W_RFEL_1
 10
-16.7883
 20
-2.5593
 30
20.8448
 70
192
 0
VERTEX
 8
W_RFEL_1
 10
-16.7477
 20
-2.6507
 30
20.8448
 70
192
 0
VERTEX
 8
W_RFEL_1
 10
-16.7453
 20
-2.6553
 30
20.8448
 70
192
 0
VERTEX
 8
W_RFEL_1
 10
-16.7425
 20
-2.6597
 30
20.8448
 70
192
 0
VERTEX
 8
W_RFEL_1
 10
-16.7392
 20
-2.6637
 30
20.8448
 70
192
 0
VERTEX
 8
W_RFEL_1
 10
-16.7355
 20
-2.6674
 30
20.8448
 70
192
 0
VERTEX
 8
W_RFEL_1
 10
-16.7315
 20
-2.6707
 30
20.8448
 70
192
 0
VERTEX
 8
W_RFEL_1
 10
-16.7271
 20
-2.6735
 30
20.8448
 70
192
 0
VERTEX
 8
W_RFEL_1
 10
-16.7225
 20
-2.6759
 30
20.8448
 70
192
 0
VERTEX
 8
W_RFEL_1
 10
-16.7176
 20
-2.6777
 30
20.8448
 70
192
 0
VERTEX
 8
W_RFEL_1
 10
-16.7126
 20
-2.6791
 30
20.8448
 70
192
 0
VERTEX
 8
W_RFEL_1
 10
-16.7074
 20
-2.6799
 30
20.8448
 70
192
 0
VERTEX
 8
W_RFEL_1
 10
-16.7022
 20
-2.6802
 30
20.8448
 70
192
 0
VERTEX
 8
W_RFEL_1
 10
-16.697
 20
-2.6799
 30
20.8448
 70
192
 0
VERTEX
 8
W_RFEL_1
 10
-16.6919
 20
-2.6791
 30
20.8448
 70
192
 0
VERTEX
 8
W_RFEL_1
 10
-16.6869
 20
-2.6777
 30
20.8448
 70
192
 0
VERTEX
 8
W_RFEL_1
 10
-16.6819
 20
-2.6761
 30
20.85
 70
192
 0
VERTEX
 8
W_RFEL_1
 10
-16.3306
 20
-2.2709
 30
20.85
 70
192
 0
VERTEX
 8
W_RFEL_1
 10
-15.7824
 20
-2.0156
 30
20.85
 70
192
 0
VERTEX
 8
W_RFEL_1
 10
-15.7778
 20
-2.0132
 30
20.85
 70
192
 0
VERTEX
 8
W_RFEL_1
 10
-15.7734
 20
-2.0103
 30
20.85
 70
192
 0
VERTEX
 8
W_RFEL_1
 10
-15.7693
 20
-2.007
 30
20.85
 70
192
 0
VERTEX
 8
W_RFEL_1
 10
-15.7656
 20
-2.0033
 30
20.85
 70
192
 0
VERTEX
 8
W_RFEL_1
 10
-15.7623
 20
-1.9993
 30
20.85
 70
192
 0
VERTEX
 8
W_RFEL_1
 10
-15.7595
 20
-1.9949
 30
20.85
 70
192
 0
VERTEX
 8
W_RFEL_1
 10
-15.7571
 20
-1.9902
 30
20.85
 70
192
 0
VERTEX
 8
W_RFEL_1
 10
-15.7552
 20
-1.9853
 30
20.85
 70
192
 0
VERTEX
 8
W_RFEL_1
 10
-15.7539
 20
-1.9803
 30
20.85
 70
192
 0
VERTEX
 8
W_RFEL_1
 10
-15.7531
 20
-1.9751
 30
20.85
 70
192
 0
VERTEX
 8
W_RFEL_1
 10
-15.7528
 20
-1.9699
 30
20.85
 70
192
 0
VERTEX
 8
W_RFEL_1
 10
-15.7531
 20
-1.9647
 30
20.85
 70
192
 0
VERTEX
 8
W_RFEL_1
 10
-15.7539
 20
-1.9595
 30
20.85
 70
192
 0
VERTEX
 8
W_RFEL_1
 10
-15.7552
 20
-1.9544
 30
20.85
 70
192
 0
VERTEX
 8
W_RFEL_1
 10
-15.7571
 20
-1.9495
 30
20.85
 70
192
 0
VERTEX
 8
W_RFEL_1
 10
-16.0361
 20
-1.6973
 30
20.85
 70
192
 0
VERTEX
 8
W_RFEL_1
 10
-16.0385
 20
-1.6927
 30
20.85
 70
192
 0
VERTEX
 8
W_RFEL_1
 10
-16.0414
 20
-1.6883
 30
20.85
 70
192
 0
VERTEX
 8
W_RFEL_1
 10
-16.0447
 20
-1.6842
 30
20.85
 70
192
 0
VERTEX
 8
W_RFEL_1
 10
-16.0484
 20
-1.6805
 30
20.85
 70
192
 0
VERTEX
 8
W_RFEL_1
 10
-16.0524
 20
-1.6772
 30
20.85
 70
192
 0
VERTEX
 8
W_RFEL_1
 10
-16.0568
 20
-1.6744
 30
20.85
 70
192
 0
VERTEX
 8
W_RFEL_1
 10
-16.0615
 20
-1.672
 30
20.85
 70
192
 0
VERTEX
 8
W_RFEL_1
 10
-16.0664
 20
-1.6701
 30
20.85
 70
192
 0
VERTEX
 8
W_RFEL_1
 10
-16.0714
 20
-1.6688
 30
20.85
 70
192
 0
VERTEX
 8
W_RFEL_1
 10
-16.0766
 20
-1.668
 30
20.85
 70
192
 0
VERTEX
 8
W_RFEL_1
 10
-16.0818
 20
-1.6677
 30
20.85
 70
192
 0
VERTEX
 8
W_RFEL_1
 10
-16.087
 20
-1.668
 30
20.85
 70
192
 0
VERTEX
 8
W_RFEL_1
 10
-16.0922
 20
-1.6688
 30
20.85
 70
192
 0
VERTEX
 8
W_RFEL_1
 10
-16.0973
 20
-1.6701
 30
20.85
 70
192
 0
VERTEX
 8
W_RFEL_1
 10
-16.1022
 20
-1.672
 30
20.85
 70
192
 0
VERTEX
 8
W_RFEL_1
 10
-16.4119
 20
-2.0882
 30
20.85
 70
192
 0
VERTEX
 8
W_RFEL_1
 10
-16.7632
 20
-2.4934
 30
20.85
 70
192
 0
VERTEX
 8
W_RFEL_1
 10
-16.7679
 20
-2.4958
 30
20.85
 70
192
 0
VERTEX
 8
W_RFEL_1
 10
-16.7723
 20
-2.4986
 30
20.85
 70
192
 0
VERTEX
 8
W_RFEL_1
 10
-16.7764
 20
-2.5019
 30
20.85
 70
192
 0
VERTEX
 8
W_RFEL_1
 10
-16.7801
 20
-2.5056
 30
20.85
 70
192
 0
VERTEX
 8
W_RFEL_1
 10
-16.7834
 20
-2.5097
 30
20.85
 70
192
 0
VERTEX
 8
W_RFEL_1
 10
-16.7862
 20
-2.5141
 30
20.85
 70
192
 0
VERTEX
 8
W_RFEL_1
 10
-16.7886
 20
-2.5187
 30
20.85
 70
192
 0
VERTEX
 8
W_RFEL_1
 10
-16.7905
 20
-2.5236
 30
20.85
 70
192
 0
VERTEX
 8
W_RFEL_1
 10
-16.7918
 20
-2.5287
 30
20.85
 70
192
 0
VERTEX
 8
W_RFEL_1
 10
-16.7926
 20
-2.5339
 30
20.85
 70
192
 0
VERTEX
 8
W_RFEL_1
 10
-16.7929
 20
-2.5391
 30
20.85
 70
192
 0
VERTEX
 8
W_RFEL_1
 10
-16.7926
 20
-2.5443
 30
20.85
 70
192
 0
VERTEX
 8
W_RFEL_1
 10
-16.7918
 20
-2.5495
 30
20.85
 70
192
 0
VERTEX
 8
W_RFEL_1
 10
-16.7905
 20
-2.5545
 30
20.85
 70
192
 0
VERTEX
 8
W_RFEL_1
 10
-16.7886
 20
-2.5594
 30
20.85
 70
192
 0
VERTEX
 8
W_RFEL_1
 10
-16.7479
 20
-2.6508
 30
20.85
 70
192
 0
VERTEX
 8
W_RFEL_1
 10
-16.7455
 20
-2.6554
 30
20.85
 70
192
 0
VERTEX
 8
W_RFEL_1
 10
-16.7427
 20
-2.6598
 30
20.85
 70
192
 0
VERTEX
 8
W_RFEL_1
 10
-16.7394
 20
-2.6639
 30
20.85
 70
192
 0
VERTEX
 8
W_RFEL_1
 10
-16.7357
 20
-2.6676
 30
20.85
 70
192
 0
VERTEX
 8
W_RFEL_1
 10
-16.7316
 20
-2.6709
 30
20.85
 70
192
 0
VERTEX
 8
W_RFEL_1
 10
-16.7272
 20
-2.6737
 30
20.85
 70
192
 0
VERTEX
 8
W_RFEL_1
 10
-16.7226
 20
-2.6761
 30
20.85
 70
192
 0
VERTEX
 8
W_RFEL_1
 10
-16.7177
 20
-2.678
 30
20.85
 70
192
 0
VERTEX
 8
W_RFEL_1
 10
-16.7126
 20
-2.6793
 30
20.85
 70
192
 0
VERTEX
 8
W_RFEL_1
 10
-16.7075
 20
-2.6802
 30
20.85
 70
192
 0
VERTEX
 8
W_RFEL_1
 10
-16.7022
 20
-2.6804
 30
20.85
 70
192
 0
VERTEX
 8
W_RFEL_1
 10
-16.697
 20
-2.6802
 30
20.85
 70
192
 0
VERTEX
 8
W_RFEL_1
 10
-16.6918
 20
-2.6793
 30
20.85
 70
192
 0
VERTEX
 8
W_RFEL_1
 10
-16.6868
 20
-2.678
 30
20.85
 70
192
 0
VERTEX
 8
W_RFEL_1
 10
-16.6819
 20
-2.6761
 30
21.45
 70
192
 0
VERTEX
 8
W_RFEL_1
 10
-16.3306
 20
-2.2709
 30
21.45
 70
192
 0
VERTEX
 8
W_RFEL_1
 10
-15.7824
 20
-2.0156
 30
21.45
 70
192
 0
VERTEX
 8
W_RFEL_1
 10
-15.7778
 20
-2.0132
 30
21.45
 70
192
 0
VERTEX
 8
W_RFEL_1
 10
-15.7734
 20
-2.0103
 30
21.45
 70
192
 0
VERTEX
 8
W_RFEL_1
 10
-15.7693
 20
-2.007
 30
21.45
 70
192
 0
VERTEX
 8
W_RFEL_1
 10
-15.7656
 20
-2.0033
 30
21.45
 70
192
 0
VERTEX
 8
W_RFEL_1
 10
-15.7623
 20
-1.9993
 30
21.45
 70
192
 0
VERTEX
 8
W_RFEL_1
 10
-15.7595
 20
-1.9949
 30
21.45
 70
192
 0
VERTEX
 8
W_RFEL_1
 10
-15.7571
 20
-1.9902
 30
21.45
 70
192
 0
VERTEX
 8
W_RFEL_1
 10
-15.7552
 20
-1.9853
 30
21.45
 70
192
 0
VERTEX
 8
W_RFEL_1
 10
-15.7539
 20
-1.9803
 30
21.45
 70
192
 0
VERTEX
 8
W_RFEL_1
 10
-15.7531
 20
-1.9751
 30
21.45
 70
192
 0
VERTEX
 8
W_RFEL_1
 10
-15.7528
 20
-1.9699
 30
21.45
 70
192
 0
VERTEX
 8
W_RFEL_1
 10
-15.7531
 20
-1.9647
 30
21.45
 70
192
 0
VERTEX
 8
W_RFEL_1
 10
-15.7539
 20
-1.9595
 30
21.45
 70
192
 0
VERTEX
 8
W_RFEL_1
 10
-15.7552
 20
-1.9544
 30
21.45
 70
192
 0
VERTEX
 8
W_RFEL_1
 10
-15.7571
 20
-1.9495
 30
21.45
 70
192
 0
VERTEX
 8
W_RFEL_1
 10
-16.0361
 20
-1.6973
 30
21.45
 70
192
 0
VERTEX
 8
W_RFEL_1
 10
-16.0385
 20
-1.6927
 30
21.45
 70
192
 0
VERTEX
 8
W_RFEL_1
 10
-16.0414
 20
-1.6883
 30
21.45
 70
192
 0
VERTEX
 8
W_RFEL_1
 10
-16.0447
 20
-1.6842
 30
21.45
 70
192
 0
VERTEX
 8
W_RFEL_1
 10
-16.0484
 20
-1.6805
 30
21.45
 70
192
 0
VERTEX
 8
W_RFEL_1
 10
-16.0524
 20
-1.6772
 30
21.45
 70
192
 0
VERTEX
 8
W_RFEL_1
 10
-16.0568
 20
-1.6744
 30
21.45
 70
192
 0
VERTEX
 8
W_RFEL_1
 10
-16.0615
 20
-1.672
 30
21.45
 70
192
 0
VERTEX
 8
W_RFEL_1
 10
-16.0664
 20
-1.6701
 30
21.45
 70
192
 0
VERTEX
 8
W_RFEL_1
 10
-16.0714
 20
-1.6688
 30
21.45
 70
192
 0
VERTEX
 8
W_RFEL_1
 10
-16.0766
 20
-1.668
 30
21.45
 70
192
 0
VERTEX
 8
W_RFEL_1
 10
-16.0818
 20
-1.6677
 30
21.45
 70
192
 0
VERTEX
 8
W_RFEL_1
 10
-16.087
 20
-1.668
 30
21.45
 70
192
 0
VERTEX
 8
W_RFEL_1
 10
-16.0922
 20
-1.6688
 30
21.45
 70
192
 0
VERTEX
 8
W_RFEL_1
 10
-16.0973
 20
-1.6701
 30
21.45
 70
192
 0
VERTEX
 8
W_RFEL_1
 10
-16.1022
 20
-1.672
 30
21.45
 70
192
 0
VERTEX
 8
W_RFEL_1
 10
-16.4119
 20
-2.0882
 30
21.45
 70
192
 0
VERTEX
 8
W_RFEL_1
 10
-16.7632
 20
-2.4934
 30
21.45
 70
192
 0
VERTEX
 8
W_RFEL_1
 10
-16.7679
 20
-2.4958
 30
21.45
 70
192
 0
VERTEX
 8
W_RFEL_1
 10
-16.7723
 20
-2.4986
 30
21.45
 70
192
 0
VERTEX
 8
W_RFEL_1
 10
-16.7764
 20
-2.5019
 30
21.45
 70
192
 0
VERTEX
 8
W_RFEL_1
 10
-16.7801
 20
-2.5056
 30
21.45
 70
192
 0
VERTEX
 8
W_RFEL_1
 10
-16.7834
 20
-2.5097
 30
21.45
 70
192
 0
VERTEX
 8
W_RFEL_1
 10
-16.7862
 20
-2.5141
 30
21.45
 70
192
 0
VERTEX
 8
W_RFEL_1
 10
-16.7886
 20
-2.5187
 30
21.45
 70
192
 0
VERTEX
 8
W_RFEL_1
 10
-16.7905
 20
-2.5236
 30
21.45
 70
192
 0
VERTEX
 8
W_RFEL_1
 10
-16.7918
 20
-2.5287
 30
21.45
 70
192
 0
VERTEX
 8
W_RFEL_1
 10
-16.7926
 20
-2.5339
 30
21.45
 70
192
 0
VERTEX
 8
W_RFEL_1
 10
-16.7929
 20
-2.5391
 30
21.45
 70
192
 0
VERTEX
 8
W_RFEL_1
 10
-16.7926
 20
-2.5443
 30
21.45
 70
192
 0
VERTEX
 8
W_RFEL_1
 10
-16.7918
 20
-2.5495
 30
21.45
 70
192
 0
VERTEX
 8
W_RFEL_1
 10
-16.7905
 20
-2.5545
 30
21.45
 70
192
 0
VERTEX
 8
W_RFEL_1
 10
-16.7886
 20
-2.5594
 30
21.45
 70
192
 0
VERTEX
 8
W_RFEL_1
 10
-16.7479
 20
-2.6508
 30
21.45
 70
192
 0
VERTEX
 8
W_RFEL_1
 10
-16.7455
 20
-2.6554
 30
21.45
 70
192
 0
VERTEX
 8
W_RFEL_1
 10
-16.7427
 20
-2.6598
 30
21.45
 70
192
 0
VERTEX
 8
W_RFEL_1
 10
-16.7394
 20
-2.6639
 30
21.45
 70
192
 0
VERTEX
 8
W_RFEL_1
 10
-16.7357
 20
-2.6676
 30
21.45
 70
192
 0
VERTEX
 8
W_RFEL_1
 10
-16.7316
 20
-2.6709
 30
21.45
 70
192
 0
VERTEX
 8
W_RFEL_1
 10
-16.7272
 20
-2.6737
 30
21.45
 70
192
 0
VERTEX
 8
W_RFEL_1
 10
-16.7226
 20
-2.6761
 30
21.45
 70
192
 0
VERTEX
 8
W_RFEL_1
 10
-16.7177
 20
-2.678
 30
21.45
 70
192
 0
VERTEX
 8
W_RFEL_1
 10
-16.7126
 20
-2.6793
 30
21.45
 70
192
 0
VERTEX
 8
W_RFEL_1
 10
-16.7075
 20
-2.6802
 30
21.45
 70
192
 0
VERTEX
 8
W_RFEL_1
 10
-16.7022
 20
-2.6804
 30
21.45
 70
192
 0
VERTEX
 8
W_RFEL_1
 10
-16.697
 20
-2.6802
 30
21.45
 70
192
 0
VERTEX
 8
W_RFEL_1
 10
-16.6918
 20
-2.6793
 30
21.45
 70
192
 0
VERTEX
 8
W_RFEL_1
 10
-16.6868
 20
-2.678
 30
21.45
 70
192
 0
VERTEX
 8
W_RFEL_1
 10
-16.682
 20
-2.6759
 30
21.4552
 70
192
 0
VERTEX
 8
W_RFEL_1
 10
-16.3307
 20
-2.2706
 30
21.4552
 70
192
 0
VERTEX
 8
W_RFEL_1
 10
-15.7826
 20
-2.0153
 30
21.4552
 70
192
 0
VERTEX
 8
W_RFEL_1
 10
-15.7779
 20
-2.0129
 30
21.4552
 70
192
 0
VERTEX
 8
W_RFEL_1
 10
-15.7736
 20
-2.0101
 30
21.4552
 70
192
 0
VERTEX
 8
W_RFEL_1
 10
-15.7695
 20
-2.0068
 30
21.4552
 70
192
 0
VERTEX
 8
W_RFEL_1
 10
-15.7658
 20
-2.0032
 30
21.4552
 70
192
 0
VERTEX
 8
W_RFEL_1
 10
-15.7625
 20
-1.9991
 30
21.4552
 70
192
 0
VERTEX
 8
W_RFEL_1
 10
-15.7597
 20
-1.9947
 30
21.4552
 70
192
 0
VERTEX
 8
W_RFEL_1
 10
-15.7574
 20
-1.9901
 30
21.4552
 70
192
 0
VERTEX
 8
W_RFEL_1
 10
-15.7555
 20
-1.9852
 30
21.4552
 70
192
 0
VERTEX
 8
W_RFEL_1
 10
-15.7541
 20
-1.9802
 30
21.4552
 70
192
 0
VERTEX
 8
W_RFEL_1
 10
-15.7533
 20
-1.9751
 30
21.4552
 70
192
 0
VERTEX
 8
W_RFEL_1
 10
-15.7531
 20
-1.9699
 30
21.4552
 70
192
 0
VERTEX
 8
W_RFEL_1
 10
-15.7533
 20
-1.9647
 30
21.4552
 70
192
 0
VERTEX
 8
W_RFEL_1
 10
-15.7541
 20
-1.9595
 30
21.4552
 70
192
 0
VERTEX
 8
W_RFEL_1
 10
-15.7555
 20
-1.9545
 30
21.4552
 70
192
 0
VERTEX
 8
W_RFEL_1
 10
-15.7574
 20
-1.9497
 30
21.4552
 70
192
 0
VERTEX
 8
W_RFEL_1
 10
-16.0364
 20
-1.6975
 30
21.4552
 70
192
 0
VERTEX
 8
W_RFEL_1
 10
-16.0388
 20
-1.6928
 30
21.4552
 70
192
 0
VERTEX
 8
W_RFEL_1
 10
-16.0416
 20
-1.6885
 30
21.4552
 70
192
 0
VERTEX
 8
W_RFEL_1
 10
-16.0449
 20
-1.6844
 30
21.4552
 70
192
 0
VERTEX
 8
W_RFEL_1
 10
-16.0485
 20
-1.6807
 30
21.4552
 70
192
 0
VERTEX
 8
W_RFEL_1
 10
-16.0526
 20
-1.6775
 30
21.4552
 70
192
 0
VERTEX
 8
W_RFEL_1
 10
-16.057
 20
-1.6746
 30
21.4552
 70
192
 0
VERTEX
 8
W_RFEL_1
 10
-16.0616
 20
-1.6723
 30
21.4552
 70
192
 0
VERTEX
 8
W_RFEL_1
 10
-16.0665
 20
-1.6704
 30
21.4552
 70
192
 0
VERTEX
 8
W_RFEL_1
 10
-16.0715
 20
-1.669
 30
21.4552
 70
192
 0
VERTEX
 8
W_RFEL_1
 10
-16.0766
 20
-1.6682
 30
21.4552
 70
192
 0
VERTEX
 8
W_RFEL_1
 10
-16.0818
 20
-1.668
 30
21.4552
 70
192
 0
VERTEX
 8
W_RFEL_1
 10
-16.087
 20
-1.6682
 30
21.4552
 70
192
 0
VERTEX
 8
W_RFEL_1
 10
-16.0922
 20
-1.669
 30
21.4552
 70
192
 0
VERTEX
 8
W_RFEL_1
 10
-16.0972
 20
-1.6704
 30
21.4552
 70
192
 0
VERTEX
 8
W_RFEL_1
 10
-16.102
 20
-1.6723
 30
21.4552
 70
192
 0
VERTEX
 8
W_RFEL_1
 10
-16.4118
 20
-2.0884
 30
21.4552
 70
192
 0
VERTEX
 8
W_RFEL_1
 10
-16.7631
 20
-2.4937
 30
21.4552
 70
192
 0
VERTEX
 8
W_RFEL_1
 10
-16.7678
 20
-2.496
 30
21.4552
 70
192
 0
VERTEX
 8
W_RFEL_1
 10
-16.7721
 20
-2.4989
 30
21.4552
 70
192
 0
VERTEX
 8
W_RFEL_1
 10
-16.7762
 20
-2.5021
 30
21.4552
 70
192
 0
VERTEX
 8
W_RFEL_1
 10
-16.7799
 20
-2.5058
 30
21.4552
 70
192
 0
VERTEX
 8
W_RFEL_1
 10
-16.7831
 20
-2.5099
 30
21.4552
 70
192
 0
VERTEX
 8
W_RFEL_1
 10
-16.786
 20
-2.5142
 30
21.4552
 70
192
 0
VERTEX
 8
W_RFEL_1
 10
-16.7883
 20
-2.5189
 30
21.4552
 70
192
 0
VERTEX
 8
W_RFEL_1
 10
-16.7902
 20
-2.5237
 30
21.4552
 70
192
 0
VERTEX
 8
W_RFEL_1
 10
-16.7916
 20
-2.5287
 30
21.4552
 70
192
 0
VERTEX
 8
W_RFEL_1
 10
-16.7924
 20
-2.5339
 30
21.4552
 70
192
 0
VERTEX
 8
W_RFEL_1
 10
-16.7926
 20
-2.5391
 30
21.4552
 70
192
 0
VERTEX
 8
W_RFEL_1
 10
-16.7924
 20
-2.5443
 30
21.4552
 70
192
 0
VERTEX
 8
W_RFEL_1
 10
-16.7916
 20
-2.5494
 30
21.4552
 70
192
 0
VERTEX
 8
W_RFEL_1
 10
-16.7902
 20
-2.5544
 30
21.4552
 70
192
 0
VERTEX
 8
W_RFEL_1
 10
-16.7883
 20
-2.5593
 30
21.4552
 70
192
 0
VERTEX
 8
W_RFEL_1
 10
-16.7477
 20
-2.6507
 30
21.4552
 70
192
 0
VERTEX
 8
W_RFEL_1
 10
-16.7453
 20
-2.6553
 30
21.4552
 70
192
 0
VERTEX
 8
W_RFEL_1
 10
-16.7425
 20
-2.6597
 30
21.4552
 70
192
 0
VERTEX
 8
W_RFEL_1
 10
-16.7392
 20
-2.6637
 30
21.4552
 70
192
 0
VERTEX
 8
W_RFEL_1
 10
-16.7355
 20
-2.6674
 30
21.4552
 70
192
 0
VERTEX
 8
W_RFEL_1
 10
-16.7315
 20
-2.6707
 30
21.4552
 70
192
 0
VERTEX
 8
W_RFEL_1
 10
-16.7271
 20
-2.6735
 30
21.4552
 70
192
 0
VERTEX
 8
W_RFEL_1
 10
-16.7225
 20
-2.6759
 30
21.4552
 70
192
 0
VERTEX
 8
W_RFEL_1
 10
-16.7176
 20
-2.6777
 30
21.4552
 70
192
 0
VERTEX
 8
W_RFEL_1
 10
-16.7126
 20
-2.6791
 30
21.4552
 70
192
 0
VERTEX
 8
W_RFEL_1
 10
-16.7074
 20
-2.6799
 30
21.4552
 70
192
 0
VERTEX
 8
W_RFEL_1
 10
-16.7022
 20
-2.6802
 30
21.4552
 70
192
 0
VERTEX
 8
W_RFEL_1
 10
-16.697
 20
-2.6799
 30
21.4552
 70
192
 0
VERTEX
 8
W_RFEL_1
 10
-16.6919
 20
-2.6791
 30
21.4552
 70
192
 0
VERTEX
 8
W_RFEL_1
 10
-16.6869
 20
-2.6777
 30
21.4552
 70
192
 0
VERTEX
 8
W_RFEL_1
 10
-16.6823
 20
-2.6751
 30
21.4604
 70
192
 0
VERTEX
 8
W_RFEL_1
 10
-16.331
 20
-2.2699
 30
21.4604
 70
192
 0
VERTEX
 8
W_RFEL_1
 10
-15.7829
 20
-2.0146
 30
21.4604
 70
192
 0
VERTEX
 8
W_RFEL_1
 10
-15.7783
 20
-2.0122
 30
21.4604
 70
192
 0
VERTEX
 8
W_RFEL_1
 10
-15.774
 20
-2.0094
 30
21.4604
 70
192
 0
VERTEX
 8
W_RFEL_1
 10
-15.7701
 20
-2.0062
 30
21.4604
 70
192
 0
VERTEX
 8
W_RFEL_1
 10
-15.7664
 20
-2.0026
 30
21.4604
 70
192
 0
VERTEX
 8
W_RFEL_1
 10
-15.7632
 20
-1.9986
 30
21.4604
 70
192
 0
VERTEX
 8
W_RFEL_1
 10
-15.7604
 20
-1.9943
 30
21.4604
 70
192
 0
VERTEX
 8
W_RFEL_1
 10
-15.7581
 20
-1.9898
 30
21.4604
 70
192
 0
VERTEX
 8
W_RFEL_1
 10
-15.7563
 20
-1.985
 30
21.4604
 70
192
 0
VERTEX
 8
W_RFEL_1
 10
-15.7549
 20
-1.9801
 30
21.4604
 70
192
 0
VERTEX
 8
W_RFEL_1
 10
-15.7541
 20
-1.975
 30
21.4604
 70
192
 0
VERTEX
 8
W_RFEL_1
 10
-15.7539
 20
-1.9699
 30
21.4604
 70
192
 0
VERTEX
 8
W_RFEL_1
 10
-15.7541
 20
-1.9648
 30
21.4604
 70
192
 0
VERTEX
 8
W_RFEL_1
 10
-15.7549
 20
-1.9597
 30
21.4604
 70
192
 0
VERTEX
 8
W_RFEL_1
 10
-15.7563
 20
-1.9548
 30
21.4604
 70
192
 0
VERTEX
 8
W_RFEL_1
 10
-15.7581
 20
-1.95
 30
21.4604
 70
192
 0
VERTEX
 8
W_RFEL_1
 10
-16.0371
 20
-1.6978
 30
21.4604
 70
192
 0
VERTEX
 8
W_RFEL_1
 10
-16.0395
 20
-1.6932
 30
21.4604
 70
192
 0
VERTEX
 8
W_RFEL_1
 10
-16.0423
 20
-1.6889
 30
21.4604
 70
192
 0
VERTEX
 8
W_RFEL_1
 10
-16.0455
 20
-1.685
 30
21.4604
 70
192
 0
VERTEX
 8
W_RFEL_1
 10
-16.0491
 20
-1.6813
 30
21.4604
 70
192
 0
VERTEX
 8
W_RFEL_1
 10
-16.0531
 20
-1.6781
 30
21.4604
 70
192
 0
VERTEX
 8
W_RFEL_1
 10
-16.0574
 20
-1.6753
 30
21.4604
 70
192
 0
VERTEX
 8
W_RFEL_1
 10
-16.0619
 20
-1.673
 30
21.4604
 70
192
 0
VERTEX
 8
W_RFEL_1
 10
-16.0667
 20
-1.6712
 30
21.4604
 70
192
 0
VERTEX
 8
W_RFEL_1
 10
-16.0717
 20
-1.6698
 30
21.4604
 70
192
 0
VERTEX
 8
W_RFEL_1
 10
-16.0767
 20
-1.669
 30
21.4604
 70
192
 0
VERTEX
 8
W_RFEL_1
 10
-16.0818
 20
-1.6688
 30
21.4604
 70
192
 0
VERTEX
 8
W_RFEL_1
 10
-16.0869
 20
-1.669
 30
21.4604
 70
192
 0
VERTEX
 8
W_RFEL_1
 10
-16.092
 20
-1.6698
 30
21.4604
 70
192
 0
VERTEX
 8
W_RFEL_1
 10
-16.0969
 20
-1.6712
 30
21.4604
 70
192
 0
VERTEX
 8
W_RFEL_1
 10
-16.1017
 20
-1.673
 30
21.4604
 70
192
 0
VERTEX
 8
W_RFEL_1
 10
-16.4115
 20
-2.0892
 30
21.4604
 70
192
 0
VERTEX
 8
W_RFEL_1
 10
-16.7628
 20
-2.4944
 30
21.4604
 70
192
 0
VERTEX
 8
W_RFEL_1
 10
-16.7674
 20
-2.4967
 30
21.4604
 70
192
 0
VERTEX
 8
W_RFEL_1
 10
-16.7717
 20
-2.4995
 30
21.4604
 70
192
 0
VERTEX
 8
W_RFEL_1
 10
-16.7756
 20
-2.5027
 30
21.4604
 70
192
 0
VERTEX
 8
W_RFEL_1
 10
-16.7793
 20
-2.5064
 30
21.4604
 70
192
 0
VERTEX
 8
W_RFEL_1
 10
-16.7825
 20
-2.5103
 30
21.4604
 70
192
 0
VERTEX
 8
W_RFEL_1
 10
-16.7853
 20
-2.5146
 30
21.4604
 70
192
 0
VERTEX
 8
W_RFEL_1
 10
-16.7876
 20
-2.5192
 30
21.4604
 70
192
 0
VERTEX
 8
W_RFEL_1
 10
-16.7894
 20
-2.524
 30
21.4604
 70
192
 0
VERTEX
 8
W_RFEL_1
 10
-16.7908
 20
-2.5289
 30
21.4604
 70
192
 0
VERTEX
 8
W_RFEL_1
 10
-16.7916
 20
-2.534
 30
21.4604
 70
192
 0
VERTEX
 8
W_RFEL_1
 10
-16.7918
 20
-2.5391
 30
21.4604
 70
192
 0
VERTEX
 8
W_RFEL_1
 10
-16.7916
 20
-2.5442
 30
21.4604
 70
192
 0
VERTEX
 8
W_RFEL_1
 10
-16.7908
 20
-2.5493
 30
21.4604
 70
192
 0
VERTEX
 8
W_RFEL_1
 10
-16.7894
 20
-2.5542
 30
21.4604
 70
192
 0
VERTEX
 8
W_RFEL_1
 10
-16.7876
 20
-2.559
 30
21.4604
 70
192
 0
VERTEX
 8
W_RFEL_1
 10
-16.7469
 20
-2.6503
 30
21.4604
 70
192
 0
VERTEX
 8
W_RFEL_1
 10
-16.7446
 20
-2.6549
 30
21.4604
 70
192
 0
VERTEX
 8
W_RFEL_1
 10
-16.7418
 20
-2.6592
 30
21.4604
 70
192
 0
VERTEX
 8
W_RFEL_1
 10
-16.7386
 20
-2.6632
 30
21.4604
 70
192
 0
VERTEX
 8
W_RFEL_1
 10
-16.735
 20
-2.6668
 30
21.4604
 70
192
 0
VERTEX
 8
W_RFEL_1
 10
-16.731
 20
-2.67
 30
21.4604
 70
192
 0
VERTEX
 8
W_RFEL_1
 10
-16.7267
 20
-2.6728
 30
21.4604
 70
192
 0
VERTEX
 8
W_RFEL_1
 10
-16.7221
 20
-2.6751
 30
21.4604
 70
192
 0
VERTEX
 8
W_RFEL_1
 10
-16.7174
 20
-2.677
 30
21.4604
 70
192
 0
VERTEX
 8
W_RFEL_1
 10
-16.7124
 20
-2.6783
 30
21.4604
 70
192
 0
VERTEX
 8
W_RFEL_1
 10
-16.7074
 20
-2.6791
 30
21.4604
 70
192
 0
VERTEX
 8
W_RFEL_1
 10
-16.7022
 20
-2.6793
 30
21.4604
 70
192
 0
VERTEX
 8
W_RFEL_1
 10
-16.6971
 20
-2.6791
 30
21.4604
 70
192
 0
VERTEX
 8
W_RFEL_1
 10
-16.6921
 20
-2.6783
 30
21.4604
 70
192
 0
VERTEX
 8
W_RFEL_1
 10
-16.6871
 20
-2.677
 30
21.4604
 70
192
 0
VERTEX
 8
W_RFEL_1
 10
-16.6829
 20
-2.6739
 30
21.4654
 70
192
 0
VERTEX
 8
W_RFEL_1
 10
-16.3315
 20
-2.2686
 30
21.4654
 70
192
 0
VERTEX
 8
W_RFEL_1
 10
-15.7834
 20
-2.0133
 30
21.4654
 70
192
 0
VERTEX
 8
W_RFEL_1
 10
-15.779
 20
-2.0111
 30
21.4654
 70
192
 0
VERTEX
 8
W_RFEL_1
 10
-15.7748
 20
-2.0084
 30
21.4654
 70
192
 0
VERTEX
 8
W_RFEL_1
 10
-15.771
 20
-2.0052
 30
21.4654
 70
192
 0
VERTEX
 8
W_RFEL_1
 10
-15.7674
 20
-2.0017
 30
21.4654
 70
192
 0
VERTEX
 8
W_RFEL_1
 10
-15.7643
 20
-1.9978
 30
21.4654
 70
192
 0
VERTEX
 8
W_RFEL_1
 10
-15.7616
 20
-1.9937
 30
21.4654
 70
192
 0
VERTEX
 8
W_RFEL_1
 10
-15.7593
 20
-1.9892
 30
21.4654
 70
192
 0
VERTEX
 8
W_RFEL_1
 10
-15.7576
 20
-1.9846
 30
21.4654
 70
192
 0
VERTEX
 8
W_RFEL_1
 10
-15.7563
 20
-1.9798
 30
21.4654
 70
192
 0
VERTEX
 8
W_RFEL_1
 10
-15.7555
 20
-1.9749
 30
21.4654
 70
192
 0
VERTEX
 8
W_RFEL_1
 10
-15.7552
 20
-1.9699
 30
21.4654
 70
192
 0
VERTEX
 8
W_RFEL_1
 10
-15.7555
 20
-1.9649
 30
21.4654
 70
192
 0
VERTEX
 8
W_RFEL_1
 10
-15.7563
 20
-1.96
 30
21.4654
 70
192
 0
VERTEX
 8
W_RFEL_1
 10
-15.7576
 20
-1.9552
 30
21.4654
 70
192
 0
VERTEX
 8
W_RFEL_1
 10
-15.7593
 20
-1.9505
 30
21.4654
 70
192
 0
VERTEX
 8
W_RFEL_1
 10
-16.0384
 20
-1.6983
 30
21.4654
 70
192
 0
VERTEX
 8
W_RFEL_1
 10
-16.0406
 20
-1.6939
 30
21.4654
 70
192
 0
VERTEX
 8
W_RFEL_1
 10
-16.0434
 20
-1.6897
 30
21.4654
 70
192
 0
VERTEX
 8
W_RFEL_1
 10
-16.0465
 20
-1.6859
 30
21.4654
 70
192
 0
VERTEX
 8
W_RFEL_1
 10
-16.05
 20
-1.6823
 30
21.4654
 70
192
 0
VERTEX
 8
W_RFEL_1
 10
-16.0539
 20
-1.6792
 30
21.4654
 70
192
 0
VERTEX
 8
W_RFEL_1
 10
-16.058
 20
-1.6765
 30
21.4654
 70
192
 0
VERTEX
 8
W_RFEL_1
 10
-16.0625
 20
-1.6742
 30
21.4654
 70
192
 0
VERTEX
 8
W_RFEL_1
 10
-16.0671
 20
-1.6725
 30
21.4654
 70
192
 0
VERTEX
 8
W_RFEL_1
 10
-16.0719
 20
-1.6712
 30
21.4654
 70
192
 0
VERTEX
 8
W_RFEL_1
 10
-16.0769
 20
-1.6704
 30
21.4654
 70
192
 0
VERTEX
 8
W_RFEL_1
 10
-16.0818
 20
-1.6701
 30
21.4654
 70
192
 0
VERTEX
 8
W_RFEL_1
 10
-16.0868
 20
-1.6704
 30
21.4654
 70
192
 0
VERTEX
 8
W_RFEL_1
 10
-16.0917
 20
-1.6712
 30
21.4654
 70
192
 0
VERTEX
 8
W_RFEL_1
 10
-16.0965
 20
-1.6725
 30
21.4654
 70
192
 0
VERTEX
 8
W_RFEL_1
 10
-16.1012
 20
-1.6742
 30
21.4654
 70
192
 0
VERTEX
 8
W_RFEL_1
 10
-16.4109
 20
-2.0904
 30
21.4654
 70
192
 0
VERTEX
 8
W_RFEL_1
 10
-16.7623
 20
-2.4956
 30
21.4654
 70
192
 0
VERTEX
 8
W_RFEL_1
 10
-16.7667
 20
-2.4979
 30
21.4654
 70
192
 0
VERTEX
 8
W_RFEL_1
 10
-16.7709
 20
-2.5006
 30
21.4654
 70
192
 0
VERTEX
 8
W_RFEL_1
 10
-16.7747
 20
-2.5037
 30
21.4654
 70
192
 0
VERTEX
 8
W_RFEL_1
 10
-16.7783
 20
-2.5073
 30
21.4654
 70
192
 0
VERTEX
 8
W_RFEL_1
 10
-16.7814
 20
-2.5111
 30
21.4654
 70
192
 0
VERTEX
 8
W_RFEL_1
 10
-16.7841
 20
-2.5153
 30
21.4654
 70
192
 0
VERTEX
 8
W_RFEL_1
 10
-16.7864
 20
-2.5197
 30
21.4654
 70
192
 0
VERTEX
 8
W_RFEL_1
 10
-16.7881
 20
-2.5244
 30
21.4654
 70
192
 0
VERTEX
 8
W_RFEL_1
 10
-16.7894
 20
-2.5292
 30
21.4654
 70
192
 0
VERTEX
 8
W_RFEL_1
 10
-16.7902
 20
-2.5341
 30
21.4654
 70
192
 0
VERTEX
 8
W_RFEL_1
 10
-16.7905
 20
-2.5391
 30
21.4654
 70
192
 0
VERTEX
 8
W_RFEL_1
 10
-16.7902
 20
-2.5441
 30
21.4654
 70
192
 0
VERTEX
 8
W_RFEL_1
 10
-16.7894
 20
-2.549
 30
21.4654
 70
192
 0
VERTEX
 8
W_RFEL_1
 10
-16.7881
 20
-2.5538
 30
21.4654
 70
192
 0
VERTEX
 8
W_RFEL_1
 10
-16.7864
 20
-2.5584
 30
21.4654
 70
192
 0
VERTEX
 8
W_RFEL_1
 10
-16.7457
 20
-2.6498
 30
21.4654
 70
192
 0
VERTEX
 8
W_RFEL_1
 10
-16.7434
 20
-2.6542
 30
21.4654
 70
192
 0
VERTEX
 8
W_RFEL_1
 10
-16.7407
 20
-2.6584
 30
21.4654
 70
192
 0
VERTEX
 8
W_RFEL_1
 10
-16.7376
 20
-2.6623
 30
21.4654
 70
192
 0
VERTEX
 8
W_RFEL_1
 10
-16.7341
 20
-2.6658
 30
21.4654
 70
192
 0
VERTEX
 8
W_RFEL_1
 10
-16.7302
 20
-2.6689
 30
21.4654
 70
192
 0
VERTEX
 8
W_RFEL_1
 10
-16.726
 20
-2.6716
 30
21.4654
 70
192
 0
VERTEX
 8
W_RFEL_1
 10
-16.7216
 20
-2.6739
 30
21.4654
 70
192
 0
VERTEX
 8
W_RFEL_1
 10
-16.7169
 20
-2.6757
 30
21.4654
 70
192
 0
VERTEX
 8
W_RFEL_1
 10
-16.7121
 20
-2.677
 30
21.4654
 70
192
 0
VERTEX
 8
W_RFEL_1
 10
-16.7072
 20
-2.6777
 30
21.4654
 70
192
 0
VERTEX
 8
W_RFEL_1
 10
-16.7022
 20
-2.678
 30
21.4654
 70
192
 0
VERTEX
 8
W_RFEL_1
 10
-16.6973
 20
-2.6777
 30
21.4654
 70
192
 0
VERTEX
 8
W_RFEL_1
 10
-16.6924
 20
-2.677
 30
21.4654
 70
192
 0
VERTEX
 8
W_RFEL_1
 10
-16.6875
 20
-2.6757
 30
21.4654
 70
192
 0
VERTEX
 8
W_RFEL_1
 10
-16.6837
 20
-2.6722
 30
21.4703
 70
192
 0
VERTEX
 8
W_RFEL_1
 10
-16.3323
 20
-2.2669
 30
21.4703
 70
192
 0
VERTEX
 8
W_RFEL_1
 10
-15.7842
 20
-2.0116
 30
21.4703
 70
192
 0
VERTEX
 8
W_RFEL_1
 10
-15.7799
 20
-2.0094
 30
21.4703
 70
192
 0
VERTEX
 8
W_RFEL_1
 10
-15.7759
 20
-2.0068
 30
21.4703
 70
192
 0
VERTEX
 8
W_RFEL_1
 10
-15.7722
 20
-2.0038
 30
21.4703
 70
192
 0
VERTEX
 8
W_RFEL_1
 10
-15.7688
 20
-2.0004
 30
21.4703
 70
192
 0
VERTEX
 8
W_RFEL_1
 10
-15.7658
 20
-1.9967
 30
21.4703
 70
192
 0
VERTEX
 8
W_RFEL_1
 10
-15.7632
 20
-1.9927
 30
21.4703
 70
192
 0
VERTEX
 8
W_RFEL_1
 10
-15.7611
 20
-1.9885
 30
21.4703
 70
192
 0
VERTEX
 8
W_RFEL_1
 10
-15.7593
 20
-1.984
 30
21.4703
 70
192
 0
VERTEX
 8
W_RFEL_1
 10
-15.7581
 20
-1.9794
 30
21.4703
 70
192
 0
VERTEX
 8
W_RFEL_1
 10
-15.7574
 20
-1.9747
 30
21.4703
 70
192
 0
VERTEX
 8
W_RFEL_1
 10
-15.7571
 20
-1.9699
 30
21.4703
 70
192
 0
VERTEX
 8
W_RFEL_1
 10
-15.7574
 20
-1.9651
 30
21.4703
 70
192
 0
VERTEX
 8
W_RFEL_1
 10
-15.7581
 20
-1.9604
 30
21.4703
 70
192
 0
VERTEX
 8
W_RFEL_1
 10
-15.7593
 20
-1.9558
 30
21.4703
 70
192
 0
VERTEX
 8
W_RFEL_1
 10
-15.7611
 20
-1.9513
 30
21.4703
 70
192
 0
VERTEX
 8
W_RFEL_1
 10
-16.0401
 20
-1.6991
 30
21.4703
 70
192
 0
VERTEX
 8
W_RFEL_1
 10
-16.0423
 20
-1.6948
 30
21.4703
 70
192
 0
VERTEX
 8
W_RFEL_1
 10
-16.0449
 20
-1.6908
 30
21.4703
 70
192
 0
VERTEX
 8
W_RFEL_1
 10
-16.0479
 20
-1.6871
 30
21.4703
 70
192
 0
VERTEX
 8
W_RFEL_1
 10
-16.0513
 20
-1.6837
 30
21.4703
 70
192
 0
VERTEX
 8
W_RFEL_1
 10
-16.055
 20
-1.6807
 30
21.4703
 70
192
 0
VERTEX
 8
W_RFEL_1
 10
-16.059
 20
-1.6781
 30
21.4703
 70
192
 0
VERTEX
 8
W_RFEL_1
 10
-16.0632
 20
-1.676
 30
21.4703
 70
192
 0
VERTEX
 8
W_RFEL_1
 10
-16.0677
 20
-1.6742
 30
21.4703
 70
192
 0
VERTEX
 8
W_RFEL_1
 10
-16.0723
 20
-1.673
 30
21.4703
 70
192
 0
VERTEX
 8
W_RFEL_1
 10
-16.077
 20
-1.6723
 30
21.4703
 70
192
 0
VERTEX
 8
W_RFEL_1
 10
-16.0818
 20
-1.672
 30
21.4703
 70
192
 0
VERTEX
 8
W_RFEL_1
 10
-16.0866
 20
-1.6723
 30
21.4703
 70
192
 0
VERTEX
 8
W_RFEL_1
 10
-16.0913
 20
-1.673
 30
21.4703
 70
192
 0
VERTEX
 8
W_RFEL_1
 10
-16.0959
 20
-1.6742
 30
21.4703
 70
192
 0
VERTEX
 8
W_RFEL_1
 10
-16.1004
 20
-1.676
 30
21.4703
 70
192
 0
VERTEX
 8
W_RFEL_1
 10
-16.4101
 20
-2.0921
 30
21.4703
 70
192
 0
VERTEX
 8
W_RFEL_1
 10
-16.7615
 20
-2.4974
 30
21.4703
 70
192
 0
VERTEX
 8
W_RFEL_1
 10
-16.7658
 20
-2.4995
 30
21.4703
 70
192
 0
VERTEX
 8
W_RFEL_1
 10
-16.7698
 20
-2.5021
 30
21.4703
 70
192
 0
VERTEX
 8
W_RFEL_1
 10
-16.7735
 20
-2.5051
 30
21.4703
 70
192
 0
VERTEX
 8
W_RFEL_1
 10
-16.7769
 20
-2.5085
 30
21.4703
 70
192
 0
VERTEX
 8
W_RFEL_1
 10
-16.7799
 20
-2.5122
 30
21.4703
 70
192
 0
VERTEX
 8
W_RFEL_1
 10
-16.7825
 20
-2.5162
 30
21.4703
 70
192
 0
VERTEX
 8
W_RFEL_1
 10
-16.7846
 20
-2.5205
 30
21.4703
 70
192
 0
VERTEX
 8
W_RFEL_1
 10
-16.7864
 20
-2.525
 30
21.4703
 70
192
 0
VERTEX
 8
W_RFEL_1
 10
-16.7876
 20
-2.5296
 30
21.4703
 70
192
 0
VERTEX
 8
W_RFEL_1
 10
-16.7883
 20
-2.5343
 30
21.4703
 70
192
 0
VERTEX
 8
W_RFEL_1
 10
-16.7886
 20
-2.5391
 30
21.4703
 70
192
 0
VERTEX
 8
W_RFEL_1
 10
-16.7883
 20
-2.5439
 30
21.4703
 70
192
 0
VERTEX
 8
W_RFEL_1
 10
-16.7876
 20
-2.5486
 30
21.4703
 70
192
 0
VERTEX
 8
W_RFEL_1
 10
-16.7864
 20
-2.5532
 30
21.4703
 70
192
 0
VERTEX
 8
W_RFEL_1
 10
-16.7846
 20
-2.5577
 30
21.4703
 70
192
 0
VERTEX
 8
W_RFEL_1
 10
-16.744
 20
-2.649
 30
21.4703
 70
192
 0
VERTEX
 8
W_RFEL_1
 10
-16.7418
 20
-2.6533
 30
21.4703
 70
192
 0
VERTEX
 8
W_RFEL_1
 10
-16.7392
 20
-2.6573
 30
21.4703
 70
192
 0
VERTEX
 8
W_RFEL_1
 10
-16.7362
 20
-2.661
 30
21.4703
 70
192
 0
VERTEX
 8
W_RFEL_1
 10
-16.7328
 20
-2.6644
 30
21.4703
 70
192
 0
VERTEX
 8
W_RFEL_1
 10
-16.7291
 20
-2.6674
 30
21.4703
 70
192
 0
VERTEX
 8
W_RFEL_1
 10
-16.7251
 20
-2.67
 30
21.4703
 70
192
 0
VERTEX
 8
W_RFEL_1
 10
-16.7208
 20
-2.6722
 30
21.4703
 70
192
 0
VERTEX
 8
W_RFEL_1
 10
-16.7164
 20
-2.6739
 30
21.4703
 70
192
 0
VERTEX
 8
W_RFEL_1
 10
-16.7117
 20
-2.6751
 30
21.4703
 70
192
 0
VERTEX
 8
W_RFEL_1
 10
-16.707
 20
-2.6759
 30
21.4703
 70
192
 0
VERTEX
 8
W_RFEL_1
 10
-16.7022
 20
-2.6761
 30
21.4703
 70
192
 0
VERTEX
 8
W_RFEL_1
 10
-16.6975
 20
-2.6759
 30
21.4703
 70
192
 0
VERTEX
 8
W_RFEL_1
 10
-16.6927
 20
-2.6751
 30
21.4703
 70
192
 0
VERTEX
 8
W_RFEL_1
 10
-16.6881
 20
-2.6739
 30
21.4703
 70
192
 0
VERTEX
 8
W_RFEL_1
 10
-16.6846
 20
-2.67
 30
21.475
 70
192
 0
VERTEX
 8
W_RFEL_1
 10
-16.3333
 20
-2.2648
 30
21.475
 70
192
 0
VERTEX
 8
W_RFEL_1
 10
-15.7852
 20
-2.0094
 30
21.475
 70
192
 0
VERTEX
 8
W_RFEL_1
 10
-15.7811
 20
-2.0074
 30
21.475
 70
192
 0
VERTEX
 8
W_RFEL_1
 10
-15.7773
 20
-2.0049
 30
21.475
 70
192
 0
VERTEX
 8
W_RFEL_1
 10
-15.7738
 20
-2.0021
 30
21.475
 70
192
 0
VERTEX
 8
W_RFEL_1
 10
-15.7706
 20
-1.9989
 30
21.475
 70
192
 0
VERTEX
 8
W_RFEL_1
 10
-15.7677
 20
-1.9953
 30
21.475
 70
192
 0
VERTEX
 8
W_RFEL_1
 10
-15.7653
 20
-1.9915
 30
21.475
 70
192
 0
VERTEX
 8
W_RFEL_1
 10
-15.7632
 20
-1.9875
 30
21.475
 70
192
 0
VERTEX
 8
W_RFEL_1
 10
-15.7616
 20
-1.9833
 30
21.475
 70
192
 0
VERTEX
 8
W_RFEL_1
 10
-15.7604
 20
-1.9789
 30
21.475
 70
192
 0
VERTEX
 8
W_RFEL_1
 10
-15.7597
 20
-1.9744
 30
21.475
 70
192
 0
VERTEX
 8
W_RFEL_1
 10
-15.7595
 20
-1.9699
 30
21.475
 70
192
 0
VERTEX
 8
W_RFEL_1
 10
-15.7597
 20
-1.9654
 30
21.475
 70
192
 0
VERTEX
 8
W_RFEL_1
 10
-15.7604
 20
-1.9609
 30
21.475
 70
192
 0
VERTEX
 8
W_RFEL_1
 10
-15.7616
 20
-1.9565
 30
21.475
 70
192
 0
VERTEX
 8
W_RFEL_1
 10
-15.7632
 20
-1.9523
 30
21.475
 70
192
 0
VERTEX
 8
W_RFEL_1
 10
-16.0423
 20
-1.7001
 30
21.475
 70
192
 0
VERTEX
 8
W_RFEL_1
 10
-16.0443
 20
-1.696
 30
21.475
 70
192
 0
VERTEX
 8
W_RFEL_1
 10
-16.0468
 20
-1.6922
 30
21.475
 70
192
 0
VERTEX
 8
W_RFEL_1
 10
-16.0496
 20
-1.6887
 30
21.475
 70
192
 0
VERTEX
 8
W_RFEL_1
 10
-16.0528
 20
-1.6855
 30
21.475
 70
192
 0
VERTEX
 8
W_RFEL_1
 10
-16.0564
 20
-1.6827
 30
21.475
 70
192
 0
VERTEX
 8
W_RFEL_1
 10
-16.0602
 20
-1.6802
 30
21.475
 70
192
 0
VERTEX
 8
W_RFEL_1
 10
-16.0642
 20
-1.6781
 30
21.475
 70
192
 0
VERTEX
 8
W_RFEL_1
 10
-16.0684
 20
-1.6765
 30
21.475
 70
192
 0
VERTEX
 8
W_RFEL_1
 10
-16.0728
 20
-1.6753
 30
21.475
 70
192
 0
VERTEX
 8
W_RFEL_1
 10
-16.0773
 20
-1.6746
 30
21.475
 70
192
 0
VERTEX
 8
W_RFEL_1
 10
-16.0818
 20
-1.6744
 30
21.475
 70
192
 0
VERTEX
 8
W_RFEL_1
 10
-16.0863
 20
-1.6746
 30
21.475
 70
192
 0
VERTEX
 8
W_RFEL_1
 10
-16.0908
 20
-1.6753
 30
21.475
 70
192
 0
VERTEX
 8
W_RFEL_1
 10
-16.0952
 20
-1.6765
 30
21.475
 70
192
 0
VERTEX
 8
W_RFEL_1
 10
-16.0994
 20
-1.6781
 30
21.475
 70
192
 0
VERTEX
 8
W_RFEL_1
 10
-16.4092
 20
-2.0943
 30
21.475
 70
192
 0
VERTEX
 8
W_RFEL_1
 10
-16.7605
 20
-2.4995
 30
21.475
 70
192
 0
VERTEX
 8
W_RFEL_1
 10
-16.7646
 20
-2.5016
 30
21.475
 70
192
 0
VERTEX
 8
W_RFEL_1
 10
-16.7684
 20
-2.5041
 30
21.475
 70
192
 0
VERTEX
 8
W_RFEL_1
 10
-16.7719
 20
-2.5069
 30
21.475
 70
192
 0
VERTEX
 8
W_RFEL_1
 10
-16.7751
 20
-2.5101
 30
21.475
 70
192
 0
VERTEX
 8
W_RFEL_1
 10
-16.7779
 20
-2.5136
 30
21.475
 70
192
 0
VERTEX
 8
W_RFEL_1
 10
-16.7804
 20
-2.5174
 30
21.475
 70
192
 0
VERTEX
 8
W_RFEL_1
 10
-16.7825
 20
-2.5215
 30
21.475
 70
192
 0
VERTEX
 8
W_RFEL_1
 10
-16.7841
 20
-2.5257
 30
21.475
 70
192
 0
VERTEX
 8
W_RFEL_1
 10
-16.7853
 20
-2.5301
 30
21.475
 70
192
 0
VERTEX
 8
W_RFEL_1
 10
-16.786
 20
-2.5346
 30
21.475
 70
192
 0
VERTEX
 8
W_RFEL_1
 10
-16.7862
 20
-2.5391
 30
21.475
 70
192
 0
VERTEX
 8
W_RFEL_1
 10
-16.786
 20
-2.5436
 30
21.475
 70
192
 0
VERTEX
 8
W_RFEL_1
 10
-16.7853
 20
-2.5481
 30
21.475
 70
192
 0
VERTEX
 8
W_RFEL_1
 10
-16.7841
 20
-2.5525
 30
21.475
 70
192
 0
VERTEX
 8
W_RFEL_1
 10
-16.7825
 20
-2.5567
 30
21.475
 70
192
 0
VERTEX
 8
W_RFEL_1
 10
-16.7418
 20
-2.648
 30
21.475
 70
192
 0
VERTEX
 8
W_RFEL_1
 10
-16.7397
 20
-2.6521
 30
21.475
 70
192
 0
VERTEX
 8
W_RFEL_1
 10
-16.7373
 20
-2.6559
 30
21.475
 70
192
 0
VERTEX
 8
W_RFEL_1
 10
-16.7344
 20
-2.6594
 30
21.475
 70
192
 0
VERTEX
 8
W_RFEL_1
 10
-16.7312
 20
-2.6626
 30
21.475
 70
192
 0
VERTEX
 8
W_RFEL_1
 10
-16.7277
 20
-2.6655
 30
21.475
 70
192
 0
VERTEX
 8
W_RFEL_1
 10
-16.7239
 20
-2.6679
 30
21.475
 70
192
 0
VERTEX
 8
W_RFEL_1
 10
-16.7199
 20
-2.67
 30
21.475
 70
192
 0
VERTEX
 8
W_RFEL_1
 10
-16.7156
 20
-2.6716
 30
21.475
 70
192
 0
VERTEX
 8
W_RFEL_1
 10
-16.7112
 20
-2.6728
 30
21.475
 70
192
 0
VERTEX
 8
W_RFEL_1
 10
-16.7068
 20
-2.6735
 30
21.475
 70
192
 0
VERTEX
 8
W_RFEL_1
 10
-16.7022
 20
-2.6737
 30
21.475
 70
192
 0
VERTEX
 8
W_RFEL_1
 10
-16.6977
 20
-2.6735
 30
21.475
 70
192
 0
VERTEX
 8
W_RFEL_1
 10
-16.6932
 20
-2.6728
 30
21.475
 70
192
 0
VERTEX
 8
W_RFEL_1
 10
-16.6889
 20
-2.6716
 30
21.475
 70
192
 0
VERTEX
 8
W_RFEL_1
 10
-16.6858
 20
-2.6674
 30
21.4794
 70
192
 0
VERTEX
 8
W_RFEL_1
 10
-16.3344
 20
-2.2622
 30
21.4794
 70
192
 0
VERTEX
 8
W_RFEL_1
 10
-15.7863
 20
-2.0068
 30
21.4794
 70
192
 0
VERTEX
 8
W_RFEL_1
 10
-15.7826
 20
-2.0049
 30
21.4794
 70
192
 0
VERTEX
 8
W_RFEL_1
 10
-15.779
 20
-2.0026
 30
21.4794
 70
192
 0
VERTEX
 8
W_RFEL_1
 10
-15.7757
 20
-1.9999
 30
21.4794
 70
192
 0
VERTEX
 8
W_RFEL_1
 10
-15.7727
 20
-1.9969
 30
21.4794
 70
192
 0
VERTEX
 8
W_RFEL_1
 10
-15.7701
 20
-1.9937
 30
21.4794
 70
192
 0
VERTEX
 8
W_RFEL_1
 10
-15.7677
 20
-1.9901
 30
21.4794
 70
192
 0
VERTEX
 8
W_RFEL_1
 10
-15.7658
 20
-1.9863
 30
21.4794
 70
192
 0
VERTEX
 8
W_RFEL_1
 10
-15.7643
 20
-1.9824
 30
21.4794
 70
192
 0
VERTEX
 8
W_RFEL_1
 10
-15.7632
 20
-1.9783
 30
21.4794
 70
192
 0
VERTEX
 8
W_RFEL_1
 10
-15.7625
 20
-1.9741
 30
21.4794
 70
192
 0
VERTEX
 8
W_RFEL_1
 10
-15.7623
 20
-1.9699
 30
21.4794
 70
192
 0
VERTEX
 8
W_RFEL_1
 10
-15.7625
 20
-1.9657
 30
21.4794
 70
192
 0
VERTEX
 8
W_RFEL_1
 10
-15.7632
 20
-1.9615
 30
21.4794
 70
192
 0
VERTEX
 8
W_RFEL_1
 10
-15.7643
 20
-1.9574
 30
21.4794
 70
192
 0
VERTEX
 8
W_RFEL_1
 10
-15.7658
 20
-1.9534
 30
21.4794
 70
192
 0
VERTEX
 8
W_RFEL_1
 10
-16.0449
 20
-1.7012
 30
21.4794
 70
192
 0
VERTEX
 8
W_RFEL_1
 10
-16.0468
 20
-1.6975
 30
21.4794
 70
192
 0
VERTEX
 8
W_RFEL_1
 10
-16.0491
 20
-1.6939
 30
21.4794
 70
192
 0
VERTEX
 8
W_RFEL_1
 10
-16.0518
 20
-1.6906
 30
21.4794
 70
192
 0
VERTEX
 8
W_RFEL_1
 10
-16.0548
 20
-1.6876
 30
21.4794
 70
192
 0
VERTEX
 8
W_RFEL_1
 10
-16.058
 20
-1.685
 30
21.4794
 70
192
 0
VERTEX
 8
W_RFEL_1
 10
-16.0616
 20
-1.6827
 30
21.4794
 70
192
 0
VERTEX
 8
W_RFEL_1
 10
-16.0654
 20
-1.6807
 30
21.4794
 70
192
 0
VERTEX
 8
W_RFEL_1
 10
-16.0693
 20
-1.6792
 30
21.4794
 70
192
 0
VERTEX
 8
W_RFEL_1
 10
-16.0734
 20
-1.6781
 30
21.4794
 70
192
 0
VERTEX
 8
W_RFEL_1
 10
-16.0776
 20
-1.6775
 30
21.4794
 70
192
 0
VERTEX
 8
W_RFEL_1
 10
-16.0818
 20
-1.6772
 30
21.4794
 70
192
 0
VERTEX
 8
W_RFEL_1
 10
-16.0861
 20
-1.6775
 30
21.4794
 70
192
 0
VERTEX
 8
W_RFEL_1
 10
-16.0902
 20
-1.6781
 30
21.4794
 70
192
 0
VERTEX
 8
W_RFEL_1
 10
-16.0943
 20
-1.6792
 30
21.4794
 70
192
 0
VERTEX
 8
W_RFEL_1
 10
-16.0983
 20
-1.6807
 30
21.4794
 70
192
 0
VERTEX
 8
W_RFEL_1
 10
-16.408
 20
-2.0969
 30
21.4794
 70
192
 0
VERTEX
 8
W_RFEL_1
 10
-16.7594
 20
-2.5021
 30
21.4794
 70
192
 0
VERTEX
 8
W_RFEL_1
 10
-16.7631
 20
-2.5041
 30
21.4794
 70
192
 0
VERTEX
 8
W_RFEL_1
 10
-16.7667
 20
-2.5064
 30
21.4794
 70
192
 0
VERTEX
 8
W_RFEL_1
 10
-16.77
 20
-2.509
 30
21.4794
 70
192
 0
VERTEX
 8
W_RFEL_1
 10
-16.773
 20
-2.512
 30
21.4794
 70
192
 0
VERTEX
 8
W_RFEL_1
 10
-16.7756
 20
-2.5153
 30
21.4794
 70
192
 0
VERTEX
 8
W_RFEL_1
 10
-16.7779
 20
-2.5189
 30
21.4794
 70
192
 0
VERTEX
 8
W_RFEL_1
 10
-16.7799
 20
-2.5226
 30
21.4794
 70
192
 0
VERTEX
 8
W_RFEL_1
 10
-16.7814
 20
-2.5266
 30
21.4794
 70
192
 0
VERTEX
 8
W_RFEL_1
 10
-16.7825
 20
-2.5307
 30
21.4794
 70
192
 0
VERTEX
 8
W_RFEL_1
 10
-16.7831
 20
-2.5349
 30
21.4794
 70
192
 0
VERTEX
 8
W_RFEL_1
 10
-16.7834
 20
-2.5391
 30
21.4794
 70
192
 0
VERTEX
 8
W_RFEL_1
 10
-16.7831
 20
-2.5433
 30
21.4794
 70
192
 0
VERTEX
 8
W_RFEL_1
 10
-16.7825
 20
-2.5475
 30
21.4794
 70
192
 0
VERTEX
 8
W_RFEL_1
 10
-16.7814
 20
-2.5516
 30
21.4794
 70
192
 0
VERTEX
 8
W_RFEL_1
 10
-16.7799
 20
-2.5555
 30
21.4794
 70
192
 0
VERTEX
 8
W_RFEL_1
 10
-16.7392
 20
-2.6469
 30
21.4794
 70
192
 0
VERTEX
 8
W_RFEL_1
 10
-16.7373
 20
-2.6507
 30
21.4794
 70
192
 0
VERTEX
 8
W_RFEL_1
 10
-16.735
 20
-2.6542
 30
21.4794
 70
192
 0
VERTEX
 8
W_RFEL_1
 10
-16.7323
 20
-2.6575
 30
21.4794
 70
192
 0
VERTEX
 8
W_RFEL_1
 10
-16.7293
 20
-2.6605
 30
21.4794
 70
192
 0
VERTEX
 8
W_RFEL_1
 10
-16.726
 20
-2.6632
 30
21.4794
 70
192
 0
VERTEX
 8
W_RFEL_1
 10
-16.7225
 20
-2.6655
 30
21.4794
 70
192
 0
VERTEX
 8
W_RFEL_1
 10
-16.7187
 20
-2.6674
 30
21.4794
 70
192
 0
VERTEX
 8
W_RFEL_1
 10
-16.7147
 20
-2.6689
 30
21.4794
 70
192
 0
VERTEX
 8
W_RFEL_1
 10
-16.7106
 20
-2.67
 30
21.4794
 70
192
 0
VERTEX
 8
W_RFEL_1
 10
-16.7065
 20
-2.6707
 30
21.4794
 70
192
 0
VERTEX
 8
W_RFEL_1
 10
-16.7022
 20
-2.6709
 30
21.4794
 70
192
 0
VERTEX
 8
W_RFEL_1
 10
-16.698
 20
-2.6707
 30
21.4794
 70
192
 0
VERTEX
 8
W_RFEL_1
 10
-16.6938
 20
-2.67
 30
21.4794
 70
192
 0
VERTEX
 8
W_RFEL_1
 10
-16.6897
 20
-2.6689
 30
21.4794
 70
192
 0
VERTEX
 8
W_RFEL_1
 10
-16.6871
 20
-2.6644
 30
21.4834
 70
192
 0
VERTEX
 8
W_RFEL_1
 10
-16.3358
 20
-2.2591
 30
21.4834
 70
192
 0
VERTEX
 8
W_RFEL_1
 10
-15.7877
 20
-2.0038
 30
21.4834
 70
192
 0
VERTEX
 8
W_RFEL_1
 10
-15.7842
 20
-2.0021
 30
21.4834
 70
192
 0
VERTEX
 8
W_RFEL_1
 10
-15.7809
 20
-1.9999
 30
21.4834
 70
192
 0
VERTEX
 8
W_RFEL_1
 10
-15.7779
 20
-1.9975
 30
21.4834
 70
192
 0
VERTEX
 8
W_RFEL_1
 10
-15.7752
 20
-1.9947
 30
21.4834
 70
192
 0
VERTEX
 8
W_RFEL_1
 10
-15.7727
 20
-1.9917
 30
21.4834
 70
192
 0
VERTEX
 8
W_RFEL_1
 10
-15.7706
 20
-1.9885
 30
21.4834
 70
192
 0
VERTEX
 8
W_RFEL_1
 10
-15.7688
 20
-1.985
 30
21.4834
 70
192
 0
VERTEX
 8
W_RFEL_1
 10
-15.7674
 20
-1.9814
 30
21.4834
 70
192
 0
VERTEX
 8
W_RFEL_1
 10
-15.7664
 20
-1.9776
 30
21.4834
 70
192
 0
VERTEX
 8
W_RFEL_1
 10
-15.7658
 20
-1.9738
 30
21.4834
 70
192
 0
VERTEX
 8
W_RFEL_1
 10
-15.7656
 20
-1.9699
 30
21.4834
 70
192
 0
VERTEX
 8
W_RFEL_1
 10
-15.7658
 20
-1.966
 30
21.4834
 70
192
 0
VERTEX
 8
W_RFEL_1
 10
-15.7664
 20
-1.9622
 30
21.4834
 70
192
 0
VERTEX
 8
W_RFEL_1
 10
-15.7674
 20
-1.9584
 30
21.4834
 70
192
 0
VERTEX
 8
W_RFEL_1
 10
-15.7688
 20
-1.9548
 30
21.4834
 70
192
 0
VERTEX
 8
W_RFEL_1
 10
-16.0479
 20
-1.7026
 30
21.4834
 70
192
 0
VERTEX
 8
W_RFEL_1
 10
-16.0496
 20
-1.6991
 30
21.4834
 70
192
 0
VERTEX
 8
W_RFEL_1
 10
-16.0518
 20
-1.6958
 30
21.4834
 70
192
 0
VERTEX
 8
W_RFEL_1
 10
-16.0542
 20
-1.6928
 30
21.4834
 70
192
 0
VERTEX
 8
W_RFEL_1
 10
-16.057
 20
-1.6901
 30
21.4834
 70
192
 0
VERTEX
 8
W_RFEL_1
 10
-16.06
 20
-1.6876
 30
21.4834
 70
192
 0
VERTEX
 8
W_RFEL_1
 10
-16.0632
 20
-1.6855
 30
21.4834
 70
192
 0
VERTEX
 8
W_RFEL_1
 10
-16.0667
 20
-1.6837
 30
21.4834
 70
192
 0
VERTEX
 8
W_RFEL_1
 10
-16.0703
 20
-1.6823
 30
21.4834
 70
192
 0
VERTEX
 8
W_RFEL_1
 10
-16.0741
 20
-1.6813
 30
21.4834
 70
192
 0
VERTEX
 8
W_RFEL_1
 10
-16.0779
 20
-1.6807
 30
21.4834
 70
192
 0
VERTEX
 8
W_RFEL_1
 10
-16.0818
 20
-1.6805
 30
21.4834
 70
192
 0
VERTEX
 8
W_RFEL_1
 10
-16.0857
 20
-1.6807
 30
21.4834
 70
192
 0
VERTEX
 8
W_RFEL_1
 10
-16.0895
 20
-1.6813
 30
21.4834
 70
192
 0
VERTEX
 8
W_RFEL_1
 10
-16.0933
 20
-1.6823
 30
21.4834
 70
192
 0
VERTEX
 8
W_RFEL_1
 10
-16.0969
 20
-1.6837
 30
21.4834
 70
192
 0
VERTEX
 8
W_RFEL_1
 10
-16.4067
 20
-2.0999
 30
21.4834
 70
192
 0
VERTEX
 8
W_RFEL_1
 10
-16.758
 20
-2.5051
 30
21.4834
 70
192
 0
VERTEX
 8
W_RFEL_1
 10
-16.7615
 20
-2.5069
 30
21.4834
 70
192
 0
VERTEX
 8
W_RFEL_1
 10
-16.7648
 20
-2.509
 30
21.4834
 70
192
 0
VERTEX
 8
W_RFEL_1
 10
-16.7678
 20
-2.5115
 30
21.4834
 70
192
 0
VERTEX
 8
W_RFEL_1
 10
-16.7705
 20
-2.5142
 30
21.4834
 70
192
 0
VERTEX
 8
W_RFEL_1
 10
-16.773
 20
-2.5172
 30
21.4834
 70
192
 0
VERTEX
 8
W_RFEL_1
 10
-16.7751
 20
-2.5205
 30
21.4834
 70
192
 0
VERTEX
 8
W_RFEL_1
 10
-16.7769
 20
-2.524
 30
21.4834
 70
192
 0
VERTEX
 8
W_RFEL_1
 10
-16.7783
 20
-2.5276
 30
21.4834
 70
192
 0
VERTEX
 8
W_RFEL_1
 10
-16.7793
 20
-2.5314
 30
21.4834
 70
192
 0
VERTEX
 8
W_RFEL_1
 10
-16.7799
 20
-2.5352
 30
21.4834
 70
192
 0
VERTEX
 8
W_RFEL_1
 10
-16.7801
 20
-2.5391
 30
21.4834
 70
192
 0
VERTEX
 8
W_RFEL_1
 10
-16.7799
 20
-2.543
 30
21.4834
 70
192
 0
VERTEX
 8
W_RFEL_1
 10
-16.7793
 20
-2.5468
 30
21.4834
 70
192
 0
VERTEX
 8
W_RFEL_1
 10
-16.7783
 20
-2.5506
 30
21.4834
 70
192
 0
VERTEX
 8
W_RFEL_1
 10
-16.7769
 20
-2.5542
 30
21.4834
 70
192
 0
VERTEX
 8
W_RFEL_1
 10
-16.7362
 20
-2.6455
 30
21.4834
 70
192
 0
VERTEX
 8
W_RFEL_1
 10
-16.7344
 20
-2.649
 30
21.4834
 70
192
 0
VERTEX
 8
W_RFEL_1
 10
-16.7323
 20
-2.6523
 30
21.4834
 70
192
 0
VERTEX
 8
W_RFEL_1
 10
-16.7299
 20
-2.6553
 30
21.4834
 70
192
 0
VERTEX
 8
W_RFEL_1
 10
-16.7271
 20
-2.658
 30
21.4834
 70
192
 0
VERTEX
 8
W_RFEL_1
 10
-16.7241
 20
-2.6605
 30
21.4834
 70
192
 0
VERTEX
 8
W_RFEL_1
 10
-16.7208
 20
-2.6626
 30
21.4834
 70
192
 0
VERTEX
 8
W_RFEL_1
 10
-16.7174
 20
-2.6644
 30
21.4834
 70
192
 0
VERTEX
 8
W_RFEL_1
 10
-16.7137
 20
-2.6658
 30
21.4834
 70
192
 0
VERTEX
 8
W_RFEL_1
 10
-16.71
 20
-2.6668
 30
21.4834
 70
192
 0
VERTEX
 8
W_RFEL_1
 10
-16.7061
 20
-2.6674
 30
21.4834
 70
192
 0
VERTEX
 8
W_RFEL_1
 10
-16.7022
 20
-2.6676
 30
21.4834
 70
192
 0
VERTEX
 8
W_RFEL_1
 10
-16.6984
 20
-2.6674
 30
21.4834
 70
192
 0
VERTEX
 8
W_RFEL_1
 10
-16.6945
 20
-2.6668
 30
21.4834
 70
192
 0
VERTEX
 8
W_RFEL_1
 10
-16.6908
 20
-2.6658
 30
21.4834
 70
192
 0
VERTEX
 8
W_RFEL_1
 10
-16.6886
 20
-2.661
 30
21.4871
 70
192
 0
VERTEX
 8
W_RFEL_1
 10
-16.3373
 20
-2.2558
 30
21.4871
 70
192
 0
VERTEX
 8
W_RFEL_1
 10
-15.7892
 20
-2.0004
 30
21.4871
 70
192
 0
VERTEX
 8
W_RFEL_1
 10
-15.7861
 20
-1.9989
 30
21.4871
 70
192
 0
VERTEX
 8
W_RFEL_1
 10
-15.7831
 20
-1.9969
 30
21.4871
 70
192
 0
VERTEX
 8
W_RFEL_1
 10
-15.7804
 20
-1.9947
 30
21.4871
 70
192
 0
VERTEX
 8
W_RFEL_1
 10
-15.7779
 20
-1.9923
 30
21.4871
 70
192
 0
VERTEX
 8
W_RFEL_1
 10
-15.7757
 20
-1.9895
 30
21.4871
 70
192
 0
VERTEX
 8
W_RFEL_1
 10
-15.7738
 20
-1.9866
 30
21.4871
 70
192
 0
VERTEX
 8
W_RFEL_1
 10
-15.7722
 20
-1.9835
 30
21.4871
 70
192
 0
VERTEX
 8
W_RFEL_1
 10
-15.771
 20
-1.9802
 30
21.4871
 70
192
 0
VERTEX
 8
W_RFEL_1
 10
-15.7701
 20
-1.9768
 30
21.4871
 70
192
 0
VERTEX
 8
W_RFEL_1
 10
-15.7695
 20
-1.9734
 30
21.4871
 70
192
 0
VERTEX
 8
W_RFEL_1
 10
-15.7693
 20
-1.9699
 30
21.4871
 70
192
 0
VERTEX
 8
W_RFEL_1
 10
-15.7695
 20
-1.9664
 30
21.4871
 70
192
 0
VERTEX
 8
W_RFEL_1
 10
-15.7701
 20
-1.9629
 30
21.4871
 70
192
 0
VERTEX
 8
W_RFEL_1
 10
-15.771
 20
-1.9595
 30
21.4871
 70
192
 0
VERTEX
 8
W_RFEL_1
 10
-15.7722
 20
-1.9563
 30
21.4871
 70
192
 0
VERTEX
 8
W_RFEL_1
 10
-16.0513
 20
-1.7041
 30
21.4871
 70
192
 0
VERTEX
 8
W_RFEL_1
 10
-16.0528
 20
-1.701
 30
21.4871
 70
192
 0
VERTEX
 8
W_RFEL_1
 10
-16.0548
 20
-1.698
 30
21.4871
 70
192
 0
VERTEX
 8
W_RFEL_1
 10
-16.057
 20
-1.6953
 30
21.4871
 70
192
 0
VERTEX
 8
W_RFEL_1
 10
-16.0594
 20
-1.6928
 30
21.4871
 70
192
 0
VERTEX
 8
W_RFEL_1
 10
-16.0622
 20
-1.6906
 30
21.4871
 70
192
 0
VERTEX
 8
W_RFEL_1
 10
-16.0651
 20
-1.6887
 30
21.4871
 70
192
 0
VERTEX
 8
W_RFEL_1
 10
-16.0682
 20
-1.6871
 30
21.4871
 70
192
 0
VERTEX
 8
W_RFEL_1
 10
-16.0715
 20
-1.6859
 30
21.4871
 70
192
 0
VERTEX
 8
W_RFEL_1
 10
-16.0749
 20
-1.685
 30
21.4871
 70
192
 0
VERTEX
 8
W_RFEL_1
 10
-16.0783
 20
-1.6844
 30
21.4871
 70
192
 0
VERTEX
 8
W_RFEL_1
 10
-16.0818
 20
-1.6842
 30
21.4871
 70
192
 0
VERTEX
 8
W_RFEL_1
 10
-16.0853
 20
-1.6844
 30
21.4871
 70
192
 0
VERTEX
 8
W_RFEL_1
 10
-16.0888
 20
-1.685
 30
21.4871
 70
192
 0
VERTEX
 8
W_RFEL_1
 10
-16.0922
 20
-1.6859
 30
21.4871
 70
192
 0
VERTEX
 8
W_RFEL_1
 10
-16.0954
 20
-1.6871
 30
21.4871
 70
192
 0
VERTEX
 8
W_RFEL_1
 10
-16.4052
 20
-2.1033
 30
21.4871
 70
192
 0
VERTEX
 8
W_RFEL_1
 10
-16.7565
 20
-2.5085
 30
21.4871
 70
192
 0
VERTEX
 8
W_RFEL_1
 10
-16.7596
 20
-2.5101
 30
21.4871
 70
192
 0
VERTEX
 8
W_RFEL_1
 10
-16.7626
 20
-2.512
 30
21.4871
 70
192
 0
VERTEX
 8
W_RFEL_1
 10
-16.7653
 20
-2.5142
 30
21.4871
 70
192
 0
VERTEX
 8
W_RFEL_1
 10
-16.7678
 20
-2.5167
 30
21.4871
 70
192
 0
VERTEX
 8
W_RFEL_1
 10
-16.77
 20
-2.5194
 30
21.4871
 70
192
 0
VERTEX
 8
W_RFEL_1
 10
-16.7719
 20
-2.5224
 30
21.4871
 70
192
 0
VERTEX
 8
W_RFEL_1
 10
-16.7735
 20
-2.5255
 30
21.4871
 70
192
 0
VERTEX
 8
W_RFEL_1
 10
-16.7747
 20
-2.5287
 30
21.4871
 70
192
 0
VERTEX
 8
W_RFEL_1
 10
-16.7756
 20
-2.5321
 30
21.4871
 70
192
 0
VERTEX
 8
W_RFEL_1
 10
-16.7762
 20
-2.5356
 30
21.4871
 70
192
 0
VERTEX
 8
W_RFEL_1
 10
-16.7764
 20
-2.5391
 30
21.4871
 70
192
 0
VERTEX
 8
W_RFEL_1
 10
-16.7762
 20
-2.5426
 30
21.4871
 70
192
 0
VERTEX
 8
W_RFEL_1
 10
-16.7756
 20
-2.546
 30
21.4871
 70
192
 0
VERTEX
 8
W_RFEL_1
 10
-16.7747
 20
-2.5494
 30
21.4871
 70
192
 0
VERTEX
 8
W_RFEL_1
 10
-16.7735
 20
-2.5527
 30
21.4871
 70
192
 0
VERTEX
 8
W_RFEL_1
 10
-16.7328
 20
-2.644
 30
21.4871
 70
192
 0
VERTEX
 8
W_RFEL_1
 10
-16.7312
 20
-2.6472
 30
21.4871
 70
192
 0
VERTEX
 8
W_RFEL_1
 10
-16.7293
 20
-2.6501
 30
21.4871
 70
192
 0
VERTEX
 8
W_RFEL_1
 10
-16.7271
 20
-2.6528
 30
21.4871
 70
192
 0
VERTEX
 8
W_RFEL_1
 10
-16.7246
 20
-2.6553
 30
21.4871
 70
192
 0
VERTEX
 8
W_RFEL_1
 10
-16.7219
 20
-2.6575
 30
21.4871
 70
192
 0
VERTEX
 8
W_RFEL_1
 10
-16.719
 20
-2.6594
 30
21.4871
 70
192
 0
VERTEX
 8
W_RFEL_1
 10
-16.7158
 20
-2.661
 30
21.4871
 70
192
 0
VERTEX
 8
W_RFEL_1
 10
-16.7126
 20
-2.6623
 30
21.4871
 70
192
 0
VERTEX
 8
W_RFEL_1
 10
-16.7092
 20
-2.6632
 30
21.4871
 70
192
 0
VERTEX
 8
W_RFEL_1
 10
-16.7057
 20
-2.6637
 30
21.4871
 70
192
 0
VERTEX
 8
W_RFEL_1
 10
-16.7022
 20
-2.6639
 30
21.4871
 70
192
 0
VERTEX
 8
W_RFEL_1
 10
-16.6987
 20
-2.6637
 30
21.4871
 70
192
 0
VERTEX
 8
W_RFEL_1
 10
-16.6953
 20
-2.6632
 30
21.4871
 70
192
 0
VERTEX
 8
W_RFEL_1
 10
-16.6919
 20
-2.6623
 30
21.4871
 70
192
 0
VERTEX
 8
W_RFEL_1
 10
-16.6903
 20
-2.6573
 30
21.4904
 70
192
 0
VERTEX
 8
W_RFEL_1
 10
-16.3389
 20
-2.2521
 30
21.4904
 70
192
 0
VERTEX
 8
W_RFEL_1
 10
-15.7908
 20
-1.9967
 30
21.4904
 70
192
 0
VERTEX
 8
W_RFEL_1
 10
-15.7881
 20
-1.9953
 30
21.4904
 70
192
 0
VERTEX
 8
W_RFEL_1
 10
-15.7855
 20
-1.9937
 30
21.4904
 70
192
 0
VERTEX
 8
W_RFEL_1
 10
-15.7831
 20
-1.9917
 30
21.4904
 70
192
 0
VERTEX
 8
W_RFEL_1
 10
-15.7809
 20
-1.9895
 30
21.4904
 70
192
 0
VERTEX
 8
W_RFEL_1
 10
-15.779
 20
-1.9872
 30
21.4904
 70
192
 0
VERTEX
 8
W_RFEL_1
 10
-15.7773
 20
-1.9846
 30
21.4904
 70
192
 0
VERTEX
 8
W_RFEL_1
 10
-15.7759
 20
-1.9818
 30
21.4904
 70
192
 0
VERTEX
 8
W_RFEL_1
 10
-15.7748
 20
-1.979
 30
21.4904
 70
192
 0
VERTEX
 8
W_RFEL_1
 10
-15.774
 20
-1.976
 30
21.4904
 70
192
 0
VERTEX
 8
W_RFEL_1
 10
-15.7736
 20
-1.973
 30
21.4904
 70
192
 0
VERTEX
 8
W_RFEL_1
 10
-15.7734
 20
-1.9699
 30
21.4904
 70
192
 0
VERTEX
 8
W_RFEL_1
 10
-15.7736
 20
-1.9668
 30
21.4904
 70
192
 0
VERTEX
 8
W_RFEL_1
 10
-15.774
 20
-1.9638
 30
21.4904
 70
192
 0
VERTEX
 8
W_RFEL_1
 10
-15.7748
 20
-1.9608
 30
21.4904
 70
192
 0
VERTEX
 8
W_RFEL_1
 10
-15.7759
 20
-1.9579
 30
21.4904
 70
192
 0
VERTEX
 8
W_RFEL_1
 10
-16.055
 20
-1.7057
 30
21.4904
 70
192
 0
VERTEX
 8
W_RFEL_1
 10
-16.0564
 20
-1.703
 30
21.4904
 70
192
 0
VERTEX
 8
W_RFEL_1
 10
-16.058
 20
-1.7004
 30
21.4904
 70
192
 0
VERTEX
 8
W_RFEL_1
 10
-16.06
 20
-1.698
 30
21.4904
 70
192
 0
VERTEX
 8
W_RFEL_1
 10
-16.0622
 20
-1.6958
 30
21.4904
 70
192
 0
VERTEX
 8
W_RFEL_1
 10
-16.0645
 20
-1.6939
 30
21.4904
 70
192
 0
VERTEX
 8
W_RFEL_1
 10
-16.0671
 20
-1.6922
 30
21.4904
 70
192
 0
VERTEX
 8
W_RFEL_1
 10
-16.0699
 20
-1.6908
 30
21.4904
 70
192
 0
VERTEX
 8
W_RFEL_1
 10
-16.0727
 20
-1.6897
 30
21.4904
 70
192
 0
VERTEX
 8
W_RFEL_1
 10
-16.0757
 20
-1.6889
 30
21.4904
 70
192
 0
VERTEX
 8
W_RFEL_1
 10
-16.0787
 20
-1.6885
 30
21.4904
 70
192
 0
VERTEX
 8
W_RFEL_1
 10
-16.0818
 20
-1.6883
 30
21.4904
 70
192
 0
VERTEX
 8
W_RFEL_1
 10
-16.0849
 20
-1.6885
 30
21.4904
 70
192
 0
VERTEX
 8
W_RFEL_1
 10
-16.0879
 20
-1.6889
 30
21.4904
 70
192
 0
VERTEX
 8
W_RFEL_1
 10
-16.0909
 20
-1.6897
 30
21.4904
 70
192
 0
VERTEX
 8
W_RFEL_1
 10
-16.0938
 20
-1.6908
 30
21.4904
 70
192
 0
VERTEX
 8
W_RFEL_1
 10
-16.4035
 20
-2.107
 30
21.4904
 70
192
 0
VERTEX
 8
W_RFEL_1
 10
-16.7549
 20
-2.5122
 30
21.4904
 70
192
 0
VERTEX
 8
W_RFEL_1
 10
-16.7576
 20
-2.5136
 30
21.4904
 70
192
 0
VERTEX
 8
W_RFEL_1
 10
-16.7602
 20
-2.5153
 30
21.4904
 70
192
 0
VERTEX
 8
W_RFEL_1
 10
-16.7626
 20
-2.5172
 30
21.4904
 70
192
 0
VERTEX
 8
W_RFEL_1
 10
-16.7648
 20
-2.5194
 30
21.4904
 70
192
 0
VERTEX
 8
W_RFEL_1
 10
-16.7667
 20
-2.5218
 30
21.4904
 70
192
 0
VERTEX
 8
W_RFEL_1
 10
-16.7684
 20
-2.5244
 30
21.4904
 70
192
 0
VERTEX
 8
W_RFEL_1
 10
-16.7698
 20
-2.5271
 30
21.4904
 70
192
 0
VERTEX
 8
W_RFEL_1
 10
-16.7709
 20
-2.53
 30
21.4904
 70
192
 0
VERTEX
 8
W_RFEL_1
 10
-16.7717
 20
-2.533
 30
21.4904
 70
192
 0
VERTEX
 8
W_RFEL_1
 10
-16.7721
 20
-2.536
 30
21.4904
 70
192
 0
VERTEX
 8
W_RFEL_1
 10
-16.7723
 20
-2.5391
 30
21.4904
 70
192
 0
VERTEX
 8
W_RFEL_1
 10
-16.7721
 20
-2.5422
 30
21.4904
 70
192
 0
VERTEX
 8
W_RFEL_1
 10
-16.7717
 20
-2.5452
 30
21.4904
 70
192
 0
VERTEX
 8
W_RFEL_1
 10
-16.7709
 20
-2.5482
 30
21.4904
 70
192
 0
VERTEX
 8
W_RFEL_1
 10
-16.7698
 20
-2.551
 30
21.4904
 70
192
 0
VERTEX
 8
W_RFEL_1
 10
-16.7291
 20
-2.6424
 30
21.4904
 70
192
 0
VERTEX
 8
W_RFEL_1
 10
-16.7277
 20
-2.6451
 30
21.4904
 70
192
 0
VERTEX
 8
W_RFEL_1
 10
-16.726
 20
-2.6477
 30
21.4904
 70
192
 0
VERTEX
 8
W_RFEL_1
 10
-16.7241
 20
-2.6501
 30
21.4904
 70
192
 0
VERTEX
 8
W_RFEL_1
 10
-16.7219
 20
-2.6523
 30
21.4904
 70
192
 0
VERTEX
 8
W_RFEL_1
 10
-16.7195
 20
-2.6542
 30
21.4904
 70
192
 0
VERTEX
 8
W_RFEL_1
 10
-16.7169
 20
-2.6559
 30
21.4904
 70
192
 0
VERTEX
 8
W_RFEL_1
 10
-16.7142
 20
-2.6573
 30
21.4904
 70
192
 0
VERTEX
 8
W_RFEL_1
 10
-16.7113
 20
-2.6584
 30
21.4904
 70
192
 0
VERTEX
 8
W_RFEL_1
 10
-16.7083
 20
-2.6592
 30
21.4904
 70
192
 0
VERTEX
 8
W_RFEL_1
 10
-16.7053
 20
-2.6597
 30
21.4904
 70
192
 0
VERTEX
 8
W_RFEL_1
 10
-16.7022
 20
-2.6598
 30
21.4904
 70
192
 0
VERTEX
 8
W_RFEL_1
 10
-16.6992
 20
-2.6597
 30
21.4904
 70
192
 0
VERTEX
 8
W_RFEL_1
 10
-16.6961
 20
-2.6592
 30
21.4904
 70
192
 0
VERTEX
 8
W_RFEL_1
 10
-16.6932
 20
-2.6584
 30
21.4904
 70
192
 0
VERTEX
 8
W_RFEL_1
 10
-16.6921
 20
-2.6533
 30
21.4933
 70
192
 0
VERTEX
 8
W_RFEL_1
 10
-16.3407
 20
-2.248
 30
21.4933
 70
192
 0
VERTEX
 8
W_RFEL_1
 10
-15.7926
 20
-1.9927
 30
21.4933
 70
192
 0
VERTEX
 8
W_RFEL_1
 10
-15.7903
 20
-1.9915
 30
21.4933
 70
192
 0
VERTEX
 8
W_RFEL_1
 10
-15.7881
 20
-1.9901
 30
21.4933
 70
192
 0
VERTEX
 8
W_RFEL_1
 10
-15.7861
 20
-1.9885
 30
21.4933
 70
192
 0
VERTEX
 8
W_RFEL_1
 10
-15.7842
 20
-1.9866
 30
21.4933
 70
192
 0
VERTEX
 8
W_RFEL_1
 10
-15.7826
 20
-1.9846
 30
21.4933
 70
192
 0
VERTEX
 8
W_RFEL_1
 10
-15.7811
 20
-1.9824
 30
21.4933
 70
192
 0
VERTEX
 8
W_RFEL_1
 10
-15.7799
 20
-1.9801
 30
21.4933
 70
192
 0
VERTEX
 8
W_RFEL_1
 10
-15.779
 20
-1.9776
 30
21.4933
 70
192
 0
VERTEX
 8
W_RFEL_1
 10
-15.7783
 20
-1.9751
 30
21.4933
 70
192
 0
VERTEX
 8
W_RFEL_1
 10
-15.7779
 20
-1.9725
 30
21.4933
 70
192
 0
VERTEX
 8
W_RFEL_1
 10
-15.7778
 20
-1.9699
 30
21.4933
 70
192
 0
VERTEX
 8
W_RFEL_1
 10
-15.7779
 20
-1.9673
 30
21.4933
 70
192
 0
VERTEX
 8
W_RFEL_1
 10
-15.7783
 20
-1.9647
 30
21.4933
 70
192
 0
VERTEX
 8
W_RFEL_1
 10
-15.779
 20
-1.9622
 30
21.4933
 70
192
 0
VERTEX
 8
W_RFEL_1
 10
-15.7799
 20
-1.9597
 30
21.4933
 70
192
 0
VERTEX
 8
W_RFEL_1
 10
-16.059
 20
-1.7075
 30
21.4933
 70
192
 0
VERTEX
 8
W_RFEL_1
 10
-16.0602
 20
-1.7052
 30
21.4933
 70
192
 0
VERTEX
 8
W_RFEL_1
 10
-16.0616
 20
-1.703
 30
21.4933
 70
192
 0
VERTEX
 8
W_RFEL_1
 10
-16.0632
 20
-1.701
 30
21.4933
 70
192
 0
VERTEX
 8
W_RFEL_1
 10
-16.0651
 20
-1.6991
 30
21.4933
 70
192
 0
VERTEX
 8
W_RFEL_1
 10
-16.0671
 20
-1.6975
 30
21.4933
 70
192
 0
VERTEX
 8
W_RFEL_1
 10
-16.0693
 20
-1.696
 30
21.4933
 70
192
 0
VERTEX
 8
W_RFEL_1
 10
-16.0717
 20
-1.6948
 30
21.4933
 70
192
 0
VERTEX
 8
W_RFEL_1
 10
-16.0741
 20
-1.6939
 30
21.4933
 70
192
 0
VERTEX
 8
W_RFEL_1
 10
-16.0766
 20
-1.6932
 30
21.4933
 70
192
 0
VERTEX
 8
W_RFEL_1
 10
-16.0792
 20
-1.6928
 30
21.4933
 70
192
 0
VERTEX
 8
W_RFEL_1
 10
-16.0818
 20
-1.6927
 30
21.4933
 70
192
 0
VERTEX
 8
W_RFEL_1
 10
-16.0844
 20
-1.6928
 30
21.4933
 70
192
 0
VERTEX
 8
W_RFEL_1
 10
-16.087
 20
-1.6932
 30
21.4933
 70
192
 0
VERTEX
 8
W_RFEL_1
 10
-16.0895
 20
-1.6939
 30
21.4933
 70
192
 0
VERTEX
 8
W_RFEL_1
 10
-16.092
 20
-1.6948
 30
21.4933
 70
192
 0
VERTEX
 8
W_RFEL_1
 10
-16.4017
 20
-2.111
 30
21.4933
 70
192
 0
VERTEX
 8
W_RFEL_1
 10
-16.7531
 20
-2.5162
 30
21.4933
 70
192
 0
VERTEX
 8
W_RFEL_1
 10
-16.7554
 20
-2.5174
 30
21.4933
 70
192
 0
VERTEX
 8
W_RFEL_1
 10
-16.7576
 20
-2.5189
 30
21.4933
 70
192
 0
VERTEX
 8
W_RFEL_1
 10
-16.7596
 20
-2.5205
 30
21.4933
 70
192
 0
VERTEX
 8
W_RFEL_1
 10
-16.7615
 20
-2.5224
 30
21.4933
 70
192
 0
VERTEX
 8
W_RFEL_1
 10
-16.7631
 20
-2.5244
 30
21.4933
 70
192
 0
VERTEX
 8
W_RFEL_1
 10
-16.7646
 20
-2.5266
 30
21.4933
 70
192
 0
VERTEX
 8
W_RFEL_1
 10
-16.7658
 20
-2.5289
 30
21.4933
 70
192
 0
VERTEX
 8
W_RFEL_1
 10
-16.7667
 20
-2.5314
 30
21.4933
 70
192
 0
VERTEX
 8
W_RFEL_1
 10
-16.7674
 20
-2.5339
 30
21.4933
 70
192
 0
VERTEX
 8
W_RFEL_1
 10
-16.7678
 20
-2.5365
 30
21.4933
 70
192
 0
VERTEX
 8
W_RFEL_1
 10
-16.7679
 20
-2.5391
 30
21.4933
 70
192
 0
VERTEX
 8
W_RFEL_1
 10
-16.7678
 20
-2.5417
 30
21.4933
 70
192
 0
VERTEX
 8
W_RFEL_1
 10
-16.7674
 20
-2.5443
 30
21.4933
 70
192
 0
VERTEX
 8
W_RFEL_1
 10
-16.7667
 20
-2.5468
 30
21.4933
 70
192
 0
VERTEX
 8
W_RFEL_1
 10
-16.7658
 20
-2.5493
 30
21.4933
 70
192
 0
VERTEX
 8
W_RFEL_1
 10
-16.7251
 20
-2.6406
 30
21.4933
 70
192
 0
VERTEX
 8
W_RFEL_1
 10
-16.7239
 20
-2.6429
 30
21.4933
 70
192
 0
VERTEX
 8
W_RFEL_1
 10
-16.7225
 20
-2.6451
 30
21.4933
 70
192
 0
VERTEX
 8
W_RFEL_1
 10
-16.7208
 20
-2.6472
 30
21.4933
 70
192
 0
VERTEX
 8
W_RFEL_1
 10
-16.719
 20
-2.649
 30
21.4933
 70
192
 0
VERTEX
 8
W_RFEL_1
 10
-16.7169
 20
-2.6507
 30
21.4933
 70
192
 0
VERTEX
 8
W_RFEL_1
 10
-16.7147
 20
-2.6521
 30
21.4933
 70
192
 0
VERTEX
 8
W_RFEL_1
 10
-16.7124
 20
-2.6533
 30
21.4933
 70
192
 0
VERTEX
 8
W_RFEL_1
 10
-16.71
 20
-2.6542
 30
21.4933
 70
192
 0
VERTEX
 8
W_RFEL_1
 10
-16.7074
 20
-2.6549
 30
21.4933
 70
192
 0
VERTEX
 8
W_RFEL_1
 10
-16.7049
 20
-2.6553
 30
21.4933
 70
192
 0
VERTEX
 8
W_RFEL_1
 10
-16.7022
 20
-2.6554
 30
21.4933
 70
192
 0
VERTEX
 8
W_RFEL_1
 10
-16.6996
 20
-2.6553
 30
21.4933
 70
192
 0
VERTEX
 8
W_RFEL_1
 10
-16.697
 20
-2.6549
 30
21.4933
 70
192
 0
VERTEX
 8
W_RFEL_1
 10
-16.6945
 20
-2.6542
 30
21.4933
 70
192
 0
VERTEX
 8
W_RFEL_1
 10
-16.694
 20
-2.649
 30
21.4957
 70
192
 0
VERTEX
 8
W_RFEL_1
 10
-16.3426
 20
-2.2438
 30
21.4957
 70
192
 0
VERTEX
 8
W_RFEL_1
 10
-15.7945
 20
-1.9885
 30
21.4957
 70
192
 0
VERTEX
 8
W_RFEL_1
 10
-15.7926
 20
-1.9875
 30
21.4957
 70
192
 0
VERTEX
 8
W_RFEL_1
 10
-15.7908
 20
-1.9863
 30
21.4957
 70
192
 0
VERTEX
 8
W_RFEL_1
 10
-15.7892
 20
-1.985
 30
21.4957
 70
192
 0
VERTEX
 8
W_RFEL_1
 10
-15.7877
 20
-1.9835
 30
21.4957
 70
192
 0
VERTEX
 8
W_RFEL_1
 10
-15.7863
 20
-1.9818
 30
21.4957
 70
192
 0
VERTEX
 8
W_RFEL_1
 10
-15.7852
 20
-1.9801
 30
21.4957
 70
192
 0
VERTEX
 8
W_RFEL_1
 10
-15.7842
 20
-1.9782
 30
21.4957
 70
192
 0
VERTEX
 8
W_RFEL_1
 10
-15.7834
 20
-1.9762
 30
21.4957
 70
192
 0
VERTEX
 8
W_RFEL_1
 10
-15.7829
 20
-1.9741
 30
21.4957
 70
192
 0
VERTEX
 8
W_RFEL_1
 10
-15.7826
 20
-1.972
 30
21.4957
 70
192
 0
VERTEX
 8
W_RFEL_1
 10
-15.7824
 20
-1.9699
 30
21.4957
 70
192
 0
VERTEX
 8
W_RFEL_1
 10
-15.7826
 20
-1.9678
 30
21.4957
 70
192
 0
VERTEX
 8
W_RFEL_1
 10
-15.7829
 20
-1.9657
 30
21.4957
 70
192
 0
VERTEX
 8
W_RFEL_1
 10
-15.7834
 20
-1.9636
 30
21.4957
 70
192
 0
VERTEX
 8
W_RFEL_1
 10
-15.7842
 20
-1.9616
 30
21.4957
 70
192
 0
VERTEX
 8
W_RFEL_1
 10
-16.0632
 20
-1.7094
 30
21.4957
 70
192
 0
VERTEX
 8
W_RFEL_1
 10
-16.0642
 20
-1.7075
 30
21.4957
 70
192
 0
VERTEX
 8
W_RFEL_1
 10
-16.0654
 20
-1.7057
 30
21.4957
 70
192
 0
VERTEX
 8
W_RFEL_1
 10
-16.0667
 20
-1.7041
 30
21.4957
 70
192
 0
VERTEX
 8
W_RFEL_1
 10
-16.0682
 20
-1.7026
 30
21.4957
 70
192
 0
VERTEX
 8
W_RFEL_1
 10
-16.0699
 20
-1.7012
 30
21.4957
 70
192
 0
VERTEX
 8
W_RFEL_1
 10
-16.0717
 20
-1.7001
 30
21.4957
 70
192
 0
VERTEX
 8
W_RFEL_1
 10
-16.0736
 20
-1.6991
 30
21.4957
 70
192
 0
VERTEX
 8
W_RFEL_1
 10
-16.0755
 20
-1.6983
 30
21.4957
 70
192
 0
VERTEX
 8
W_RFEL_1
 10
-16.0776
 20
-1.6978
 30
21.4957
 70
192
 0
VERTEX
 8
W_RFEL_1
 10
-16.0797
 20
-1.6975
 30
21.4957
 70
192
 0
VERTEX
 8
W_RFEL_1
 10
-16.0818
 20
-1.6973
 30
21.4957
 70
192
 0
VERTEX
 8
W_RFEL_1
 10
-16.0839
 20
-1.6975
 30
21.4957
 70
192
 0
VERTEX
 8
W_RFEL_1
 10
-16.0861
 20
-1.6978
 30
21.4957
 70
192
 0
VERTEX
 8
W_RFEL_1
 10
-16.0881
 20
-1.6983
 30
21.4957
 70
192
 0
VERTEX
 8
W_RFEL_1
 10
-16.0901
 20
-1.6991
 30
21.4957
 70
192
 0
VERTEX
 8
W_RFEL_1
 10
-16.3998
 20
-2.1153
 30
21.4957
 70
192
 0
VERTEX
 8
W_RFEL_1
 10
-16.7512
 20
-2.5205
 30
21.4957
 70
192
 0
VERTEX
 8
W_RFEL_1
 10
-16.7531
 20
-2.5215
 30
21.4957
 70
192
 0
VERTEX
 8
W_RFEL_1
 10
-16.7549
 20
-2.5226
 30
21.4957
 70
192
 0
VERTEX
 8
W_RFEL_1
 10
-16.7565
 20
-2.524
 30
21.4957
 70
192
 0
VERTEX
 8
W_RFEL_1
 10
-16.758
 20
-2.5255
 30
21.4957
 70
192
 0
VERTEX
 8
W_RFEL_1
 10
-16.7594
 20
-2.5271
 30
21.4957
 70
192
 0
VERTEX
 8
W_RFEL_1
 10
-16.7605
 20
-2.5289
 30
21.4957
 70
192
 0
VERTEX
 8
W_RFEL_1
 10
-16.7615
 20
-2.5308
 30
21.4957
 70
192
 0
VERTEX
 8
W_RFEL_1
 10
-16.7623
 20
-2.5328
 30
21.4957
 70
192
 0
VERTEX
 8
W_RFEL_1
 10
-16.7628
 20
-2.5349
 30
21.4957
 70
192
 0
VERTEX
 8
W_RFEL_1
 10
-16.7631
 20
-2.537
 30
21.4957
 70
192
 0
VERTEX
 8
W_RFEL_1
 10
-16.7632
 20
-2.5391
 30
21.4957
 70
192
 0
VERTEX
 8
W_RFEL_1
 10
-16.7631
 20
-2.5412
 30
21.4957
 70
192
 0
VERTEX
 8
W_RFEL_1
 10
-16.7628
 20
-2.5433
 30
21.4957
 70
192
 0
VERTEX
 8
W_RFEL_1
 10
-16.7623
 20
-2.5454
 30
21.4957
 70
192
 0
VERTEX
 8
W_RFEL_1
 10
-16.7615
 20
-2.5474
 30
21.4957
 70
192
 0
VERTEX
 8
W_RFEL_1
 10
-16.7208
 20
-2.6387
 30
21.4957
 70
192
 0
VERTEX
 8
W_RFEL_1
 10
-16.7199
 20
-2.6406
 30
21.4957
 70
192
 0
VERTEX
 8
W_RFEL_1
 10
-16.7187
 20
-2.6424
 30
21.4957
 70
192
 0
VERTEX
 8
W_RFEL_1
 10
-16.7174
 20
-2.644
 30
21.4957
 70
192
 0
VERTEX
 8
W_RFEL_1
 10
-16.7158
 20
-2.6455
 30
21.4957
 70
192
 0
VERTEX
 8
W_RFEL_1
 10
-16.7142
 20
-2.6469
 30
21.4957
 70
192
 0
VERTEX
 8
W_RFEL_1
 10
-16.7124
 20
-2.648
 30
21.4957
 70
192
 0
VERTEX
 8
W_RFEL_1
 10
-16.7105
 20
-2.649
 30
21.4957
 70
192
 0
VERTEX
 8
W_RFEL_1
 10
-16.7085
 20
-2.6498
 30
21.4957
 70
192
 0
VERTEX
 8
W_RFEL_1
 10
-16.7065
 20
-2.6503
 30
21.4957
 70
192
 0
VERTEX
 8
W_RFEL_1
 10
-16.7044
 20
-2.6507
 30
21.4957
 70
192
 0
VERTEX
 8
W_RFEL_1
 10
-16.7022
 20
-2.6508
 30
21.4957
 70
192
 0
VERTEX
 8
W_RFEL_1
 10
-16.7001
 20
-2.6507
 30
21.4957
 70
192
 0
VERTEX
 8
W_RFEL_1
 10
-16.698
 20
-2.6503
 30
21.4957
 70
192
 0
VERTEX
 8
W_RFEL_1
 10
-16.696
 20
-2.6498
 30
21.4957
 70
192
 0
VERTEX
 8
W_RFEL_1
 10
-16.696
 20
-2.6446
 30
21.4975
 70
192
 0
VERTEX
 8
W_RFEL_1
 10
-16.3446
 20
-2.2393
 30
21.4975
 70
192
 0
VERTEX
 8
W_RFEL_1
 10
-15.7965
 20
-1.984
 30
21.4975
 70
192
 0
VERTEX
 8
W_RFEL_1
 10
-15.7951
 20
-1.9833
 30
21.4975
 70
192
 0
VERTEX
 8
W_RFEL_1
 10
-15.7937
 20
-1.9824
 30
21.4975
 70
192
 0
VERTEX
 8
W_RFEL_1
 10
-15.7924
 20
-1.9814
 30
21.4975
 70
192
 0
VERTEX
 8
W_RFEL_1
 10
-15.7913
 20
-1.9802
 30
21.4975
 70
192
 0
VERTEX
 8
W_RFEL_1
 10
-15.7903
 20
-1.979
 30
21.4975
 70
192
 0
VERTEX
 8
W_RFEL_1
 10
-15.7894
 20
-1.9776
 30
21.4975
 70
192
 0
VERTEX
 8
W_RFEL_1
 10
-15.7887
 20
-1.9762
 30
21.4975
 70
192
 0
VERTEX
 8
W_RFEL_1
 10
-15.7881
 20
-1.9747
 30
21.4975
 70
192
 0
VERTEX
 8
W_RFEL_1
 10
-15.7877
 20
-1.9731
 30
21.4975
 70
192
 0
VERTEX
 8
W_RFEL_1
 10
-15.7874
 20
-1.9715
 30
21.4975
 70
192
 0
VERTEX
 8
W_RFEL_1
 10
-15.7873
 20
-1.9699
 30
21.4975
 70
192
 0
VERTEX
 8
W_RFEL_1
 10
-15.7874
 20
-1.9683
 30
21.4975
 70
192
 0
VERTEX
 8
W_RFEL_1
 10
-15.7877
 20
-1.9667
 30
21.4975
 70
192
 0
VERTEX
 8
W_RFEL_1
 10
-15.7881
 20
-1.9651
 30
21.4975
 70
192
 0
VERTEX
 8
W_RFEL_1
 10
-15.7887
 20
-1.9636
 30
21.4975
 70
192
 0
VERTEX
 8
W_RFEL_1
 10
-16.0677
 20
-1.7114
 30
21.4975
 70
192
 0
VERTEX
 8
W_RFEL_1
 10
-16.0684
 20
-1.71
 30
21.4975
 70
192
 0
VERTEX
 8
W_RFEL_1
 10
-16.0693
 20
-1.7086
 30
21.4975
 70
192
 0
VERTEX
 8
W_RFEL_1
 10
-16.0703
 20
-1.7073
 30
21.4975
 70
192
 0
VERTEX
 8
W_RFEL_1
 10
-16.0715
 20
-1.7062
 30
21.4975
 70
192
 0
VERTEX
 8
W_RFEL_1
 10
-16.0727
 20
-1.7052
 30
21.4975
 70
192
 0
VERTEX
 8
W_RFEL_1
 10
-16.0741
 20
-1.7043
 30
21.4975
 70
192
 0
VERTEX
 8
W_RFEL_1
 10
-16.0755
 20
-1.7036
 30
21.4975
 70
192
 0
VERTEX
 8
W_RFEL_1
 10
-16.077
 20
-1.703
 30
21.4975
 70
192
 0
VERTEX
 8
W_RFEL_1
 10
-16.0786
 20
-1.7026
 30
21.4975
 70
192
 0
VERTEX
 8
W_RFEL_1
 10
-16.0802
 20
-1.7023
 30
21.4975
 70
192
 0
VERTEX
 8
W_RFEL_1
 10
-16.0818
 20
-1.7022
 30
21.4975
 70
192
 0
VERTEX
 8
W_RFEL_1
 10
-16.0834
 20
-1.7023
 30
21.4975
 70
192
 0
VERTEX
 8
W_RFEL_1
 10
-16.085
 20
-1.7026
 30
21.4975
 70
192
 0
VERTEX
 8
W_RFEL_1
 10
-16.0866
 20
-1.703
 30
21.4975
 70
192
 0
VERTEX
 8
W_RFEL_1
 10
-16.0881
 20
-1.7036
 30
21.4975
 70
192
 0
VERTEX
 8
W_RFEL_1
 10
-16.3978
 20
-2.1197
 30
21.4975
 70
192
 0
VERTEX
 8
W_RFEL_1
 10
-16.7492
 20
-2.525
 30
21.4975
 70
192
 0
VERTEX
 8
W_RFEL_1
 10
-16.7506
 20
-2.5257
 30
21.4975
 70
192
 0
VERTEX
 8
W_RFEL_1
 10
-16.752
 20
-2.5266
 30
21.4975
 70
192
 0
VERTEX
 8
W_RFEL_1
 10
-16.7533
 20
-2.5276
 30
21.4975
 70
192
 0
VERTEX
 8
W_RFEL_1
 10
-16.7544
 20
-2.5287
 30
21.4975
 70
192
 0
VERTEX
 8
W_RFEL_1
 10
-16.7554
 20
-2.53
 30
21.4975
 70
192
 0
VERTEX
 8
W_RFEL_1
 10
-16.7563
 20
-2.5314
 30
21.4975
 70
192
 0
VERTEX
 8
W_RFEL_1
 10
-16.757
 20
-2.5328
 30
21.4975
 70
192
 0
VERTEX
 8
W_RFEL_1
 10
-16.7576
 20
-2.5343
 30
21.4975
 70
192
 0
VERTEX
 8
W_RFEL_1
 10
-16.758
 20
-2.5359
 30
21.4975
 70
192
 0
VERTEX
 8
W_RFEL_1
 10
-16.7583
 20
-2.5375
 30
21.4975
 70
192
 0
VERTEX
 8
W_RFEL_1
 10
-16.7584
 20
-2.5391
 30
21.4975
 70
192
 0
VERTEX
 8
W_RFEL_1
 10
-16.7583
 20
-2.5407
 30
21.4975
 70
192
 0
VERTEX
 8
W_RFEL_1
 10
-16.758
 20
-2.5423
 30
21.4975
 70
192
 0
VERTEX
 8
W_RFEL_1
 10
-16.7576
 20
-2.5439
 30
21.4975
 70
192
 0
VERTEX
 8
W_RFEL_1
 10
-16.757
 20
-2.5454
 30
21.4975
 70
192
 0
VERTEX
 8
W_RFEL_1
 10
-16.7164
 20
-2.6367
 30
21.4975
 70
192
 0
VERTEX
 8
W_RFEL_1
 10
-16.7156
 20
-2.6382
 30
21.4975
 70
192
 0
VERTEX
 8
W_RFEL_1
 10
-16.7147
 20
-2.6395
 30
21.4975
 70
192
 0
VERTEX
 8
W_RFEL_1
 10
-16.7137
 20
-2.6408
 30
21.4975
 70
192
 0
VERTEX
 8
W_RFEL_1
 10
-16.7126
 20
-2.6419
 30
21.4975
 70
192
 0
VERTEX
 8
W_RFEL_1
 10
-16.7113
 20
-2.6429
 30
21.4975
 70
192
 0
VERTEX
 8
W_RFEL_1
 10
-16.71
 20
-2.6438
 30
21.4975
 70
192
 0
VERTEX
 8
W_RFEL_1
 10
-16.7085
 20
-2.6446
 30
21.4975
 70
192
 0
VERTEX
 8
W_RFEL_1
 10
-16.707
 20
-2.6451
 30
21.4975
 70
192
 0
VERTEX
 8
W_RFEL_1
 10
-16.7055
 20
-2.6455
 30
21.4975
 70
192
 0
VERTEX
 8
W_RFEL_1
 10
-16.7039
 20
-2.6458
 30
21.4975
 70
192
 0
VERTEX
 8
W_RFEL_1
 10
-16.7022
 20
-2.6459
 30
21.4975
 70
192
 0
VERTEX
 8
W_RFEL_1
 10
-16.7006
 20
-2.6458
 30
21.4975
 70
192
 0
VERTEX
 8
W_RFEL_1
 10
-16.699
 20
-2.6455
 30
21.4975
 70
192
 0
VERTEX
 8
W_RFEL_1
 10
-16.6975
 20
-2.6451
 30
21.4975
 70
192
 0
VERTEX
 8
W_RFEL_1
 10
-16.698
 20
-2.6399
 30
21.4989
 70
192
 0
VERTEX
 8
W_RFEL_1
 10
-16.3467
 20
-2.2347
 30
21.4989
 70
192
 0
VERTEX
 8
W_RFEL_1
 10
-15.7986
 20
-1.9794
 30
21.4989
 70
192
 0
VERTEX
 8
W_RFEL_1
 10
-15.7976
 20
-1.9789
 30
21.4989
 70
192
 0
VERTEX
 8
W_RFEL_1
 10
-15.7967
 20
-1.9783
 30
21.4989
 70
192
 0
VERTEX
 8
W_RFEL_1
 10
-15.7958
 20
-1.9776
 30
21.4989
 70
192
 0
VERTEX
 8
W_RFEL_1
 10
-15.7951
 20
-1.9768
 30
21.4989
 70
192
 0
VERTEX
 8
W_RFEL_1
 10
-15.7944
 20
-1.976
 30
21.4989
 70
192
 0
VERTEX
 8
W_RFEL_1
 10
-15.7938
 20
-1.9751
 30
21.4989
 70
192
 0
VERTEX
 8
W_RFEL_1
 10
-15.7933
 20
-1.9741
 30
21.4989
 70
192
 0
VERTEX
 8
W_RFEL_1
 10
-15.7929
 20
-1.9731
 30
21.4989
 70
192
 0
VERTEX
 8
W_RFEL_1
 10
-15.7926
 20
-1.972
 30
21.4989
 70
192
 0
VERTEX
 8
W_RFEL_1
 10
-15.7924
 20
-1.971
 30
21.4989
 70
192
 0
VERTEX
 8
W_RFEL_1
 10
-15.7924
 20
-1.9699
 30
21.4989
 70
192
 0
VERTEX
 8
W_RFEL_1
 10
-15.7924
 20
-1.9688
 30
21.4989
 70
192
 0
VERTEX
 8
W_RFEL_1
 10
-15.7926
 20
-1.9677
 30
21.4989
 70
192
 0
VERTEX
 8
W_RFEL_1
 10
-15.7929
 20
-1.9667
 30
21.4989
 70
192
 0
VERTEX
 8
W_RFEL_1
 10
-15.7933
 20
-1.9657
 30
21.4989
 70
192
 0
VERTEX
 8
W_RFEL_1
 10
-16.0723
 20
-1.7135
 30
21.4989
 70
192
 0
VERTEX
 8
W_RFEL_1
 10
-16.0728
 20
-1.7125
 30
21.4989
 70
192
 0
VERTEX
 8
W_RFEL_1
 10
-16.0734
 20
-1.7116
 30
21.4989
 70
192
 0
VERTEX
 8
W_RFEL_1
 10
-16.0741
 20
-1.7107
 30
21.4989
 70
192
 0
VERTEX
 8
W_RFEL_1
 10
-16.0749
 20
-1.71
 30
21.4989
 70
192
 0
VERTEX
 8
W_RFEL_1
 10
-16.0757
 20
-1.7093
 30
21.4989
 70
192
 0
VERTEX
 8
W_RFEL_1
 10
-16.0766
 20
-1.7087
 30
21.4989
 70
192
 0
VERTEX
 8
W_RFEL_1
 10
-16.0776
 20
-1.7082
 30
21.4989
 70
192
 0
VERTEX
 8
W_RFEL_1
 10
-16.0786
 20
-1.7078
 30
21.4989
 70
192
 0
VERTEX
 8
W_RFEL_1
 10
-16.0797
 20
-1.7075
 30
21.4989
 70
192
 0
VERTEX
 8
W_RFEL_1
 10
-16.0807
 20
-1.7073
 30
21.4989
 70
192
 0
VERTEX
 8
W_RFEL_1
 10
-16.0818
 20
-1.7073
 30
21.4989
 70
192
 0
VERTEX
 8
W_RFEL_1
 10
-16.0829
 20
-1.7073
 30
21.4989
 70
192
 0
VERTEX
 8
W_RFEL_1
 10
-16.084
 20
-1.7075
 30
21.4989
 70
192
 0
VERTEX
 8
W_RFEL_1
 10
-16.085
 20
-1.7078
 30
21.4989
 70
192
 0
VERTEX
 8
W_RFEL_1
 10
-16.0861
 20
-1.7082
 30
21.4989
 70
192
 0
VERTEX
 8
W_RFEL_1
 10
-16.3958
 20
-2.1244
 30
21.4989
 70
192
 0
VERTEX
 8
W_RFEL_1
 10
-16.7471
 20
-2.5296
 30
21.4989
 70
192
 0
VERTEX
 8
W_RFEL_1
 10
-16.7481
 20
-2.5301
 30
21.4989
 70
192
 0
VERTEX
 8
W_RFEL_1
 10
-16.749
 20
-2.5307
 30
21.4989
 70
192
 0
VERTEX
 8
W_RFEL_1
 10
-16.7499
 20
-2.5314
 30
21.4989
 70
192
 0
VERTEX
 8
W_RFEL_1
 10
-16.7506
 20
-2.5321
 30
21.4989
 70
192
 0
VERTEX
 8
W_RFEL_1
 10
-16.7513
 20
-2.533
 30
21.4989
 70
192
 0
VERTEX
 8
W_RFEL_1
 10
-16.7519
 20
-2.5339
 30
21.4989
 70
192
 0
VERTEX
 8
W_RFEL_1
 10
-16.7524
 20
-2.5349
 30
21.4989
 70
192
 0
VERTEX
 8
W_RFEL_1
 10
-16.7528
 20
-2.5359
 30
21.4989
 70
192
 0
VERTEX
 8
W_RFEL_1
 10
-16.7531
 20
-2.5369
 30
21.4989
 70
192
 0
VERTEX
 8
W_RFEL_1
 10
-16.7533
 20
-2.538
 30
21.4989
 70
192
 0
VERTEX
 8
W_RFEL_1
 10
-16.7533
 20
-2.5391
 30
21.4989
 70
192
 0
VERTEX
 8
W_RFEL_1
 10
-16.7533
 20
-2.5402
 30
21.4989
 70
192
 0
VERTEX
 8
W_RFEL_1
 10
-16.7531
 20
-2.5412
 30
21.4989
 70
192
 0
VERTEX
 8
W_RFEL_1
 10
-16.7528
 20
-2.5423
 30
21.4989
 70
192
 0
VERTEX
 8
W_RFEL_1
 10
-16.7524
 20
-2.5433
 30
21.4989
 70
192
 0
VERTEX
 8
W_RFEL_1
 10
-16.7117
 20
-2.6347
 30
21.4989
 70
192
 0
VERTEX
 8
W_RFEL_1
 10
-16.7112
 20
-2.6356
 30
21.4989
 70
192
 0
VERTEX
 8
W_RFEL_1
 10
-16.7106
 20
-2.6365
 30
21.4989
 70
192
 0
VERTEX
 8
W_RFEL_1
 10
-16.71
 20
-2.6374
 30
21.4989
 70
192
 0
VERTEX
 8
W_RFEL_1
 10
-16.7092
 20
-2.6382
 30
21.4989
 70
192
 0
VERTEX
 8
W_RFEL_1
 10
-16.7083
 20
-2.6388
 30
21.4989
 70
192
 0
VERTEX
 8
W_RFEL_1
 10
-16.7074
 20
-2.6394
 30
21.4989
 70
192
 0
VERTEX
 8
W_RFEL_1
 10
-16.7065
 20
-2.6399
 30
21.4989
 70
192
 0
VERTEX
 8
W_RFEL_1
 10
-16.7055
 20
-2.6403
 30
21.4989
 70
192
 0
VERTEX
 8
W_RFEL_1
 10
-16.7044
 20
-2.6406
 30
21.4989
 70
192
 0
VERTEX
 8
W_RFEL_1
 10
-16.7033
 20
-2.6408
 30
21.4989
 70
192
 0
VERTEX
 8
W_RFEL_1
 10
-16.7022
 20
-2.6408
 30
21.4989
 70
192
 0
VERTEX
 8
W_RFEL_1
 10
-16.7012
 20
-2.6408
 30
21.4989
 70
192
 0
VERTEX
 8
W_RFEL_1
 10
-16.7001
 20
-2.6406
 30
21.4989
 70
192
 0
VERTEX
 8
W_RFEL_1
 10
-16.699
 20
-2.6403
 30
21.4989
 70
192
 0
VERTEX
 8
W_RFEL_1
 10
-16.7001
 20
-2.6352
 30
21.4997
 70
192
 0
VERTEX
 8
W_RFEL_1
 10
-16.3488
 20
-2.23
 30
21.4997
 70
192
 0
VERTEX
 8
W_RFEL_1
 10
-15.8007
 20
-1.9747
 30
21.4997
 70
192
 0
VERTEX
 8
W_RFEL_1
 10
-15.8002
 20
-1.9744
 30
21.4997
 70
192
 0
VERTEX
 8
W_RFEL_1
 10
-15.7997
 20
-1.9741
 30
21.4997
 70
192
 0
VERTEX
 8
W_RFEL_1
 10
-15.7993
 20
-1.9738
 30
21.4997
 70
192
 0
VERTEX
 8
W_RFEL_1
 10
-15.7989
 20
-1.9734
 30
21.4997
 70
192
 0
VERTEX
 8
W_RFEL_1
 10
-15.7986
 20
-1.973
 30
21.4997
 70
192
 0
VERTEX
 8
W_RFEL_1
 10
-15.7983
 20
-1.9725
 30
21.4997
 70
192
 0
VERTEX
 8
W_RFEL_1
 10
-15.798
 20
-1.972
 30
21.4997
 70
192
 0
VERTEX
 8
W_RFEL_1
 10
-15.7978
 20
-1.9715
 30
21.4997
 70
192
 0
VERTEX
 8
W_RFEL_1
 10
-15.7977
 20
-1.971
 30
21.4997
 70
192
 0
VERTEX
 8
W_RFEL_1
 10
-15.7976
 20
-1.9704
 30
21.4997
 70
192
 0
VERTEX
 8
W_RFEL_1
 10
-15.7976
 20
-1.9699
 30
21.4997
 70
192
 0
VERTEX
 8
W_RFEL_1
 10
-15.7976
 20
-1.9693
 30
21.4997
 70
192
 0
VERTEX
 8
W_RFEL_1
 10
-15.7977
 20
-1.9688
 30
21.4997
 70
192
 0
VERTEX
 8
W_RFEL_1
 10
-15.7978
 20
-1.9683
 30
21.4997
 70
192
 0
VERTEX
 8
W_RFEL_1
 10
-15.798
 20
-1.9678
 30
21.4997
 70
192
 0
VERTEX
 8
W_RFEL_1
 10
-16.077
 20
-1.7156
 30
21.4997
 70
192
 0
VERTEX
 8
W_RFEL_1
 10
-16.0773
 20
-1.7151
 30
21.4997
 70
192
 0
VERTEX
 8
W_RFEL_1
 10
-16.0776
 20
-1.7146
 30
21.4997
 70
192
 0
VERTEX
 8
W_RFEL_1
 10
-16.0779
 20
-1.7142
 30
21.4997
 70
192
 0
VERTEX
 8
W_RFEL_1
 10
-16.0783
 20
-1.7138
 30
21.4997
 70
192
 0
VERTEX
 8
W_RFEL_1
 10
-16.0787
 20
-1.7135
 30
21.4997
 70
192
 0
VERTEX
 8
W_RFEL_1
 10
-16.0792
 20
-1.7132
 30
21.4997
 70
192
 0
VERTEX
 8
W_RFEL_1
 10
-16.0797
 20
-1.7129
 30
21.4997
 70
192
 0
VERTEX
 8
W_RFEL_1
 10
-16.0802
 20
-1.7127
 30
21.4997
 70
192
 0
VERTEX
 8
W_RFEL_1
 10
-16.0807
 20
-1.7126
 30
21.4997
 70
192
 0
VERTEX
 8
W_RFEL_1
 10
-16.0813
 20
-1.7125
 30
21.4997
 70
192
 0
VERTEX
 8
W_RFEL_1
 10
-16.0818
 20
-1.7125
 30
21.4997
 70
192
 0
VERTEX
 8
W_RFEL_1
 10
-16.0824
 20
-1.7125
 30
21.4997
 70
192
 0
VERTEX
 8
W_RFEL_1
 10
-16.0829
 20
-1.7126
 30
21.4997
 70
192
 0
VERTEX
 8
W_RFEL_1
 10
-16.0834
 20
-1.7127
 30
21.4997
 70
192
 0
VERTEX
 8
W_RFEL_1
 10
-16.0839
 20
-1.7129
 30
21.4997
 70
192
 0
VERTEX
 8
W_RFEL_1
 10
-16.3937
 20
-2.1291
 30
21.4997
 70
192
 0
VERTEX
 8
W_RFEL_1
 10
-16.745
 20
-2.5343
 30
21.4997
 70
192
 0
VERTEX
 8
W_RFEL_1
 10
-16.7455
 20
-2.5346
 30
21.4997
 70
192
 0
VERTEX
 8
W_RFEL_1
 10
-16.746
 20
-2.5349
 30
21.4997
 70
192
 0
VERTEX
 8
W_RFEL_1
 10
-16.7464
 20
-2.5352
 30
21.4997
 70
192
 0
VERTEX
 8
W_RFEL_1
 10
-16.7468
 20
-2.5356
 30
21.4997
 70
192
 0
VERTEX
 8
W_RFEL_1
 10
-16.7471
 20
-2.536
 30
21.4997
 70
192
 0
VERTEX
 8
W_RFEL_1
 10
-16.7474
 20
-2.5365
 30
21.4997
 70
192
 0
VERTEX
 8
W_RFEL_1
 10
-16.7477
 20
-2.537
 30
21.4997
 70
192
 0
VERTEX
 8
W_RFEL_1
 10
-16.7479
 20
-2.5375
 30
21.4997
 70
192
 0
VERTEX
 8
W_RFEL_1
 10
-16.748
 20
-2.538
 30
21.4997
 70
192
 0
VERTEX
 8
W_RFEL_1
 10
-16.7481
 20
-2.5385
 30
21.4997
 70
192
 0
VERTEX
 8
W_RFEL_1
 10
-16.7481
 20
-2.5391
 30
21.4997
 70
192
 0
VERTEX
 8
W_RFEL_1
 10
-16.7481
 20
-2.5396
 30
21.4997
 70
192
 0
VERTEX
 8
W_RFEL_1
 10
-16.748
 20
-2.5402
 30
21.4997
 70
192
 0
VERTEX
 8
W_RFEL_1
 10
-16.7479
 20
-2.5407
 30
21.4997
 70
192
 0
VERTEX
 8
W_RFEL_1
 10
-16.7477
 20
-2.5412
 30
21.4997
 70
192
 0
VERTEX
 8
W_RFEL_1
 10
-16.707
 20
-2.6326
 30
21.4997
 70
192
 0
VERTEX
 8
W_RFEL_1
 10
-16.7068
 20
-2.633
 30
21.4997
 70
192
 0
VERTEX
 8
W_RFEL_1
 10
-16.7065
 20
-2.6335
 30
21.4997
 70
192
 0
VERTEX
 8
W_RFEL_1
 10
-16.7061
 20
-2.6339
 30
21.4997
 70
192
 0
VERTEX
 8
W_RFEL_1
 10
-16.7057
 20
-2.6343
 30
21.4997
 70
192
 0
VERTEX
 8
W_RFEL_1
 10
-16.7053
 20
-2.6347
 30
21.4997
 70
192
 0
VERTEX
 8
W_RFEL_1
 10
-16.7049
 20
-2.635
 30
21.4997
 70
192
 0
VERTEX
 8
W_RFEL_1
 10
-16.7044
 20
-2.6352
 30
21.4997
 70
192
 0
VERTEX
 8
W_RFEL_1
 10
-16.7039
 20
-2.6354
 30
21.4997
 70
192
 0
VERTEX
 8
W_RFEL_1
 10
-16.7033
 20
-2.6355
 30
21.4997
 70
192
 0
VERTEX
 8
W_RFEL_1
 10
-16.7028
 20
-2.6356
 30
21.4997
 70
192
 0
VERTEX
 8
W_RFEL_1
 10
-16.7022
 20
-2.6357
 30
21.4997
 70
192
 0
VERTEX
 8
W_RFEL_1
 10
-16.7017
 20
-2.6356
 30
21.4997
 70
192
 0
VERTEX
 8
W_RFEL_1
 10
-16.7012
 20
-2.6355
 30
21.4997
 70
192
 0
VERTEX
 8
W_RFEL_1
 10
-16.7006
 20
-2.6354
 30
21.4997
 70
192
 0
VERTEX
 8
W_RFEL_1
 10
-16.7022
 20
-2.6304
 30
21.5
 70
192
 0
VERTEX
 8
W_RFEL_1
 10
-16.3509
 20
-2.2252
 30
21.5
 70
192
 0
VERTEX
 8
W_RFEL_1
 10
-15.8028
 20
-1.9699
 30
21.5
 70
192
 0
VERTEX
 8
W_RFEL_1
 10
-16.0818
 20
-1.7177
 30
21.5
 70
192
 0
VERTEX
 8
W_RFEL_1
 10
-16.3916
 20
-2.1338
 30
21.5
 70
192
 0
VERTEX
 8
W_RFEL_1
 10
-16.7429
 20
-2.5391
 30
21.5
 70
192
 0
VERTEX
 8
W_RFEL_1
 10
0
 20
0
 30
0
 70
128
 71
931
 72
997
 73
998
 74
932
 0
VERTEX
 8
W_RFEL_1
 10
0
 20
0
 30
0
 70
128
 71
932
 72
998
 73
999
 74
933
 0
VERTEX
 8
W_RFEL_1
 10
0
 20
0
 30
0
 70
128
 71
948
 72
1014
 73
1015
 74
949
 0
VERTEX
 8
W_RFEL_1
 10
0
 20
0
 30
0
 70
128
 71
964
 72
1030
 73
1031
 74
965
 0
VERTEX
 8
W_RFEL_1
 10
0
 20
0
 30
0
 70
128
 71
965
 72
1031
 73
1032
 74
966
 0
VERTEX
 8
W_RFEL_1
 10
0
 20
0
 30
0
 70
128
 71
981
 72
1047
 73
1048
 74
982
 0
VERTEX
 8
W_RFEL_1
 10
0
 20
0
 30
0
 70
128
 71
1987
 72
1992
 73
1991
 74
1988
 0
VERTEX
 8
W_RFEL_1
 10
0
 20
0
 30
0
 70
128
 71
1988
 72
1991
 73
1990
 74
1989
 0
VERTEX
 8
W_RFEL_1
 10
0
 20
0
 30
0
 70
128
 71
1
 72
2
 73
5
 74
6
 0
VERTEX
 8
W_RFEL_1
 10
0
 20
0
 30
0
 70
128
 71
2
 72
3
 73
4
 74
5
 0
VERTEX
 8
W_RFEL_1
 10
0
 20
0
 30
0
 70
128
 71
997
 72
931
 73
982
 74
1048
 0
VERTEX
 8
W_RFEL_1
 10
0
 20
0
 30
0
 70
128
 71
1047
 72
981
 73
966
 74
1032
 0
VERTEX
 8
W_RFEL_1
 10
0
 20
0
 30
0
 70
128
 71
1030
 72
964
 73
949
 74
1015
 0
VERTEX
 8
W_RFEL_1
 10
0
 20
0
 30
0
 70
128
 71
1014
 72
948
 73
933
 74
999
 0
VERTEX
 8
W_RFEL_1
 10
0
 20
0
 30
0
 70
128
 71
1989
 72
1990
 73
1015
 74
1014
 0
VERTEX
 8
W_RFEL_1
 10
0
 20
0
 30
0
 70
128
 71
948
 72
949
 73
4
 74
3
 0
VERTEX
 8
W_RFEL_1
 10
0
 20
0
 30
0
 70
128
 71
1
 72
6
 73
981
 74
982
 0
VERTEX
 8
W_RFEL_1
 10
0
 20
0
 30
0
 70
128
 71
1048
 72
1047
 73
1992
 74
1987
 0
VERTEX
 8
W_RFEL_1
 10
0
 20
0
 30
0
 70
128
 71
1987
 72
1988
 73
998
 74
997
 0
VERTEX
 8
W_RFEL_1
 10
0
 20
0
 30
0
 70
128
 71
1988
 72
1989
 73
999
 74
998
 0
VERTEX
 8
W_RFEL_1
 10
0
 20
0
 30
0
 70
128
 71
1990
 72
1991
 73
1031
 74
1030
 0
VERTEX
 8
W_RFEL_1
 10
0
 20
0
 30
0
 70
128
 71
1991
 72
1992
 73
1032
 74
1031
 0
VERTEX
 8
W_RFEL_1
 10
0
 20
0
 30
0
 70
128
 71
931
 72
932
 73
2
 74
1
 0
VERTEX
 8
W_RFEL_1
 10
0
 20
0
 30
0
 70
128
 71
932
 72
933
 73
3
 74
2
 0
VERTEX
 8
W_RFEL_1
 10
0
 20
0
 30
0
 70
128
 71
965
 72
966
 73
6
 74
5
 0
VERTEX
 8
W_RFEL_1
 10
0
 20
0
 30
0
 70
128
 71
964
 72
965
 73
5
 74
4
 0
VERTEX
 8
W_RFEL_1
 10
0
 20
0
 30
0
 70
128
 71
6
 72
966
 73
981
 74
981
 0
VERTEX
 8
W_RFEL_1
 10
0
 20
0
 30
0
 70
128
 71
982
 72
931
 73
1
 74
1
 0
VERTEX
 8
W_RFEL_1
 10
0
 20
0
 30
0
 70
128
 71
933
 72
948
 73
3
 74
3
 0
VERTEX
 8
W_RFEL_1
 10
0
 20
0
 30
0
 70
128
 71
4
 72
949
 73
964
 74
964
 0
VERTEX
 8
W_RFEL_1
 10
0
 20
0
 30
0
 70
128
 71
1048
 72
1987
 73
997
 74
997
 0
VERTEX
 8
W_RFEL_1
 10
0
 20
0
 30
0
 70
128
 71
1047
 72
1032
 73
1992
 74
1992
 0
VERTEX
 8
W_RFEL_1
 10
0
 20
0
 30
0
 70
128
 71
1989
 72
1014
 73
999
 74
999
 0
VERTEX
 8
W_RFEL_1
 10
0
 20
0
 30
0
 70
128
 71
1015
 72
1990
 73
1030
 74
1030
 0
SEQEND
 0
POLYLINE
 8
W_RFEL
 66
1
 10
0.0
 20
0.0
 30
0.0
 70
64
 71
8
 72
6
 0
VERTEX
 8
W_RFEL
 10
-16.8408
 20
-2.8091
 30
20.65
 70
192
 0
VERTEX
 8
W_RFEL
 10
-16.8408
 20
-2.8091
 30
21.65
 70
192
 0
VERTEX
 8
W_RFEL
 10
-15.8766
 20
-1.66
 30
20.65
 70
192
 0
VERTEX
 8
W_RFEL
 10
-15.8766
 20
-1.66
 30
21.65
 70
192
 0
VERTEX
 8
W_RFEL
 10
-16.4894
 20
-1.1458
 30
20.65
 70
192
 0
VERTEX
 8
W_RFEL
 10
-16.4894
 20
-1.1458
 30
21.65
 70
192
 0
VERTEX
 8
W_RFEL
 10
-17.4536
 20
-2.2948
 30
20.65
 70
192
 0
VERTEX
 8
W_RFEL
 10
-17.4536
 20
-2.2948
 30
21.65
 70
192
 0
VERTEX
 8
W_RFEL
 10
0
 20
0
 30
0
 70
128
 71
1
 72
2
 73
4
 74
3
 0
VERTEX
 8
W_RFEL
 10
0
 20
0
 30
0
 70
128
 71
3
 72
4
 73
6
 74
5
 0
VERTEX
 8
W_RFEL
 10
0
 20
0
 30
0
 70
128
 71
5
 72
6
 73
8
 74
7
 0
VERTEX
 8
W_RFEL
 10
0
 20
0
 30
0
 70
128
 71
7
 72
8
 73
2
 74
1
 0
VERTEX
 8
W_RFEL
 10
0
 20
0
 30
0
 70
128
 71
2
 72
8
 73
6
 74
4
 0
VERTEX
 8
W_RFEL
 10
0
 20
0
 30
0
 70
128
 71
7
 72
1
 73
3
 74
5
 0
SEQEND
 0
POLYLINE
 8
ZYLINDER
 66
1
 10
0.0
 20
0.0
 30
0.0
 70
64
 71
60
 72
28
 0
VERTEX
 8
ZYLINDER
 10
17.9271
 20
8.8863
 30
15.5471
 70
192
 0
VERTEX
 8
ZYLINDER
 10
17.9271
 20
8.8863
 30
15.5471
 70
192
 0
VERTEX
 8
ZYLINDER
 10
2.4251
 20
-0.0638
 30
19.3519
 70
192
 0
VERTEX
 8
ZYLINDER
 10
2.4251
 20
-0.0638
 30
19.3519
 70
192
 0
VERTEX
 8
ZYLINDER
 10
18.1003
 20
8.9863
 30
17.4495
 70
192
 0
VERTEX
 8
ZYLINDER
 10
18.1003
 20
8.9863
 30
17.4495
 70
192
 0
VERTEX
 8
ZYLINDER
 10
2.252
 20
-0.1637
 30
17.4495
 70
192
 0
VERTEX
 8
ZYLINDER
 10
2.252
 20
-0.1637
 30
17.4495
 70
192
 0
VERTEX
 8
ZYLINDER
 10
17.9271
 20
8.8863
 30
19.3519
 70
192
 0
VERTEX
 8
ZYLINDER
 10
17.9271
 20
8.8863
 30
19.3519
 70
192
 0
VERTEX
 8
ZYLINDER
 10
2.4251
 20
-0.0638
 30
15.5471
 70
192
 0
VERTEX
 8
ZYLINDER
 10
2.4251
 20
-0.0638
 30
15.5471
 70
192
 0
VERTEX
 8
ZYLINDER
 10
17.4152
 20
8.5907
 30
21.1711
 70
192
 0
VERTEX
 8
ZYLINDER
 10
17.4152
 20
8.5907
 30
21.1711
 70
192
 0
VERTEX
 8
ZYLINDER
 10
2.9371
 20
0.2318
 30
13.7279
 70
192
 0
VERTEX
 8
ZYLINDER
 10
2.9371
 20
0.2318
 30
13.7279
 70
192
 0
VERTEX
 8
ZYLINDER
 10
16.5869
 20
8.1125
 30
22.8277
 70
192
 0
VERTEX
 8
ZYLINDER
 10
16.5869
 20
8.1125
 30
22.8277
 70
192
 0
VERTEX
 8
ZYLINDER
 10
3.7654
 20
0.71
 30
12.0713
 70
192
 0
VERTEX
 8
ZYLINDER
 10
3.7654
 20
0.71
 30
12.0713
 70
192
 0
VERTEX
 8
ZYLINDER
 10
15.4784
 20
7.4725
 30
24.2493
 70
192
 0
VERTEX
 8
ZYLINDER
 10
15.4784
 20
7.4725
 30
24.2493
 70
192
 0
VERTEX
 8
ZYLINDER
 10
4.8738
 20
1.35
 30
10.6497
 70
192
 0
VERTEX
 8
ZYLINDER
 10
4.8738
 20
1.35
 30
10.6497
 70
192
 0
VERTEX
 8
ZYLINDER
 10
14.1382
 20
6.6988
 30
25.3736
 70
192
 0
VERTEX
 8
ZYLINDER
 10
14.1382
 20
6.6988
 30
25.3736
 70
192
 0
VERTEX
 8
ZYLINDER
 10
6.2141
 20
2.1238
 30
9.5254
 70
192
 0
VERTEX
 8
ZYLINDER
 10
6.2141
 20
2.1238
 30
9.5254
 70
192
 0
VERTEX
 8
ZYLINDER
 10
12.6248
 20
5.825
 30
26.1517
 70
192
 0
VERTEX
 8
ZYLINDER
 10
12.6248
 20
5.825
 30
26.1517
 70
192
 0
VERTEX
 8
ZYLINDER
 10
7.7274
 20
2.9975
 30
8.7473
 70
192
 0
VERTEX
 8
ZYLINDER
 10
7.7274
 20
2.9975
 30
8.7473
 70
192
 0
VERTEX
 8
ZYLINDER
 10
11.0044
 20
4.8895
 30
26.5494
 70
192
 0
VERTEX
 8
ZYLINDER
 10
11.0044
 20
4.8895
 30
26.5494
 70
192
 0
VERTEX
 8
ZYLINDER
 10
9.3478
 20
3.933
 30
8.3496
 70
192
 0
VERTEX
 8
ZYLINDER
 10
9.3478
 20
3.933
 30
8.3496
 70
192
 0
VERTEX
 8
ZYLINDER
 10
9.3478
 20
3.933
 30
26.5494
 70
192
 0
VERTEX
 8
ZYLINDER
 10
9.3478
 20
3.933
 30
26.5494
 70
192
 0
VERTEX
 8
ZYLINDER
 10
11.0044
 20
4.8895
 30
8.3496
 70
192
 0
VERTEX
 8
ZYLINDER
 10
11.0044
 20
4.8895
 30
8.3496
 70
192
 0
VERTEX
 8
ZYLINDER
 10
7.7274
 20
2.9975
 30
26.1517
 70
192
 0
VERTEX
 8
ZYLINDER
 10
7.7274
 20
2.9975
 30
26.1517
 70
192
 0
VERTEX
 8
ZYLINDER
 10
12.6248
 20
5.825
 30
8.7473
 70
192
 0
VERTEX
 8
ZYLINDER
 10
12.6248
 20
5.825
 30
8.7473
 70
192
 0
VERTEX
 8
ZYLINDER
 10
6.2141
 20
2.1238
 30
25.3736
 70
192
 0
VERTEX
 8
ZYLINDER
 10
6.2141
 20
2.1238
 30
25.3736
 70
192
 0
VERTEX
 8
ZYLINDER
 10
14.1382
 20
6.6988
 30
9.5254
 70
192
 0
VERTEX
 8
ZYLINDER
 10
14.1382
 20
6.6988
 30
9.5254
 70
192
 0
VERTEX
 8
ZYLINDER
 10
4.8738
 20
1.35
 30
24.2493
 70
192
 0
VERTEX
 8
ZYLINDER
 10
4.8738
 20
1.35
 30
24.2493
 70
192
 0
VERTEX
 8
ZYLINDER
 10
15.4784
 20
7.4725
 30
10.6497
 70
192
 0
VERTEX
 8
ZYLINDER
 10
15.4784
 20
7.4725
 30
10.6497
 70
192
 0
VERTEX
 8
ZYLINDER
 10
3.7654
 20
0.71
 30
22.8277
 70
192
 0
VERTEX
 8
ZYLINDER
 10
3.7654
 20
0.71
 30
22.8277
 70
192
 0
VERTEX
 8
ZYLINDER
 10
16.5869
 20
8.1125
 30
12.0713
 70
192
 0
VERTEX
 8
ZYLINDER
 10
16.5869
 20
8.1125
 30
12.0713
 70
192
 0
VERTEX
 8
ZYLINDER
 10
2.9371
 20
0.2318
 30
21.1711
 70
192
 0
VERTEX
 8
ZYLINDER
 10
2.9371
 20
0.2318
 30
21.1711
 70
192
 0
VERTEX
 8
ZYLINDER
 10
17.4152
 20
8.5907
 30
13.7279
 70
192
 0
VERTEX
 8
ZYLINDER
 10
17.4152
 20
8.5907
 30
13.7279
 70
192
 0
VERTEX
 8
ZYLINDER
 10
0
 20
0
 30
0
 70
128
 71
45
 72
41
 73
37
 74
37
 0
VERTEX
 8
ZYLINDER
 10
0
 20
0
 30
0
 70
128
 71
45
 72
37
 73
33
 74
33
 0
VERTEX
 8
ZYLINDER
 10
0
 20
0
 30
0
 70
128
 71
45
 72
25
 73
17
 74
17
 0
VERTEX
 8
ZYLINDER
 10
0
 20
0
 30
0
 70
128
 71
45
 72
13
 73
59
 74
59
 0
VERTEX
 8
ZYLINDER
 10
0
 20
0
 30
0
 70
128
 71
45
 72
27
 73
15
 74
15
 0
VERTEX
 8
ZYLINDER
 10
0
 20
0
 30
0
 70
128
 71
45
 72
57
 73
53
 74
53
 0
VERTEX
 8
ZYLINDER
 10
0
 20
0
 30
0
 70
128
 71
33
 72
29
 73
25
 74
25
 0
VERTEX
 8
ZYLINDER
 10
0
 20
0
 30
0
 70
128
 71
25
 72
21
 73
17
 74
17
 0
VERTEX
 8
ZYLINDER
 10
0
 20
0
 30
0
 70
128
 71
13
 72
9
 73
1
 74
1
 0
VERTEX
 8
ZYLINDER
 10
0
 20
0
 30
0
 70
128
 71
9
 72
5
 73
1
 74
1
 0
VERTEX
 8
ZYLINDER
 10
0
 20
0
 30
0
 70
128
 71
27
 72
59
 73
55
 74
55
 0
VERTEX
 8
ZYLINDER
 10
0
 20
0
 30
0
 70
128
 71
55
 72
51
 73
47
 74
47
 0
VERTEX
 8
ZYLINDER
 10
0
 20
0
 30
0
 70
128
 71
47
 72
43
 73
39
 74
39
 0
VERTEX
 8
ZYLINDER
 10
0
 20
0
 30
0
 70
128
 71
27
 72
47
 73
39
 74
39
 0
VERTEX
 8
ZYLINDER
 10
0
 20
0
 30
0
 70
128
 71
35
 72
31
 73
27
 74
27
 0
VERTEX
 8
ZYLINDER
 10
0
 20
0
 30
0
 70
128
 71
27
 72
23
 73
19
 74
19
 0
VERTEX
 8
ZYLINDER
 10
0
 20
0
 30
0
 70
128
 71
15
 72
11
 73
7
 74
7
 0
VERTEX
 8
ZYLINDER
 10
0
 20
0
 30
0
 70
128
 71
7
 72
3
 73
57
 74
57
 0
VERTEX
 8
ZYLINDER
 10
0
 20
0
 30
0
 70
128
 71
45
 72
33
 73
25
 74
25
 0
VERTEX
 8
ZYLINDER
 10
0
 20
0
 30
0
 70
128
 71
45
 72
17
 73
13
 74
13
 0
VERTEX
 8
ZYLINDER
 10
0
 20
0
 30
0
 70
128
 71
45
 72
59
 73
27
 74
27
 0
VERTEX
 8
ZYLINDER
 10
0
 20
0
 30
0
 70
128
 71
45
 72
15
 73
57
 74
57
 0
VERTEX
 8
ZYLINDER
 10
0
 20
0
 30
0
 70
128
 71
45
 72
53
 73
49
 74
49
 0
VERTEX
 8
ZYLINDER
 10
0
 20
0
 30
0
 70
128
 71
13
 72
1
 73
59
 74
59
 0
VERTEX
 8
ZYLINDER
 10
0
 20
0
 30
0
 70
128
 71
27
 72
55
 73
47
 74
47
 0
VERTEX
 8
ZYLINDER
 10
0
 20
0
 30
0
 70
128
 71
27
 72
39
 73
35
 74
35
 0
VERTEX
 8
ZYLINDER
 10
0
 20
0
 30
0
 70
128
 71
27
 72
19
 73
15
 74
15
 0
VERTEX
 8
ZYLINDER
 10
0
 20
0
 30
0
 70
128
 71
15
 72
7
 73
57
 74
57
 0
SEQEND
 0
POLYLINE
 8
MATT
 66
1
 10
0.0
 20
0.0
 30
0.0
 70
64
 71
60
 72
28
 0
VERTEX
 8
MATT
 10
20.341
 20
10.2806
 30
14.9546
 70
192
 0
VERTEX
 8
MATT
 10
20.341
 20
10.2806
 30
14.9546
 70
192
 0
VERTEX
 8
MATT
 10
0.0106
 20
-1.4571
 30
19.9444
 70
192
 0
VERTEX
 8
MATT
 10
0.0106
 20
-1.4571
 30
19.9444
 70
192
 0
VERTEX
 8
MATT
 10
20.5681
 20
10.4118
 30
17.4495
 70
192
 0
VERTEX
 8
MATT
 10
20.5681
 20
10.4118
 30
17.4495
 70
192
 0
VERTEX
 8
MATT
 10
-0.2165
 20
-1.5882
 30
17.4495
 70
192
 0
VERTEX
 8
MATT
 10
-0.2165
 20
-1.5882
 30
17.4495
 70
192
 0
VERTEX
 8
MATT
 10
20.341
 20
10.2806
 30
19.9444
 70
192
 0
VERTEX
 8
MATT
 10
20.341
 20
10.2806
 30
19.9444
 70
192
 0
VERTEX
 8
MATT
 10
0.0106
 20
-1.4571
 30
14.9546
 70
192
 0
VERTEX
 8
MATT
 10
0.0106
 20
-1.4571
 30
14.9546
 70
192
 0
VERTEX
 8
MATT
 10
19.6697
 20
9.893
 30
22.3303
 70
192
 0
VERTEX
 8
MATT
 10
19.6697
 20
9.893
 30
22.3303
 70
192
 0
VERTEX
 8
MATT
 10
0.682
 20
-1.0695
 30
12.5687
 70
192
 0
VERTEX
 8
MATT
 10
0.682
 20
-1.0695
 30
12.5687
 70
192
 0
VERTEX
 8
MATT
 10
18.5834
 20
9.2659
 30
24.5029
 70
192
 0
VERTEX
 8
MATT
 10
18.5834
 20
9.2659
 30
24.5029
 70
192
 0
VERTEX
 8
MATT
 10
1.7683
 20
-0.4423
 30
10.3961
 70
192
 0
VERTEX
 8
MATT
 10
1.7683
 20
-0.4423
 30
10.3961
 70
192
 0
VERTEX
 8
MATT
 10
17.1296
 20
8.4265
 30
26.3672
 70
192
 0
VERTEX
 8
MATT
 10
17.1296
 20
8.4265
 30
26.3672
 70
192
 0
VERTEX
 8
MATT
 10
3.222
 20
0.397
 30
8.5318
 70
192
 0
VERTEX
 8
MATT
 10
3.222
 20
0.397
 30
8.5318
 70
192
 0
VERTEX
 8
MATT
 10
15.372
 20
7.4118
 30
27.8418
 70
192
 0
VERTEX
 8
MATT
 10
15.372
 20
7.4118
 30
27.8418
 70
192
 0
VERTEX
 8
MATT
 10
4.9797
 20
1.4118
 30
7.0572
 70
192
 0
VERTEX
 8
MATT
 10
4.9797
 20
1.4118
 30
7.0572
 70
192
 0
VERTEX
 8
MATT
 10
13.3872
 20
6.2659
 30
28.8622
 70
192
 0
VERTEX
 8
MATT
 10
13.3872
 20
6.2659
 30
28.8622
 70
192
 0
VERTEX
 8
MATT
 10
6.9644
 20
2.5577
 30
6.0368
 70
192
 0
VERTEX
 8
MATT
 10
6.9644
 20
2.5577
 30
6.0368
 70
192
 0
VERTEX
 8
MATT
 10
11.2621
 20
5.0389
 30
29.3838
 70
192
 0
VERTEX
 8
MATT
 10
11.2621
 20
5.0389
 30
29.3838
 70
192
 0
VERTEX
 8
MATT
 10
9.0895
 20
3.7846
 30
5.5152
 70
192
 0
VERTEX
 8
MATT
 10
9.0895
 20
3.7846
 30
5.5152
 70
192
 0
VERTEX
 8
MATT
 10
9.0895
 20
3.7846
 30
29.3838
 70
192
 0
VERTEX
 8
MATT
 10
9.0895
 20
3.7846
 30
29.3838
 70
192
 0
VERTEX
 8
MATT
 10
11.2621
 20
5.0389
 30
5.5152
 70
192
 0
VERTEX
 8
MATT
 10
11.2621
 20
5.0389
 30
5.5152
 70
192
 0
VERTEX
 8
MATT
 10
6.9644
 20
2.5577
 30
28.8622
 70
192
 0
VERTEX
 8
MATT
 10
6.9644
 20
2.5577
 30
28.8622
 70
192
 0
VERTEX
 8
MATT
 10
13.3872
 20
6.2659
 30
6.0368
 70
192
 0
VERTEX
 8
MATT
 10
13.3872
 20
6.2659
 30
6.0368
 70
192
 0
VERTEX
 8
MATT
 10
4.9797
 20
1.4118
 30
27.8418
 70
192
 0
VERTEX
 8
MATT
 10
4.9797
 20
1.4118
 30
27.8418
 70
192
 0
VERTEX
 8
MATT
 10
15.372
 20
7.4118
 30
7.0572
 70
192
 0
VERTEX
 8
MATT
 10
15.372
 20
7.4118
 30
7.0572
 70
192
 0
VERTEX
 8
MATT
 10
3.222
 20
0.397
 30
26.3672
 70
192
 0
VERTEX
 8
MATT
 10
3.222
 20
0.397
 30
26.3672
 70
192
 0
VERTEX
 8
MATT
 10
17.1296
 20
8.4265
 30
8.5318
 70
192
 0
VERTEX
 8
MATT
 10
17.1296
 20
8.4265
 30
8.5318
 70
192
 0
VERTEX
 8
MATT
 10
1.7683
 20
-0.4423
 30
24.5029
 70
192
 0
VERTEX
 8
MATT
 10
1.7683
 20
-0.4423
 30
24.5029
 70
192
 0
VERTEX
 8
MATT
 10
18.5834
 20
9.2659
 30
10.3961
 70
192
 0
VERTEX
 8
MATT
 10
18.5834
 20
9.2659
 30
10.3961
 70
192
 0
VERTEX
 8
MATT
 10
0.682
 20
-1.0695
 30
22.3303
 70
192
 0
VERTEX
 8
MATT
 10
0.682
 20
-1.0695
 30
22.3303
 70
192
 0
VERTEX
 8
MATT
 10
19.6697
 20
9.893
 30
12.5687
 70
192
 0
VERTEX
 8
MATT
 10
19.6697
 20
9.893
 30
12.5687
 70
192
 0
VERTEX
 8
MATT
 10
0
 20
0
 30
0
 70
128
 71
45
 72
41
 73
37
 74
37
 0
VERTEX
 8
MATT
 10
0
 20
0
 30
0
 70
128
 71
21
 72
33
 73
29
 74
29
 0
VERTEX
 8
MATT
 10
0
 20
0
 30
0
 70
128
 71
45
 72
33
 73
21
 74
21
 0
VERTEX
 8
MATT
 10
0
 20
0
 30
0
 70
128
 71
21
 72
17
 73
13
 74
13
 0
VERTEX
 8
MATT
 10
0
 20
0
 30
0
 70
128
 71
51
 72
21
 73
9
 74
9
 0
VERTEX
 8
MATT
 10
0
 20
0
 30
0
 70
128
 71
21
 72
51
 73
19
 74
19
 0
VERTEX
 8
MATT
 10
0
 20
0
 30
0
 70
128
 71
9
 72
5
 73
1
 74
1
 0
VERTEX
 8
MATT
 10
0
 20
0
 30
0
 70
128
 71
51
 72
1
 73
59
 74
59
 0
VERTEX
 8
MATT
 10
0
 20
0
 30
0
 70
128
 71
51
 72
47
 73
43
 74
43
 0
VERTEX
 8
MATT
 10
0
 20
0
 30
0
 70
128
 71
51
 72
39
 73
27
 74
27
 0
VERTEX
 8
MATT
 10
0
 20
0
 30
0
 70
128
 71
27
 72
39
 73
35
 74
35
 0
VERTEX
 8
MATT
 10
0
 20
0
 30
0
 70
128
 71
27
 72
23
 73
19
 74
19
 0
VERTEX
 8
MATT
 10
0
 20
0
 30
0
 70
128
 71
53
 72
19
 73
15
 74
15
 0
VERTEX
 8
MATT
 10
0
 20
0
 30
0
 70
128
 71
15
 72
11
 73
7
 74
7
 0
VERTEX
 8
MATT
 10
0
 20
0
 30
0
 70
128
 71
57
 72
15
 73
7
 74
7
 0
VERTEX
 8
MATT
 10
0
 20
0
 30
0
 70
128
 71
53
 72
49
 73
45
 74
45
 0
VERTEX
 8
MATT
 10
0
 20
0
 30
0
 70
128
 71
45
 72
37
 73
33
 74
33
 0
VERTEX
 8
MATT
 10
0
 20
0
 30
0
 70
128
 71
21
 72
29
 73
25
 74
25
 0
VERTEX
 8
MATT
 10
0
 20
0
 30
0
 70
128
 71
45
 72
21
 73
53
 74
53
 0
VERTEX
 8
MATT
 10
0
 20
0
 30
0
 70
128
 71
21
 72
13
 73
9
 74
9
 0
VERTEX
 8
MATT
 10
0
 20
0
 30
0
 70
128
 71
51
 72
9
 73
1
 74
1
 0
VERTEX
 8
MATT
 10
0
 20
0
 30
0
 70
128
 71
21
 72
19
 73
53
 74
53
 0
VERTEX
 8
MATT
 10
0
 20
0
 30
0
 70
128
 71
51
 72
59
 73
55
 74
55
 0
VERTEX
 8
MATT
 10
0
 20
0
 30
0
 70
128
 71
51
 72
43
 73
39
 74
39
 0
VERTEX
 8
MATT
 10
0
 20
0
 30
0
 70
128
 71
51
 72
27
 73
19
 74
19
 0
VERTEX
 8
MATT
 10
0
 20
0
 30
0
 70
128
 71
27
 72
35
 73
31
 74
31
 0
VERTEX
 8
MATT
 10
0
 20
0
 30
0
 70
128
 71
53
 72
15
 73
57
 74
57
 0
VERTEX
 8
MATT
 10
0
 20
0
 30
0
 70
128
 71
57
 72
7
 73
3
 74
3
 0
SEQEND
 0
POLYLINE
 8
R_HRE_1
 66
1
 10
0.0
 20
0.0
 30
0.0
 70
64
 71
390
 72
360
 0
VERTEX
 8
R_HRE_1
 10
18.9653
 20
12.1919
 30
17.4596
 70
192
 0
VERTEX
 8
R_HRE_1
 10
19.3117
 20
12.3919
 30
17.4596
 70
192
 0
VERTEX
 8
R_HRE_1
 10
19.6911
 20
12.4419
 30
17.4596
 70
192
 0
VERTEX
 8
R_HRE_1
 10
19.9947
 20
12.2089
 30
17.4596
 70
192
 0
VERTEX
 8
R_HRE_1
 10
20.7447
 20
10.9099
 30
17.4596
 70
192
 0
VERTEX
 8
R_HRE_1
 10
20.7946
 20
10.5305
 30
17.4596
 70
192
 0
VERTEX
 8
R_HRE_1
 10
20.5617
 20
10.2269
 30
17.4596
 70
192
 0
VERTEX
 8
R_HRE_1
 10
20.2153
 20
10.0269
 30
17.4596
 70
192
 0
VERTEX
 8
R_HRE_1
 10
19.8359
 20
9.9769
 30
17.4596
 70
192
 0
VERTEX
 8
R_HRE_1
 10
19.5322
 20
10.2099
 30
17.4596
 70
192
 0
VERTEX
 8
R_HRE_1
 10
18.7822
 20
11.5089
 30
17.4596
 70
192
 0
VERTEX
 8
R_HRE_1
 10
18.7323
 20
11.8883
 30
17.4596
 70
192
 0
VERTEX
 8
R_HRE_1
 10
18.9653
 20
12.1919
 30
17.4596
 70
192
 0
VERTEX
 8
R_HRE_1
 10
18.7476
 20
12.0663
 30
19.8505
 70
192
 0
VERTEX
 8
R_HRE_1
 10
19.0865
 20
12.2619
 30
19.9337
 70
192
 0
VERTEX
 8
R_HRE_1
 10
19.4592
 20
12.308
 30
20.0072
 70
192
 0
VERTEX
 8
R_HRE_1
 10
19.76
 20
12.0734
 30
20.0377
 70
192
 0
VERTEX
 8
R_HRE_1
 10
20.51
 20
10.7744
 30
20.0377
 70
192
 0
VERTEX
 8
R_HRE_1
 10
20.5627
 20
10.3966
 30
20.0072
 70
192
 0
VERTEX
 8
R_HRE_1
 10
20.3365
 20
10.0968
 30
19.9337
 70
192
 0
VERTEX
 8
R_HRE_1
 10
19.9976
 20
9.9012
 30
19.8505
 70
192
 0
VERTEX
 8
R_HRE_1
 10
19.6249
 20
9.8551
 30
19.777
 70
192
 0
VERTEX
 8
R_HRE_1
 10
19.3241
 20
10.0897
 30
19.7466
 70
192
 0
VERTEX
 8
R_HRE_1
 10
18.5741
 20
11.3887
 30
19.7466
 70
192
 0
VERTEX
 8
R_HRE_1
 10
18.5214
 20
11.7665
 30
19.777
 70
192
 0
VERTEX
 8
R_HRE_1
 10
18.7476
 20
12.0663
 30
19.8505
 70
192
 0
VERTEX
 8
R_HRE_1
 10
18.1042
 20
11.6948
 30
22.137
 70
192
 0
VERTEX
 8
R_HRE_1
 10
18.4207
 20
11.8775
 30
22.2997
 70
192
 0
VERTEX
 8
R_HRE_1
 10
18.7736
 20
11.9122
 30
22.4435
 70
192
 0
VERTEX
 8
R_HRE_1
 10
19.0663
 20
11.6729
 30
22.5031
 70
192
 0
VERTEX
 8
R_HRE_1
 10
19.8163
 20
10.3739
 30
22.5031
 70
192
 0
VERTEX
 8
R_HRE_1
 10
19.8772
 20
10.0008
 30
22.4435
 70
192
 0
VERTEX
 8
R_HRE_1
 10
19.6707
 20
9.7125
 30
22.2997
 70
192
 0
VERTEX
 8
R_HRE_1
 10
19.3542
 20
9.5298
 30
22.137
 70
192
 0
VERTEX
 8
R_HRE_1
 10
19.0013
 20
9.4951
 30
21.9932
 70
192
 0
VERTEX
 8
R_HRE_1
 10
18.7087
 20
9.7344
 30
21.9337
 70
192
 0
VERTEX
 8
R_HRE_1
 10
17.9587
 20
11.0334
 30
21.9337
 70
192
 0
VERTEX
 8
R_HRE_1
 10
17.8977
 20
11.4065
 30
21.9932
 70
192
 0
VERTEX
 8
R_HRE_1
 10
18.1042
 20
11.6948
 30
22.137
 70
192
 0
VERTEX
 8
R_HRE_1
 10
17.0632
 20
11.0938
 30
24.2191
 70
192
 0
VERTEX
 8
R_HRE_1
 10
17.3435
 20
11.2556
 30
24.4542
 70
192
 0
VERTEX
 8
R_HRE_1
 10
17.6644
 20
11.2718
 30
24.662
 70
192
 0
VERTEX
 8
R_HRE_1
 10
17.9438
 20
11.0248
 30
24.7481
 70
192
 0
VERTEX
 8
R_HRE_1
 10
18.6938
 20
9.7258
 30
24.7481
 70
192
 0
VERTEX
 8
R_HRE_1
 10
18.7679
 20
9.3604
 30
24.662
 70
192
 0
VERTEX
 8
R_HRE_1
 10
18.5935
 20
9.0905
 30
24.4542
 70
192
 0
VERTEX
 8
R_HRE_1
 10
18.3132
 20
8.9287
 30
24.2191
 70
192
 0
VERTEX
 8
R_HRE_1
 10
17.9923
 20
8.9125
 30
24.0113
 70
192
 0
VERTEX
 8
R_HRE_1
 10
17.7129
 20
9.1595
 30
23.9252
 70
192
 0
VERTEX
 8
R_HRE_1
 10
16.9629
 20
10.4585
 30
23.9252
 70
192
 0
VERTEX
 8
R_HRE_1
 10
16.8887
 20
10.8239
 30
24.0113
 70
192
 0
VERTEX
 8
R_HRE_1
 10
17.0632
 20
11.0938
 30
24.2191
 70
192
 0
VERTEX
 8
R_HRE_1
 10
15.67
 20
10.2894
 30
26.0057
 70
192
 0
VERTEX
 8
R_HRE_1
 10
15.9018
 20
10.4233
 30
26.303
 70
192
 0
VERTEX
 8
R_HRE_1
 10
16.1799
 20
10.4147
 30
26.5657
 70
192
 0
VERTEX
 8
R_HRE_1
 10
16.4416
 20
10.1575
 30
26.6746
 70
192
 0
VERTEX
 8
R_HRE_1
 10
17.1916
 20
8.8585
 30
26.6746
 70
192
 0
VERTEX
 8
R_HRE_1
 10
17.2835
 20
8.5033
 30
26.5657
 70
192
 0
VERTEX
 8
R_HRE_1
 10
17.1518
 20
8.2582
 30
26.303
 70
192
 0
VERTEX
 8
R_HRE_1
 10
16.92
 20
8.1244
 30
26.0057
 70
192
 0
VERTEX
 8
R_HRE_1
 10
16.6419
 20
8.1329
 30
25.743
 70
192
 0
VERTEX
 8
R_HRE_1
 10
16.3803
 20
8.3901
 30
25.6342
 70
192
 0
VERTEX
 8
R_HRE_1
 10
15.6303
 20
9.6891
 30
25.6342
 70
192
 0
VERTEX
 8
R_HRE_1
 10
15.5384
 20
10.0443
 30
25.743
 70
192
 0
VERTEX
 8
R_HRE_1
 10
15.67
 20
10.2894
 30
26.0057
 70
192
 0
VERTEX
 8
R_HRE_1
 10
13.9856
 20
9.3169
 30
27.4189
 70
192
 0
VERTEX
 8
R_HRE_1
 10
14.1588
 20
9.4169
 30
27.7653
 70
192
 0
VERTEX
 8
R_HRE_1
 10
14.3851
 20
9.3785
 30
28.0715
 70
192
 0
VERTEX
 8
R_HRE_1
 10
14.6253
 20
9.1089
 30
28.1983
 70
192
 0
VERTEX
 8
R_HRE_1
 10
15.3753
 20
7.8099
 30
28.1983
 70
192
 0
VERTEX
 8
R_HRE_1
 10
15.4887
 20
7.4671
 30
28.0715
 70
192
 0
VERTEX
 8
R_HRE_1
 10
15.4088
 20
7.2519
 30
27.7653
 70
192
 0
VERTEX
 8
R_HRE_1
 10
15.2356
 20
7.1519
 30
27.4189
 70
192
 0
VERTEX
 8
R_HRE_1
 10
15.0093
 20
7.1903
 30
27.1127
 70
192
 0
VERTEX
 8
R_HRE_1
 10
14.7691
 20
7.4599
 30
26.9858
 70
192
 0
VERTEX
 8
R_HRE_1
 10
14.0191
 20
8.7589
 30
26.9858
 70
192
 0
VERTEX
 8
R_HRE_1
 10
13.9057
 20
9.1017
 30
27.1127
 70
192
 0
VERTEX
 8
R_HRE_1
 10
13.9856
 20
9.3169
 30
27.4189
 70
192
 0
VERTEX
 8
R_HRE_1
 10
12.0836
 20
8.2188
 30
28.3967
 70
192
 0
VERTEX
 8
R_HRE_1
 10
12.1906
 20
8.2806
 30
28.7771
 70
192
 0
VERTEX
 8
R_HRE_1
 10
12.3584
 20
8.2084
 30
29.1134
 70
192
 0
VERTEX
 8
R_HRE_1
 10
12.5744
 20
7.9248
 30
29.2527
 70
192
 0
VERTEX
 8
R_HRE_1
 10
13.3244
 20
6.6258
 30
29.2527
 70
192
 0
VERTEX
 8
R_HRE_1
 10
13.462
 20
6.297
 30
29.1134
 70
192
 0
VERTEX
 8
R_HRE_1
 10
13.4406
 20
6.1155
 30
28.7771
 70
192
 0
VERTEX
 8
R_HRE_1
 10
13.3336
 20
6.0537
 30
28.3967
 70
192
 0
VERTEX
 8
R_HRE_1
 10
13.1657
 20
6.1259
 30
28.0605
 70
192
 0
VERTEX
 8
R_HRE_1
 10
12.9498
 20
6.4095
 30
27.9212
 70
192
 0
VERTEX
 8
R_HRE_1
 10
12.1998
 20
7.7085
 30
27.9212
 70
192
 0
VERTEX
 8
R_HRE_1
 10
12.0622
 20
8.0373
 30
28.0605
 70
192
 0
VERTEX
 8
R_HRE_1
 10
12.0836
 20
8.2188
 30
28.3967
 70
192
 0
VERTEX
 8
R_HRE_1
 10
10.047
 20
7.043
 30
28.8966
 70
192
 0
VERTEX
 8
R_HRE_1
 10
10.0832
 20
7.0639
 30
29.2944
 70
192
 0
VERTEX
 8
R_HRE_1
 10
10.1884
 20
6.9555
 30
29.646
 70
192
 0
VERTEX
 8
R_HRE_1
 10
10.3785
 20
6.657
 30
29.7916
 70
192
 0
VERTEX
 8
R_HRE_1
 10
11.1285
 20
5.358
 30
29.7916
 70
192
 0
VERTEX
 8
R_HRE_1
 10
11.292
 20
5.0441
 30
29.646
 70
192
 0
VERTEX
 8
R_HRE_1
 10
11.3332
 20
4.8988
 30
29.2944
 70
192
 0
VERTEX
 8
R_HRE_1
 10
11.297
 20
4.8779
 30
28.8966
 70
192
 0
VERTEX
 8
R_HRE_1
 10
11.1918
 20
4.9863
 30
28.5449
 70
192
 0
VERTEX
 8
R_HRE_1
 10
11.0017
 20
5.2848
 30
28.3993
 70
192
 0
VERTEX
 8
R_HRE_1
 10
10.2517
 20
6.5838
 30
28.3993
 70
192
 0
VERTEX
 8
R_HRE_1
 10
10.0882
 20
6.8977
 30
28.5449
 70
192
 0
VERTEX
 8
R_HRE_1
 10
10.047
 20
7.043
 30
28.8966
 70
192
 0
VERTEX
 8
R_HRE_1
 10
7.9649
 20
5.8409
 30
28.8966
 70
192
 0
VERTEX
 8
R_HRE_1
 10
7.9287
 20
5.82
 30
29.2944
 70
192
 0
VERTEX
 8
R_HRE_1
 10
7.9699
 20
5.6747
 30
29.646
 70
192
 0
VERTEX
 8
R_HRE_1
 10
8.1335
 20
5.3608
 30
29.7916
 70
192
 0
VERTEX
 8
R_HRE_1
 10
8.8835
 20
4.0618
 30
29.7916
 70
192
 0
VERTEX
 8
R_HRE_1
 10
9.0735
 20
3.7633
 30
29.646
 70
192
 0
VERTEX
 8
R_HRE_1
 10
9.1787
 20
3.6549
 30
29.2944
 70
192
 0
VERTEX
 8
R_HRE_1
 10
9.2149
 20
3.6758
 30
28.8966
 70
192
 0
VERTEX
 8
R_HRE_1
 10
9.1737
 20
3.8211
 30
28.5449
 70
192
 0
VERTEX
 8
R_HRE_1
 10
9.0102
 20
4.135
 30
28.3993
 70
192
 0
VERTEX
 8
R_HRE_1
 10
8.2602
 20
5.434
 30
28.3993
 70
192
 0
VERTEX
 8
R_HRE_1
 10
8.0702
 20
5.7325
 30
28.5449
 70
192
 0
VERTEX
 8
R_HRE_1
 10
7.9649
 20
5.8409
 30
28.8966
 70
192
 0
VERTEX
 8
R_HRE_1
 10
5.9284
 20
4.6651
 30
28.3967
 70
192
 0
VERTEX
 8
R_HRE_1
 10
5.8213
 20
4.6033
 30
28.7771
 70
192
 0
VERTEX
 8
R_HRE_1
 10
5.7999
 20
4.4218
 30
29.1134
 70
192
 0
VERTEX
 8
R_HRE_1
 10
5.9375
 20
4.093
 30
29.2527
 70
192
 0
VERTEX
 8
R_HRE_1
 10
6.6875
 20
2.794
 30
29.2527
 70
192
 0
VERTEX
 8
R_HRE_1
 10
6.9035
 20
2.5104
 30
29.1134
 70
192
 0
VERTEX
 8
R_HRE_1
 10
7.0713
 20
2.4382
 30
28.7771
 70
192
 0
VERTEX
 8
R_HRE_1
 10
7.1784
 20
2.5
 30
28.3967
 70
192
 0
VERTEX
 8
R_HRE_1
 10
7.1998
 20
2.6815
 30
28.0605
 70
192
 0
VERTEX
 8
R_HRE_1
 10
7.0622
 20
3.0103
 30
27.9212
 70
192
 0
VERTEX
 8
R_HRE_1
 10
6.3122
 20
4.3093
 30
27.9212
 70
192
 0
VERTEX
 8
R_HRE_1
 10
6.0962
 20
4.5929
 30
28.0605
 70
192
 0
VERTEX
 8
R_HRE_1
 10
5.9284
 20
4.6651
 30
28.3967
 70
192
 0
VERTEX
 8
R_HRE_1
 10
4.0263
 20
3.5669
 30
27.4189
 70
192
 0
VERTEX
 8
R_HRE_1
 10
3.8531
 20
3.4669
 30
27.7653
 70
192
 0
VERTEX
 8
R_HRE_1
 10
3.7732
 20
3.2517
 30
28.0715
 70
192
 0
VERTEX
 8
R_HRE_1
 10
3.8866
 20
2.9089
 30
28.1983
 70
192
 0
VERTEX
 8
R_HRE_1
 10
4.6366
 20
1.6099
 30
28.1983
 70
192
 0
VERTEX
 8
R_HRE_1
 10
4.8768
 20
1.3403
 30
28.0715
 70
192
 0
VERTEX
 8
R_HRE_1
 10
5.1031
 20
1.3019
 30
27.7653
 70
192
 0
VERTEX
 8
R_HRE_1
 10
5.2763
 20
1.4019
 30
27.4189
 70
192
 0
VERTEX
 8
R_HRE_1
 10
5.3562
 20
1.6171
 30
27.1127
 70
192
 0
VERTEX
 8
R_HRE_1
 10
5.2428
 20
1.9599
 30
26.9858
 70
192
 0
VERTEX
 8
R_HRE_1
 10
4.4928
 20
3.2589
 30
26.9858
 70
192
 0
VERTEX
 8
R_HRE_1
 10
4.2526
 20
3.5285
 30
27.1127
 70
192
 0
VERTEX
 8
R_HRE_1
 10
4.0263
 20
3.5669
 30
27.4189
 70
192
 0
VERTEX
 8
R_HRE_1
 10
2.3419
 20
2.5944
 30
26.0057
 70
192
 0
VERTEX
 8
R_HRE_1
 10
2.1101
 20
2.4606
 30
26.303
 70
192
 0
VERTEX
 8
R_HRE_1
 10
1.9785
 20
2.2155
 30
26.5657
 70
192
 0
VERTEX
 8
R_HRE_1
 10
2.0704
 20
1.8603
 30
26.6746
 70
192
 0
VERTEX
 8
R_HRE_1
 10
2.8204
 20
0.5613
 30
26.6746
 70
192
 0
VERTEX
 8
R_HRE_1
 10
3.082
 20
0.3041
 30
26.5657
 70
192
 0
VERTEX
 8
R_HRE_1
 10
3.3601
 20
0.2955
 30
26.303
 70
192
 0
VERTEX
 8
R_HRE_1
 10
3.5919
 20
0.4294
 30
26.0057
 70
192
 0
VERTEX
 8
R_HRE_1
 10
3.7236
 20
0.6745
 30
25.743
 70
192
 0
VERTEX
 8
R_HRE_1
 10
3.6316
 20
1.0297
 30
25.6342
 70
192
 0
VERTEX
 8
R_HRE_1
 10
2.8816
 20
2.3287
 30
25.6342
 70
192
 0
VERTEX
 8
R_HRE_1
 10
2.62
 20
2.5859
 30
25.743
 70
192
 0
VERTEX
 8
R_HRE_1
 10
2.3419
 20
2.5944
 30
26.0057
 70
192
 0
VERTEX
 8
R_HRE_1
 10
0.9487
 20
1.7901
 30
24.2191
 70
192
 0
VERTEX
 8
R_HRE_1
 10
0.6685
 20
1.6283
 30
24.4542
 70
192
 0
VERTEX
 8
R_HRE_1
 10
0.494
 20
1.3584
 30
24.662
 70
192
 0
VERTEX
 8
R_HRE_1
 10
0.5682
 20
0.993
 30
24.7481
 70
192
 0
VERTEX
 8
R_HRE_1
 10
1.3182
 20
-0.306
 30
24.7481
 70
192
 0
VERTEX
 8
R_HRE_1
 10
1.5975
 20
-0.553
 30
24.662
 70
192
 0
VERTEX
 8
R_HRE_1
 10
1.9185
 20
-0.5368
 30
24.4542
 70
192
 0
VERTEX
 8
R_HRE_1
 10
2.1987
 20
-0.375
 30
24.2191
 70
192
 0
VERTEX
 8
R_HRE_1
 10
2.3732
 20
-0.1051
 30
24.0113
 70
192
 0
VERTEX
 8
R_HRE_1
 10
2.299
 20
0.2603
 30
23.9252
 70
192
 0
VERTEX
 8
R_HRE_1
 10
1.549
 20
1.5593
 30
23.9252
 70
192
 0
VERTEX
 8
R_HRE_1
 10
1.2697
 20
1.8063
 30
24.0113
 70
192
 0
VERTEX
 8
R_HRE_1
 10
0.9487
 20
1.7901
 30
24.2191
 70
192
 0
VERTEX
 8
R_HRE_1
 10
-0.0923
 20
1.189
 30
22.137
 70
192
 0
VERTEX
 8
R_HRE_1
 10
-0.4088
 20
1.0063
 30
22.2997
 70
192
 0
VERTEX
 8
R_HRE_1
 10
-0.6152
 20
0.718
 30
22.4435
 70
192
 0
VERTEX
 8
R_HRE_1
 10
-0.5543
 20
0.3449
 30
22.5031
 70
192
 0
VERTEX
 8
R_HRE_1
 10
0.1957
 20
-0.9541
 30
22.5031
 70
192
 0
VERTEX
 8
R_HRE_1
 10
0.4883
 20
-1.1934
 30
22.4435
 70
192
 0
VERTEX
 8
R_HRE_1
 10
0.8412
 20
-1.1587
 30
22.2997
 70
192
 0
VERTEX
 8
R_HRE_1
 10
1.1577
 20
-0.976
 30
22.137
 70
192
 0
VERTEX
 8
R_HRE_1
 10
1.3642
 20
-0.6877
 30
21.9932
 70
192
 0
VERTEX
 8
R_HRE_1
 10
1.3033
 20
-0.3146
 30
21.9337
 70
192
 0
VERTEX
 8
R_HRE_1
 10
0.5533
 20
0.9844
 30
21.9337
 70
192
 0
VERTEX
 8
R_HRE_1
 10
0.2606
 20
1.2237
 30
21.9932
 70
192
 0
VERTEX
 8
R_HRE_1
 10
-0.0923
 20
1.189
 30
22.137
 70
192
 0
VERTEX
 8
R_HRE_1
 10
-0.7357
 20
0.8176
 30
19.8505
 70
192
 0
VERTEX
 8
R_HRE_1
 10
-1.0745
 20
0.622
 30
19.9337
 70
192
 0
VERTEX
 8
R_HRE_1
 10
-1.3008
 20
0.3222
 30
20.0072
 70
192
 0
VERTEX
 8
R_HRE_1
 10
-1.2481
 20
-0.0556
 30
20.0377
 70
192
 0
VERTEX
 8
R_HRE_1
 10
-0.4981
 20
-1.3546
 30
20.0377
 70
192
 0
VERTEX
 8
R_HRE_1
 10
-0.1972
 20
-1.5892
 30
20.0072
 70
192
 0
VERTEX
 8
R_HRE_1
 10
0.1755
 20
-1.5431
 30
19.9337
 70
192
 0
VERTEX
 8
R_HRE_1
 10
0.5143
 20
-1.3475
 30
19.8505
 70
192
 0
VERTEX
 8
R_HRE_1
 10
0.7406
 20
-1.0477
 30
19.777
 70
192
 0
VERTEX
 8
R_HRE_1
 10
0.6879
 20
-0.6699
 30
19.7466
 70
192
 0
VERTEX
 8
R_HRE_1
 10
-0.0621
 20
0.6291
 30
19.7466
 70
192
 0
VERTEX
 8
R_HRE_1
 10
-0.363
 20
0.8637
 30
19.777
 70
192
 0
VERTEX
 8
R_HRE_1
 10
-0.7357
 20
0.8176
 30
19.8505
 70
192
 0
VERTEX
 8
R_HRE_1
 10
-0.9533
 20
0.6919
 30
17.4596
 70
192
 0
VERTEX
 8
R_HRE_1
 10
-1.2997
 20
0.4919
 30
17.4596
 70
192
 0
VERTEX
 8
R_HRE_1
 10
-1.5327
 20
0.1883
 30
17.4596
 70
192
 0
VERTEX
 8
R_HRE_1
 10
-1.4827
 20
-0.1911
 30
17.4596
 70
192
 0
VERTEX
 8
R_HRE_1
 10
-0.7327
 20
-1.4901
 30
17.4596
 70
192
 0
VERTEX
 8
R_HRE_1
 10
-0.4291
 20
-1.7231
 30
17.4596
 70
192
 0
VERTEX
 8
R_HRE_1
 10
-0.0497
 20
-1.6731
 30
17.4596
 70
192
 0
VERTEX
 8
R_HRE_1
 10
0.2967
 20
-1.4731
 30
17.4596
 70
192
 0
VERTEX
 8
R_HRE_1
 10
0.5296
 20
-1.1695
 30
17.4596
 70
192
 0
VERTEX
 8
R_HRE_1
 10
0.4797
 20
-0.7901
 30
17.4596
 70
192
 0
VERTEX
 8
R_HRE_1
 10
-0.2703
 20
0.5089
 30
17.4596
 70
192
 0
VERTEX
 8
R_HRE_1
 10
-0.5739
 20
0.7419
 30
17.4596
 70
192
 0
VERTEX
 8
R_HRE_1
 10
-0.9533
 20
0.6919
 30
17.4596
 70
192
 0
VERTEX
 8
R_HRE_1
 10
-0.7357
 20
0.8176
 30
15.0686
 70
192
 0
VERTEX
 8
R_HRE_1
 10
-1.0745
 20
0.622
 30
14.9854
 70
192
 0
VERTEX
 8
R_HRE_1
 10
-1.3008
 20
0.3222
 30
14.9119
 70
192
 0
VERTEX
 8
R_HRE_1
 10
-1.2481
 20
-0.0556
 30
14.8815
 70
192
 0
VERTEX
 8
R_HRE_1
 10
-0.4981
 20
-1.3546
 30
14.8815
 70
192
 0
VERTEX
 8
R_HRE_1
 10
-0.1972
 20
-1.5892
 30
14.9119
 70
192
 0
VERTEX
 8
R_HRE_1
 10
0.1755
 20
-1.5431
 30
14.9854
 70
192
 0
VERTEX
 8
R_HRE_1
 10
0.5143
 20
-1.3475
 30
15.0686
 70
192
 0
VERTEX
 8
R_HRE_1
 10
0.7406
 20
-1.0477
 30
15.1421
 70
192
 0
VERTEX
 8
R_HRE_1
 10
0.6879
 20
-0.6699
 30
15.1725
 70
192
 0
VERTEX
 8
R_HRE_1
 10
-0.0621
 20
0.6291
 30
15.1725
 70
192
 0
VERTEX
 8
R_HRE_1
 10
-0.363
 20
0.8637
 30
15.1421
 70
192
 0
VERTEX
 8
R_HRE_1
 10
-0.7357
 20
0.8176
 30
15.0686
 70
192
 0
VERTEX
 8
R_HRE_1
 10
-0.0923
 20
1.189
 30
12.7821
 70
192
 0
VERTEX
 8
R_HRE_1
 10
-0.4088
 20
1.0063
 30
12.6194
 70
192
 0
VERTEX
 8
R_HRE_1
 10
-0.6152
 20
0.718
 30
12.4756
 70
192
 0
VERTEX
 8
R_HRE_1
 10
-0.5543
 20
0.3449
 30
12.416
 70
192
 0
VERTEX
 8
R_HRE_1
 10
0.1957
 20
-0.9541
 30
12.416
 70
192
 0
VERTEX
 8
R_HRE_1
 10
0.4883
 20
-1.1934
 30
12.4756
 70
192
 0
VERTEX
 8
R_HRE_1
 10
0.8412
 20
-1.1587
 30
12.6194
 70
192
 0
VERTEX
 8
R_HRE_1
 10
1.1577
 20
-0.976
 30
12.7821
 70
192
 0
VERTEX
 8
R_HRE_1
 10
1.3642
 20
-0.6877
 30
12.9259
 70
192
 0
VERTEX
 8
R_HRE_1
 10
1.3033
 20
-0.3146
 30
12.9855
 70
192
 0
VERTEX
 8
R_HRE_1
 10
0.5533
 20
0.9844
 30
12.9855
 70
192
 0
VERTEX
 8
R_HRE_1
 10
0.2606
 20
1.2237
 30
12.9259
 70
192
 0
VERTEX
 8
R_HRE_1
 10
-0.0923
 20
1.189
 30
12.7821
 70
192
 0
VERTEX
 8
R_HRE_1
 10
0.9487
 20
1.7901
 30
10.7
 70
192
 0
VERTEX
 8
R_HRE_1
 10
0.6685
 20
1.6283
 30
10.4649
 70
192
 0
VERTEX
 8
R_HRE_1
 10
0.494
 20
1.3584
 30
10.2571
 70
192
 0
VERTEX
 8
R_HRE_1
 10
0.5682
 20
0.993
 30
10.171
 70
192
 0
VERTEX
 8
R_HRE_1
 10
1.3182
 20
-0.306
 30
10.171
 70
192
 0
VERTEX
 8
R_HRE_1
 10
1.5975
 20
-0.553
 30
10.2571
 70
192
 0
VERTEX
 8
R_HRE_1
 10
1.9185
 20
-0.5368
 30
10.4649
 70
192
 0
VERTEX
 8
R_HRE_1
 10
2.1987
 20
-0.375
 30
10.7
 70
192
 0
VERTEX
 8
R_HRE_1
 10
2.3732
 20
-0.1051
 30
10.9078
 70
192
 0
VERTEX
 8
R_HRE_1
 10
2.299
 20
0.2603
 30
10.9939
 70
192
 0
VERTEX
 8
R_HRE_1
 10
1.549
 20
1.5593
 30
10.9939
 70
192
 0
VERTEX
 8
R_HRE_1
 10
1.2697
 20
1.8063
 30
10.9078
 70
192
 0
VERTEX
 8
R_HRE_1
 10
0.9487
 20
1.7901
 30
10.7
 70
192
 0
VERTEX
 8
R_HRE_1
 10
2.3419
 20
2.5944
 30
8.9134
 70
192
 0
VERTEX
 8
R_HRE_1
 10
2.1101
 20
2.4606
 30
8.6161
 70
192
 0
VERTEX
 8
R_HRE_1
 10
1.9785
 20
2.2155
 30
8.3534
 70
192
 0
VERTEX
 8
R_HRE_1
 10
2.0704
 20
1.8603
 30
8.2446
 70
192
 0
VERTEX
 8
R_HRE_1
 10
2.8204
 20
0.5613
 30
8.2446
 70
192
 0
VERTEX
 8
R_HRE_1
 10
3.082
 20
0.3041
 30
8.3534
 70
192
 0
VERTEX
 8
R_HRE_1
 10
3.3601
 20
0.2955
 30
8.6161
 70
192
 0
VERTEX
 8
R_HRE_1
 10
3.5919
 20
0.4294
 30
8.9134
 70
192
 0
VERTEX
 8
R_HRE_1
 10
3.7236
 20
0.6745
 30
9.1761
 70
192
 0
VERTEX
 8
R_HRE_1
 10
3.6316
 20
1.0297
 30
9.285
 70
192
 0
VERTEX
 8
R_HRE_1
 10
2.8816
 20
2.3287
 30
9.285
 70
192
 0
VERTEX
 8
R_HRE_1
 10
2.62
 20
2.5859
 30
9.1761
 70
192
 0
VERTEX
 8
R_HRE_1
 10
2.3419
 20
2.5944
 30
8.9134
 70
192
 0
VERTEX
 8
R_HRE_1
 10
4.0263
 20
3.5669
 30
7.5003
 70
192
 0
VERTEX
 8
R_HRE_1
 10
3.8531
 20
3.4669
 30
7.1539
 70
192
 0
VERTEX
 8
R_HRE_1
 10
3.7732
 20
3.2517
 30
6.8477
 70
192
 0
VERTEX
 8
R_HRE_1
 10
3.8866
 20
2.9089
 30
6.7208
 70
192
 0
VERTEX
 8
R_HRE_1
 10
4.6366
 20
1.6099
 30
6.7208
 70
192
 0
VERTEX
 8
R_HRE_1
 10
4.8768
 20
1.3403
 30
6.8477
 70
192
 0
VERTEX
 8
R_HRE_1
 10
5.1031
 20
1.3019
 30
7.1539
 70
192
 0
VERTEX
 8
R_HRE_1
 10
5.2763
 20
1.4019
 30
7.5003
 70
192
 0
VERTEX
 8
R_HRE_1
 10
5.3562
 20
1.6171
 30
7.8065
 70
192
 0
VERTEX
 8
R_HRE_1
 10
5.2428
 20
1.9599
 30
7.9333
 70
192
 0
VERTEX
 8
R_HRE_1
 10
4.4928
 20
3.2589
 30
7.9333
 70
192
 0
VERTEX
 8
R_HRE_1
 10
4.2526
 20
3.5285
 30
7.8065
 70
192
 0
VERTEX
 8
R_HRE_1
 10
4.0263
 20
3.5669
 30
7.5003
 70
192
 0
VERTEX
 8
R_HRE_1
 10
5.9284
 20
4.6651
 30
6.5224
 70
192
 0
VERTEX
 8
R_HRE_1
 10
5.8213
 20
4.6033
 30
6.142
 70
192
 0
VERTEX
 8
R_HRE_1
 10
5.7999
 20
4.4218
 30
5.8057
 70
192
 0
VERTEX
 8
R_HRE_1
 10
5.9375
 20
4.093
 30
5.6665
 70
192
 0
VERTEX
 8
R_HRE_1
 10
6.6875
 20
2.794
 30
5.6665
 70
192
 0
VERTEX
 8
R_HRE_1
 10
6.9035
 20
2.5104
 30
5.8057
 70
192
 0
VERTEX
 8
R_HRE_1
 10
7.0713
 20
2.4382
 30
6.142
 70
192
 0
VERTEX
 8
R_HRE_1
 10
7.1784
 20
2.5
 30
6.5224
 70
192
 0
VERTEX
 8
R_HRE_1
 10
7.1998
 20
2.6815
 30
6.8587
 70
192
 0
VERTEX
 8
R_HRE_1
 10
7.0622
 20
3.0103
 30
6.9979
 70
192
 0
VERTEX
 8
R_HRE_1
 10
6.3122
 20
4.3093
 30
6.9979
 70
192
 0
VERTEX
 8
R_HRE_1
 10
6.0962
 20
4.5929
 30
6.8587
 70
192
 0
VERTEX
 8
R_HRE_1
 10
5.9284
 20
4.6651
 30
6.5224
 70
192
 0
VERTEX
 8
R_HRE_1
 10
7.9649
 20
5.8409
 30
6.0226
 70
192
 0
VERTEX
 8
R_HRE_1
 10
7.9287
 20
5.82
 30
5.6248
 70
192
 0
VERTEX
 8
R_HRE_1
 10
7.9699
 20
5.6747
 30
5.2731
 70
192
 0
VERTEX
 8
R_HRE_1
 10
8.1335
 20
5.3608
 30
5.1275
 70
192
 0
VERTEX
 8
R_HRE_1
 10
8.8835
 20
4.0618
 30
5.1275
 70
192
 0
VERTEX
 8
R_HRE_1
 10
9.0735
 20
3.7633
 30
5.2731
 70
192
 0
VERTEX
 8
R_HRE_1
 10
9.1787
 20
3.6549
 30
5.6248
 70
192
 0
VERTEX
 8
R_HRE_1
 10
9.2149
 20
3.6758
 30
6.0226
 70
192
 0
VERTEX
 8
R_HRE_1
 10
9.1737
 20
3.8211
 30
6.3742
 70
192
 0
VERTEX
 8
R_HRE_1
 10
9.0102
 20
4.135
 30
6.5198
 70
192
 0
VERTEX
 8
R_HRE_1
 10
8.2602
 20
5.434
 30
6.5198
 70
192
 0
VERTEX
 8
R_HRE_1
 10
8.0702
 20
5.7325
 30
6.3742
 70
192
 0
VERTEX
 8
R_HRE_1
 10
7.9649
 20
5.8409
 30
6.0226
 70
192
 0
VERTEX
 8
R_HRE_1
 10
10.047
 20
7.043
 30
6.0226
 70
192
 0
VERTEX
 8
R_HRE_1
 10
10.0832
 20
7.0639
 30
5.6248
 70
192
 0
VERTEX
 8
R_HRE_1
 10
10.1884
 20
6.9555
 30
5.2731
 70
192
 0
VERTEX
 8
R_HRE_1
 10
10.3785
 20
6.657
 30
5.1275
 70
192
 0
VERTEX
 8
R_HRE_1
 10
11.1285
 20
5.358
 30
5.1275
 70
192
 0
VERTEX
 8
R_HRE_1
 10
11.292
 20
5.0441
 30
5.2731
 70
192
 0
VERTEX
 8
R_HRE_1
 10
11.3332
 20
4.8988
 30
5.6248
 70
192
 0
VERTEX
 8
R_HRE_1
 10
11.297
 20
4.8779
 30
6.0226
 70
192
 0
VERTEX
 8
R_HRE_1
 10
11.1918
 20
4.9863
 30
6.3742
 70
192
 0
VERTEX
 8
R_HRE_1
 10
11.0017
 20
5.2848
 30
6.5198
 70
192
 0
VERTEX
 8
R_HRE_1
 10
10.2517
 20
6.5838
 30
6.5198
 70
192
 0
VERTEX
 8
R_HRE_1
 10
10.0882
 20
6.8977
 30
6.3742
 70
192
 0
VERTEX
 8
R_HRE_1
 10
10.047
 20
7.043
 30
6.0226
 70
192
 0
VERTEX
 8
R_HRE_1
 10
12.0836
 20
8.2188
 30
6.5224
 70
192
 0
VERTEX
 8
R_HRE_1
 10
12.1906
 20
8.2806
 30
6.142
 70
192
 0
VERTEX
 8
R_HRE_1
 10
12.3584
 20
8.2084
 30
5.8057
 70
192
 0
VERTEX
 8
R_HRE_1
 10
12.5744
 20
7.9248
 30
5.6665
 70
192
 0
VERTEX
 8
R_HRE_1
 10
13.3244
 20
6.6258
 30
5.6665
 70
192
 0
VERTEX
 8
R_HRE_1
 10
13.462
 20
6.297
 30
5.8057
 70
192
 0
VERTEX
 8
R_HRE_1
 10
13.4406
 20
6.1155
 30
6.142
 70
192
 0
VERTEX
 8
R_HRE_1
 10
13.3336
 20
6.0537
 30
6.5224
 70
192
 0
VERTEX
 8
R_HRE_1
 10
13.1657
 20
6.1259
 30
6.8587
 70
192
 0
VERTEX
 8
R_HRE_1
 10
12.9498
 20
6.4095
 30
6.9979
 70
192
 0
VERTEX
 8
R_HRE_1
 10
12.1998
 20
7.7085
 30
6.9979
 70
192
 0
VERTEX
 8
R_HRE_1
 10
12.0622
 20
8.0373
 30
6.8587
 70
192
 0
VERTEX
 8
R_HRE_1
 10
12.0836
 20
8.2188
 30
6.5224
 70
192
 0
VERTEX
 8
R_HRE_1
 10
13.9856
 20
9.3169
 30
7.5003
 70
192
 0
VERTEX
 8
R_HRE_1
 10
14.1588
 20
9.4169
 30
7.1539
 70
192
 0
VERTEX
 8
R_HRE_1
 10
14.3851
 20
9.3785
 30
6.8477
 70
192
 0
VERTEX
 8
R_HRE_1
 10
14.6253
 20
9.1089
 30
6.7208
 70
192
 0
VERTEX
 8
R_HRE_1
 10
15.3753
 20
7.8099
 30
6.7208
 70
192
 0
VERTEX
 8
R_HRE_1
 10
15.4887
 20
7.4671
 30
6.8477
 70
192
 0
VERTEX
 8
R_HRE_1
 10
15.4088
 20
7.2519
 30
7.1539
 70
192
 0
VERTEX
 8
R_HRE_1
 10
15.2356
 20
7.1519
 30
7.5003
 70
192
 0
VERTEX
 8
R_HRE_1
 10
15.0093
 20
7.1903
 30
7.8065
 70
192
 0
VERTEX
 8
R_HRE_1
 10
14.7691
 20
7.4599
 30
7.9333
 70
192
 0
VERTEX
 8
R_HRE_1
 10
14.0191
 20
8.7589
 30
7.9333
 70
192
 0
VERTEX
 8
R_HRE_1
 10
13.9057
 20
9.1017
 30
7.8065
 70
192
 0
VERTEX
 8
R_HRE_1
 10
13.9856
 20
9.3169
 30
7.5003
 70
192
 0
VERTEX
 8
R_HRE_1
 10
15.67
 20
10.2894
 30
8.9134
 70
192
 0
VERTEX
 8
R_HRE_1
 10
15.9018
 20
10.4233
 30
8.6161
 70
192
 0
VERTEX
 8
R_HRE_1
 10
16.1799
 20
10.4147
 30
8.3534
 70
192
 0
VERTEX
 8
R_HRE_1
 10
16.4416
 20
10.1575
 30
8.2446
 70
192
 0
VERTEX
 8
R_HRE_1
 10
17.1916
 20
8.8585
 30
8.2446
 70
192
 0
VERTEX
 8
R_HRE_1
 10
17.2835
 20
8.5033
 30
8.3534
 70
192
 0
VERTEX
 8
R_HRE_1
 10
17.1518
 20
8.2582
 30
8.6161
 70
192
 0
VERTEX
 8
R_HRE_1
 10
16.92
 20
8.1244
 30
8.9134
 70
192
 0
VERTEX
 8
R_HRE_1
 10
16.6419
 20
8.1329
 30
9.1761
 70
192
 0
VERTEX
 8
R_HRE_1
 10
16.3803
 20
8.3901
 30
9.285
 70
192
 0
VERTEX
 8
R_HRE_1
 10
15.6303
 20
9.6891
 30
9.285
 70
192
 0
VERTEX
 8
R_HRE_1
 10
15.5384
 20
10.0443
 30
9.1761
 70
192
 0
VERTEX
 8
R_HRE_1
 10
15.67
 20
10.2894
 30
8.9134
 70
192
 0
VERTEX
 8
R_HRE_1
 10
17.0632
 20
11.0938
 30
10.7
 70
192
 0
VERTEX
 8
R_HRE_1
 10
17.3435
 20
11.2556
 30
10.4649
 70
192
 0
VERTEX
 8
R_HRE_1
 10
17.6644
 20
11.2718
 30
10.2571
 70
192
 0
VERTEX
 8
R_HRE_1
 10
17.9438
 20
11.0248
 30
10.171
 70
192
 0
VERTEX
 8
R_HRE_1
 10
18.6938
 20
9.7258
 30
10.171
 70
192
 0
VERTEX
 8
R_HRE_1
 10
18.7679
 20
9.3604
 30
10.2571
 70
192
 0
VERTEX
 8
R_HRE_1
 10
18.5935
 20
9.0905
 30
10.4649
 70
192
 0
VERTEX
 8
R_HRE_1
 10
18.3132
 20
8.9287
 30
10.7
 70
192
 0
VERTEX
 8
R_HRE_1
 10
17.9923
 20
8.9125
 30
10.9078
 70
192
 0
VERTEX
 8
R_HRE_1
 10
17.7129
 20
9.1595
 30
10.9939
 70
192
 0
VERTEX
 8
R_HRE_1
 10
16.9629
 20
10.4585
 30
10.9939
 70
192
 0
VERTEX
 8
R_HRE_1
 10
16.8887
 20
10.8239
 30
10.9078
 70
192
 0
VERTEX
 8
R_HRE_1
 10
17.0632
 20
11.0938
 30
10.7
 70
192
 0
VERTEX
 8
R_HRE_1
 10
18.1042
 20
11.6948
 30
12.7821
 70
192
 0
VERTEX
 8
R_HRE_1
 10
18.4207
 20
11.8775
 30
12.6194
 70
192
 0
VERTEX
 8
R_HRE_1
 10
18.7736
 20
11.9122
 30
12.4756
 70
192
 0
VERTEX
 8
R_HRE_1
 10
19.0663
 20
11.6729
 30
12.416
 70
192
 0
VERTEX
 8
R_HRE_1
 10
19.8163
 20
10.3739
 30
12.416
 70
192
 0
VERTEX
 8
R_HRE_1
 10
19.8772
 20
10.0008
 30
12.4756
 70
192
 0
VERTEX
 8
R_HRE_1
 10
19.6707
 20
9.7125
 30
12.6194
 70
192
 0
VERTEX
 8
R_HRE_1
 10
19.3542
 20
9.5298
 30
12.7821
 70
192
 0
VERTEX
 8
R_HRE_1
 10
19.0013
 20
9.4951
 30
12.9259
 70
192
 0
VERTEX
 8
R_HRE_1
 10
18.7087
 20
9.7344
 30
12.9855
 70
192
 0
VERTEX
 8
R_HRE_1
 10
17.9587
 20
11.0334
 30
12.9855
 70
192
 0
VERTEX
 8
R_HRE_1
 10
17.8977
 20
11.4065
 30
12.9259
 70
192
 0
VERTEX
 8
R_HRE_1
 10
18.1042
 20
11.6948
 30
12.7821
 70
192
 0
VERTEX
 8
R_HRE_1
 10
18.7476
 20
12.0663
 30
15.0686
 70
192
 0
VERTEX
 8
R_HRE_1
 10
19.0865
 20
12.2619
 30
14.9854
 70
192
 0
VERTEX
 8
R_HRE_1
 10
19.4592
 20
12.308
 30
14.9119
 70
192
 0
VERTEX
 8
R_HRE_1
 10
19.76
 20
12.0734
 30
14.8815
 70
192
 0
VERTEX
 8
R_HRE_1
 10
20.51
 20
10.7744
 30
14.8815
 70
192
 0
VERTEX
 8
R_HRE_1
 10
20.5627
 20
10.3966
 30
14.9119
 70
192
 0
VERTEX
 8
R_HRE_1
 10
20.3365
 20
10.0968
 30
14.9854
 70
192
 0
VERTEX
 8
R_HRE_1
 10
19.9976
 20
9.9012
 30
15.0686
 70
192
 0
VERTEX
 8
R_HRE_1
 10
19.6249
 20
9.8551
 30
15.1421
 70
192
 0
VERTEX
 8
R_HRE_1
 10
19.3241
 20
10.0897
 30
15.1725
 70
192
 0
VERTEX
 8
R_HRE_1
 10
18.5741
 20
11.3887
 30
15.1725
 70
192
 0
VERTEX
 8
R_HRE_1
 10
18.5214
 20
11.7665
 30
15.1421
 70
192
 0
VERTEX
 8
R_HRE_1
 10
18.7476
 20
12.0663
 30
15.0686
 70
192
 0
VERTEX
 8
R_HRE_1
 10
0
 20
0
 30
0
 70
128
 71
1
 72
2
 73
15
 74
14
 0
VERTEX
 8
R_HRE_1
 10
0
 20
0
 30
0
 70
128
 71
2
 72
3
 73
16
 74
15
 0
VERTEX
 8
R_HRE_1
 10
0
 20
0
 30
0
 70
128
 71
3
 72
4
 73
17
 74
16
 0
VERTEX
 8
R_HRE_1
 10
0
 20
0
 30
0
 70
128
 71
4
 72
5
 73
18
 74
17
 0
VERTEX
 8
R_HRE_1
 10
0
 20
0
 30
0
 70
128
 71
5
 72
6
 73
19
 74
18
 0
VERTEX
 8
R_HRE_1
 10
0
 20
0
 30
0
 70
128
 71
6
 72
7
 73
20
 74
19
 0
VERTEX
 8
R_HRE_1
 10
0
 20
0
 30
0
 70
128
 71
7
 72
8
 73
21
 74
20
 0
VERTEX
 8
R_HRE_1
 10
0
 20
0
 30
0
 70
128
 71
8
 72
9
 73
22
 74
21
 0
VERTEX
 8
R_HRE_1
 10
0
 20
0
 30
0
 70
128
 71
9
 72
10
 73
23
 74
22
 0
VERTEX
 8
R_HRE_1
 10
0
 20
0
 30
0
 70
128
 71
10
 72
11
 73
24
 74
23
 0
VERTEX
 8
R_HRE_1
 10
0
 20
0
 30
0
 70
128
 71
11
 72
12
 73
25
 74
24
 0
VERTEX
 8
R_HRE_1
 10
0
 20
0
 30
0
 70
128
 71
12
 72
13
 73
26
 74
25
 0
VERTEX
 8
R_HRE_1
 10
0
 20
0
 30
0
 70
128
 71
14
 72
15
 73
28
 74
27
 0
VERTEX
 8
R_HRE_1
 10
0
 20
0
 30
0
 70
128
 71
15
 72
16
 73
29
 74
28
 0
VERTEX
 8
R_HRE_1
 10
0
 20
0
 30
0
 70
128
 71
16
 72
17
 73
30
 74
29
 0
VERTEX
 8
R_HRE_1
 10
0
 20
0
 30
0
 70
128
 71
17
 72
18
 73
31
 74
30
 0
VERTEX
 8
R_HRE_1
 10
0
 20
0
 30
0
 70
128
 71
18
 72
19
 73
32
 74
31
 0
VERTEX
 8
R_HRE_1
 10
0
 20
0
 30
0
 70
128
 71
19
 72
20
 73
33
 74
32
 0
VERTEX
 8
R_HRE_1
 10
0
 20
0
 30
0
 70
128
 71
20
 72
21
 73
34
 74
33
 0
VERTEX
 8
R_HRE_1
 10
0
 20
0
 30
0
 70
128
 71
21
 72
22
 73
35
 74
34
 0
VERTEX
 8
R_HRE_1
 10
0
 20
0
 30
0
 70
128
 71
22
 72
23
 73
36
 74
35
 0
VERTEX
 8
R_HRE_1
 10
0
 20
0
 30
0
 70
128
 71
23
 72
24
 73
37
 74
36
 0
VERTEX
 8
R_HRE_1
 10
0
 20
0
 30
0
 70
128
 71
24
 72
25
 73
38
 74
37
 0
VERTEX
 8
R_HRE_1
 10
0
 20
0
 30
0
 70
128
 71
25
 72
26
 73
39
 74
38
 0
VERTEX
 8
R_HRE_1
 10
0
 20
0
 30
0
 70
128
 71
27
 72
28
 73
41
 74
40
 0
VERTEX
 8
R_HRE_1
 10
0
 20
0
 30
0
 70
128
 71
28
 72
29
 73
42
 74
41
 0
VERTEX
 8
R_HRE_1
 10
0
 20
0
 30
0
 70
128
 71
29
 72
30
 73
43
 74
42
 0
VERTEX
 8
R_HRE_1
 10
0
 20
0
 30
0
 70
128
 71
30
 72
31
 73
44
 74
43
 0
VERTEX
 8
R_HRE_1
 10
0
 20
0
 30
0
 70
128
 71
31
 72
32
 73
45
 74
44
 0
VERTEX
 8
R_HRE_1
 10
0
 20
0
 30
0
 70
128
 71
32
 72
33
 73
46
 74
45
 0
VERTEX
 8
R_HRE_1
 10
0
 20
0
 30
0
 70
128
 71
33
 72
34
 73
47
 74
46
 0
VERTEX
 8
R_HRE_1
 10
0
 20
0
 30
0
 70
128
 71
34
 72
35
 73
48
 74
47
 0
VERTEX
 8
R_HRE_1
 10
0
 20
0
 30
0
 70
128
 71
35
 72
36
 73
49
 74
48
 0
VERTEX
 8
R_HRE_1
 10
0
 20
0
 30
0
 70
128
 71
36
 72
37
 73
50
 74
49
 0
VERTEX
 8
R_HRE_1
 10
0
 20
0
 30
0
 70
128
 71
37
 72
38
 73
51
 74
50
 0
VERTEX
 8
R_HRE_1
 10
0
 20
0
 30
0
 70
128
 71
38
 72
39
 73
52
 74
51
 0
VERTEX
 8
R_HRE_1
 10
0
 20
0
 30
0
 70
128
 71
40
 72
41
 73
54
 74
53
 0
VERTEX
 8
R_HRE_1
 10
0
 20
0
 30
0
 70
128
 71
41
 72
42
 73
55
 74
54
 0
VERTEX
 8
R_HRE_1
 10
0
 20
0
 30
0
 70
128
 71
42
 72
43
 73
56
 74
55
 0
VERTEX
 8
R_HRE_1
 10
0
 20
0
 30
0
 70
128
 71
43
 72
44
 73
57
 74
56
 0
VERTEX
 8
R_HRE_1
 10
0
 20
0
 30
0
 70
128
 71
44
 72
45
 73
58
 74
57
 0
VERTEX
 8
R_HRE_1
 10
0
 20
0
 30
0
 70
128
 71
45
 72
46
 73
59
 74
58
 0
VERTEX
 8
R_HRE_1
 10
0
 20
0
 30
0
 70
128
 71
46
 72
47
 73
60
 74
59
 0
VERTEX
 8
R_HRE_1
 10
0
 20
0
 30
0
 70
128
 71
47
 72
48
 73
61
 74
60
 0
VERTEX
 8
R_HRE_1
 10
0
 20
0
 30
0
 70
128
 71
48
 72
49
 73
62
 74
61
 0
VERTEX
 8
R_HRE_1
 10
0
 20
0
 30
0
 70
128
 71
49
 72
50
 73
63
 74
62
 0
VERTEX
 8
R_HRE_1
 10
0
 20
0
 30
0
 70
128
 71
50
 72
51
 73
64
 74
63
 0
VERTEX
 8
R_HRE_1
 10
0
 20
0
 30
0
 70
128
 71
51
 72
52
 73
65
 74
64
 0
VERTEX
 8
R_HRE_1
 10
0
 20
0
 30
0
 70
128
 71
53
 72
54
 73
67
 74
66
 0
VERTEX
 8
R_HRE_1
 10
0
 20
0
 30
0
 70
128
 71
54
 72
55
 73
68
 74
67
 0
VERTEX
 8
R_HRE_1
 10
0
 20
0
 30
0
 70
128
 71
55
 72
56
 73
69
 74
68
 0
VERTEX
 8
R_HRE_1
 10
0
 20
0
 30
0
 70
128
 71
56
 72
57
 73
70
 74
69
 0
VERTEX
 8
R_HRE_1
 10
0
 20
0
 30
0
 70
128
 71
57
 72
58
 73
71
 74
70
 0
VERTEX
 8
R_HRE_1
 10
0
 20
0
 30
0
 70
128
 71
58
 72
59
 73
72
 74
71
 0
VERTEX
 8
R_HRE_1
 10
0
 20
0
 30
0
 70
128
 71
59
 72
60
 73
73
 74
72
 0
VERTEX
 8
R_HRE_1
 10
0
 20
0
 30
0
 70
128
 71
60
 72
61
 73
74
 74
73
 0
VERTEX
 8
R_HRE_1
 10
0
 20
0
 30
0
 70
128
 71
61
 72
62
 73
75
 74
74
 0
VERTEX
 8
R_HRE_1
 10
0
 20
0
 30
0
 70
128
 71
62
 72
63
 73
76
 74
75
 0
VERTEX
 8
R_HRE_1
 10
0
 20
0
 30
0
 70
128
 71
63
 72
64
 73
77
 74
76
 0
VERTEX
 8
R_HRE_1
 10
0
 20
0
 30
0
 70
128
 71
64
 72
65
 73
78
 74
77
 0
VERTEX
 8
R_HRE_1
 10
0
 20
0
 30
0
 70
128
 71
66
 72
67
 73
80
 74
79
 0
VERTEX
 8
R_HRE_1
 10
0
 20
0
 30
0
 70
128
 71
67
 72
68
 73
81
 74
80
 0
VERTEX
 8
R_HRE_1
 10
0
 20
0
 30
0
 70
128
 71
68
 72
69
 73
82
 74
81
 0
VERTEX
 8
R_HRE_1
 10
0
 20
0
 30
0
 70
128
 71
69
 72
70
 73
83
 74
82
 0
VERTEX
 8
R_HRE_1
 10
0
 20
0
 30
0
 70
128
 71
70
 72
71
 73
84
 74
83
 0
VERTEX
 8
R_HRE_1
 10
0
 20
0
 30
0
 70
128
 71
71
 72
72
 73
85
 74
84
 0
VERTEX
 8
R_HRE_1
 10
0
 20
0
 30
0
 70
128
 71
72
 72
73
 73
86
 74
85
 0
VERTEX
 8
R_HRE_1
 10
0
 20
0
 30
0
 70
128
 71
73
 72
74
 73
87
 74
86
 0
VERTEX
 8
R_HRE_1
 10
0
 20
0
 30
0
 70
128
 71
74
 72
75
 73
88
 74
87
 0
VERTEX
 8
R_HRE_1
 10
0
 20
0
 30
0
 70
128
 71
75
 72
76
 73
89
 74
88
 0
VERTEX
 8
R_HRE_1
 10
0
 20
0
 30
0
 70
128
 71
76
 72
77
 73
90
 74
89
 0
VERTEX
 8
R_HRE_1
 10
0
 20
0
 30
0
 70
128
 71
77
 72
78
 73
91
 74
90
 0
VERTEX
 8
R_HRE_1
 10
0
 20
0
 30
0
 70
128
 71
79
 72
80
 73
93
 74
92
 0
VERTEX
 8
R_HRE_1
 10
0
 20
0
 30
0
 70
128
 71
80
 72
81
 73
94
 74
93
 0
VERTEX
 8
R_HRE_1
 10
0
 20
0
 30
0
 70
128
 71
81
 72
82
 73
95
 74
94
 0
VERTEX
 8
R_HRE_1
 10
0
 20
0
 30
0
 70
128
 71
82
 72
83
 73
96
 74
95
 0
VERTEX
 8
R_HRE_1
 10
0
 20
0
 30
0
 70
128
 71
83
 72
84
 73
97
 74
96
 0
VERTEX
 8
R_HRE_1
 10
0
 20
0
 30
0
 70
128
 71
84
 72
85
 73
98
 74
97
 0
VERTEX
 8
R_HRE_1
 10
0
 20
0
 30
0
 70
128
 71
85
 72
86
 73
99
 74
98
 0
VERTEX
 8
R_HRE_1
 10
0
 20
0
 30
0
 70
128
 71
86
 72
87
 73
100
 74
99
 0
VERTEX
 8
R_HRE_1
 10
0
 20
0
 30
0
 70
128
 71
87
 72
88
 73
101
 74
100
 0
VERTEX
 8
R_HRE_1
 10
0
 20
0
 30
0
 70
128
 71
88
 72
89
 73
102
 74
101
 0
VERTEX
 8
R_HRE_1
 10
0
 20
0
 30
0
 70
128
 71
89
 72
90
 73
103
 74
102
 0
VERTEX
 8
R_HRE_1
 10
0
 20
0
 30
0
 70
128
 71
90
 72
91
 73
104
 74
103
 0
VERTEX
 8
R_HRE_1
 10
0
 20
0
 30
0
 70
128
 71
92
 72
93
 73
106
 74
105
 0
VERTEX
 8
R_HRE_1
 10
0
 20
0
 30
0
 70
128
 71
93
 72
94
 73
107
 74
106
 0
VERTEX
 8
R_HRE_1
 10
0
 20
0
 30
0
 70
128
 71
94
 72
95
 73
108
 74
107
 0
VERTEX
 8
R_HRE_1
 10
0
 20
0
 30
0
 70
128
 71
95
 72
96
 73
109
 74
108
 0
VERTEX
 8
R_HRE_1
 10
0
 20
0
 30
0
 70
128
 71
96
 72
97
 73
110
 74
109
 0
VERTEX
 8
R_HRE_1
 10
0
 20
0
 30
0
 70
128
 71
97
 72
98
 73
111
 74
110
 0
VERTEX
 8
R_HRE_1
 10
0
 20
0
 30
0
 70
128
 71
98
 72
99
 73
112
 74
111
 0
VERTEX
 8
R_HRE_1
 10
0
 20
0
 30
0
 70
128
 71
99
 72
100
 73
113
 74
112
 0
VERTEX
 8
R_HRE_1
 10
0
 20
0
 30
0
 70
128
 71
100
 72
101
 73
114
 74
113
 0
VERTEX
 8
R_HRE_1
 10
0
 20
0
 30
0
 70
128
 71
101
 72
102
 73
115
 74
114
 0
VERTEX
 8
R_HRE_1
 10
0
 20
0
 30
0
 70
128
 71
102
 72
103
 73
116
 74
115
 0
VERTEX
 8
R_HRE_1
 10
0
 20
0
 30
0
 70
128
 71
103
 72
104
 73
117
 74
116
 0
VERTEX
 8
R_HRE_1
 10
0
 20
0
 30
0
 70
128
 71
105
 72
106
 73
119
 74
118
 0
VERTEX
 8
R_HRE_1
 10
0
 20
0
 30
0
 70
128
 71
106
 72
107
 73
120
 74
119
 0
VERTEX
 8
R_HRE_1
 10
0
 20
0
 30
0
 70
128
 71
107
 72
108
 73
121
 74
120
 0
VERTEX
 8
R_HRE_1
 10
0
 20
0
 30
0
 70
128
 71
108
 72
109
 73
122
 74
121
 0
VERTEX
 8
R_HRE_1
 10
0
 20
0
 30
0
 70
128
 71
109
 72
110
 73
123
 74
122
 0
VERTEX
 8
R_HRE_1
 10
0
 20
0
 30
0
 70
128
 71
110
 72
111
 73
124
 74
123
 0
VERTEX
 8
R_HRE_1
 10
0
 20
0
 30
0
 70
128
 71
111
 72
112
 73
125
 74
124
 0
VERTEX
 8
R_HRE_1
 10
0
 20
0
 30
0
 70
128
 71
112
 72
113
 73
126
 74
125
 0
VERTEX
 8
R_HRE_1
 10
0
 20
0
 30
0
 70
128
 71
113
 72
114
 73
127
 74
126
 0
VERTEX
 8
R_HRE_1
 10
0
 20
0
 30
0
 70
128
 71
114
 72
115
 73
128
 74
127
 0
VERTEX
 8
R_HRE_1
 10
0
 20
0
 30
0
 70
128
 71
115
 72
116
 73
129
 74
128
 0
VERTEX
 8
R_HRE_1
 10
0
 20
0
 30
0
 70
128
 71
116
 72
117
 73
130
 74
129
 0
VERTEX
 8
R_HRE_1
 10
0
 20
0
 30
0
 70
128
 71
118
 72
119
 73
132
 74
131
 0
VERTEX
 8
R_HRE_1
 10
0
 20
0
 30
0
 70
128
 71
119
 72
120
 73
133
 74
132
 0
VERTEX
 8
R_HRE_1
 10
0
 20
0
 30
0
 70
128
 71
120
 72
121
 73
134
 74
133
 0
VERTEX
 8
R_HRE_1
 10
0
 20
0
 30
0
 70
128
 71
121
 72
122
 73
135
 74
134
 0
VERTEX
 8
R_HRE_1
 10
0
 20
0
 30
0
 70
128
 71
122
 72
123
 73
136
 74
135
 0
VERTEX
 8
R_HRE_1
 10
0
 20
0
 30
0
 70
128
 71
123
 72
124
 73
137
 74
136
 0
VERTEX
 8
R_HRE_1
 10
0
 20
0
 30
0
 70
128
 71
124
 72
125
 73
138
 74
137
 0
VERTEX
 8
R_HRE_1
 10
0
 20
0
 30
0
 70
128
 71
125
 72
126
 73
139
 74
138
 0
VERTEX
 8
R_HRE_1
 10
0
 20
0
 30
0
 70
128
 71
126
 72
127
 73
140
 74
139
 0
VERTEX
 8
R_HRE_1
 10
0
 20
0
 30
0
 70
128
 71
127
 72
128
 73
141
 74
140
 0
VERTEX
 8
R_HRE_1
 10
0
 20
0
 30
0
 70
128
 71
128
 72
129
 73
142
 74
141
 0
VERTEX
 8
R_HRE_1
 10
0
 20
0
 30
0
 70
128
 71
129
 72
130
 73
143
 74
142
 0
VERTEX
 8
R_HRE_1
 10
0
 20
0
 30
0
 70
128
 71
131
 72
132
 73
145
 74
144
 0
VERTEX
 8
R_HRE_1
 10
0
 20
0
 30
0
 70
128
 71
132
 72
133
 73
146
 74
145
 0
VERTEX
 8
R_HRE_1
 10
0
 20
0
 30
0
 70
128
 71
133
 72
134
 73
147
 74
146
 0
VERTEX
 8
R_HRE_1
 10
0
 20
0
 30
0
 70
128
 71
134
 72
135
 73
148
 74
147
 0
VERTEX
 8
R_HRE_1
 10
0
 20
0
 30
0
 70
128
 71
135
 72
136
 73
149
 74
148
 0
VERTEX
 8
R_HRE_1
 10
0
 20
0
 30
0
 70
128
 71
136
 72
137
 73
150
 74
149
 0
VERTEX
 8
R_HRE_1
 10
0
 20
0
 30
0
 70
128
 71
137
 72
138
 73
151
 74
150
 0
VERTEX
 8
R_HRE_1
 10
0
 20
0
 30
0
 70
128
 71
138
 72
139
 73
152
 74
151
 0
VERTEX
 8
R_HRE_1
 10
0
 20
0
 30
0
 70
128
 71
139
 72
140
 73
153
 74
152
 0
VERTEX
 8
R_HRE_1
 10
0
 20
0
 30
0
 70
128
 71
140
 72
141
 73
154
 74
153
 0
VERTEX
 8
R_HRE_1
 10
0
 20
0
 30
0
 70
128
 71
141
 72
142
 73
155
 74
154
 0
VERTEX
 8
R_HRE_1
 10
0
 20
0
 30
0
 70
128
 71
142
 72
143
 73
156
 74
155
 0
VERTEX
 8
R_HRE_1
 10
0
 20
0
 30
0
 70
128
 71
144
 72
145
 73
158
 74
157
 0
VERTEX
 8
R_HRE_1
 10
0
 20
0
 30
0
 70
128
 71
145
 72
146
 73
159
 74
158
 0
VERTEX
 8
R_HRE_1
 10
0
 20
0
 30
0
 70
128
 71
146
 72
147
 73
160
 74
159
 0
VERTEX
 8
R_HRE_1
 10
0
 20
0
 30
0
 70
128
 71
147
 72
148
 73
161
 74
160
 0
VERTEX
 8
R_HRE_1
 10
0
 20
0
 30
0
 70
128
 71
148
 72
149
 73
162
 74
161
 0
VERTEX
 8
R_HRE_1
 10
0
 20
0
 30
0
 70
128
 71
149
 72
150
 73
163
 74
162
 0
VERTEX
 8
R_HRE_1
 10
0
 20
0
 30
0
 70
128
 71
150
 72
151
 73
164
 74
163
 0
VERTEX
 8
R_HRE_1
 10
0
 20
0
 30
0
 70
128
 71
151
 72
152
 73
165
 74
164
 0
VERTEX
 8
R_HRE_1
 10
0
 20
0
 30
0
 70
128
 71
152
 72
153
 73
166
 74
165
 0
VERTEX
 8
R_HRE_1
 10
0
 20
0
 30
0
 70
128
 71
153
 72
154
 73
167
 74
166
 0
VERTEX
 8
R_HRE_1
 10
0
 20
0
 30
0
 70
128
 71
154
 72
155
 73
168
 74
167
 0
VERTEX
 8
R_HRE_1
 10
0
 20
0
 30
0
 70
128
 71
155
 72
156
 73
169
 74
168
 0
VERTEX
 8
R_HRE_1
 10
0
 20
0
 30
0
 70
128
 71
157
 72
158
 73
171
 74
170
 0
VERTEX
 8
R_HRE_1
 10
0
 20
0
 30
0
 70
128
 71
158
 72
159
 73
172
 74
171
 0
VERTEX
 8
R_HRE_1
 10
0
 20
0
 30
0
 70
128
 71
159
 72
160
 73
173
 74
172
 0
VERTEX
 8
R_HRE_1
 10
0
 20
0
 30
0
 70
128
 71
160
 72
161
 73
174
 74
173
 0
VERTEX
 8
R_HRE_1
 10
0
 20
0
 30
0
 70
128
 71
161
 72
162
 73
175
 74
174
 0
VERTEX
 8
R_HRE_1
 10
0
 20
0
 30
0
 70
128
 71
162
 72
163
 73
176
 74
175
 0
VERTEX
 8
R_HRE_1
 10
0
 20
0
 30
0
 70
128
 71
163
 72
164
 73
177
 74
176
 0
VERTEX
 8
R_HRE_1
 10
0
 20
0
 30
0
 70
128
 71
164
 72
165
 73
178
 74
177
 0
VERTEX
 8
R_HRE_1
 10
0
 20
0
 30
0
 70
128
 71
165
 72
166
 73
179
 74
178
 0
VERTEX
 8
R_HRE_1
 10
0
 20
0
 30
0
 70
128
 71
166
 72
167
 73
180
 74
179
 0
VERTEX
 8
R_HRE_1
 10
0
 20
0
 30
0
 70
128
 71
167
 72
168
 73
181
 74
180
 0
VERTEX
 8
R_HRE_1
 10
0
 20
0
 30
0
 70
128
 71
168
 72
169
 73
182
 74
181
 0
VERTEX
 8
R_HRE_1
 10
0
 20
0
 30
0
 70
128
 71
170
 72
171
 73
184
 74
183
 0
VERTEX
 8
R_HRE_1
 10
0
 20
0
 30
0
 70
128
 71
171
 72
172
 73
185
 74
184
 0
VERTEX
 8
R_HRE_1
 10
0
 20
0
 30
0
 70
128
 71
172
 72
173
 73
186
 74
185
 0
VERTEX
 8
R_HRE_1
 10
0
 20
0
 30
0
 70
128
 71
173
 72
174
 73
187
 74
186
 0
VERTEX
 8
R_HRE_1
 10
0
 20
0
 30
0
 70
128
 71
174
 72
175
 73
188
 74
187
 0
VERTEX
 8
R_HRE_1
 10
0
 20
0
 30
0
 70
128
 71
175
 72
176
 73
189
 74
188
 0
VERTEX
 8
R_HRE_1
 10
0
 20
0
 30
0
 70
128
 71
176
 72
177
 73
190
 74
189
 0
VERTEX
 8
R_HRE_1
 10
0
 20
0
 30
0
 70
128
 71
177
 72
178
 73
191
 74
190
 0
VERTEX
 8
R_HRE_1
 10
0
 20
0
 30
0
 70
128
 71
178
 72
179
 73
192
 74
191
 0
VERTEX
 8
R_HRE_1
 10
0
 20
0
 30
0
 70
128
 71
179
 72
180
 73
193
 74
192
 0
VERTEX
 8
R_HRE_1
 10
0
 20
0
 30
0
 70
128
 71
180
 72
181
 73
194
 74
193
 0
VERTEX
 8
R_HRE_1
 10
0
 20
0
 30
0
 70
128
 71
181
 72
182
 73
195
 74
194
 0
VERTEX
 8
R_HRE_1
 10
0
 20
0
 30
0
 70
128
 71
183
 72
184
 73
197
 74
196
 0
VERTEX
 8
R_HRE_1
 10
0
 20
0
 30
0
 70
128
 71
184
 72
185
 73
198
 74
197
 0
VERTEX
 8
R_HRE_1
 10
0
 20
0
 30
0
 70
128
 71
185
 72
186
 73
199
 74
198
 0
VERTEX
 8
R_HRE_1
 10
0
 20
0
 30
0
 70
128
 71
186
 72
187
 73
200
 74
199
 0
VERTEX
 8
R_HRE_1
 10
0
 20
0
 30
0
 70
128
 71
187
 72
188
 73
201
 74
200
 0
VERTEX
 8
R_HRE_1
 10
0
 20
0
 30
0
 70
128
 71
188
 72
189
 73
202
 74
201
 0
VERTEX
 8
R_HRE_1
 10
0
 20
0
 30
0
 70
128
 71
189
 72
190
 73
203
 74
202
 0
VERTEX
 8
R_HRE_1
 10
0
 20
0
 30
0
 70
128
 71
190
 72
191
 73
204
 74
203
 0
VERTEX
 8
R_HRE_1
 10
0
 20
0
 30
0
 70
128
 71
191
 72
192
 73
205
 74
204
 0
VERTEX
 8
R_HRE_1
 10
0
 20
0
 30
0
 70
128
 71
192
 72
193
 73
206
 74
205
 0
VERTEX
 8
R_HRE_1
 10
0
 20
0
 30
0
 70
128
 71
193
 72
194
 73
207
 74
206
 0
VERTEX
 8
R_HRE_1
 10
0
 20
0
 30
0
 70
128
 71
194
 72
195
 73
208
 74
207
 0
VERTEX
 8
R_HRE_1
 10
0
 20
0
 30
0
 70
128
 71
196
 72
197
 73
210
 74
209
 0
VERTEX
 8
R_HRE_1
 10
0
 20
0
 30
0
 70
128
 71
197
 72
198
 73
211
 74
210
 0
VERTEX
 8
R_HRE_1
 10
0
 20
0
 30
0
 70
128
 71
198
 72
199
 73
212
 74
211
 0
VERTEX
 8
R_HRE_1
 10
0
 20
0
 30
0
 70
128
 71
199
 72
200
 73
213
 74
212
 0
VERTEX
 8
R_HRE_1
 10
0
 20
0
 30
0
 70
128
 71
200
 72
201
 73
214
 74
213
 0
VERTEX
 8
R_HRE_1
 10
0
 20
0
 30
0
 70
128
 71
201
 72
202
 73
215
 74
214
 0
VERTEX
 8
R_HRE_1
 10
0
 20
0
 30
0
 70
128
 71
202
 72
203
 73
216
 74
215
 0
VERTEX
 8
R_HRE_1
 10
0
 20
0
 30
0
 70
128
 71
203
 72
204
 73
217
 74
216
 0
VERTEX
 8
R_HRE_1
 10
0
 20
0
 30
0
 70
128
 71
204
 72
205
 73
218
 74
217
 0
VERTEX
 8
R_HRE_1
 10
0
 20
0
 30
0
 70
128
 71
205
 72
206
 73
219
 74
218
 0
VERTEX
 8
R_HRE_1
 10
0
 20
0
 30
0
 70
128
 71
206
 72
207
 73
220
 74
219
 0
VERTEX
 8
R_HRE_1
 10
0
 20
0
 30
0
 70
128
 71
207
 72
208
 73
221
 74
220
 0
VERTEX
 8
R_HRE_1
 10
0
 20
0
 30
0
 70
128
 71
209
 72
210
 73
223
 74
222
 0
VERTEX
 8
R_HRE_1
 10
0
 20
0
 30
0
 70
128
 71
210
 72
211
 73
224
 74
223
 0
VERTEX
 8
R_HRE_1
 10
0
 20
0
 30
0
 70
128
 71
211
 72
212
 73
225
 74
224
 0
VERTEX
 8
R_HRE_1
 10
0
 20
0
 30
0
 70
128
 71
212
 72
213
 73
226
 74
225
 0
VERTEX
 8
R_HRE_1
 10
0
 20
0
 30
0
 70
128
 71
213
 72
214
 73
227
 74
226
 0
VERTEX
 8
R_HRE_1
 10
0
 20
0
 30
0
 70
128
 71
214
 72
215
 73
228
 74
227
 0
VERTEX
 8
R_HRE_1
 10
0
 20
0
 30
0
 70
128
 71
215
 72
216
 73
229
 74
228
 0
VERTEX
 8
R_HRE_1
 10
0
 20
0
 30
0
 70
128
 71
216
 72
217
 73
230
 74
229
 0
VERTEX
 8
R_HRE_1
 10
0
 20
0
 30
0
 70
128
 71
217
 72
218
 73
231
 74
230
 0
VERTEX
 8
R_HRE_1
 10
0
 20
0
 30
0
 70
128
 71
218
 72
219
 73
232
 74
231
 0
VERTEX
 8
R_HRE_1
 10
0
 20
0
 30
0
 70
128
 71
219
 72
220
 73
233
 74
232
 0
VERTEX
 8
R_HRE_1
 10
0
 20
0
 30
0
 70
128
 71
220
 72
221
 73
234
 74
233
 0
VERTEX
 8
R_HRE_1
 10
0
 20
0
 30
0
 70
128
 71
222
 72
223
 73
236
 74
235
 0
VERTEX
 8
R_HRE_1
 10
0
 20
0
 30
0
 70
128
 71
223
 72
224
 73
237
 74
236
 0
VERTEX
 8
R_HRE_1
 10
0
 20
0
 30
0
 70
128
 71
224
 72
225
 73
238
 74
237
 0
VERTEX
 8
R_HRE_1
 10
0
 20
0
 30
0
 70
128
 71
225
 72
226
 73
239
 74
238
 0
VERTEX
 8
R_HRE_1
 10
0
 20
0
 30
0
 70
128
 71
226
 72
227
 73
240
 74
239
 0
VERTEX
 8
R_HRE_1
 10
0
 20
0
 30
0
 70
128
 71
227
 72
228
 73
241
 74
240
 0
VERTEX
 8
R_HRE_1
 10
0
 20
0
 30
0
 70
128
 71
228
 72
229
 73
242
 74
241
 0
VERTEX
 8
R_HRE_1
 10
0
 20
0
 30
0
 70
128
 71
229
 72
230
 73
243
 74
242
 0
VERTEX
 8
R_HRE_1
 10
0
 20
0
 30
0
 70
128
 71
230
 72
231
 73
244
 74
243
 0
VERTEX
 8
R_HRE_1
 10
0
 20
0
 30
0
 70
128
 71
231
 72
232
 73
245
 74
244
 0
VERTEX
 8
R_HRE_1
 10
0
 20
0
 30
0
 70
128
 71
232
 72
233
 73
246
 74
245
 0
VERTEX
 8
R_HRE_1
 10
0
 20
0
 30
0
 70
128
 71
233
 72
234
 73
247
 74
246
 0
VERTEX
 8
R_HRE_1
 10
0
 20
0
 30
0
 70
128
 71
235
 72
236
 73
249
 74
248
 0
VERTEX
 8
R_HRE_1
 10
0
 20
0
 30
0
 70
128
 71
236
 72
237
 73
250
 74
249
 0
VERTEX
 8
R_HRE_1
 10
0
 20
0
 30
0
 70
128
 71
237
 72
238
 73
251
 74
250
 0
VERTEX
 8
R_HRE_1
 10
0
 20
0
 30
0
 70
128
 71
238
 72
239
 73
252
 74
251
 0
VERTEX
 8
R_HRE_1
 10
0
 20
0
 30
0
 70
128
 71
239
 72
240
 73
253
 74
252
 0
VERTEX
 8
R_HRE_1
 10
0
 20
0
 30
0
 70
128
 71
240
 72
241
 73
254
 74
253
 0
VERTEX
 8
R_HRE_1
 10
0
 20
0
 30
0
 70
128
 71
241
 72
242
 73
255
 74
254
 0
VERTEX
 8
R_HRE_1
 10
0
 20
0
 30
0
 70
128
 71
242
 72
243
 73
256
 74
255
 0
VERTEX
 8
R_HRE_1
 10
0
 20
0
 30
0
 70
128
 71
243
 72
244
 73
257
 74
256
 0
VERTEX
 8
R_HRE_1
 10
0
 20
0
 30
0
 70
128
 71
244
 72
245
 73
258
 74
257
 0
VERTEX
 8
R_HRE_1
 10
0
 20
0
 30
0
 70
128
 71
245
 72
246
 73
259
 74
258
 0
VERTEX
 8
R_HRE_1
 10
0
 20
0
 30
0
 70
128
 71
246
 72
247
 73
260
 74
259
 0
VERTEX
 8
R_HRE_1
 10
0
 20
0
 30
0
 70
128
 71
248
 72
249
 73
262
 74
261
 0
VERTEX
 8
R_HRE_1
 10
0
 20
0
 30
0
 70
128
 71
249
 72
250
 73
263
 74
262
 0
VERTEX
 8
R_HRE_1
 10
0
 20
0
 30
0
 70
128
 71
250
 72
251
 73
264
 74
263
 0
VERTEX
 8
R_HRE_1
 10
0
 20
0
 30
0
 70
128
 71
251
 72
252
 73
265
 74
264
 0
VERTEX
 8
R_HRE_1
 10
0
 20
0
 30
0
 70
128
 71
252
 72
253
 73
266
 74
265
 0
VERTEX
 8
R_HRE_1
 10
0
 20
0
 30
0
 70
128
 71
253
 72
254
 73
267
 74
266
 0
VERTEX
 8
R_HRE_1
 10
0
 20
0
 30
0
 70
128
 71
254
 72
255
 73
268
 74
267
 0
VERTEX
 8
R_HRE_1
 10
0
 20
0
 30
0
 70
128
 71
255
 72
256
 73
269
 74
268
 0
VERTEX
 8
R_HRE_1
 10
0
 20
0
 30
0
 70
128
 71
256
 72
257
 73
270
 74
269
 0
VERTEX
 8
R_HRE_1
 10
0
 20
0
 30
0
 70
128
 71
257
 72
258
 73
271
 74
270
 0
VERTEX
 8
R_HRE_1
 10
0
 20
0
 30
0
 70
128
 71
258
 72
259
 73
272
 74
271
 0
VERTEX
 8
R_HRE_1
 10
0
 20
0
 30
0
 70
128
 71
259
 72
260
 73
273
 74
272
 0
VERTEX
 8
R_HRE_1
 10
0
 20
0
 30
0
 70
128
 71
261
 72
262
 73
275
 74
274
 0
VERTEX
 8
R_HRE_1
 10
0
 20
0
 30
0
 70
128
 71
262
 72
263
 73
276
 74
275
 0
VERTEX
 8
R_HRE_1
 10
0
 20
0
 30
0
 70
128
 71
263
 72
264
 73
277
 74
276
 0
VERTEX
 8
R_HRE_1
 10
0
 20
0
 30
0
 70
128
 71
264
 72
265
 73
278
 74
277
 0
VERTEX
 8
R_HRE_1
 10
0
 20
0
 30
0
 70
128
 71
265
 72
266
 73
279
 74
278
 0
VERTEX
 8
R_HRE_1
 10
0
 20
0
 30
0
 70
128
 71
266
 72
267
 73
280
 74
279
 0
VERTEX
 8
R_HRE_1
 10
0
 20
0
 30
0
 70
128
 71
267
 72
268
 73
281
 74
280
 0
VERTEX
 8
R_HRE_1
 10
0
 20
0
 30
0
 70
128
 71
268
 72
269
 73
282
 74
281
 0
VERTEX
 8
R_HRE_1
 10
0
 20
0
 30
0
 70
128
 71
269
 72
270
 73
283
 74
282
 0
VERTEX
 8
R_HRE_1
 10
0
 20
0
 30
0
 70
128
 71
270
 72
271
 73
284
 74
283
 0
VERTEX
 8
R_HRE_1
 10
0
 20
0
 30
0
 70
128
 71
271
 72
272
 73
285
 74
284
 0
VERTEX
 8
R_HRE_1
 10
0
 20
0
 30
0
 70
128
 71
272
 72
273
 73
286
 74
285
 0
VERTEX
 8
R_HRE_1
 10
0
 20
0
 30
0
 70
128
 71
274
 72
275
 73
288
 74
287
 0
VERTEX
 8
R_HRE_1
 10
0
 20
0
 30
0
 70
128
 71
275
 72
276
 73
289
 74
288
 0
VERTEX
 8
R_HRE_1
 10
0
 20
0
 30
0
 70
128
 71
276
 72
277
 73
290
 74
289
 0
VERTEX
 8
R_HRE_1
 10
0
 20
0
 30
0
 70
128
 71
277
 72
278
 73
291
 74
290
 0
VERTEX
 8
R_HRE_1
 10
0
 20
0
 30
0
 70
128
 71
278
 72
279
 73
292
 74
291
 0
VERTEX
 8
R_HRE_1
 10
0
 20
0
 30
0
 70
128
 71
279
 72
280
 73
293
 74
292
 0
VERTEX
 8
R_HRE_1
 10
0
 20
0
 30
0
 70
128
 71
280
 72
281
 73
294
 74
293
 0
VERTEX
 8
R_HRE_1
 10
0
 20
0
 30
0
 70
128
 71
281
 72
282
 73
295
 74
294
 0
VERTEX
 8
R_HRE_1
 10
0
 20
0
 30
0
 70
128
 71
282
 72
283
 73
296
 74
295
 0
VERTEX
 8
R_HRE_1
 10
0
 20
0
 30
0
 70
128
 71
283
 72
284
 73
297
 74
296
 0
VERTEX
 8
R_HRE_1
 10
0
 20
0
 30
0
 70
128
 71
284
 72
285
 73
298
 74
297
 0
VERTEX
 8
R_HRE_1
 10
0
 20
0
 30
0
 70
128
 71
285
 72
286
 73
299
 74
298
 0
VERTEX
 8
R_HRE_1
 10
0
 20
0
 30
0
 70
128
 71
287
 72
288
 73
301
 74
300
 0
VERTEX
 8
R_HRE_1
 10
0
 20
0
 30
0
 70
128
 71
288
 72
289
 73
302
 74
301
 0
VERTEX
 8
R_HRE_1
 10
0
 20
0
 30
0
 70
128
 71
289
 72
290
 73
303
 74
302
 0
VERTEX
 8
R_HRE_1
 10
0
 20
0
 30
0
 70
128
 71
290
 72
291
 73
304
 74
303
 0
VERTEX
 8
R_HRE_1
 10
0
 20
0
 30
0
 70
128
 71
291
 72
292
 73
305
 74
304
 0
VERTEX
 8
R_HRE_1
 10
0
 20
0
 30
0
 70
128
 71
292
 72
293
 73
306
 74
305
 0
VERTEX
 8
R_HRE_1
 10
0
 20
0
 30
0
 70
128
 71
293
 72
294
 73
307
 74
306
 0
VERTEX
 8
R_HRE_1
 10
0
 20
0
 30
0
 70
128
 71
294
 72
295
 73
308
 74
307
 0
VERTEX
 8
R_HRE_1
 10
0
 20
0
 30
0
 70
128
 71
295
 72
296
 73
309
 74
308
 0
VERTEX
 8
R_HRE_1
 10
0
 20
0
 30
0
 70
128
 71
296
 72
297
 73
310
 74
309
 0
VERTEX
 8
R_HRE_1
 10
0
 20
0
 30
0
 70
128
 71
297
 72
298
 73
311
 74
310
 0
VERTEX
 8
R_HRE_1
 10
0
 20
0
 30
0
 70
128
 71
298
 72
299
 73
312
 74
311
 0
VERTEX
 8
R_HRE_1
 10
0
 20
0
 30
0
 70
128
 71
300
 72
301
 73
314
 74
313
 0
VERTEX
 8
R_HRE_1
 10
0
 20
0
 30
0
 70
128
 71
301
 72
302
 73
315
 74
314
 0
VERTEX
 8
R_HRE_1
 10
0
 20
0
 30
0
 70
128
 71
302
 72
303
 73
316
 74
315
 0
VERTEX
 8
R_HRE_1
 10
0
 20
0
 30
0
 70
128
 71
303
 72
304
 73
317
 74
316
 0
VERTEX
 8
R_HRE_1
 10
0
 20
0
 30
0
 70
128
 71
304
 72
305
 73
318
 74
317
 0
VERTEX
 8
R_HRE_1
 10
0
 20
0
 30
0
 70
128
 71
305
 72
306
 73
319
 74
318
 0
VERTEX
 8
R_HRE_1
 10
0
 20
0
 30
0
 70
128
 71
306
 72
307
 73
320
 74
319
 0
VERTEX
 8
R_HRE_1
 10
0
 20
0
 30
0
 70
128
 71
307
 72
308
 73
321
 74
320
 0
VERTEX
 8
R_HRE_1
 10
0
 20
0
 30
0
 70
128
 71
308
 72
309
 73
322
 74
321
 0
VERTEX
 8
R_HRE_1
 10
0
 20
0
 30
0
 70
128
 71
309
 72
310
 73
323
 74
322
 0
VERTEX
 8
R_HRE_1
 10
0
 20
0
 30
0
 70
128
 71
310
 72
311
 73
324
 74
323
 0
VERTEX
 8
R_HRE_1
 10
0
 20
0
 30
0
 70
128
 71
311
 72
312
 73
325
 74
324
 0
VERTEX
 8
R_HRE_1
 10
0
 20
0
 30
0
 70
128
 71
313
 72
314
 73
327
 74
326
 0
VERTEX
 8
R_HRE_1
 10
0
 20
0
 30
0
 70
128
 71
314
 72
315
 73
328
 74
327
 0
VERTEX
 8
R_HRE_1
 10
0
 20
0
 30
0
 70
128
 71
315
 72
316
 73
329
 74
328
 0
VERTEX
 8
R_HRE_1
 10
0
 20
0
 30
0
 70
128
 71
316
 72
317
 73
330
 74
329
 0
VERTEX
 8
R_HRE_1
 10
0
 20
0
 30
0
 70
128
 71
317
 72
318
 73
331
 74
330
 0
VERTEX
 8
R_HRE_1
 10
0
 20
0
 30
0
 70
128
 71
318
 72
319
 73
332
 74
331
 0
VERTEX
 8
R_HRE_1
 10
0
 20
0
 30
0
 70
128
 71
319
 72
320
 73
333
 74
332
 0
VERTEX
 8
R_HRE_1
 10
0
 20
0
 30
0
 70
128
 71
320
 72
321
 73
334
 74
333
 0
VERTEX
 8
R_HRE_1
 10
0
 20
0
 30
0
 70
128
 71
321
 72
322
 73
335
 74
334
 0
VERTEX
 8
R_HRE_1
 10
0
 20
0
 30
0
 70
128
 71
322
 72
323
 73
336
 74
335
 0
VERTEX
 8
R_HRE_1
 10
0
 20
0
 30
0
 70
128
 71
323
 72
324
 73
337
 74
336
 0
VERTEX
 8
R_HRE_1
 10
0
 20
0
 30
0
 70
128
 71
324
 72
325
 73
338
 74
337
 0
VERTEX
 8
R_HRE_1
 10
0
 20
0
 30
0
 70
128
 71
326
 72
327
 73
340
 74
339
 0
VERTEX
 8
R_HRE_1
 10
0
 20
0
 30
0
 70
128
 71
327
 72
328
 73
341
 74
340
 0
VERTEX
 8
R_HRE_1
 10
0
 20
0
 30
0
 70
128
 71
328
 72
329
 73
342
 74
341
 0
VERTEX
 8
R_HRE_1
 10
0
 20
0
 30
0
 70
128
 71
329
 72
330
 73
343
 74
342
 0
VERTEX
 8
R_HRE_1
 10
0
 20
0
 30
0
 70
128
 71
330
 72
331
 73
344
 74
343
 0
VERTEX
 8
R_HRE_1
 10
0
 20
0
 30
0
 70
128
 71
331
 72
332
 73
345
 74
344
 0
VERTEX
 8
R_HRE_1
 10
0
 20
0
 30
0
 70
128
 71
332
 72
333
 73
346
 74
345
 0
VERTEX
 8
R_HRE_1
 10
0
 20
0
 30
0
 70
128
 71
333
 72
334
 73
347
 74
346
 0
VERTEX
 8
R_HRE_1
 10
0
 20
0
 30
0
 70
128
 71
334
 72
335
 73
348
 74
347
 0
VERTEX
 8
R_HRE_1
 10
0
 20
0
 30
0
 70
128
 71
335
 72
336
 73
349
 74
348
 0
VERTEX
 8
R_HRE_1
 10
0
 20
0
 30
0
 70
128
 71
336
 72
337
 73
350
 74
349
 0
VERTEX
 8
R_HRE_1
 10
0
 20
0
 30
0
 70
128
 71
337
 72
338
 73
351
 74
350
 0
VERTEX
 8
R_HRE_1
 10
0
 20
0
 30
0
 70
128
 71
339
 72
340
 73
353
 74
352
 0
VERTEX
 8
R_HRE_1
 10
0
 20
0
 30
0
 70
128
 71
340
 72
341
 73
354
 74
353
 0
VERTEX
 8
R_HRE_1
 10
0
 20
0
 30
0
 70
128
 71
341
 72
342
 73
355
 74
354
 0
VERTEX
 8
R_HRE_1
 10
0
 20
0
 30
0
 70
128
 71
342
 72
343
 73
356
 74
355
 0
VERTEX
 8
R_HRE_1
 10
0
 20
0
 30
0
 70
128
 71
343
 72
344
 73
357
 74
356
 0
VERTEX
 8
R_HRE_1
 10
0
 20
0
 30
0
 70
128
 71
344
 72
345
 73
358
 74
357
 0
VERTEX
 8
R_HRE_1
 10
0
 20
0
 30
0
 70
128
 71
345
 72
346
 73
359
 74
358
 0
VERTEX
 8
R_HRE_1
 10
0
 20
0
 30
0
 70
128
 71
346
 72
347
 73
360
 74
359
 0
VERTEX
 8
R_HRE_1
 10
0
 20
0
 30
0
 70
128
 71
347
 72
348
 73
361
 74
360
 0
VERTEX
 8
R_HRE_1
 10
0
 20
0
 30
0
 70
128
 71
348
 72
349
 73
362
 74
361
 0
VERTEX
 8
R_HRE_1
 10
0
 20
0
 30
0
 70
128
 71
349
 72
350
 73
363
 74
362
 0
VERTEX
 8
R_HRE_1
 10
0
 20
0
 30
0
 70
128
 71
350
 72
351
 73
364
 74
363
 0
VERTEX
 8
R_HRE_1
 10
0
 20
0
 30
0
 70
128
 71
352
 72
353
 73
366
 74
365
 0
VERTEX
 8
R_HRE_1
 10
0
 20
0
 30
0
 70
128
 71
353
 72
354
 73
367
 74
366
 0
VERTEX
 8
R_HRE_1
 10
0
 20
0
 30
0
 70
128
 71
354
 72
355
 73
368
 74
367
 0
VERTEX
 8
R_HRE_1
 10
0
 20
0
 30
0
 70
128
 71
355
 72
356
 73
369
 74
368
 0
VERTEX
 8
R_HRE_1
 10
0
 20
0
 30
0
 70
128
 71
356
 72
357
 73
370
 74
369
 0
VERTEX
 8
R_HRE_1
 10
0
 20
0
 30
0
 70
128
 71
357
 72
358
 73
371
 74
370
 0
VERTEX
 8
R_HRE_1
 10
0
 20
0
 30
0
 70
128
 71
358
 72
359
 73
372
 74
371
 0
VERTEX
 8
R_HRE_1
 10
0
 20
0
 30
0
 70
128
 71
359
 72
360
 73
373
 74
372
 0
VERTEX
 8
R_HRE_1
 10
0
 20
0
 30
0
 70
128
 71
360
 72
361
 73
374
 74
373
 0
VERTEX
 8
R_HRE_1
 10
0
 20
0
 30
0
 70
128
 71
361
 72
362
 73
375
 74
374
 0
VERTEX
 8
R_HRE_1
 10
0
 20
0
 30
0
 70
128
 71
362
 72
363
 73
376
 74
375
 0
VERTEX
 8
R_HRE_1
 10
0
 20
0
 30
0
 70
128
 71
363
 72
364
 73
377
 74
376
 0
VERTEX
 8
R_HRE_1
 10
0
 20
0
 30
0
 70
128
 71
365
 72
366
 73
379
 74
378
 0
VERTEX
 8
R_HRE_1
 10
0
 20
0
 30
0
 70
128
 71
366
 72
367
 73
380
 74
379
 0
VERTEX
 8
R_HRE_1
 10
0
 20
0
 30
0
 70
128
 71
367
 72
368
 73
381
 74
380
 0
VERTEX
 8
R_HRE_1
 10
0
 20
0
 30
0
 70
128
 71
368
 72
369
 73
382
 74
381
 0
VERTEX
 8
R_HRE_1
 10
0
 20
0
 30
0
 70
128
 71
369
 72
370
 73
383
 74
382
 0
VERTEX
 8
R_HRE_1
 10
0
 20
0
 30
0
 70
128
 71
370
 72
371
 73
384
 74
383
 0
VERTEX
 8
R_HRE_1
 10
0
 20
0
 30
0
 70
128
 71
371
 72
372
 73
385
 74
384
 0
VERTEX
 8
R_HRE_1
 10
0
 20
0
 30
0
 70
128
 71
372
 72
373
 73
386
 74
385
 0
VERTEX
 8
R_HRE_1
 10
0
 20
0
 30
0
 70
128
 71
373
 72
374
 73
387
 74
386
 0
VERTEX
 8
R_HRE_1
 10
0
 20
0
 30
0
 70
128
 71
374
 72
375
 73
388
 74
387
 0
VERTEX
 8
R_HRE_1
 10
0
 20
0
 30
0
 70
128
 71
375
 72
376
 73
389
 74
388
 0
VERTEX
 8
R_HRE_1
 10
0
 20
0
 30
0
 70
128
 71
376
 72
377
 73
390
 74
389
 0
VERTEX
 8
R_HRE_1
 10
0
 20
0
 30
0
 70
128
 71
378
 72
379
 73
2
 74
1
 0
VERTEX
 8
R_HRE_1
 10
0
 20
0
 30
0
 70
128
 71
379
 72
380
 73
3
 74
2
 0
VERTEX
 8
R_HRE_1
 10
0
 20
0
 30
0
 70
128
 71
380
 72
381
 73
4
 74
3
 0
VERTEX
 8
R_HRE_1
 10
0
 20
0
 30
0
 70
128
 71
381
 72
382
 73
5
 74
4
 0
VERTEX
 8
R_HRE_1
 10
0
 20
0
 30
0
 70
128
 71
382
 72
383
 73
6
 74
5
 0
VERTEX
 8
R_HRE_1
 10
0
 20
0
 30
0
 70
128
 71
383
 72
384
 73
7
 74
6
 0
VERTEX
 8
R_HRE_1
 10
0
 20
0
 30
0
 70
128
 71
384
 72
385
 73
8
 74
7
 0
VERTEX
 8
R_HRE_1
 10
0
 20
0
 30
0
 70
128
 71
385
 72
386
 73
9
 74
8
 0
VERTEX
 8
R_HRE_1
 10
0
 20
0
 30
0
 70
128
 71
386
 72
387
 73
10
 74
9
 0
VERTEX
 8
R_HRE_1
 10
0
 20
0
 30
0
 70
128
 71
387
 72
388
 73
11
 74
10
 0
VERTEX
 8
R_HRE_1
 10
0
 20
0
 30
0
 70
128
 71
388
 72
389
 73
12
 74
11
 0
VERTEX
 8
R_HRE_1
 10
0
 20
0
 30
0
 70
128
 71
389
 72
390
 73
13
 74
12
 0
SEQEND
 0
POLYLINE
 8
ZYLINDER_13
 66
1
 10
0.0
 20
0.0
 30
0.0
 70
64
 71
120
 72
108
 0
VERTEX
 8
ZYLINDER_13
 10
19.5339
 20
12.4611
 30
14.8714
 70
192
 0
VERTEX
 8
ZYLINDER_13
 10
19.4645
 20
12.1901
 30
14.913
 70
192
 0
VERTEX
 8
ZYLINDER_13
 10
17.9954
 20
15.2679
 30
17.4495
 70
192
 0
VERTEX
 8
ZYLINDER_13
 10
18.2686
 20
15.1947
 30
17.4495
 70
192
 0
VERTEX
 8
ZYLINDER_13
 10
19.7686
 20
12.5966
 30
17.4495
 70
192
 0
VERTEX
 8
ZYLINDER_13
 10
19.6954
 20
12.3234
 30
17.4495
 70
192
 0
VERTEX
 8
ZYLINDER_13
 10
17.7645
 20
15.1346
 30
19.986
 70
192
 0
VERTEX
 8
ZYLINDER_13
 10
18.0339
 20
15.0592
 30
20.0276
 70
192
 0
VERTEX
 8
ZYLINDER_13
 10
19.5339
 20
12.4611
 30
20.0276
 70
192
 0
VERTEX
 8
ZYLINDER_13
 10
19.4645
 20
12.1901
 30
19.986
 70
192
 0
VERTEX
 8
ZYLINDER_13
 10
17.082
 20
14.7405
 30
22.4117
 70
192
 0
VERTEX
 8
ZYLINDER_13
 10
17.3402
 20
14.6586
 30
22.493
 70
192
 0
VERTEX
 8
ZYLINDER_13
 10
18.8402
 20
12.0606
 30
22.493
 70
192
 0
VERTEX
 8
ZYLINDER_13
 10
18.782
 20
11.796
 30
22.4117
 70
192
 0
VERTEX
 8
ZYLINDER_13
 10
15.9776
 20
14.1029
 30
24.6205
 70
192
 0
VERTEX
 8
ZYLINDER_13
 10
16.2177
 20
14.0106
 30
24.738
 70
192
 0
VERTEX
 8
ZYLINDER_13
 10
17.7177
 20
11.4125
 30
24.738
 70
192
 0
VERTEX
 8
ZYLINDER_13
 10
17.6776
 20
11.1584
 30
24.6205
 70
192
 0
VERTEX
 8
ZYLINDER_13
 10
14.4996
 20
13.2496
 30
26.5159
 70
192
 0
VERTEX
 8
ZYLINDER_13
 10
14.7155
 20
13.1433
 30
26.6645
 70
192
 0
VERTEX
 8
ZYLINDER_13
 10
16.2155
 20
10.5452
 30
26.6645
 70
192
 0
VERTEX
 8
ZYLINDER_13
 10
16.1996
 20
10.3051
 30
26.5159
 70
192
 0
VERTEX
 8
ZYLINDER_13
 10
12.7126
 20
12.2179
 30
28.015
 70
192
 0
VERTEX
 8
ZYLINDER_13
 10
12.8992
 20
12.0947
 30
28.1882
 70
192
 0
VERTEX
 8
ZYLINDER_13
 10
14.3992
 20
9.4966
 30
28.1882
 70
192
 0
VERTEX
 8
ZYLINDER_13
 10
14.4126
 20
9.2734
 30
28.015
 70
192
 0
VERTEX
 8
ZYLINDER_13
 10
10.6948
 20
11.0529
 30
29.0524
 70
192
 0
VERTEX
 8
ZYLINDER_13
 10
10.8483
 20
10.9106
 30
29.2426
 70
192
 0
VERTEX
 8
ZYLINDER_13
 10
12.3483
 20
8.3125
 30
29.2426
 70
192
 0
VERTEX
 8
ZYLINDER_13
 10
12.3948
 20
8.1084
 30
29.0524
 70
192
 0
VERTEX
 8
ZYLINDER_13
 10
8.5343
 20
9.8055
 30
29.5827
 70
192
 0
VERTEX
 8
ZYLINDER_13
 10
8.6524
 20
9.6427
 30
29.7816
 70
192
 0
VERTEX
 8
ZYLINDER_13
 10
10.1524
 20
7.0447
 30
29.7816
 70
192
 0
VERTEX
 8
ZYLINDER_13
 10
10.2343
 20
6.861
 30
29.5827
 70
192
 0
VERTEX
 8
ZYLINDER_13
 10
6.3255
 20
8.5302
 30
29.5827
 70
192
 0
VERTEX
 8
ZYLINDER_13
 10
6.4074
 20
8.3466
 30
29.7816
 70
192
 0
VERTEX
 8
ZYLINDER_13
 10
7.9074
 20
5.7485
 30
29.7816
 70
192
 0
VERTEX
 8
ZYLINDER_13
 10
8.0255
 20
5.5858
 30
29.5827
 70
192
 0
VERTEX
 8
ZYLINDER_13
 10
4.165
 20
7.2829
 30
29.0524
 70
192
 0
VERTEX
 8
ZYLINDER_13
 10
4.2114
 20
7.0788
 30
29.2426
 70
192
 0
VERTEX
 8
ZYLINDER_13
 10
5.7114
 20
4.4807
 30
29.2426
 70
192
 0
VERTEX
 8
ZYLINDER_13
 10
5.865
 20
4.3384
 30
29.0524
 70
192
 0
VERTEX
 8
ZYLINDER_13
 10
2.1471
 20
6.1179
 30
28.015
 70
192
 0
VERTEX
 8
ZYLINDER_13
 10
2.1605
 20
5.8947
 30
28.1882
 70
192
 0
VERTEX
 8
ZYLINDER_13
 10
3.6605
 20
3.2966
 30
28.1882
 70
192
 0
VERTEX
 8
ZYLINDER_13
 10
3.8471
 20
3.1734
 30
28.015
 70
192
 0
VERTEX
 8
ZYLINDER_13
 10
0.3602
 20
5.0862
 30
26.5159
 70
192
 0
VERTEX
 8
ZYLINDER_13
 10
0.3443
 20
4.8461
 30
26.6645
 70
192
 0
VERTEX
 8
ZYLINDER_13
 10
1.8443
 20
2.248
 30
26.6645
 70
192
 0
VERTEX
 8
ZYLINDER_13
 10
2.0602
 20
2.1417
 30
26.5159
 70
192
 0
VERTEX
 8
ZYLINDER_13
 10
-1.1178
 20
4.2329
 30
24.6205
 70
192
 0
VERTEX
 8
ZYLINDER_13
 10
-1.1579
 20
3.9788
 30
24.738
 70
192
 0
VERTEX
 8
ZYLINDER_13
 10
0.3421
 20
1.3807
 30
24.738
 70
192
 0
VERTEX
 8
ZYLINDER_13
 10
0.5822
 20
1.2884
 30
24.6205
 70
192
 0
VERTEX
 8
ZYLINDER_13
 10
-2.2222
 20
3.5952
 30
22.4117
 70
192
 0
VERTEX
 8
ZYLINDER_13
 10
-2.2804
 20
3.3307
 30
22.493
 70
192
 0
VERTEX
 8
ZYLINDER_13
 10
-0.7804
 20
0.7326
 30
22.493
 70
192
 0
VERTEX
 8
ZYLINDER_13
 10
-0.5222
 20
0.6508
 30
22.4117
 70
192
 0
VERTEX
 8
ZYLINDER_13
 10
-2.9047
 20
3.2012
 30
19.986
 70
192
 0
VERTEX
 8
ZYLINDER_13
 10
-2.9742
 20
2.9302
 30
20.0276
 70
192
 0
VERTEX
 8
ZYLINDER_13
 10
-1.4742
 20
0.3321
 30
20.0276
 70
192
 0
VERTEX
 8
ZYLINDER_13
 10
-1.2047
 20
0.2567
 30
19.986
 70
192
 0
VERTEX
 8
ZYLINDER_13
 10
-3.1356
 20
3.0679
 30
17.4495
 70
192
 0
VERTEX
 8
ZYLINDER_13
 10
-3.2088
 20
2.7947
 30
17.4495
 70
192
 0
VERTEX
 8
ZYLINDER_13
 10
-1.7088
 20
0.1966
 30
17.4495
 70
192
 0
VERTEX
 8
ZYLINDER_13
 10
-1.4356
 20
0.1234
 30
17.4495
 70
192
 0
VERTEX
 8
ZYLINDER_13
 10
-2.9047
 20
3.2012
 30
14.913
 70
192
 0
VERTEX
 8
ZYLINDER_13
 10
-2.9742
 20
2.9302
 30
14.8714
 70
192
 0
VERTEX
 8
ZYLINDER_13
 10
-1.4742
 20
0.3321
 30
14.8714
 70
192
 0
VERTEX
 8
ZYLINDER_13
 10
-1.2047
 20
0.2567
 30
14.913
 70
192
 0
VERTEX
 8
ZYLINDER_13
 10
-2.2222
 20
3.5952
 30
12.4873
 70
192
 0
VERTEX
 8
ZYLINDER_13
 10
-2.2804
 20
3.3307
 30
12.406
 70
192
 0
VERTEX
 8
ZYLINDER_13
 10
-0.7804
 20
0.7326
 30
12.406
 70
192
 0
VERTEX
 8
ZYLINDER_13
 10
-0.5222
 20
0.6508
 30
12.4873
 70
192
 0
VERTEX
 8
ZYLINDER_13
 10
-1.1178
 20
4.2329
 30
10.2785
 70
192
 0
VERTEX
 8
ZYLINDER_13
 10
-1.1579
 20
3.9788
 30
10.161
 70
192
 0
VERTEX
 8
ZYLINDER_13
 10
0.3421
 20
1.3807
 30
10.161
 70
192
 0
VERTEX
 8
ZYLINDER_13
 10
0.5822
 20
1.2884
 30
10.2785
 70
192
 0
VERTEX
 8
ZYLINDER_13
 10
0.3602
 20
5.0862
 30
8.3831
 70
192
 0
VERTEX
 8
ZYLINDER_13
 10
0.3443
 20
4.8461
 30
8.2345
 70
192
 0
VERTEX
 8
ZYLINDER_13
 10
1.8443
 20
2.248
 30
8.2345
 70
192
 0
VERTEX
 8
ZYLINDER_13
 10
2.0602
 20
2.1417
 30
8.3831
 70
192
 0
VERTEX
 8
ZYLINDER_13
 10
2.1471
 20
6.1179
 30
6.884
 70
192
 0
VERTEX
 8
ZYLINDER_13
 10
2.1605
 20
5.8947
 30
6.7108
 70
192
 0
VERTEX
 8
ZYLINDER_13
 10
3.6605
 20
3.2966
 30
6.7108
 70
192
 0
VERTEX
 8
ZYLINDER_13
 10
3.8471
 20
3.1734
 30
6.884
 70
192
 0
VERTEX
 8
ZYLINDER_13
 10
4.165
 20
7.2829
 30
5.8466
 70
192
 0
VERTEX
 8
ZYLINDER_13
 10
4.2114
 20
7.0788
 30
5.6564
 70
192
 0
VERTEX
 8
ZYLINDER_13
 10
5.7114
 20
4.4807
 30
5.6564
 70
192
 0
VERTEX
 8
ZYLINDER_13
 10
5.865
 20
4.3384
 30
5.8466
 70
192
 0
VERTEX
 8
ZYLINDER_13
 10
6.3255
 20
8.5302
 30
5.3163
 70
192
 0
VERTEX
 8
ZYLINDER_13
 10
6.4074
 20
8.3466
 30
5.1174
 70
192
 0
VERTEX
 8
ZYLINDER_13
 10
7.9074
 20
5.7485
 30
5.1174
 70
192
 0
VERTEX
 8
ZYLINDER_13
 10
8.0255
 20
5.5858
 30
5.3163
 70
192
 0
VERTEX
 8
ZYLINDER_13
 10
8.5343
 20
9.8055
 30
5.3163
 70
192
 0
VERTEX
 8
ZYLINDER_13
 10
8.6524
 20
9.6427
 30
5.1174
 70
192
 0
VERTEX
 8
ZYLINDER_13
 10
10.1524
 20
7.0447
 30
5.1174
 70
192
 0
VERTEX
 8
ZYLINDER_13
 10
10.2343
 20
6.861
 30
5.3163
 70
192
 0
VERTEX
 8
ZYLINDER_13
 10
10.6948
 20
11.0529
 30
5.8466
 70
192
 0
VERTEX
 8
ZYLINDER_13
 10
10.8483
 20
10.9106
 30
5.6564
 70
192
 0
VERTEX
 8
ZYLINDER_13
 10
12.3483
 20
8.3125
 30
5.6564
 70
192
 0
VERTEX
 8
ZYLINDER_13
 10
12.3948
 20
8.1084
 30
5.8466
 70
192
 0
VERTEX
 8
ZYLINDER_13
 10
12.7126
 20
12.2179
 30
6.884
 70
192
 0
VERTEX
 8
ZYLINDER_13
 10
12.8992
 20
12.0947
 30
6.7108
 70
192
 0
VERTEX
 8
ZYLINDER_13
 10
14.3992
 20
9.4966
 30
6.7108
 70
192
 0
VERTEX
 8
ZYLINDER_13
 10
14.4126
 20
9.2734
 30
6.884
 70
192
 0
VERTEX
 8
ZYLINDER_13
 10
14.4996
 20
13.2496
 30
8.3831
 70
192
 0
VERTEX
 8
ZYLINDER_13
 10
14.7155
 20
13.1433
 30
8.2345
 70
192
 0
VERTEX
 8
ZYLINDER_13
 10
16.2155
 20
10.5452
 30
8.2345
 70
192
 0
VERTEX
 8
ZYLINDER_13
 10
16.1996
 20
10.3051
 30
8.3831
 70
192
 0
VERTEX
 8
ZYLINDER_13
 10
15.9776
 20
14.1029
 30
10.2785
 70
192
 0
VERTEX
 8
ZYLINDER_13
 10
16.2177
 20
14.0106
 30
10.161
 70
192
 0
VERTEX
 8
ZYLINDER_13
 10
17.7177
 20
11.4125
 30
10.161
 70
192
 0
VERTEX
 8
ZYLINDER_13
 10
17.6776
 20
11.1584
 30
10.2785
 70
192
 0
VERTEX
 8
ZYLINDER_13
 10
17.082
 20
14.7405
 30
12.4873
 70
192
 0
VERTEX
 8
ZYLINDER_13
 10
17.3402
 20
14.6586
 30
12.406
 70
192
 0
VERTEX
 8
ZYLINDER_13
 10
18.8402
 20
12.0606
 30
12.406
 70
192
 0
VERTEX
 8
ZYLINDER_13
 10
18.782
 20
11.796
 30
12.4873
 70
192
 0
VERTEX
 8
ZYLINDER_13
 10
17.7645
 20
15.1346
 30
14.913
 70
192
 0
VERTEX
 8
ZYLINDER_13
 10
18.0339
 20
15.0592
 30
14.8714
 70
192
 0
VERTEX
 8
ZYLINDER_13
 10
0
 20
0
 30
0
 70
128
 71
75
 72
76
 73
80
 74
79
 0
VERTEX
 8
ZYLINDER_13
 10
0
 20
0
 30
0
 70
128
 71
3
 72
4
 73
8
 74
7
 0
VERTEX
 8
ZYLINDER_13
 10
0
 20
0
 30
0
 70
128
 71
4
 72
5
 73
9
 74
8
 0
VERTEX
 8
ZYLINDER_13
 10
0
 20
0
 30
0
 70
128
 71
5
 72
6
 73
10
 74
9
 0
VERTEX
 8
ZYLINDER_13
 10
0
 20
0
 30
0
 70
128
 71
76
 72
77
 73
81
 74
80
 0
VERTEX
 8
ZYLINDER_13
 10
0
 20
0
 30
0
 70
128
 71
77
 72
78
 73
82
 74
81
 0
VERTEX
 8
ZYLINDER_13
 10
0
 20
0
 30
0
 70
128
 71
7
 72
8
 73
12
 74
11
 0
VERTEX
 8
ZYLINDER_13
 10
0
 20
0
 30
0
 70
128
 71
8
 72
9
 73
13
 74
12
 0
VERTEX
 8
ZYLINDER_13
 10
0
 20
0
 30
0
 70
128
 71
9
 72
10
 73
14
 74
13
 0
VERTEX
 8
ZYLINDER_13
 10
0
 20
0
 30
0
 70
128
 71
79
 72
80
 73
84
 74
83
 0
VERTEX
 8
ZYLINDER_13
 10
0
 20
0
 30
0
 70
128
 71
80
 72
81
 73
85
 74
84
 0
VERTEX
 8
ZYLINDER_13
 10
0
 20
0
 30
0
 70
128
 71
11
 72
12
 73
16
 74
15
 0
VERTEX
 8
ZYLINDER_13
 10
0
 20
0
 30
0
 70
128
 71
12
 72
13
 73
17
 74
16
 0
VERTEX
 8
ZYLINDER_13
 10
0
 20
0
 30
0
 70
128
 71
13
 72
14
 73
18
 74
17
 0
VERTEX
 8
ZYLINDER_13
 10
0
 20
0
 30
0
 70
128
 71
81
 72
82
 73
86
 74
85
 0
VERTEX
 8
ZYLINDER_13
 10
0
 20
0
 30
0
 70
128
 71
83
 72
84
 73
88
 74
87
 0
VERTEX
 8
ZYLINDER_13
 10
0
 20
0
 30
0
 70
128
 71
15
 72
16
 73
20
 74
19
 0
VERTEX
 8
ZYLINDER_13
 10
0
 20
0
 30
0
 70
128
 71
16
 72
17
 73
21
 74
20
 0
VERTEX
 8
ZYLINDER_13
 10
0
 20
0
 30
0
 70
128
 71
17
 72
18
 73
22
 74
21
 0
VERTEX
 8
ZYLINDER_13
 10
0
 20
0
 30
0
 70
128
 71
84
 72
85
 73
89
 74
88
 0
VERTEX
 8
ZYLINDER_13
 10
0
 20
0
 30
0
 70
128
 71
85
 72
86
 73
90
 74
89
 0
VERTEX
 8
ZYLINDER_13
 10
0
 20
0
 30
0
 70
128
 71
19
 72
20
 73
24
 74
23
 0
VERTEX
 8
ZYLINDER_13
 10
0
 20
0
 30
0
 70
128
 71
20
 72
21
 73
25
 74
24
 0
VERTEX
 8
ZYLINDER_13
 10
0
 20
0
 30
0
 70
128
 71
21
 72
22
 73
26
 74
25
 0
VERTEX
 8
ZYLINDER_13
 10
0
 20
0
 30
0
 70
128
 71
87
 72
88
 73
92
 74
91
 0
VERTEX
 8
ZYLINDER_13
 10
0
 20
0
 30
0
 70
128
 71
88
 72
89
 73
93
 74
92
 0
VERTEX
 8
ZYLINDER_13
 10
0
 20
0
 30
0
 70
128
 71
23
 72
24
 73
28
 74
27
 0
VERTEX
 8
ZYLINDER_13
 10
0
 20
0
 30
0
 70
128
 71
24
 72
25
 73
29
 74
28
 0
VERTEX
 8
ZYLINDER_13
 10
0
 20
0
 30
0
 70
128
 71
25
 72
26
 73
30
 74
29
 0
VERTEX
 8
ZYLINDER_13
 10
0
 20
0
 30
0
 70
128
 71
89
 72
90
 73
94
 74
93
 0
VERTEX
 8
ZYLINDER_13
 10
0
 20
0
 30
0
 70
128
 71
91
 72
92
 73
96
 74
95
 0
VERTEX
 8
ZYLINDER_13
 10
0
 20
0
 30
0
 70
128
 71
27
 72
28
 73
32
 74
31
 0
VERTEX
 8
ZYLINDER_13
 10
0
 20
0
 30
0
 70
128
 71
28
 72
29
 73
33
 74
32
 0
VERTEX
 8
ZYLINDER_13
 10
0
 20
0
 30
0
 70
128
 71
29
 72
30
 73
34
 74
33
 0
VERTEX
 8
ZYLINDER_13
 10
0
 20
0
 30
0
 70
128
 71
92
 72
93
 73
97
 74
96
 0
VERTEX
 8
ZYLINDER_13
 10
0
 20
0
 30
0
 70
128
 71
93
 72
94
 73
98
 74
97
 0
VERTEX
 8
ZYLINDER_13
 10
0
 20
0
 30
0
 70
128
 71
31
 72
32
 73
36
 74
35
 0
VERTEX
 8
ZYLINDER_13
 10
0
 20
0
 30
0
 70
128
 71
32
 72
33
 73
37
 74
36
 0
VERTEX
 8
ZYLINDER_13
 10
0
 20
0
 30
0
 70
128
 71
33
 72
34
 73
38
 74
37
 0
VERTEX
 8
ZYLINDER_13
 10
0
 20
0
 30
0
 70
128
 71
95
 72
96
 73
100
 74
99
 0
VERTEX
 8
ZYLINDER_13
 10
0
 20
0
 30
0
 70
128
 71
96
 72
97
 73
101
 74
100
 0
VERTEX
 8
ZYLINDER_13
 10
0
 20
0
 30
0
 70
128
 71
35
 72
36
 73
40
 74
39
 0
VERTEX
 8
ZYLINDER_13
 10
0
 20
0
 30
0
 70
128
 71
36
 72
37
 73
41
 74
40
 0
VERTEX
 8
ZYLINDER_13
 10
0
 20
0
 30
0
 70
128
 71
37
 72
38
 73
42
 74
41
 0
VERTEX
 8
ZYLINDER_13
 10
0
 20
0
 30
0
 70
128
 71
97
 72
98
 73
102
 74
101
 0
VERTEX
 8
ZYLINDER_13
 10
0
 20
0
 30
0
 70
128
 71
99
 72
100
 73
104
 74
103
 0
VERTEX
 8
ZYLINDER_13
 10
0
 20
0
 30
0
 70
128
 71
39
 72
40
 73
44
 74
43
 0
VERTEX
 8
ZYLINDER_13
 10
0
 20
0
 30
0
 70
128
 71
40
 72
41
 73
45
 74
44
 0
VERTEX
 8
ZYLINDER_13
 10
0
 20
0
 30
0
 70
128
 71
41
 72
42
 73
46
 74
45
 0
VERTEX
 8
ZYLINDER_13
 10
0
 20
0
 30
0
 70
128
 71
100
 72
101
 73
105
 74
104
 0
VERTEX
 8
ZYLINDER_13
 10
0
 20
0
 30
0
 70
128
 71
101
 72
102
 73
106
 74
105
 0
VERTEX
 8
ZYLINDER_13
 10
0
 20
0
 30
0
 70
128
 71
43
 72
44
 73
48
 74
47
 0
VERTEX
 8
ZYLINDER_13
 10
0
 20
0
 30
0
 70
128
 71
44
 72
45
 73
49
 74
48
 0
VERTEX
 8
ZYLINDER_13
 10
0
 20
0
 30
0
 70
128
 71
45
 72
46
 73
50
 74
49
 0
VERTEX
 8
ZYLINDER_13
 10
0
 20
0
 30
0
 70
128
 71
103
 72
104
 73
108
 74
107
 0
VERTEX
 8
ZYLINDER_13
 10
0
 20
0
 30
0
 70
128
 71
104
 72
105
 73
109
 74
108
 0
VERTEX
 8
ZYLINDER_13
 10
0
 20
0
 30
0
 70
128
 71
47
 72
48
 73
52
 74
51
 0
VERTEX
 8
ZYLINDER_13
 10
0
 20
0
 30
0
 70
128
 71
48
 72
49
 73
53
 74
52
 0
VERTEX
 8
ZYLINDER_13
 10
0
 20
0
 30
0
 70
128
 71
49
 72
50
 73
54
 74
53
 0
VERTEX
 8
ZYLINDER_13
 10
0
 20
0
 30
0
 70
128
 71
105
 72
106
 73
110
 74
109
 0
VERTEX
 8
ZYLINDER_13
 10
0
 20
0
 30
0
 70
128
 71
107
 72
108
 73
112
 74
111
 0
VERTEX
 8
ZYLINDER_13
 10
0
 20
0
 30
0
 70
128
 71
51
 72
52
 73
56
 74
55
 0
VERTEX
 8
ZYLINDER_13
 10
0
 20
0
 30
0
 70
128
 71
52
 72
53
 73
57
 74
56
 0
VERTEX
 8
ZYLINDER_13
 10
0
 20
0
 30
0
 70
128
 71
53
 72
54
 73
58
 74
57
 0
VERTEX
 8
ZYLINDER_13
 10
0
 20
0
 30
0
 70
128
 71
108
 72
109
 73
113
 74
112
 0
VERTEX
 8
ZYLINDER_13
 10
0
 20
0
 30
0
 70
128
 71
109
 72
110
 73
114
 74
113
 0
VERTEX
 8
ZYLINDER_13
 10
0
 20
0
 30
0
 70
128
 71
55
 72
56
 73
60
 74
59
 0
VERTEX
 8
ZYLINDER_13
 10
0
 20
0
 30
0
 70
128
 71
56
 72
57
 73
61
 74
60
 0
VERTEX
 8
ZYLINDER_13
 10
0
 20
0
 30
0
 70
128
 71
57
 72
58
 73
62
 74
61
 0
VERTEX
 8
ZYLINDER_13
 10
0
 20
0
 30
0
 70
128
 71
111
 72
112
 73
116
 74
115
 0
VERTEX
 8
ZYLINDER_13
 10
0
 20
0
 30
0
 70
128
 71
112
 72
113
 73
117
 74
116
 0
VERTEX
 8
ZYLINDER_13
 10
0
 20
0
 30
0
 70
128
 71
59
 72
60
 73
64
 74
63
 0
VERTEX
 8
ZYLINDER_13
 10
0
 20
0
 30
0
 70
128
 71
60
 72
61
 73
65
 74
64
 0
VERTEX
 8
ZYLINDER_13
 10
0
 20
0
 30
0
 70
128
 71
61
 72
62
 73
66
 74
65
 0
VERTEX
 8
ZYLINDER_13
 10
0
 20
0
 30
0
 70
128
 71
113
 72
114
 73
118
 74
117
 0
VERTEX
 8
ZYLINDER_13
 10
0
 20
0
 30
0
 70
128
 71
115
 72
116
 73
120
 74
119
 0
VERTEX
 8
ZYLINDER_13
 10
0
 20
0
 30
0
 70
128
 71
63
 72
64
 73
68
 74
67
 0
VERTEX
 8
ZYLINDER_13
 10
0
 20
0
 30
0
 70
128
 71
64
 72
65
 73
69
 74
68
 0
VERTEX
 8
ZYLINDER_13
 10
0
 20
0
 30
0
 70
128
 71
65
 72
66
 73
70
 74
69
 0
VERTEX
 8
ZYLINDER_13
 10
0
 20
0
 30
0
 70
128
 71
116
 72
117
 73
1
 74
120
 0
VERTEX
 8
ZYLINDER_13
 10
0
 20
0
 30
0
 70
128
 71
117
 72
118
 73
2
 74
1
 0
VERTEX
 8
ZYLINDER_13
 10
0
 20
0
 30
0
 70
128
 71
67
 72
68
 73
72
 74
71
 0
VERTEX
 8
ZYLINDER_13
 10
0
 20
0
 30
0
 70
128
 71
68
 72
69
 73
73
 74
72
 0
VERTEX
 8
ZYLINDER_13
 10
0
 20
0
 30
0
 70
128
 71
69
 72
70
 73
74
 74
73
 0
VERTEX
 8
ZYLINDER_13
 10
0
 20
0
 30
0
 70
128
 71
119
 72
120
 73
4
 74
3
 0
VERTEX
 8
ZYLINDER_13
 10
0
 20
0
 30
0
 70
128
 71
120
 72
1
 73
5
 74
4
 0
VERTEX
 8
ZYLINDER_13
 10
0
 20
0
 30
0
 70
128
 71
71
 72
72
 73
76
 74
75
 0
VERTEX
 8
ZYLINDER_13
 10
0
 20
0
 30
0
 70
128
 71
72
 72
73
 73
77
 74
76
 0
VERTEX
 8
ZYLINDER_13
 10
0
 20
0
 30
0
 70
128
 71
73
 72
74
 73
78
 74
77
 0
VERTEX
 8
ZYLINDER_13
 10
0
 20
0
 30
0
 70
128
 71
1
 72
2
 73
6
 74
5
 0
VERTEX
 8
ZYLINDER_13
 10
0
 20
0
 30
0
 70
128
 71
15
 72
19
 73
23
 74
7
 0
VERTEX
 8
ZYLINDER_13
 10
0
 20
0
 30
0
 70
128
 71
7
 72
23
 73
103
 74
119
 0
VERTEX
 8
ZYLINDER_13
 10
0
 20
0
 30
0
 70
128
 71
39
 72
23
 73
27
 74
31
 0
VERTEX
 8
ZYLINDER_13
 10
0
 20
0
 30
0
 70
128
 71
59
 72
23
 73
39
 74
43
 0
VERTEX
 8
ZYLINDER_13
 10
0
 20
0
 30
0
 70
128
 71
103
 72
23
 73
59
 74
67
 0
VERTEX
 8
ZYLINDER_13
 10
0
 20
0
 30
0
 70
128
 71
31
 72
35
 73
39
 74
39
 0
VERTEX
 8
ZYLINDER_13
 10
0
 20
0
 30
0
 70
128
 71
59
 72
43
 73
47
 74
51
 0
VERTEX
 8
ZYLINDER_13
 10
0
 20
0
 30
0
 70
128
 71
51
 72
55
 73
59
 74
59
 0
VERTEX
 8
ZYLINDER_13
 10
0
 20
0
 30
0
 70
128
 71
59
 72
63
 73
67
 74
67
 0
VERTEX
 8
ZYLINDER_13
 10
0
 20
0
 30
0
 70
128
 71
67
 72
71
 73
75
 74
75
 0
VERTEX
 8
ZYLINDER_13
 10
0
 20
0
 30
0
 70
128
 71
67
 72
75
 73
79
 74
83
 0
VERTEX
 8
ZYLINDER_13
 10
0
 20
0
 30
0
 70
128
 71
67
 72
83
 73
87
 74
103
 0
VERTEX
 8
ZYLINDER_13
 10
0
 20
0
 30
0
 70
128
 71
87
 72
91
 73
95
 74
95
 0
VERTEX
 8
ZYLINDER_13
 10
0
 20
0
 30
0
 70
128
 71
87
 72
95
 73
99
 74
103
 0
VERTEX
 8
ZYLINDER_13
 10
0
 20
0
 30
0
 70
128
 71
103
 72
107
 73
111
 74
119
 0
VERTEX
 8
ZYLINDER_13
 10
0
 20
0
 30
0
 70
128
 71
111
 72
115
 73
119
 74
119
 0
VERTEX
 8
ZYLINDER_13
 10
0
 20
0
 30
0
 70
128
 71
119
 72
3
 73
7
 74
7
 0
VERTEX
 8
ZYLINDER_13
 10
0
 20
0
 30
0
 70
128
 71
7
 72
11
 73
15
 74
15
 0
SEQEND
 0
POLYLINE
 8
ZYLINDER_12
 66
1
 10
0.0
 20
0.0
 30
0.0
 70
64
 71
20
 72
10
 0
VERTEX
 8
ZYLINDER_12
 10
6.5059
 20
12.0507
 30
12.7531
 70
192
 0
VERTEX
 8
ZYLINDER_12
 10
8.0059
 20
9.4526
 30
12.7531
 70
192
 0
VERTEX
 8
ZYLINDER_12
 10
6.3984
 20
11.9886
 30
13.1351
 70
192
 0
VERTEX
 8
ZYLINDER_12
 10
7.8984
 20
9.3906
 30
13.1351
 70
192
 0
VERTEX
 8
ZYLINDER_12
 10
6.117
 20
11.8261
 30
13.3712
 70
192
 0
VERTEX
 8
ZYLINDER_12
 10
7.617
 20
9.2281
 30
13.3712
 70
192
 0
VERTEX
 8
ZYLINDER_12
 10
5.7691
 20
11.6253
 30
13.3712
 70
192
 0
VERTEX
 8
ZYLINDER_12
 10
7.2691
 20
9.0272
 30
13.3712
 70
192
 0
VERTEX
 8
ZYLINDER_12
 10
5.4876
 20
11.4628
 30
13.1351
 70
192
 0
VERTEX
 8
ZYLINDER_12
 10
6.9876
 20
8.8647
 30
13.1351
 70
192
 0
VERTEX
 8
ZYLINDER_12
 10
5.3801
 20
11.4007
 30
12.7531
 70
192
 0
VERTEX
 8
ZYLINDER_12
 10
6.8801
 20
8.8026
 30
12.7531
 70
192
 0
VERTEX
 8
ZYLINDER_12
 10
5.4876
 20
11.4628
 30
12.371
 70
192
 0
VERTEX
 8
ZYLINDER_12
 10
6.9876
 20
8.8647
 30
12.371
 70
192
 0
VERTEX
 8
ZYLINDER_12
 10
5.7691
 20
11.6253
 30
12.1349
 70
192
 0
VERTEX
 8
ZYLINDER_12
 10
7.2691
 20
9.0272
 30
12.1349
 70
192
 0
VERTEX
 8
ZYLINDER_12
 10
6.117
 20
11.8261
 30
12.1349
 70
192
 0
VERTEX
 8
ZYLINDER_12
 10
7.617
 20
9.2281
 30
12.1349
 70
192
 0
VERTEX
 8
ZYLINDER_12
 10
6.3984
 20
11.9886
 30
12.371
 70
192
 0
VERTEX
 8
ZYLINDER_12
 10
7.8984
 20
9.3906
 30
12.371
 70
192
 0
VERTEX
 8
ZYLINDER_12
 10
0
 20
0
 30
0
 70
128
 71
1
 72
2
 73
4
 74
3
 0
VERTEX
 8
ZYLINDER_12
 10
0
 20
0
 30
0
 70
128
 71
3
 72
4
 73
6
 74
5
 0
VERTEX
 8
ZYLINDER_12
 10
0
 20
0
 30
0
 70
128
 71
5
 72
6
 73
8
 74
7
 0
VERTEX
 8
ZYLINDER_12
 10
0
 20
0
 30
0
 70
128
 71
7
 72
8
 73
10
 74
9
 0
VERTEX
 8
ZYLINDER_12
 10
0
 20
0
 30
0
 70
128
 71
9
 72
10
 73
12
 74
11
 0
VERTEX
 8
ZYLINDER_12
 10
0
 20
0
 30
0
 70
128
 71
11
 72
12
 73
14
 74
13
 0
VERTEX
 8
ZYLINDER_12
 10
0
 20
0
 30
0
 70
128
 71
13
 72
14
 73
16
 74
15
 0
VERTEX
 8
ZYLINDER_12
 10
0
 20
0
 30
0
 70
128
 71
15
 72
16
 73
18
 74
17
 0
VERTEX
 8
ZYLINDER_12
 10
0
 20
0
 30
0
 70
128
 71
17
 72
18
 73
20
 74
19
 0
VERTEX
 8
ZYLINDER_12
 10
0
 20
0
 30
0
 70
128
 71
19
 72
20
 73
2
 74
1
 0
SEQEND
 0
POLYLINE
 8
ZYLINDER_10
 66
1
 10
0.0
 20
0.0
 30
0.0
 70
64
 71
42
 72
30
 0
VERTEX
 8
ZYLINDER_10
 10
6.0704
 20
11.4607
 30
11.9904
 70
192
 0
VERTEX
 8
ZYLINDER_10
 10
6.0704
 20
11.4607
 30
14.9646
 70
192
 0
VERTEX
 8
ZYLINDER_10
 10
6.5847
 20
12.0736
 30
11.9904
 70
192
 0
VERTEX
 8
ZYLINDER_10
 10
6.5847
 20
12.0736
 30
11.9904
 70
192
 0
VERTEX
 8
ZYLINDER_10
 10
6.5847
 20
12.0736
 30
14.9646
 70
192
 0
VERTEX
 8
ZYLINDER_10
 10
6.5847
 20
12.0736
 30
14.9646
 70
192
 0
VERTEX
 8
ZYLINDER_10
 10
6.1262
 20
12.2588
 30
11.9904
 70
192
 0
VERTEX
 8
ZYLINDER_10
 10
6.1262
 20
12.2588
 30
11.9904
 70
192
 0
VERTEX
 8
ZYLINDER_10
 10
6.1262
 20
12.2588
 30
14.9646
 70
192
 0
VERTEX
 8
ZYLINDER_10
 10
6.1262
 20
12.2588
 30
14.9646
 70
192
 0
VERTEX
 8
ZYLINDER_10
 10
5.6465
 20
12.1392
 30
11.9904
 70
192
 0
VERTEX
 8
ZYLINDER_10
 10
5.6465
 20
12.1392
 30
11.9904
 70
192
 0
VERTEX
 8
ZYLINDER_10
 10
5.6465
 20
12.1392
 30
14.9646
 70
192
 0
VERTEX
 8
ZYLINDER_10
 10
5.6465
 20
12.1392
 30
14.9646
 70
192
 0
VERTEX
 8
ZYLINDER_10
 10
5.3287
 20
11.7604
 30
11.9904
 70
192
 0
VERTEX
 8
ZYLINDER_10
 10
5.3287
 20
11.7604
 30
11.9904
 70
192
 0
VERTEX
 8
ZYLINDER_10
 10
5.3287
 20
11.7604
 30
14.9646
 70
192
 0
VERTEX
 8
ZYLINDER_10
 10
5.3287
 20
11.7604
 30
14.9646
 70
192
 0
VERTEX
 8
ZYLINDER_10
 10
5.2942
 20
11.2672
 30
11.9904
 70
192
 0
VERTEX
 8
ZYLINDER_10
 10
5.2942
 20
11.2672
 30
11.9904
 70
192
 0
VERTEX
 8
ZYLINDER_10
 10
5.2942
 20
11.2672
 30
14.9646
 70
192
 0
VERTEX
 8
ZYLINDER_10
 10
5.2942
 20
11.2672
 30
14.9646
 70
192
 0
VERTEX
 8
ZYLINDER_10
 10
5.5562
 20
10.8479
 30
11.9904
 70
192
 0
VERTEX
 8
ZYLINDER_10
 10
5.5562
 20
10.8479
 30
11.9904
 70
192
 0
VERTEX
 8
ZYLINDER_10
 10
5.5562
 20
10.8479
 30
14.9646
 70
192
 0
VERTEX
 8
ZYLINDER_10
 10
5.5562
 20
10.8479
 30
14.9646
 70
192
 0
VERTEX
 8
ZYLINDER_10
 10
6.0146
 20
10.6627
 30
11.9904
 70
192
 0
VERTEX
 8
ZYLINDER_10
 10
6.0146
 20
10.6627
 30
11.9904
 70
192
 0
VERTEX
 8
ZYLINDER_10
 10
6.0146
 20
10.6627
 30
14.9646
 70
192
 0
VERTEX
 8
ZYLINDER_10
 10
6.0146
 20
10.6627
 30
14.9646
 70
192
 0
VERTEX
 8
ZYLINDER_10
 10
6.4944
 20
10.7823
 30
11.9904
 70
192
 0
VERTEX
 8
ZYLINDER_10
 10
6.4944
 20
10.7823
 30
11.9904
 70
192
 0
VERTEX
 8
ZYLINDER_10
 10
6.4944
 20
10.7823
 30
14.9646
 70
192
 0
VERTEX
 8
ZYLINDER_10
 10
6.4944
 20
10.7823
 30
14.9646
 70
192
 0
VERTEX
 8
ZYLINDER_10
 10
6.8122
 20
11.1611
 30
11.9904
 70
192
 0
VERTEX
 8
ZYLINDER_10
 10
6.8122
 20
11.1611
 30
11.9904
 70
192
 0
VERTEX
 8
ZYLINDER_10
 10
6.8122
 20
11.1611
 30
14.9646
 70
192
 0
VERTEX
 8
ZYLINDER_10
 10
6.8122
 20
11.1611
 30
14.9646
 70
192
 0
VERTEX
 8
ZYLINDER_10
 10
6.8467
 20
11.6543
 30
11.9904
 70
192
 0
VERTEX
 8
ZYLINDER_10
 10
6.8467
 20
11.6543
 30
11.9904
 70
192
 0
VERTEX
 8
ZYLINDER_10
 10
6.8467
 20
11.6543
 30
14.9646
 70
192
 0
VERTEX
 8
ZYLINDER_10
 10
6.8467
 20
11.6543
 30
14.9646
 70
192
 0
VERTEX
 8
ZYLINDER_10
 10
0
 20
0
 30
0
 70
128
 71
1
 72
3
 73
7
 74
7
 0
VERTEX
 8
ZYLINDER_10
 10
0
 20
0
 30
0
 70
128
 71
4
 72
5
 73
9
 74
8
 0
VERTEX
 8
ZYLINDER_10
 10
0
 20
0
 30
0
 70
128
 71
6
 72
2
 73
10
 74
10
 0
VERTEX
 8
ZYLINDER_10
 10
0
 20
0
 30
0
 70
128
 71
1
 72
7
 73
11
 74
11
 0
VERTEX
 8
ZYLINDER_10
 10
0
 20
0
 30
0
 70
128
 71
8
 72
9
 73
13
 74
12
 0
VERTEX
 8
ZYLINDER_10
 10
0
 20
0
 30
0
 70
128
 71
10
 72
2
 73
14
 74
14
 0
VERTEX
 8
ZYLINDER_10
 10
0
 20
0
 30
0
 70
128
 71
1
 72
11
 73
15
 74
15
 0
VERTEX
 8
ZYLINDER_10
 10
0
 20
0
 30
0
 70
128
 71
12
 72
13
 73
17
 74
16
 0
VERTEX
 8
ZYLINDER_10
 10
0
 20
0
 30
0
 70
128
 71
14
 72
2
 73
18
 74
18
 0
VERTEX
 8
ZYLINDER_10
 10
0
 20
0
 30
0
 70
128
 71
1
 72
15
 73
19
 74
19
 0
VERTEX
 8
ZYLINDER_10
 10
0
 20
0
 30
0
 70
128
 71
16
 72
17
 73
21
 74
20
 0
VERTEX
 8
ZYLINDER_10
 10
0
 20
0
 30
0
 70
128
 71
18
 72
2
 73
22
 74
22
 0
VERTEX
 8
ZYLINDER_10
 10
0
 20
0
 30
0
 70
128
 71
1
 72
19
 73
23
 74
23
 0
VERTEX
 8
ZYLINDER_10
 10
0
 20
0
 30
0
 70
128
 71
20
 72
21
 73
25
 74
24
 0
VERTEX
 8
ZYLINDER_10
 10
0
 20
0
 30
0
 70
128
 71
22
 72
2
 73
26
 74
26
 0
VERTEX
 8
ZYLINDER_10
 10
0
 20
0
 30
0
 70
128
 71
1
 72
23
 73
27
 74
27
 0
VERTEX
 8
ZYLINDER_10
 10
0
 20
0
 30
0
 70
128
 71
24
 72
25
 73
29
 74
28
 0
VERTEX
 8
ZYLINDER_10
 10
0
 20
0
 30
0
 70
128
 71
26
 72
2
 73
30
 74
30
 0
VERTEX
 8
ZYLINDER_10
 10
0
 20
0
 30
0
 70
128
 71
1
 72
27
 73
31
 74
31
 0
VERTEX
 8
ZYLINDER_10
 10
0
 20
0
 30
0
 70
128
 71
28
 72
29
 73
33
 74
32
 0
VERTEX
 8
ZYLINDER_10
 10
0
 20
0
 30
0
 70
128
 71
30
 72
2
 73
34
 74
34
 0
VERTEX
 8
ZYLINDER_10
 10
0
 20
0
 30
0
 70
128
 71
1
 72
31
 73
35
 74
35
 0
VERTEX
 8
ZYLINDER_10
 10
0
 20
0
 30
0
 70
128
 71
32
 72
33
 73
37
 74
36
 0
VERTEX
 8
ZYLINDER_10
 10
0
 20
0
 30
0
 70
128
 71
34
 72
2
 73
38
 74
38
 0
VERTEX
 8
ZYLINDER_10
 10
0
 20
0
 30
0
 70
128
 71
1
 72
35
 73
39
 74
39
 0
VERTEX
 8
ZYLINDER_10
 10
0
 20
0
 30
0
 70
128
 71
36
 72
37
 73
41
 74
40
 0
VERTEX
 8
ZYLINDER_10
 10
0
 20
0
 30
0
 70
128
 71
38
 72
2
 73
42
 74
42
 0
VERTEX
 8
ZYLINDER_10
 10
0
 20
0
 30
0
 70
128
 71
1
 72
39
 73
3
 74
3
 0
VERTEX
 8
ZYLINDER_10
 10
0
 20
0
 30
0
 70
128
 71
40
 72
41
 73
5
 74
4
 0
VERTEX
 8
ZYLINDER_10
 10
0
 20
0
 30
0
 70
128
 71
42
 72
2
 73
6
 74
6
 0
SEQEND
 0
POLYLINE
 8
ZYLINDER_9
 66
1
 10
0.0
 20
0.0
 30
0.0
 70
64
 71
20
 72
10
 0
VERTEX
 8
ZYLINDER_9
 10
-2.7368
 20
11.2961
 30
14.2261
 70
192
 0
VERTEX
 8
ZYLINDER_9
 10
6.229
 20
12.0805
 30
14.2261
 70
192
 0
VERTEX
 8
ZYLINDER_9
 10
-2.726
 20
11.1724
 30
14.6081
 70
192
 0
VERTEX
 8
ZYLINDER_9
 10
6.2398
 20
11.9568
 30
14.6081
 70
192
 0
VERTEX
 8
ZYLINDER_9
 10
-2.6977
 20
10.8486
 30
14.8442
 70
192
 0
VERTEX
 8
ZYLINDER_9
 10
6.2681
 20
11.6331
 30
14.8442
 70
192
 0
VERTEX
 8
ZYLINDER_9
 10
-2.6626
 20
10.4485
 30
14.8442
 70
192
 0
VERTEX
 8
ZYLINDER_9
 10
6.3031
 20
11.2329
 30
14.8442
 70
192
 0
VERTEX
 8
ZYLINDER_9
 10
-2.6343
 20
10.1247
 30
14.6081
 70
192
 0
VERTEX
 8
ZYLINDER_9
 10
6.3314
 20
10.9091
 30
14.6081
 70
192
 0
VERTEX
 8
ZYLINDER_9
 10
-2.6235
 20
10.001
 30
14.2261
 70
192
 0
VERTEX
 8
ZYLINDER_9
 10
6.3423
 20
10.7854
 30
14.2261
 70
192
 0
VERTEX
 8
ZYLINDER_9
 10
-2.6343
 20
10.1247
 30
13.844
 70
192
 0
VERTEX
 8
ZYLINDER_9
 10
6.3314
 20
10.9091
 30
13.844
 70
192
 0
VERTEX
 8
ZYLINDER_9
 10
-2.6626
 20
10.4485
 30
13.6079
 70
192
 0
VERTEX
 8
ZYLINDER_9
 10
6.3031
 20
11.2329
 30
13.6079
 70
192
 0
VERTEX
 8
ZYLINDER_9
 10
-2.6977
 20
10.8486
 30
13.6079
 70
192
 0
VERTEX
 8
ZYLINDER_9
 10
6.2681
 20
11.6331
 30
13.6079
 70
192
 0
VERTEX
 8
ZYLINDER_9
 10
-2.726
 20
11.1724
 30
13.844
 70
192
 0
VERTEX
 8
ZYLINDER_9
 10
6.2398
 20
11.9568
 30
13.844
 70
192
 0
VERTEX
 8
ZYLINDER_9
 10
0
 20
0
 30
0
 70
128
 71
1
 72
2
 73
4
 74
3
 0
VERTEX
 8
ZYLINDER_9
 10
0
 20
0
 30
0
 70
128
 71
3
 72
4
 73
6
 74
5
 0
VERTEX
 8
ZYLINDER_9
 10
0
 20
0
 30
0
 70
128
 71
5
 72
6
 73
8
 74
7
 0
VERTEX
 8
ZYLINDER_9
 10
0
 20
0
 30
0
 70
128
 71
7
 72
8
 73
10
 74
9
 0
VERTEX
 8
ZYLINDER_9
 10
0
 20
0
 30
0
 70
128
 71
9
 72
10
 73
12
 74
11
 0
VERTEX
 8
ZYLINDER_9
 10
0
 20
0
 30
0
 70
128
 71
11
 72
12
 73
14
 74
13
 0
VERTEX
 8
ZYLINDER_9
 10
0
 20
0
 30
0
 70
128
 71
13
 72
14
 73
16
 74
15
 0
VERTEX
 8
ZYLINDER_9
 10
0
 20
0
 30
0
 70
128
 71
15
 72
16
 73
18
 74
17
 0
VERTEX
 8
ZYLINDER_9
 10
0
 20
0
 30
0
 70
128
 71
17
 72
18
 73
20
 74
19
 0
VERTEX
 8
ZYLINDER_9
 10
0
 20
0
 30
0
 70
128
 71
19
 72
20
 73
2
 74
1
 0
SEQEND
 0
POLYLINE
 8
ZYLINDER_7
 66
1
 10
0.0
 20
0.0
 30
0.0
 70
64
 71
42
 72
30
 0
VERTEX
 8
ZYLINDER_7
 10
-2.4944
 20
10.6498
 30
13.4597
 70
192
 0
VERTEX
 8
ZYLINDER_7
 10
-2.4944
 20
10.6498
 30
16.4471
 70
192
 0
VERTEX
 8
ZYLINDER_7
 10
-1.9802
 20
11.2626
 30
13.4597
 70
192
 0
VERTEX
 8
ZYLINDER_7
 10
-1.9802
 20
11.2626
 30
13.4597
 70
192
 0
VERTEX
 8
ZYLINDER_7
 10
-1.9802
 20
11.2626
 30
16.4471
 70
192
 0
VERTEX
 8
ZYLINDER_7
 10
-1.9802
 20
11.2626
 30
16.4471
 70
192
 0
VERTEX
 8
ZYLINDER_7
 10
-2.4386
 20
11.4479
 30
13.4597
 70
192
 0
VERTEX
 8
ZYLINDER_7
 10
-2.4386
 20
11.4479
 30
13.4597
 70
192
 0
VERTEX
 8
ZYLINDER_7
 10
-2.4386
 20
11.4479
 30
16.4471
 70
192
 0
VERTEX
 8
ZYLINDER_7
 10
-2.4386
 20
11.4479
 30
16.4471
 70
192
 0
VERTEX
 8
ZYLINDER_7
 10
-2.9183
 20
11.3282
 30
13.4597
 70
192
 0
VERTEX
 8
ZYLINDER_7
 10
-2.9183
 20
11.3282
 30
13.4597
 70
192
 0
VERTEX
 8
ZYLINDER_7
 10
-2.9183
 20
11.3282
 30
16.4471
 70
192
 0
VERTEX
 8
ZYLINDER_7
 10
-2.9183
 20
11.3282
 30
16.4471
 70
192
 0
VERTEX
 8
ZYLINDER_7
 10
-3.2361
 20
10.9495
 30
13.4597
 70
192
 0
VERTEX
 8
ZYLINDER_7
 10
-3.2361
 20
10.9495
 30
13.4597
 70
192
 0
VERTEX
 8
ZYLINDER_7
 10
-3.2361
 20
10.9495
 30
16.4471
 70
192
 0
VERTEX
 8
ZYLINDER_7
 10
-3.2361
 20
10.9495
 30
16.4471
 70
192
 0
VERTEX
 8
ZYLINDER_7
 10
-3.2706
 20
10.4563
 30
13.4597
 70
192
 0
VERTEX
 8
ZYLINDER_7
 10
-3.2706
 20
10.4563
 30
13.4597
 70
192
 0
VERTEX
 8
ZYLINDER_7
 10
-3.2706
 20
10.4563
 30
16.4471
 70
192
 0
VERTEX
 8
ZYLINDER_7
 10
-3.2706
 20
10.4563
 30
16.4471
 70
192
 0
VERTEX
 8
ZYLINDER_7
 10
-3.0086
 20
10.037
 30
13.4597
 70
192
 0
VERTEX
 8
ZYLINDER_7
 10
-3.0086
 20
10.037
 30
13.4597
 70
192
 0
VERTEX
 8
ZYLINDER_7
 10
-3.0086
 20
10.037
 30
16.4471
 70
192
 0
VERTEX
 8
ZYLINDER_7
 10
-3.0086
 20
10.037
 30
16.4471
 70
192
 0
VERTEX
 8
ZYLINDER_7
 10
-2.5502
 20
9.8518
 30
13.4597
 70
192
 0
VERTEX
 8
ZYLINDER_7
 10
-2.5502
 20
9.8518
 30
13.4597
 70
192
 0
VERTEX
 8
ZYLINDER_7
 10
-2.5502
 20
9.8518
 30
16.4471
 70
192
 0
VERTEX
 8
ZYLINDER_7
 10
-2.5502
 20
9.8518
 30
16.4471
 70
192
 0
VERTEX
 8
ZYLINDER_7
 10
-2.0705
 20
9.9714
 30
13.4597
 70
192
 0
VERTEX
 8
ZYLINDER_7
 10
-2.0705
 20
9.9714
 30
13.4597
 70
192
 0
VERTEX
 8
ZYLINDER_7
 10
-2.0705
 20
9.9714
 30
16.4471
 70
192
 0
VERTEX
 8
ZYLINDER_7
 10
-2.0705
 20
9.9714
 30
16.4471
 70
192
 0
VERTEX
 8
ZYLINDER_7
 10
-1.7526
 20
10.3501
 30
13.4597
 70
192
 0
VERTEX
 8
ZYLINDER_7
 10
-1.7526
 20
10.3501
 30
13.4597
 70
192
 0
VERTEX
 8
ZYLINDER_7
 10
-1.7526
 20
10.3501
 30
16.4471
 70
192
 0
VERTEX
 8
ZYLINDER_7
 10
-1.7526
 20
10.3501
 30
16.4471
 70
192
 0
VERTEX
 8
ZYLINDER_7
 10
-1.7182
 20
10.8433
 30
13.4597
 70
192
 0
VERTEX
 8
ZYLINDER_7
 10
-1.7182
 20
10.8433
 30
13.4597
 70
192
 0
VERTEX
 8
ZYLINDER_7
 10
-1.7182
 20
10.8433
 30
16.4471
 70
192
 0
VERTEX
 8
ZYLINDER_7
 10
-1.7182
 20
10.8433
 30
16.4471
 70
192
 0
VERTEX
 8
ZYLINDER_7
 10
0
 20
0
 30
0
 70
128
 71
1
 72
3
 73
7
 74
7
 0
VERTEX
 8
ZYLINDER_7
 10
0
 20
0
 30
0
 70
128
 71
4
 72
5
 73
9
 74
8
 0
VERTEX
 8
ZYLINDER_7
 10
0
 20
0
 30
0
 70
128
 71
6
 72
2
 73
10
 74
10
 0
VERTEX
 8
ZYLINDER_7
 10
0
 20
0
 30
0
 70
128
 71
1
 72
7
 73
11
 74
11
 0
VERTEX
 8
ZYLINDER_7
 10
0
 20
0
 30
0
 70
128
 71
8
 72
9
 73
13
 74
12
 0
VERTEX
 8
ZYLINDER_7
 10
0
 20
0
 30
0
 70
128
 71
10
 72
2
 73
14
 74
14
 0
VERTEX
 8
ZYLINDER_7
 10
0
 20
0
 30
0
 70
128
 71
1
 72
11
 73
15
 74
15
 0
VERTEX
 8
ZYLINDER_7
 10
0
 20
0
 30
0
 70
128
 71
12
 72
13
 73
17
 74
16
 0
VERTEX
 8
ZYLINDER_7
 10
0
 20
0
 30
0
 70
128
 71
14
 72
2
 73
18
 74
18
 0
VERTEX
 8
ZYLINDER_7
 10
0
 20
0
 30
0
 70
128
 71
1
 72
15
 73
19
 74
19
 0
VERTEX
 8
ZYLINDER_7
 10
0
 20
0
 30
0
 70
128
 71
16
 72
17
 73
21
 74
20
 0
VERTEX
 8
ZYLINDER_7
 10
0
 20
0
 30
0
 70
128
 71
18
 72
2
 73
22
 74
22
 0
VERTEX
 8
ZYLINDER_7
 10
0
 20
0
 30
0
 70
128
 71
1
 72
19
 73
23
 74
23
 0
VERTEX
 8
ZYLINDER_7
 10
0
 20
0
 30
0
 70
128
 71
20
 72
21
 73
25
 74
24
 0
VERTEX
 8
ZYLINDER_7
 10
0
 20
0
 30
0
 70
128
 71
22
 72
2
 73
26
 74
26
 0
VERTEX
 8
ZYLINDER_7
 10
0
 20
0
 30
0
 70
128
 71
1
 72
23
 73
27
 74
27
 0
VERTEX
 8
ZYLINDER_7
 10
0
 20
0
 30
0
 70
128
 71
24
 72
25
 73
29
 74
28
 0
VERTEX
 8
ZYLINDER_7
 10
0
 20
0
 30
0
 70
128
 71
26
 72
2
 73
30
 74
30
 0
VERTEX
 8
ZYLINDER_7
 10
0
 20
0
 30
0
 70
128
 71
1
 72
27
 73
31
 74
31
 0
VERTEX
 8
ZYLINDER_7
 10
0
 20
0
 30
0
 70
128
 71
28
 72
29
 73
33
 74
32
 0
VERTEX
 8
ZYLINDER_7
 10
0
 20
0
 30
0
 70
128
 71
30
 72
2
 73
34
 74
34
 0
VERTEX
 8
ZYLINDER_7
 10
0
 20
0
 30
0
 70
128
 71
1
 72
31
 73
35
 74
35
 0
VERTEX
 8
ZYLINDER_7
 10
0
 20
0
 30
0
 70
128
 71
32
 72
33
 73
37
 74
36
 0
VERTEX
 8
ZYLINDER_7
 10
0
 20
0
 30
0
 70
128
 71
34
 72
2
 73
38
 74
38
 0
VERTEX
 8
ZYLINDER_7
 10
0
 20
0
 30
0
 70
128
 71
1
 72
35
 73
39
 74
39
 0
VERTEX
 8
ZYLINDER_7
 10
0
 20
0
 30
0
 70
128
 71
36
 72
37
 73
41
 74
40
 0
VERTEX
 8
ZYLINDER_7
 10
0
 20
0
 30
0
 70
128
 71
38
 72
2
 73
42
 74
42
 0
VERTEX
 8
ZYLINDER_7
 10
0
 20
0
 30
0
 70
128
 71
1
 72
39
 73
3
 74
3
 0
VERTEX
 8
ZYLINDER_7
 10
0
 20
0
 30
0
 70
128
 71
40
 72
41
 73
5
 74
4
 0
VERTEX
 8
ZYLINDER_7
 10
0
 20
0
 30
0
 70
128
 71
42
 72
2
 73
6
 74
6
 0
SEQEND
 0
POLYLINE
 8
ZYLINDER_6
 66
1
 10
0.0
 20
0.0
 30
0.0
 70
64
 71
20
 72
10
 0
VERTEX
 8
ZYLINDER_6
 10
-16.3884
 20
-2.2215
 30
15.6874
 70
192
 0
VERTEX
 8
ZYLINDER_6
 10
-2.9534
 20
11.2135
 30
15.6874
 70
192
 0
VERTEX
 8
ZYLINDER_6
 10
-16.3006
 20
-2.3093
 30
16.0694
 70
192
 0
VERTEX
 8
ZYLINDER_6
 10
-2.8656
 20
11.1258
 30
16.0694
 70
192
 0
VERTEX
 8
ZYLINDER_6
 10
-16.0708
 20
-2.5391
 30
16.3055
 70
192
 0
VERTEX
 8
ZYLINDER_6
 10
-2.6358
 20
10.896
 30
16.3055
 70
192
 0
VERTEX
 8
ZYLINDER_6
 10
-15.7868
 20
-2.8231
 30
16.3055
 70
192
 0
VERTEX
 8
ZYLINDER_6
 10
-2.3517
 20
10.6119
 30
16.3055
 70
192
 0
VERTEX
 8
ZYLINDER_6
 10
-15.557
 20
-3.0529
 30
16.0694
 70
192
 0
VERTEX
 8
ZYLINDER_6
 10
-2.1219
 20
10.3821
 30
16.0694
 70
192
 0
VERTEX
 8
ZYLINDER_6
 10
-15.4692
 20
-3.1407
 30
15.6874
 70
192
 0
VERTEX
 8
ZYLINDER_6
 10
-2.0342
 20
10.2943
 30
15.6874
 70
192
 0
VERTEX
 8
ZYLINDER_6
 10
-15.557
 20
-3.0529
 30
15.3053
 70
192
 0
VERTEX
 8
ZYLINDER_6
 10
-2.1219
 20
10.3821
 30
15.3053
 70
192
 0
VERTEX
 8
ZYLINDER_6
 10
-15.7868
 20
-2.8231
 30
15.0692
 70
192
 0
VERTEX
 8
ZYLINDER_6
 10
-2.3517
 20
10.6119
 30
15.0692
 70
192
 0
VERTEX
 8
ZYLINDER_6
 10
-16.0708
 20
-2.5391
 30
15.0692
 70
192
 0
VERTEX
 8
ZYLINDER_6
 10
-2.6358
 20
10.896
 30
15.0692
 70
192
 0
VERTEX
 8
ZYLINDER_6
 10
-16.3006
 20
-2.3093
 30
15.3053
 70
192
 0
VERTEX
 8
ZYLINDER_6
 10
-2.8656
 20
11.1258
 30
15.3053
 70
192
 0
VERTEX
 8
ZYLINDER_6
 10
0
 20
0
 30
0
 70
128
 71
1
 72
2
 73
4
 74
3
 0
VERTEX
 8
ZYLINDER_6
 10
0
 20
0
 30
0
 70
128
 71
3
 72
4
 73
6
 74
5
 0
VERTEX
 8
ZYLINDER_6
 10
0
 20
0
 30
0
 70
128
 71
5
 72
6
 73
8
 74
7
 0
VERTEX
 8
ZYLINDER_6
 10
0
 20
0
 30
0
 70
128
 71
7
 72
8
 73
10
 74
9
 0
VERTEX
 8
ZYLINDER_6
 10
0
 20
0
 30
0
 70
128
 71
9
 72
10
 73
12
 74
11
 0
VERTEX
 8
ZYLINDER_6
 10
0
 20
0
 30
0
 70
128
 71
11
 72
12
 73
14
 74
13
 0
VERTEX
 8
ZYLINDER_6
 10
0
 20
0
 30
0
 70
128
 71
13
 72
14
 73
16
 74
15
 0
VERTEX
 8
ZYLINDER_6
 10
0
 20
0
 30
0
 70
128
 71
15
 72
16
 73
18
 74
17
 0
VERTEX
 8
ZYLINDER_6
 10
0
 20
0
 30
0
 70
128
 71
17
 72
18
 73
20
 74
19
 0
VERTEX
 8
ZYLINDER_6
 10
0
 20
0
 30
0
 70
128
 71
19
 72
20
 73
2
 74
1
 0
SEQEND
 0
POLYLINE
 8
R_HRE
 66
1
 10
0.0
 20
0.0
 30
0.0
 70
64
 71
64
 72
32
 0
VERTEX
 8
R_HRE
 10
-17.1503
 20
-1.1787
 30
11.1389
 70
192
 0
VERTEX
 8
R_HRE
 10
-17.0217
 20
-1.0255
 30
11.1389
 70
192
 0
VERTEX
 8
R_HRE
 10
-17.0217
 20
-1.0255
 30
11.1389
 70
192
 0
VERTEX
 8
R_HRE
 10
-17.0217
 20
-1.0255
 30
11.6389
 70
192
 0
VERTEX
 8
R_HRE
 10
-17.0217
 20
-1.0255
 30
11.6389
 70
192
 0
VERTEX
 8
R_HRE
 10
-17.1503
 20
-1.1787
 30
11.6389
 70
192
 0
VERTEX
 8
R_HRE
 10
-17.1503
 20
-1.1787
 30
11.6389
 70
192
 0
VERTEX
 8
R_HRE
 10
-17.1503
 20
-1.1787
 30
11.1389
 70
192
 0
VERTEX
 8
R_HRE
 10
-17.3693
 20
-1.1096
 30
11.1389
 70
192
 0
VERTEX
 8
R_HRE
 10
-17.3867
 20
-0.9104
 30
11.1389
 70
192
 0
VERTEX
 8
R_HRE
 10
-17.3867
 20
-0.9104
 30
11.1389
 70
192
 0
VERTEX
 8
R_HRE
 10
-17.3867
 20
-0.9104
 30
11.6389
 70
192
 0
VERTEX
 8
R_HRE
 10
-17.3867
 20
-0.9104
 30
11.6389
 70
192
 0
VERTEX
 8
R_HRE
 10
-17.3693
 20
-1.1096
 30
11.6389
 70
192
 0
VERTEX
 8
R_HRE
 10
-17.3693
 20
-1.1096
 30
11.6389
 70
192
 0
VERTEX
 8
R_HRE
 10
-17.3693
 20
-1.1096
 30
11.1389
 70
192
 0
VERTEX
 8
R_HRE
 10
-17.5729
 20
-1.2157
 30
11.1389
 70
192
 0
VERTEX
 8
R_HRE
 10
-17.7262
 20
-1.0871
 30
11.1389
 70
192
 0
VERTEX
 8
R_HRE
 10
-17.7262
 20
-1.0871
 30
11.1389
 70
192
 0
VERTEX
 8
R_HRE
 10
-17.7262
 20
-1.0871
 30
11.6389
 70
192
 0
VERTEX
 8
R_HRE
 10
-17.7262
 20
-1.0871
 30
11.6389
 70
192
 0
VERTEX
 8
R_HRE
 10
-17.5729
 20
-1.2157
 30
11.6389
 70
192
 0
VERTEX
 8
R_HRE
 10
-17.5729
 20
-1.2157
 30
11.6389
 70
192
 0
VERTEX
 8
R_HRE
 10
-17.5729
 20
-1.2157
 30
11.1389
 70
192
 0
VERTEX
 8
R_HRE
 10
-17.642
 20
-1.4346
 30
11.1389
 70
192
 0
VERTEX
 8
R_HRE
 10
-17.8412
 20
-1.4521
 30
11.1389
 70
192
 0
VERTEX
 8
R_HRE
 10
-17.8412
 20
-1.4521
 30
11.1389
 70
192
 0
VERTEX
 8
R_HRE
 10
-17.8412
 20
-1.4521
 30
11.6389
 70
192
 0
VERTEX
 8
R_HRE
 10
-17.8412
 20
-1.4521
 30
11.6389
 70
192
 0
VERTEX
 8
R_HRE
 10
-17.642
 20
-1.4346
 30
11.6389
 70
192
 0
VERTEX
 8
R_HRE
 10
-17.642
 20
-1.4346
 30
11.6389
 70
192
 0
VERTEX
 8
R_HRE
 10
-17.642
 20
-1.4346
 30
11.1389
 70
192
 0
VERTEX
 8
R_HRE
 10
-17.536
 20
-1.6383
 30
11.1389
 70
192
 0
VERTEX
 8
R_HRE
 10
-17.6645
 20
-1.7915
 30
11.1389
 70
192
 0
VERTEX
 8
R_HRE
 10
-17.6645
 20
-1.7915
 30
11.1389
 70
192
 0
VERTEX
 8
R_HRE
 10
-17.6645
 20
-1.7915
 30
11.6389
 70
192
 0
VERTEX
 8
R_HRE
 10
-17.6645
 20
-1.7915
 30
11.6389
 70
192
 0
VERTEX
 8
R_HRE
 10
-17.536
 20
-1.6383
 30
11.6389
 70
192
 0
VERTEX
 8
R_HRE
 10
-17.536
 20
-1.6383
 30
11.6389
 70
192
 0
VERTEX
 8
R_HRE
 10
-17.536
 20
-1.6383
 30
11.1389
 70
192
 0
VERTEX
 8
R_HRE
 10
-17.317
 20
-1.7073
 30
11.1389
 70
192
 0
VERTEX
 8
R_HRE
 10
-17.2996
 20
-1.9066
 30
11.1389
 70
192
 0
VERTEX
 8
R_HRE
 10
-17.2996
 20
-1.9066
 30
11.1389
 70
192
 0
VERTEX
 8
R_HRE
 10
-17.2996
 20
-1.9066
 30
11.6389
 70
192
 0
VERTEX
 8
R_HRE
 10
-17.2996
 20
-1.9066
 30
11.6389
 70
192
 0
VERTEX
 8
R_HRE
 10
-17.317
 20
-1.7073
 30
11.6389
 70
192
 0
VERTEX
 8
R_HRE
 10
-17.317
 20
-1.7073
 30
11.6389
 70
192
 0
VERTEX
 8
R_HRE
 10
-17.317
 20
-1.7073
 30
11.1389
 70
192
 0
VERTEX
 8
R_HRE
 10
-17.1133
 20
-1.6013
 30
11.1389
 70
192
 0
VERTEX
 8
R_HRE
 10
-16.9601
 20
-1.7299
 30
11.1389
 70
192
 0
VERTEX
 8
R_HRE
 10
-16.9601
 20
-1.7299
 30
11.1389
 70
192
 0
VERTEX
 8
R_HRE
 10
-16.9601
 20
-1.7299
 30
11.6389
 70
192
 0
VERTEX
 8
R_HRE
 10
-16.9601
 20
-1.7299
 30
11.6389
 70
192
 0
VERTEX
 8
R_HRE
 10
-17.1133
 20
-1.6013
 30
11.6389
 70
192
 0
VERTEX
 8
R_HRE
 10
-17.1133
 20
-1.6013
 30
11.6389
 70
192
 0
VERTEX
 8
R_HRE
 10
-17.1133
 20
-1.6013
 30
11.1389
 70
192
 0
VERTEX
 8
R_HRE
 10
-17.0443
 20
-1.3823
 30
11.1389
 70
192
 0
VERTEX
 8
R_HRE
 10
-16.845
 20
-1.3649
 30
11.1389
 70
192
 0
VERTEX
 8
R_HRE
 10
-16.845
 20
-1.3649
 30
11.1389
 70
192
 0
VERTEX
 8
R_HRE
 10
-16.845
 20
-1.3649
 30
11.6389
 70
192
 0
VERTEX
 8
R_HRE
 10
-16.845
 20
-1.3649
 30
11.6389
 70
192
 0
VERTEX
 8
R_HRE
 10
-17.0443
 20
-1.3823
 30
11.6389
 70
192
 0
VERTEX
 8
R_HRE
 10
-17.0443
 20
-1.3823
 30
11.6389
 70
192
 0
VERTEX
 8
R_HRE
 10
-17.0443
 20
-1.3823
 30
11.1389
 70
192
 0
VERTEX
 8
R_HRE
 10
0
 20
0
 30
0
 70
128
 71
1
 72
2
 73
10
 74
9
 0
VERTEX
 8
R_HRE
 10
0
 20
0
 30
0
 70
128
 71
3
 72
4
 73
12
 74
11
 0
VERTEX
 8
R_HRE
 10
0
 20
0
 30
0
 70
128
 71
5
 72
6
 73
14
 74
13
 0
VERTEX
 8
R_HRE
 10
0
 20
0
 30
0
 70
128
 71
7
 72
8
 73
16
 74
15
 0
VERTEX
 8
R_HRE
 10
0
 20
0
 30
0
 70
128
 71
9
 72
10
 73
18
 74
17
 0
VERTEX
 8
R_HRE
 10
0
 20
0
 30
0
 70
128
 71
11
 72
12
 73
20
 74
19
 0
VERTEX
 8
R_HRE
 10
0
 20
0
 30
0
 70
128
 71
13
 72
14
 73
22
 74
21
 0
VERTEX
 8
R_HRE
 10
0
 20
0
 30
0
 70
128
 71
15
 72
16
 73
24
 74
23
 0
VERTEX
 8
R_HRE
 10
0
 20
0
 30
0
 70
128
 71
17
 72
18
 73
26
 74
25
 0
VERTEX
 8
R_HRE
 10
0
 20
0
 30
0
 70
128
 71
19
 72
20
 73
28
 74
27
 0
VERTEX
 8
R_HRE
 10
0
 20
0
 30
0
 70
128
 71
21
 72
22
 73
30
 74
29
 0
VERTEX
 8
R_HRE
 10
0
 20
0
 30
0
 70
128
 71
23
 72
24
 73
32
 74
31
 0
VERTEX
 8
R_HRE
 10
0
 20
0
 30
0
 70
128
 71
25
 72
26
 73
34
 74
33
 0
VERTEX
 8
R_HRE
 10
0
 20
0
 30
0
 70
128
 71
27
 72
28
 73
36
 74
35
 0
VERTEX
 8
R_HRE
 10
0
 20
0
 30
0
 70
128
 71
29
 72
30
 73
38
 74
37
 0
VERTEX
 8
R_HRE
 10
0
 20
0
 30
0
 70
128
 71
31
 72
32
 73
40
 74
39
 0
VERTEX
 8
R_HRE
 10
0
 20
0
 30
0
 70
128
 71
33
 72
34
 73
42
 74
41
 0
VERTEX
 8
R_HRE
 10
0
 20
0
 30
0
 70
128
 71
35
 72
36
 73
44
 74
43
 0
VERTEX
 8
R_HRE
 10
0
 20
0
 30
0
 70
128
 71
37
 72
38
 73
46
 74
45
 0
VERTEX
 8
R_HRE
 10
0
 20
0
 30
0
 70
128
 71
39
 72
40
 73
48
 74
47
 0
VERTEX
 8
R_HRE
 10
0
 20
0
 30
0
 70
128
 71
41
 72
42
 73
50
 74
49
 0
VERTEX
 8
R_HRE
 10
0
 20
0
 30
0
 70
128
 71
43
 72
44
 73
52
 74
51
 0
VERTEX
 8
R_HRE
 10
0
 20
0
 30
0
 70
128
 71
45
 72
46
 73
54
 74
53
 0
VERTEX
 8
R_HRE
 10
0
 20
0
 30
0
 70
128
 71
47
 72
48
 73
56
 74
55
 0
VERTEX
 8
R_HRE
 10
0
 20
0
 30
0
 70
128
 71
49
 72
50
 73
58
 74
57
 0
VERTEX
 8
R_HRE
 10
0
 20
0
 30
0
 70
128
 71
51
 72
52
 73
60
 74
59
 0
VERTEX
 8
R_HRE
 10
0
 20
0
 30
0
 70
128
 71
53
 72
54
 73
62
 74
61
 0
VERTEX
 8
R_HRE
 10
0
 20
0
 30
0
 70
128
 71
55
 72
56
 73
64
 74
63
 0
VERTEX
 8
R_HRE
 10
0
 20
0
 30
0
 70
128
 71
57
 72
58
 73
2
 74
1
 0
VERTEX
 8
R_HRE
 10
0
 20
0
 30
0
 70
128
 71
59
 72
60
 73
4
 74
3
 0
VERTEX
 8
R_HRE
 10
0
 20
0
 30
0
 70
128
 71
61
 72
62
 73
6
 74
5
 0
VERTEX
 8
R_HRE
 10
0
 20
0
 30
0
 70
128
 71
63
 72
64
 73
8
 74
7
 0
SEQEND
 0
POLYLINE
 8
ZYLINDER_5
 66
1
 10
0.0
 20
0.0
 30
0.0
 70
64
 71
42
 72
30
 0
VERTEX
 8
ZYLINDER_5
 10
-20.1867
 20
-4.5665
 30
17.4495
 70
192
 0
VERTEX
 8
ZYLINDER_5
 10
-19.0377
 20
-5.5307
 30
17.4495
 70
192
 0
VERTEX
 8
ZYLINDER_5
 10
-19.9296
 20
-4.2601
 30
17.4495
 70
192
 0
VERTEX
 8
ZYLINDER_5
 10
-19.9296
 20
-4.2601
 30
17.4495
 70
192
 0
VERTEX
 8
ZYLINDER_5
 10
-18.7806
 20
-5.2242
 30
17.4495
 70
192
 0
VERTEX
 8
ZYLINDER_5
 10
-18.7806
 20
-5.2242
 30
17.4495
 70
192
 0
VERTEX
 8
ZYLINDER_5
 10
-19.9787
 20
-4.3186
 30
17.6846
 70
192
 0
VERTEX
 8
ZYLINDER_5
 10
-19.9787
 20
-4.3186
 30
17.6846
 70
192
 0
VERTEX
 8
ZYLINDER_5
 10
-18.8297
 20
-5.2828
 30
17.6846
 70
192
 0
VERTEX
 8
ZYLINDER_5
 10
-18.8297
 20
-5.2828
 30
17.6846
 70
192
 0
VERTEX
 8
ZYLINDER_5
 10
-20.1073
 20
-4.4718
 30
17.8299
 70
192
 0
VERTEX
 8
ZYLINDER_5
 10
-20.1073
 20
-4.4718
 30
17.8299
 70
192
 0
VERTEX
 8
ZYLINDER_5
 10
-18.9582
 20
-5.436
 30
17.8299
 70
192
 0
VERTEX
 8
ZYLINDER_5
 10
-18.9582
 20
-5.436
 30
17.8299
 70
192
 0
VERTEX
 8
ZYLINDER_5
 10
-20.2662
 20
-4.6612
 30
17.8299
 70
192
 0
VERTEX
 8
ZYLINDER_5
 10
-20.2662
 20
-4.6612
 30
17.8299
 70
192
 0
VERTEX
 8
ZYLINDER_5
 10
-19.1171
 20
-5.6254
 30
17.8299
 70
192
 0
VERTEX
 8
ZYLINDER_5
 10
-19.1171
 20
-5.6254
 30
17.8299
 70
192
 0
VERTEX
 8
ZYLINDER_5
 10
-20.3948
 20
-4.8144
 30
17.6846
 70
192
 0
VERTEX
 8
ZYLINDER_5
 10
-20.3948
 20
-4.8144
 30
17.6846
 70
192
 0
VERTEX
 8
ZYLINDER_5
 10
-19.2457
 20
-5.7786
 30
17.6846
 70
192
 0
VERTEX
 8
ZYLINDER_5
 10
-19.2457
 20
-5.7786
 30
17.6846
 70
192
 0
VERTEX
 8
ZYLINDER_5
 10
-20.4439
 20
-4.8729
 30
17.4495
 70
192
 0
VERTEX
 8
ZYLINDER_5
 10
-20.4439
 20
-4.8729
 30
17.4495
 70
192
 0
VERTEX
 8
ZYLINDER_5
 10
-19.2948
 20
-5.8371
 30
17.4495
 70
192
 0
VERTEX
 8
ZYLINDER_5
 10
-19.2948
 20
-5.8371
 30
17.4495
 70
192
 0
VERTEX
 8
ZYLINDER_5
 10
-20.3948
 20
-4.8144
 30
17.2144
 70
192
 0
VERTEX
 8
ZYLINDER_5
 10
-20.3948
 20
-4.8144
 30
17.2144
 70
192
 0
VERTEX
 8
ZYLINDER_5
 10
-19.2457
 20
-5.7786
 30
17.2144
 70
192
 0
VERTEX
 8
ZYLINDER_5
 10
-19.2457
 20
-5.7786
 30
17.2144
 70
192
 0
VERTEX
 8
ZYLINDER_5
 10
-20.2662
 20
-4.6612
 30
17.0691
 70
192
 0
VERTEX
 8
ZYLINDER_5
 10
-20.2662
 20
-4.6612
 30
17.0691
 70
192
 0
VERTEX
 8
ZYLINDER_5
 10
-19.1171
 20
-5.6254
 30
17.0691
 70
192
 0
VERTEX
 8
ZYLINDER_5
 10
-19.1171
 20
-5.6254
 30
17.0691
 70
192
 0
VERTEX
 8
ZYLINDER_5
 10
-20.1073
 20
-4.4718
 30
17.0691
 70
192
 0
VERTEX
 8
ZYLINDER_5
 10
-20.1073
 20
-4.4718
 30
17.0691
 70
192
 0
VERTEX
 8
ZYLINDER_5
 10
-18.9582
 20
-5.436
 30
17.0691
 70
192
 0
VERTEX
 8
ZYLINDER_5
 10
-18.9582
 20
-5.436
 30
17.0691
 70
192
 0
VERTEX
 8
ZYLINDER_5
 10
-19.9787
 20
-4.3186
 30
17.2144
 70
192
 0
VERTEX
 8
ZYLINDER_5
 10
-19.9787
 20
-4.3186
 30
17.2144
 70
192
 0
VERTEX
 8
ZYLINDER_5
 10
-18.8297
 20
-5.2828
 30
17.2144
 70
192
 0
VERTEX
 8
ZYLINDER_5
 10
-18.8297
 20
-5.2828
 30
17.2144
 70
192
 0
VERTEX
 8
ZYLINDER_5
 10
0
 20
0
 30
0
 70
128
 71
1
 72
3
 73
7
 74
7
 0
VERTEX
 8
ZYLINDER_5
 10
0
 20
0
 30
0
 70
128
 71
4
 72
5
 73
9
 74
8
 0
VERTEX
 8
ZYLINDER_5
 10
0
 20
0
 30
0
 70
128
 71
6
 72
2
 73
10
 74
10
 0
VERTEX
 8
ZYLINDER_5
 10
0
 20
0
 30
0
 70
128
 71
1
 72
7
 73
11
 74
11
 0
VERTEX
 8
ZYLINDER_5
 10
0
 20
0
 30
0
 70
128
 71
8
 72
9
 73
13
 74
12
 0
VERTEX
 8
ZYLINDER_5
 10
0
 20
0
 30
0
 70
128
 71
10
 72
2
 73
14
 74
14
 0
VERTEX
 8
ZYLINDER_5
 10
0
 20
0
 30
0
 70
128
 71
1
 72
11
 73
15
 74
15
 0
VERTEX
 8
ZYLINDER_5
 10
0
 20
0
 30
0
 70
128
 71
12
 72
13
 73
17
 74
16
 0
VERTEX
 8
ZYLINDER_5
 10
0
 20
0
 30
0
 70
128
 71
14
 72
2
 73
18
 74
18
 0
VERTEX
 8
ZYLINDER_5
 10
0
 20
0
 30
0
 70
128
 71
1
 72
15
 73
19
 74
19
 0
VERTEX
 8
ZYLINDER_5
 10
0
 20
0
 30
0
 70
128
 71
16
 72
17
 73
21
 74
20
 0
VERTEX
 8
ZYLINDER_5
 10
0
 20
0
 30
0
 70
128
 71
18
 72
2
 73
22
 74
22
 0
VERTEX
 8
ZYLINDER_5
 10
0
 20
0
 30
0
 70
128
 71
1
 72
19
 73
23
 74
23
 0
VERTEX
 8
ZYLINDER_5
 10
0
 20
0
 30
0
 70
128
 71
20
 72
21
 73
25
 74
24
 0
VERTEX
 8
ZYLINDER_5
 10
0
 20
0
 30
0
 70
128
 71
22
 72
2
 73
26
 74
26
 0
VERTEX
 8
ZYLINDER_5
 10
0
 20
0
 30
0
 70
128
 71
1
 72
23
 73
27
 74
27
 0
VERTEX
 8
ZYLINDER_5
 10
0
 20
0
 30
0
 70
128
 71
24
 72
25
 73
29
 74
28
 0
VERTEX
 8
ZYLINDER_5
 10
0
 20
0
 30
0
 70
128
 71
26
 72
2
 73
30
 74
30
 0
VERTEX
 8
ZYLINDER_5
 10
0
 20
0
 30
0
 70
128
 71
1
 72
27
 73
31
 74
31
 0
VERTEX
 8
ZYLINDER_5
 10
0
 20
0
 30
0
 70
128
 71
28
 72
29
 73
33
 74
32
 0
VERTEX
 8
ZYLINDER_5
 10
0
 20
0
 30
0
 70
128
 71
30
 72
2
 73
34
 74
34
 0
VERTEX
 8
ZYLINDER_5
 10
0
 20
0
 30
0
 70
128
 71
1
 72
31
 73
35
 74
35
 0
VERTEX
 8
ZYLINDER_5
 10
0
 20
0
 30
0
 70
128
 71
32
 72
33
 73
37
 74
36
 0
VERTEX
 8
ZYLINDER_5
 10
0
 20
0
 30
0
 70
128
 71
34
 72
2
 73
38
 74
38
 0
VERTEX
 8
ZYLINDER_5
 10
0
 20
0
 30
0
 70
128
 71
1
 72
35
 73
39
 74
39
 0
VERTEX
 8
ZYLINDER_5
 10
0
 20
0
 30
0
 70
128
 71
36
 72
37
 73
41
 74
40
 0
VERTEX
 8
ZYLINDER_5
 10
0
 20
0
 30
0
 70
128
 71
38
 72
2
 73
42
 74
42
 0
VERTEX
 8
ZYLINDER_5
 10
0
 20
0
 30
0
 70
128
 71
1
 72
39
 73
3
 74
3
 0
VERTEX
 8
ZYLINDER_5
 10
0
 20
0
 30
0
 70
128
 71
40
 72
41
 73
5
 74
4
 0
VERTEX
 8
ZYLINDER_5
 10
0
 20
0
 30
0
 70
128
 71
42
 72
2
 73
6
 74
6
 0
SEQEND
 0
POLYLINE
 8
ZYLINDER_4
 66
1
 10
0.0
 20
0.0
 30
0.0
 70
64
 71
42
 72
30
 0
VERTEX
 8
ZYLINDER_4
 10
-14.7848
 20
1.8714
 30
17.4495
 70
192
 0
VERTEX
 8
ZYLINDER_4
 10
-13.6357
 20
0.9072
 30
17.4495
 70
192
 0
VERTEX
 8
ZYLINDER_4
 10
-14.5276
 20
2.1778
 30
17.4495
 70
192
 0
VERTEX
 8
ZYLINDER_4
 10
-14.5276
 20
2.1778
 30
17.4495
 70
192
 0
VERTEX
 8
ZYLINDER_4
 10
-13.3786
 20
1.2136
 30
17.4495
 70
192
 0
VERTEX
 8
ZYLINDER_4
 10
-13.3786
 20
1.2136
 30
17.4495
 70
192
 0
VERTEX
 8
ZYLINDER_4
 10
-14.5767
 20
2.1193
 30
17.6846
 70
192
 0
VERTEX
 8
ZYLINDER_4
 10
-14.5767
 20
2.1193
 30
17.6846
 70
192
 0
VERTEX
 8
ZYLINDER_4
 10
-13.4277
 20
1.1551
 30
17.6846
 70
192
 0
VERTEX
 8
ZYLINDER_4
 10
-13.4277
 20
1.1551
 30
17.6846
 70
192
 0
VERTEX
 8
ZYLINDER_4
 10
-14.7053
 20
1.966
 30
17.8299
 70
192
 0
VERTEX
 8
ZYLINDER_4
 10
-14.7053
 20
1.966
 30
17.8299
 70
192
 0
VERTEX
 8
ZYLINDER_4
 10
-13.5562
 20
1.0019
 30
17.8299
 70
192
 0
VERTEX
 8
ZYLINDER_4
 10
-13.5562
 20
1.0019
 30
17.8299
 70
192
 0
VERTEX
 8
ZYLINDER_4
 10
-14.8642
 20
1.7767
 30
17.8299
 70
192
 0
VERTEX
 8
ZYLINDER_4
 10
-14.8642
 20
1.7767
 30
17.8299
 70
192
 0
VERTEX
 8
ZYLINDER_4
 10
-13.7151
 20
0.8125
 30
17.8299
 70
192
 0
VERTEX
 8
ZYLINDER_4
 10
-13.7151
 20
0.8125
 30
17.8299
 70
192
 0
VERTEX
 8
ZYLINDER_4
 10
-14.9928
 20
1.6235
 30
17.6846
 70
192
 0
VERTEX
 8
ZYLINDER_4
 10
-14.9928
 20
1.6235
 30
17.6846
 70
192
 0
VERTEX
 8
ZYLINDER_4
 10
-13.8437
 20
0.6593
 30
17.6846
 70
192
 0
VERTEX
 8
ZYLINDER_4
 10
-13.8437
 20
0.6593
 30
17.6846
 70
192
 0
VERTEX
 8
ZYLINDER_4
 10
-15.0419
 20
1.5649
 30
17.4495
 70
192
 0
VERTEX
 8
ZYLINDER_4
 10
-15.0419
 20
1.5649
 30
17.4495
 70
192
 0
VERTEX
 8
ZYLINDER_4
 10
-13.8928
 20
0.6008
 30
17.4495
 70
192
 0
VERTEX
 8
ZYLINDER_4
 10
-13.8928
 20
0.6008
 30
17.4495
 70
192
 0
VERTEX
 8
ZYLINDER_4
 10
-14.9928
 20
1.6235
 30
17.2144
 70
192
 0
VERTEX
 8
ZYLINDER_4
 10
-14.9928
 20
1.6235
 30
17.2144
 70
192
 0
VERTEX
 8
ZYLINDER_4
 10
-13.8437
 20
0.6593
 30
17.2144
 70
192
 0
VERTEX
 8
ZYLINDER_4
 10
-13.8437
 20
0.6593
 30
17.2144
 70
192
 0
VERTEX
 8
ZYLINDER_4
 10
-14.8642
 20
1.7767
 30
17.0691
 70
192
 0
VERTEX
 8
ZYLINDER_4
 10
-14.8642
 20
1.7767
 30
17.0691
 70
192
 0
VERTEX
 8
ZYLINDER_4
 10
-13.7151
 20
0.8125
 30
17.0691
 70
192
 0
VERTEX
 8
ZYLINDER_4
 10
-13.7151
 20
0.8125
 30
17.0691
 70
192
 0
VERTEX
 8
ZYLINDER_4
 10
-14.7053
 20
1.966
 30
17.0691
 70
192
 0
VERTEX
 8
ZYLINDER_4
 10
-14.7053
 20
1.966
 30
17.0691
 70
192
 0
VERTEX
 8
ZYLINDER_4
 10
-13.5562
 20
1.0019
 30
17.0691
 70
192
 0
VERTEX
 8
ZYLINDER_4
 10
-13.5562
 20
1.0019
 30
17.0691
 70
192
 0
VERTEX
 8
ZYLINDER_4
 10
-14.5767
 20
2.1193
 30
17.2144
 70
192
 0
VERTEX
 8
ZYLINDER_4
 10
-14.5767
 20
2.1193
 30
17.2144
 70
192
 0
VERTEX
 8
ZYLINDER_4
 10
-13.4277
 20
1.1551
 30
17.2144
 70
192
 0
VERTEX
 8
ZYLINDER_4
 10
-13.4277
 20
1.1551
 30
17.2144
 70
192
 0
VERTEX
 8
ZYLINDER_4
 10
0
 20
0
 30
0
 70
128
 71
1
 72
3
 73
7
 74
7
 0
VERTEX
 8
ZYLINDER_4
 10
0
 20
0
 30
0
 70
128
 71
4
 72
5
 73
9
 74
8
 0
VERTEX
 8
ZYLINDER_4
 10
0
 20
0
 30
0
 70
128
 71
6
 72
2
 73
10
 74
10
 0
VERTEX
 8
ZYLINDER_4
 10
0
 20
0
 30
0
 70
128
 71
1
 72
7
 73
11
 74
11
 0
VERTEX
 8
ZYLINDER_4
 10
0
 20
0
 30
0
 70
128
 71
8
 72
9
 73
13
 74
12
 0
VERTEX
 8
ZYLINDER_4
 10
0
 20
0
 30
0
 70
128
 71
10
 72
2
 73
14
 74
14
 0
VERTEX
 8
ZYLINDER_4
 10
0
 20
0
 30
0
 70
128
 71
1
 72
11
 73
15
 74
15
 0
VERTEX
 8
ZYLINDER_4
 10
0
 20
0
 30
0
 70
128
 71
12
 72
13
 73
17
 74
16
 0
VERTEX
 8
ZYLINDER_4
 10
0
 20
0
 30
0
 70
128
 71
14
 72
2
 73
18
 74
18
 0
VERTEX
 8
ZYLINDER_4
 10
0
 20
0
 30
0
 70
128
 71
1
 72
15
 73
19
 74
19
 0
VERTEX
 8
ZYLINDER_4
 10
0
 20
0
 30
0
 70
128
 71
16
 72
17
 73
21
 74
20
 0
VERTEX
 8
ZYLINDER_4
 10
0
 20
0
 30
0
 70
128
 71
18
 72
2
 73
22
 74
22
 0
VERTEX
 8
ZYLINDER_4
 10
0
 20
0
 30
0
 70
128
 71
1
 72
19
 73
23
 74
23
 0
VERTEX
 8
ZYLINDER_4
 10
0
 20
0
 30
0
 70
128
 71
20
 72
21
 73
25
 74
24
 0
VERTEX
 8
ZYLINDER_4
 10
0
 20
0
 30
0
 70
128
 71
22
 72
2
 73
26
 74
26
 0
VERTEX
 8
ZYLINDER_4
 10
0
 20
0
 30
0
 70
128
 71
1
 72
23
 73
27
 74
27
 0
VERTEX
 8
ZYLINDER_4
 10
0
 20
0
 30
0
 70
128
 71
24
 72
25
 73
29
 74
28
 0
VERTEX
 8
ZYLINDER_4
 10
0
 20
0
 30
0
 70
128
 71
26
 72
2
 73
30
 74
30
 0
VERTEX
 8
ZYLINDER_4
 10
0
 20
0
 30
0
 70
128
 71
1
 72
27
 73
31
 74
31
 0
VERTEX
 8
ZYLINDER_4
 10
0
 20
0
 30
0
 70
128
 71
28
 72
29
 73
33
 74
32
 0
VERTEX
 8
ZYLINDER_4
 10
0
 20
0
 30
0
 70
128
 71
30
 72
2
 73
34
 74
34
 0
VERTEX
 8
ZYLINDER_4
 10
0
 20
0
 30
0
 70
128
 71
1
 72
31
 73
35
 74
35
 0
VERTEX
 8
ZYLINDER_4
 10
0
 20
0
 30
0
 70
128
 71
32
 72
33
 73
37
 74
36
 0
VERTEX
 8
ZYLINDER_4
 10
0
 20
0
 30
0
 70
128
 71
34
 72
2
 73
38
 74
38
 0
VERTEX
 8
ZYLINDER_4
 10
0
 20
0
 30
0
 70
128
 71
1
 72
35
 73
39
 74
39
 0
VERTEX
 8
ZYLINDER_4
 10
0
 20
0
 30
0
 70
128
 71
36
 72
37
 73
41
 74
40
 0
VERTEX
 8
ZYLINDER_4
 10
0
 20
0
 30
0
 70
128
 71
38
 72
2
 73
42
 74
42
 0
VERTEX
 8
ZYLINDER_4
 10
0
 20
0
 30
0
 70
128
 71
1
 72
39
 73
3
 74
3
 0
VERTEX
 8
ZYLINDER_4
 10
0
 20
0
 30
0
 70
128
 71
40
 72
41
 73
5
 74
4
 0
VERTEX
 8
ZYLINDER_4
 10
0
 20
0
 30
0
 70
128
 71
42
 72
2
 73
6
 74
6
 0
SEQEND
 0
POLYLINE
 8
ZYLIN4
 66
1
 10
0.0
 20
0.0
 30
0.0
 70
64
 71
145
 72
286
 0
VERTEX
 8
ZYLIN4
 10
-20.3779
 20
-6.4225
 30
16.7104
 70
192
 0
VERTEX
 8
ZYLIN4
 10
-17.7443
 20
-0.2531
 30
11.4749
 70
192
 0
VERTEX
 8
ZYLIN4
 10
-20.0248
 20
-5.6903
 30
20.7445
 70
192
 0
VERTEX
 8
ZYLIN4
 10
-16.6089
 20
-2.179
 30
11.7961
 70
192
 0
VERTEX
 8
ZYLIN4
 10
-21.2533
 20
-4.3339
 30
13.7578
 70
192
 0
VERTEX
 8
ZYLIN4
 10
-13.1451
 20
2.8945
 30
17.6933
 70
192
 0
VERTEX
 8
ZYLIN4
 10
-17.3583
 20
-2.8238
 30
23.1764
 70
192
 0
VERTEX
 8
ZYLIN4
 10
-18.3428
 20
-3.2999
 30
11.8184
 70
192
 0
VERTEX
 8
ZYLIN4
 10
-13.0542
 20
2.4624
 30
15.9729
 70
192
 0
VERTEX
 8
ZYLIN4
 10
-16.4356
 20
1.4616
 30
12.1166
 70
192
 0
VERTEX
 8
ZYLIN4
 10
-21.8787
 20
-5.0851
 30
19.2625
 70
192
 0
VERTEX
 8
ZYLIN4
 10
-14.9831
 20
0.4269
 30
22.6856
 70
192
 0
VERTEX
 8
ZYLIN4
 10
-14.5665
 20
0.1125
 30
12.7863
 70
192
 0
VERTEX
 8
ZYLIN4
 10
-19.6378
 20
-5.7887
 30
20.3675
 70
192
 0
VERTEX
 8
ZYLIN4
 10
-20.7276
 20
-3.6535
 30
12.8731
 70
192
 0
VERTEX
 8
ZYLIN4
 10
-12.9323
 20
2.4509
 30
18.1737
 70
192
 0
VERTEX
 8
ZYLIN4
 10
-20.5265
 20
-6.4426
 30
17.6895
 70
192
 0
VERTEX
 8
ZYLIN4
 10
-17.2204
 20
-3.0507
 30
12.0802
 70
192
 0
VERTEX
 8
ZYLIN4
 10
-18.7852
 20
-3.8272
 30
12.1249
 70
192
 0
VERTEX
 8
ZYLIN4
 10
-19.8649
 20
-5.4064
 30
13.6799
 70
192
 0
VERTEX
 8
ZYLIN4
 10
-14.4075
 20
3.8789
 30
18.2861
 70
192
 0
VERTEX
 8
ZYLIN4
 10
-14.0789
 20
1.7816
 30
13.5216
 70
192
 0
VERTEX
 8
ZYLIN4
 10
-19.3834
 20
-5.3767
 30
13.6862
 70
192
 0
VERTEX
 8
ZYLIN4
 10
-17.1058
 20
0.5885
 30
11.6719
 70
192
 0
VERTEX
 8
ZYLIN4
 10
-14.5616
 20
3.5399
 30
15.2333
 70
192
 0
VERTEX
 8
ZYLIN4
 10
-12.9822
 20
2.1431
 30
16.268
 70
192
 0
VERTEX
 8
ZYLIN4
 10
-19.8962
 20
-5.3874
 30
21.1586
 70
192
 0
VERTEX
 8
ZYLIN4
 10
-13.2016
 20
2.2868
 30
15.2673
 70
192
 0
VERTEX
 8
ZYLIN4
 10
-21.9696
 20
-5.1331
 30
15.9984
 70
192
 0
VERTEX
 8
ZYLIN4
 10
-19.1995
 20
-4.3209
 30
22.369
 70
192
 0
VERTEX
 8
ZYLIN4
 10
-15.7428
 20
-1.0379
 30
11.8459
 70
192
 0
VERTEX
 8
ZYLIN4
 10
-19.0083
 20
-4.4386
 30
12.4909
 70
192
 0
VERTEX
 8
ZYLIN4
 10
-13.9931
 20
0.9383
 30
13.4073
 70
192
 0
VERTEX
 8
ZYLIN4
 10
-14.0297
 20
1.1431
 30
21.613
 70
192
 0
VERTEX
 8
ZYLIN4
 10
-20.144
 20
-6.1437
 30
15.2931
 70
192
 0
VERTEX
 8
ZYLIN4
 10
-14.9151
 20
3.2736
 30
14.3449
 70
192
 0
VERTEX
 8
ZYLIN4
 10
-13.0179
 20
2.5057
 30
18.6704
 70
192
 0
VERTEX
 8
ZYLIN4
 10
-12.9756
 20
2.0093
 30
18.4078
 70
192
 0
VERTEX
 8
ZYLIN4
 10
-20.3255
 20
-6.36
 30
18.6558
 70
192
 0
VERTEX
 8
ZYLIN4
 10
-20.0466
 20
-2.8425
 30
12.1407
 70
192
 0
VERTEX
 8
ZYLIN4
 10
-14.4967
 20
3.6542
 30
19.3395
 70
192
 0
VERTEX
 8
ZYLIN4
 10
-16.7562
 20
-1.4091
 30
11.4539
 70
192
 0
VERTEX
 8
ZYLIN4
 10
-20.8011
 20
-6.2296
 30
18.4427
 70
192
 0
VERTEX
 8
ZYLIN4
 10
-13.4751
 20
2.5012
 30
19.8825
 70
192
 0
VERTEX
 8
ZYLIN4
 10
-19.1145
 20
-4.9499
 30
21.8608
 70
192
 0
VERTEX
 8
ZYLIN4
 10
-15.7135
 20
2.2644
 30
12.8373
 70
192
 0
VERTEX
 8
ZYLIN4
 10
-19.9644
 20
-6.3207
 30
16.6514
 70
192
 0
VERTEX
 8
ZYLIN4
 10
-13.6216
 20
1.9442
 30
14.1464
 70
192
 0
VERTEX
 8
ZYLIN4
 10
-20.5843
 20
-5.9712
 30
19.6508
 70
192
 0
VERTEX
 8
ZYLIN4
 10
-20.3274
 20
-3.1935
 30
22.4739
 70
192
 0
VERTEX
 8
ZYLIN4
 10
-22.048
 20
-5.2854
 30
17.878
 70
192
 0
VERTEX
 8
ZYLIN4
 10
-18.7852
 20
-3.8272
 30
22.7593
 70
192
 0
VERTEX
 8
ZYLIN4
 10
-14.8656
 20
3.2919
 30
20.4585
 70
192
 0
VERTEX
 8
ZYLIN4
 10
-16.3049
 20
-1.8168
 30
23.0782
 70
192
 0
VERTEX
 8
ZYLIN4
 10
-15.3926
 20
-0.8722
 30
22.6785
 70
192
 0
VERTEX
 8
ZYLIN4
 10
-13.6995
 20
2.2337
 30
20.5502
 70
192
 0
VERTEX
 8
ZYLIN4
 10
-13.7144
 20
1.5188
 30
21.0682
 70
192
 0
VERTEX
 8
ZYLIN4
 10
-15.3878
 20
-0.1196
 30
11.8761
 70
192
 0
VERTEX
 8
ZYLIN4
 10
-17.6843
 20
-2.8975
 30
11.644
 70
192
 0
VERTEX
 8
ZYLIN4
 10
-13.2629
 20
2.7541
 30
15.9499
 70
192
 0
VERTEX
 8
ZYLIN4
 10
-14.54
 20
1.232
 30
12.819
 70
192
 0
VERTEX
 8
ZYLIN4
 10
-15.228
 20
2.7458
 30
13.5216
 70
192
 0
VERTEX
 8
ZYLIN4
 10
-16.0224
 20
-0.893
 30
11.5718
 70
192
 0
VERTEX
 8
ZYLIN4
 10
-20.8518
 20
-6.29
 30
17.1908
 70
192
 0
VERTEX
 8
ZYLIN4
 10
-15.2538
 20
-0.6382
 30
12.2442
 70
192
 0
VERTEX
 8
ZYLIN4
 10
-19.4868
 20
-5.7511
 30
14.6022
 70
192
 0
VERTEX
 8
ZYLIN4
 10
-13.5094
 20
1.5148
 30
20.5672
 70
192
 0
VERTEX
 8
ZYLIN4
 10
-20.6905
 20
-6.0978
 30
19.1763
 70
192
 0
VERTEX
 8
ZYLIN4
 10
-15.1804
 20
2.9576
 30
21.1217
 70
192
 0
VERTEX
 8
ZYLIN4
 10
-18.2623
 20
-0.7151
 30
23.4467
 70
192
 0
VERTEX
 8
ZYLIN4
 10
-15.3471
 20
-0.427
 30
22.9137
 70
192
 0
VERTEX
 8
ZYLIN4
 10
-14.0789
 20
1.7816
 30
21.3626
 70
192
 0
VERTEX
 8
ZYLIN4
 10
-14.6254
 20
0.7479
 30
12.5518
 70
192
 0
VERTEX
 8
ZYLIN4
 10
-19.6723
 20
-2.3957
 30
23.0064
 70
192
 0
VERTEX
 8
ZYLIN4
 10
-17.2841
 20
-2.2745
 30
23.3926
 70
192
 0
VERTEX
 8
ZYLIN4
 10
-18.3896
 20
-1.0222
 30
23.4302
 70
192
 0
VERTEX
 8
ZYLIN4
 10
-21.602
 20
-4.8505
 30
14.7743
 70
192
 0
VERTEX
 8
ZYLIN4
 10
-20.667
 20
-6.2938
 30
16.1981
 70
192
 0
VERTEX
 8
ZYLIN4
 10
-16.2509
 20
-1.1893
 30
23.3336
 70
192
 0
VERTEX
 8
ZYLIN4
 10
-14.3857
 20
1.1935
 30
22.0188
 70
192
 0
VERTEX
 8
ZYLIN4
 10
-13.1451
 20
2.8945
 30
17.1908
 70
192
 0
VERTEX
 8
ZYLIN4
 10
-19.5791
 20
-4.7732
 30
12.9832
 70
192
 0
VERTEX
 8
ZYLIN4
 10
-18.1124
 20
-3.8913
 30
22.6926
 70
192
 0
VERTEX
 8
ZYLIN4
 10
-17.213
 20
-2.899
 30
11.8949
 70
192
 0
VERTEX
 8
ZYLIN4
 10
-19.7581
 20
-6.0744
 30
19.4107
 70
192
 0
VERTEX
 8
ZYLIN4
 10
-13.3318
 20
1.583
 30
14.9666
 70
192
 0
VERTEX
 8
ZYLIN4
 10
-16.8119
 20
-2.0158
 30
11.5356
 70
192
 0
VERTEX
 8
ZYLIN4
 10
-19.0282
 20
-1.7831
 30
23.2835
 70
192
 0
VERTEX
 8
ZYLIN4
 10
-17.8744
 20
-3.5783
 30
12.0545
 70
192
 0
VERTEX
 8
ZYLIN4
 10
-16.7202
 20
-2.3858
 30
22.9768
 70
192
 0
VERTEX
 8
ZYLIN4
 10
-14.3488
 20
3.918
 30
17.4421
 70
192
 0
VERTEX
 8
ZYLIN4
 10
-20.7281
 20
-3.8091
 30
21.9009
 70
192
 0
VERTEX
 8
ZYLIN4
 10
-15.5535
 20
2.4211
 30
21.8582
 70
192
 0
VERTEX
 8
ZYLIN4
 10
-20.0218
 20
-6.1375
 30
19.5581
 70
192
 0
VERTEX
 8
ZYLIN4
 10
-13.277
 20
1.9007
 30
19.9979
 70
192
 0
VERTEX
 8
ZYLIN4
 10
-20.3781
 20
-5.7255
 30
20.3326
 70
192
 0
VERTEX
 8
ZYLIN4
 10
-20.608
 20
-6.3819
 30
18.1885
 70
192
 0
VERTEX
 8
ZYLIN4
 10
-15.6272
 20
-0.446
 30
23.106
 70
192
 0
VERTEX
 8
ZYLIN4
 10
-20.1647
 20
-5.8535
 30
14.573
 70
192
 0
VERTEX
 8
ZYLIN4
 10
-13.2016
 20
2.2868
 30
19.6169
 70
192
 0
VERTEX
 8
ZYLIN4
 10
-16.2152
 20
1.6785
 30
22.5917
 70
192
 0
VERTEX
 8
ZYLIN4
 10
-17.7211
 20
-2.559
 30
11.5484
 70
192
 0
VERTEX
 8
ZYLIN4
 10
-15.1547
 20
-0.3371
 30
22.741
 70
192
 0
VERTEX
 8
ZYLIN4
 10
-14.9873
 20
-0.2465
 30
12.3323
 70
192
 0
VERTEX
 8
ZYLIN4
 10
-21.5746
 20
-4.663
 30
20.418
 70
192
 0
VERTEX
 8
ZYLIN4
 10
-18.3157
 20
-0.7799
 30
11.4396
 70
192
 0
VERTEX
 8
ZYLIN4
 10
-18.5662
 20
-4.4028
 30
12.5888
 70
192
 0
VERTEX
 8
ZYLIN4
 10
-14.401
 20
3.843
 30
16.3488
 70
192
 0
VERTEX
 8
ZYLIN4
 10
-13.9906
 20
0.7985
 30
21.3345
 70
192
 0
VERTEX
 8
ZYLIN4
 10
-13.6995
 20
2.2337
 30
14.3339
 70
192
 0
VERTEX
 8
ZYLIN4
 10
-13.509
 20
1.6242
 30
14.2611
 70
192
 0
VERTEX
 8
ZYLIN4
 10
-13.2111
 20
1.9792
 30
15.1041
 70
192
 0
VERTEX
 8
ZYLIN4
 10
-16.107
 20
-1.3325
 30
23.2172
 70
192
 0
VERTEX
 8
ZYLIN4
 10
-20.5843
 20
-5.9712
 30
15.2333
 70
192
 0
VERTEX
 8
ZYLIN4
 10
-19.8242
 20
-5.902
 30
14.6729
 70
192
 0
VERTEX
 8
ZYLIN4
 10
-14.3864
 20
0.7179
 30
22.092
 70
192
 0
VERTEX
 8
ZYLIN4
 10
-12.9046
 20
2.3444
 30
16.9611
 70
192
 0
VERTEX
 8
ZYLIN4
 10
-18.7648
 20
-4.8914
 30
21.5712
 70
192
 0
VERTEX
 8
ZYLIN4
 10
-16.8331
 20
0.9875
 30
23.0416
 70
192
 0
VERTEX
 8
ZYLIN4
 10
-15.6541
 20
-0.0956
 30
23.0658
 70
192
 0
VERTEX
 8
ZYLIN4
 10
-19.105
 20
-1.819
 30
11.6036
 70
192
 0
VERTEX
 8
ZYLIN4
 10
-20.3072
 20
-6.0234
 30
19.8644
 70
192
 0
VERTEX
 8
ZYLIN4
 10
-13.0494
 20
2.1719
 30
19.1035
 70
192
 0
VERTEX
 8
ZYLIN4
 10
-20.2813
 20
-6.4467
 30
17.4421
 70
192
 0
VERTEX
 8
ZYLIN4
 10
-15.07
 20
0.6004
 30
12.2459
 70
192
 0
VERTEX
 8
ZYLIN4
 10
-16.9176
 20
-1.6015
 30
23.4408
 70
192
 0
VERTEX
 8
ZYLIN4
 10
-13.4125
 20
2.5758
 30
15.2333
 70
192
 0
VERTEX
 8
ZYLIN4
 10
-15.9613
 20
-0.4617
 30
23.2211
 70
192
 0
VERTEX
 8
ZYLIN4
 10
-16.6528
 20
-1.8262
 30
23.3485
 70
192
 0
VERTEX
 8
ZYLIN4
 10
-20.8518
 20
-6.29
 30
17.6933
 70
192
 0
VERTEX
 8
ZYLIN4
 10
-20.3781
 20
-5.7255
 30
14.5516
 70
192
 0
VERTEX
 8
ZYLIN4
 10
-18.2936
 20
-3.6236
 30
11.952
 70
192
 0
VERTEX
 8
ZYLIN4
 10
-19.6968
 20
-4.9136
 30
21.7289
 70
192
 0
VERTEX
 8
ZYLIN4
 10
-16.2629
 20
-1.5183
 30
11.6363
 70
192
 0
VERTEX
 8
ZYLIN4
 10
-18.5307
 20
-4.5436
 30
12.8882
 70
192
 0
VERTEX
 8
ZYLIN4
 10
-14.1443
 20
1.0065
 30
13.1038
 70
192
 0
VERTEX
 8
ZYLIN4
 10
-17.9256
 20
-3.119
 30
23.2024
 70
192
 0
VERTEX
 8
ZYLIN4
 10
-21.17
 20
-4.3356
 30
21.169
 70
192
 0
VERTEX
 8
ZYLIN4
 10
-13.1263
 20
2.6978
 30
18.8097
 70
192
 0
VERTEX
 8
ZYLIN4
 10
-16.435
 20
-1.0263
 30
23.3777
 70
192
 0
VERTEX
 8
ZYLIN4
 10
-17.5841
 20
-0.0621
 30
23.3777
 70
192
 0
VERTEX
 8
ZYLIN4
 10
-13.5357
 20
2.0465
 30
20.5271
 70
192
 0
VERTEX
 8
ZYLIN4
 10
-14.0196
 20
1.4699
 30
13.3653
 70
192
 0
VERTEX
 8
ZYLIN4
 10
-17.0792
 20
-1.794
 30
11.4434
 70
192
 0
VERTEX
 8
ZYLIN4
 10
-13.0122
 20
2.6704
 30
16.6957
 70
192
 0
VERTEX
 8
ZYLIN4
 10
0
 20
0
 30
0
 70
128
 71
37
 72
6
 73
16
 74
16
 0
VERTEX
 8
ZYLIN4
 10
0
 20
0
 30
0
 70
128
 71
91
 72
81
 73
6
 74
6
 0
VERTEX
 8
ZYLIN4
 10
0
 20
0
 30
0
 70
128
 71
62
 72
110
 73
36
 74
36
 0
VERTEX
 8
ZYLIN4
 10
0
 20
0
 30
0
 70
128
 71
29
 72
36
 73
21
 74
21
 0
VERTEX
 8
ZYLIN4
 10
0
 20
0
 30
0
 70
128
 71
7
 72
129
 73
54
 74
54
 0
VERTEX
 8
ZYLIN4
 10
0
 20
0
 30
0
 70
128
 71
135
 72
18
 73
89
 74
89
 0
VERTEX
 8
ZYLIN4
 10
0
 20
0
 30
0
 70
128
 71
83
 72
90
 73
118
 74
118
 0
VERTEX
 8
ZYLIN4
 10
0
 20
0
 30
0
 70
128
 71
91
 72
6
 73
139
 74
139
 0
VERTEX
 8
ZYLIN4
 10
0
 20
0
 30
0
 70
128
 71
57
 72
80
 73
142
 74
142
 0
VERTEX
 8
ZYLIN4
 10
0
 20
0
 30
0
 70
128
 71
27
 72
45
 73
3
 74
3
 0
VERTEX
 8
ZYLIN4
 10
0
 20
0
 30
0
 70
128
 71
10
 72
58
 73
125
 74
125
 0
VERTEX
 8
ZYLIN4
 10
0
 20
0
 30
0
 70
128
 71
16
 72
6
 73
145
 74
145
 0
VERTEX
 8
ZYLIN4
 10
0
 20
0
 30
0
 70
128
 71
6
 72
81
 73
145
 74
145
 0
VERTEX
 8
ZYLIN4
 10
0
 20
0
 30
0
 70
128
 71
82
 72
20
 73
32
 74
32
 0
VERTEX
 8
ZYLIN4
 10
0
 20
0
 30
0
 70
128
 71
132
 72
84
 73
59
 74
59
 0
VERTEX
 8
ZYLIN4
 10
0
 20
0
 30
0
 70
128
 71
130
 72
97
 73
64
 74
64
 0
VERTEX
 8
ZYLIN4
 10
0
 20
0
 30
0
 70
128
 71
92
 72
27
 73
138
 74
138
 0
VERTEX
 8
ZYLIN4
 10
0
 20
0
 30
0
 70
128
 71
112
 72
86
 73
26
 74
26
 0
VERTEX
 8
ZYLIN4
 10
0
 20
0
 30
0
 70
128
 71
7
 72
54
 73
90
 74
90
 0
VERTEX
 8
ZYLIN4
 10
0
 20
0
 30
0
 70
128
 71
94
 72
3
 73
14
 74
14
 0
VERTEX
 8
ZYLIN4
 10
0
 20
0
 30
0
 70
128
 71
16
 72
38
 73
123
 74
123
 0
VERTEX
 8
ZYLIN4
 10
0
 20
0
 30
0
 70
128
 71
29
 72
77
 73
5
 74
5
 0
VERTEX
 8
ZYLIN4
 10
0
 20
0
 30
0
 70
128
 71
29
 72
15
 73
40
 74
40
 0
VERTEX
 8
ZYLIN4
 10
0
 20
0
 30
0
 70
128
 71
46
 72
22
 73
62
 74
62
 0
VERTEX
 8
ZYLIN4
 10
0
 20
0
 30
0
 70
128
 71
120
 72
12
 73
98
 74
98
 0
VERTEX
 8
ZYLIN4
 10
0
 20
0
 30
0
 70
128
 71
41
 72
139
 73
44
 74
44
 0
VERTEX
 8
ZYLIN4
 10
0
 20
0
 30
0
 70
128
 71
128
 72
98
 73
140
 74
140
 0
VERTEX
 8
ZYLIN4
 10
0
 20
0
 30
0
 70
128
 71
29
 72
21
 73
69
 74
69
 0
VERTEX
 8
ZYLIN4
 10
0
 20
0
 30
0
 70
128
 71
132
 72
107
 73
89
 74
89
 0
VERTEX
 8
ZYLIN4
 10
0
 20
0
 30
0
 70
128
 71
38
 72
86
 73
109
 74
109
 0
VERTEX
 8
ZYLIN4
 10
0
 20
0
 30
0
 70
128
 71
42
 72
87
 73
134
 74
134
 0
VERTEX
 8
ZYLIN4
 10
0
 20
0
 30
0
 70
128
 71
98
 72
128
 73
120
 74
120
 0
VERTEX
 8
ZYLIN4
 10
0
 20
0
 30
0
 70
128
 71
87
 72
144
 73
59
 74
59
 0
VERTEX
 8
ZYLIN4
 10
0
 20
0
 30
0
 70
128
 71
134
 72
4
 73
31
 74
31
 0
VERTEX
 8
ZYLIN4
 10
0
 20
0
 30
0
 70
128
 71
53
 72
44
 73
56
 74
56
 0
VERTEX
 8
ZYLIN4
 10
0
 20
0
 30
0
 70
128
 71
40
 72
32
 73
19
 74
19
 0
VERTEX
 8
ZYLIN4
 10
0
 20
0
 30
0
 70
128
 71
95
 72
100
 73
123
 74
123
 0
VERTEX
 8
ZYLIN4
 10
0
 20
0
 30
0
 70
128
 71
15
 72
29
 73
5
 74
5
 0
VERTEX
 8
ZYLIN4
 10
0
 20
0
 30
0
 70
128
 71
3
 72
122
 73
96
 74
96
 0
VERTEX
 8
ZYLIN4
 10
0
 20
0
 30
0
 70
128
 71
5
 72
82
 73
15
 74
15
 0
VERTEX
 8
ZYLIN4
 10
0
 20
0
 30
0
 70
128
 71
73
 72
104
 73
13
 74
13
 0
VERTEX
 8
ZYLIN4
 10
0
 20
0
 30
0
 70
128
 71
18
 72
4
 73
84
 74
84
 0
VERTEX
 8
ZYLIN4
 10
0
 20
0
 30
0
 70
128
 71
61
 72
73
 73
136
 74
136
 0
VERTEX
 8
ZYLIN4
 10
0
 20
0
 30
0
 70
128
 71
53
 72
56
 73
72
 74
72
 0
VERTEX
 8
ZYLIN4
 10
0
 20
0
 30
0
 70
128
 71
49
 72
122
 73
68
 74
68
 0
VERTEX
 8
ZYLIN4
 10
0
 20
0
 30
0
 70
128
 71
109
 72
34
 73
57
 74
57
 0
VERTEX
 8
ZYLIN4
 10
0
 20
0
 30
0
 70
128
 71
40
 72
19
 73
8
 74
8
 0
VERTEX
 8
ZYLIN4
 10
0
 20
0
 30
0
 70
128
 71
125
 72
73
 73
61
 74
61
 0
VERTEX
 8
ZYLIN4
 10
0
 20
0
 30
0
 70
128
 71
16
 72
123
 73
37
 74
37
 0
VERTEX
 8
ZYLIN4
 10
0
 20
0
 30
0
 70
128
 71
78
 72
1
 73
35
 74
35
 0
VERTEX
 8
ZYLIN4
 10
0
 20
0
 30
0
 70
128
 71
1
 72
78
 73
17
 74
17
 0
VERTEX
 8
ZYLIN4
 10
0
 20
0
 30
0
 70
128
 71
29
 72
114
 73
77
 74
77
 0
VERTEX
 8
ZYLIN4
 10
0
 20
0
 30
0
 70
128
 71
109
 72
57
 73
67
 74
67
 0
VERTEX
 8
ZYLIN4
 10
0
 20
0
 30
0
 70
128
 71
83
 72
137
 73
7
 74
7
 0
VERTEX
 8
ZYLIN4
 10
0
 20
0
 30
0
 70
128
 71
50
 72
133
 73
92
 74
92
 0
VERTEX
 8
ZYLIN4
 10
0
 20
0
 30
0
 70
128
 71
93
 72
72
 73
80
 74
80
 0
VERTEX
 8
ZYLIN4
 10
0
 20
0
 30
0
 70
128
 71
41
 72
44
 73
53
 74
53
 0
VERTEX
 8
ZYLIN4
 10
0
 20
0
 30
0
 70
128
 71
24
 72
10
 73
106
 74
106
 0
VERTEX
 8
ZYLIN4
 10
0
 20
0
 30
0
 70
128
 71
26
 72
86
 73
38
 74
38
 0
VERTEX
 8
ZYLIN4
 10
0
 20
0
 30
0
 70
128
 71
34
 72
80
 73
57
 74
57
 0
VERTEX
 8
ZYLIN4
 10
0
 20
0
 30
0
 70
128
 71
65
 72
104
 73
31
 74
31
 0
VERTEX
 8
ZYLIN4
 10
0
 20
0
 30
0
 70
128
 71
113
 72
55
 73
54
 74
54
 0
VERTEX
 8
ZYLIN4
 10
0
 20
0
 30
0
 70
128
 71
22
 72
143
 73
48
 74
48
 0
VERTEX
 8
ZYLIN4
 10
0
 20
0
 30
0
 70
128
 71
62
 72
22
 73
110
 74
110
 0
VERTEX
 8
ZYLIN4
 10
0
 20
0
 30
0
 70
128
 71
8
 72
59
 73
102
 74
102
 0
VERTEX
 8
ZYLIN4
 10
0
 20
0
 30
0
 70
128
 71
141
 72
126
 73
70
 74
70
 0
VERTEX
 8
ZYLIN4
 10
0
 20
0
 30
0
 70
128
 71
93
 72
80
 73
101
 74
101
 0
VERTEX
 8
ZYLIN4
 10
0
 20
0
 30
0
 70
128
 71
74
 72
52
 73
50
 74
50
 0
VERTEX
 8
ZYLIN4
 10
0
 20
0
 30
0
 70
128
 71
69
 72
101
 73
119
 74
119
 0
VERTEX
 8
ZYLIN4
 10
0
 20
0
 30
0
 70
128
 71
117
 72
16
 73
145
 74
145
 0
VERTEX
 8
ZYLIN4
 10
0
 20
0
 30
0
 70
128
 71
101
 72
80
 73
12
 74
12
 0
VERTEX
 8
ZYLIN4
 10
0
 20
0
 30
0
 70
128
 71
123
 72
38
 73
95
 74
95
 0
VERTEX
 8
ZYLIN4
 10
0
 20
0
 30
0
 70
128
 71
29
 72
69
 73
119
 74
119
 0
VERTEX
 8
ZYLIN4
 10
0
 20
0
 30
0
 70
128
 71
77
 72
131
 73
5
 74
5
 0
VERTEX
 8
ZYLIN4
 10
0
 20
0
 30
0
 70
128
 71
113
 72
54
 73
129
 74
129
 0
VERTEX
 8
ZYLIN4
 10
0
 20
0
 30
0
 70
128
 71
15
 72
32
 73
40
 74
40
 0
VERTEX
 8
ZYLIN4
 10
0
 20
0
 30
0
 70
128
 71
40
 72
8
 73
121
 74
121
 0
VERTEX
 8
ZYLIN4
 10
0
 20
0
 30
0
 70
128
 71
107
 72
132
 73
32
 74
32
 0
VERTEX
 8
ZYLIN4
 10
0
 20
0
 30
0
 70
128
 71
121
 72
102
 73
144
 74
144
 0
VERTEX
 8
ZYLIN4
 10
0
 20
0
 30
0
 70
128
 71
91
 72
139
 73
21
 74
21
 0
VERTEX
 8
ZYLIN4
 10
0
 20
0
 30
0
 70
128
 71
48
 72
112
 73
28
 74
28
 0
VERTEX
 8
ZYLIN4
 10
0
 20
0
 30
0
 70
128
 71
21
 72
41
 73
53
 74
53
 0
VERTEX
 8
ZYLIN4
 10
0
 20
0
 30
0
 70
128
 71
119
 72
12
 73
120
 74
120
 0
VERTEX
 8
ZYLIN4
 10
0
 20
0
 30
0
 70
128
 71
109
 72
86
 73
55
 74
55
 0
VERTEX
 8
ZYLIN4
 10
0
 20
0
 30
0
 70
128
 71
33
 72
86
 73
111
 74
111
 0
VERTEX
 8
ZYLIN4
 10
0
 20
0
 30
0
 70
128
 71
52
 72
45
 73
30
 74
30
 0
VERTEX
 8
ZYLIN4
 10
0
 20
0
 30
0
 70
128
 71
17
 72
78
 73
64
 74
64
 0
VERTEX
 8
ZYLIN4
 10
0
 20
0
 30
0
 70
128
 71
112
 72
48
 73
111
 74
111
 0
VERTEX
 8
ZYLIN4
 10
0
 20
0
 30
0
 70
128
 71
114
 72
99
 73
131
 74
131
 0
VERTEX
 8
ZYLIN4
 10
0
 20
0
 30
0
 70
128
 71
80
 72
72
 73
142
 74
142
 0
VERTEX
 8
ZYLIN4
 10
0
 20
0
 30
0
 70
128
 71
10
 72
125
 73
61
 74
61
 0
VERTEX
 8
ZYLIN4
 10
0
 20
0
 30
0
 70
128
 71
119
 72
120
 73
128
 74
128
 0
VERTEX
 8
ZYLIN4
 10
0
 20
0
 30
0
 70
128
 71
76
 72
75
 73
88
 74
88
 0
VERTEX
 8
ZYLIN4
 10
0
 20
0
 30
0
 70
128
 71
10
 72
61
 73
46
 74
46
 0
VERTEX
 8
ZYLIN4
 10
0
 20
0
 30
0
 70
128
 71
24
 72
63
 73
58
 74
58
 0
VERTEX
 8
ZYLIN4
 10
0
 20
0
 30
0
 70
128
 71
143
 72
136
 73
111
 74
111
 0
VERTEX
 8
ZYLIN4
 10
0
 20
0
 30
0
 70
128
 71
96
 72
122
 73
49
 74
49
 0
VERTEX
 8
ZYLIN4
 10
0
 20
0
 30
0
 70
128
 71
18
 72
86
 73
13
 74
13
 0
VERTEX
 8
ZYLIN4
 10
0
 20
0
 30
0
 70
128
 71
33
 72
13
 73
86
 74
86
 0
VERTEX
 8
ZYLIN4
 10
0
 20
0
 30
0
 70
128
 71
111
 72
86
 73
112
 74
112
 0
VERTEX
 8
ZYLIN4
 10
0
 20
0
 30
0
 70
128
 71
124
 72
39
 73
85
 74
85
 0
VERTEX
 8
ZYLIN4
 10
0
 20
0
 30
0
 70
128
 71
25
 72
127
 73
60
 74
60
 0
VERTEX
 8
ZYLIN4
 10
0
 20
0
 30
0
 70
128
 71
44
 72
100
 73
142
 74
142
 0
VERTEX
 8
ZYLIN4
 10
0
 20
0
 30
0
 70
128
 71
99
 72
114
 73
78
 74
78
 0
VERTEX
 8
ZYLIN4
 10
0
 20
0
 30
0
 70
128
 71
79
 72
113
 73
129
 74
129
 0
VERTEX
 8
ZYLIN4
 10
0
 20
0
 30
0
 70
128
 71
29
 72
119
 73
70
 74
70
 0
VERTEX
 8
ZYLIN4
 10
0
 20
0
 30
0
 70
128
 71
141
 72
140
 73
126
 74
126
 0
VERTEX
 8
ZYLIN4
 10
0
 20
0
 30
0
 70
128
 71
119
 72
128
 73
141
 74
141
 0
VERTEX
 8
ZYLIN4
 10
0
 20
0
 30
0
 70
128
 71
6
 72
37
 73
139
 74
139
 0
VERTEX
 8
ZYLIN4
 10
0
 20
0
 30
0
 70
128
 71
144
 72
87
 73
42
 74
42
 0
VERTEX
 8
ZYLIN4
 10
0
 20
0
 30
0
 70
128
 71
85
 72
94
 73
14
 74
14
 0
VERTEX
 8
ZYLIN4
 10
0
 20
0
 30
0
 70
128
 71
36
 72
110
 73
127
 74
127
 0
VERTEX
 8
ZYLIN4
 10
0
 20
0
 30
0
 70
128
 71
66
 72
86
 73
18
 74
18
 0
VERTEX
 8
ZYLIN4
 10
0
 20
0
 30
0
 70
128
 71
13
 72
33
 73
136
 74
136
 0
VERTEX
 8
ZYLIN4
 10
0
 20
0
 30
0
 70
128
 71
2
 72
63
 73
24
 74
24
 0
VERTEX
 8
ZYLIN4
 10
0
 20
0
 30
0
 70
128
 71
76
 72
126
 73
75
 74
75
 0
VERTEX
 8
ZYLIN4
 10
0
 20
0
 30
0
 70
128
 71
21
 72
139
 73
41
 74
41
 0
VERTEX
 8
ZYLIN4
 10
0
 20
0
 30
0
 70
128
 71
2
 72
42
 73
63
 74
63
 0
VERTEX
 8
ZYLIN4
 10
0
 20
0
 30
0
 70
128
 71
69
 72
72
 73
93
 74
93
 0
VERTEX
 8
ZYLIN4
 10
0
 20
0
 30
0
 70
128
 71
31
 72
63
 73
134
 74
134
 0
VERTEX
 8
ZYLIN4
 10
0
 20
0
 30
0
 70
128
 71
28
 72
112
 73
9
 74
9
 0
VERTEX
 8
ZYLIN4
 10
0
 20
0
 30
0
 70
128
 71
1
 72
47
 73
35
 74
35
 0
VERTEX
 8
ZYLIN4
 10
0
 20
0
 30
0
 70
128
 71
23
 72
66
 73
135
 74
135
 0
VERTEX
 8
ZYLIN4
 10
0
 20
0
 30
0
 70
128
 71
67
 72
95
 73
38
 74
38
 0
VERTEX
 8
ZYLIN4
 10
0
 20
0
 30
0
 70
128
 71
36
 72
46
 73
62
 74
62
 0
VERTEX
 8
ZYLIN4
 10
0
 20
0
 30
0
 70
128
 71
140
 72
79
 73
126
 74
126
 0
VERTEX
 8
ZYLIN4
 10
0
 20
0
 30
0
 70
128
 71
124
 72
85
 73
47
 74
47
 0
VERTEX
 8
ZYLIN4
 10
0
 20
0
 30
0
 70
128
 71
88
 72
75
 73
137
 74
137
 0
VERTEX
 8
ZYLIN4
 10
0
 20
0
 30
0
 70
128
 71
55
 72
86
 73
118
 74
118
 0
VERTEX
 8
ZYLIN4
 10
0
 20
0
 30
0
 70
128
 71
94
 72
85
 73
39
 74
39
 0
VERTEX
 8
ZYLIN4
 10
0
 20
0
 30
0
 70
128
 71
140
 72
98
 73
79
 74
79
 0
VERTEX
 8
ZYLIN4
 10
0
 20
0
 30
0
 70
128
 71
23
 72
20
 73
115
 74
115
 0
VERTEX
 8
ZYLIN4
 10
0
 20
0
 30
0
 70
128
 71
40
 72
121
 73
106
 74
106
 0
VERTEX
 8
ZYLIN4
 10
0
 20
0
 30
0
 70
128
 71
100
 72
95
 73
142
 74
142
 0
VERTEX
 8
ZYLIN4
 10
0
 20
0
 30
0
 70
128
 71
10
 72
46
 73
36
 74
36
 0
VERTEX
 8
ZYLIN4
 10
0
 20
0
 30
0
 70
128
 71
29
 72
70
 73
74
 74
74
 0
VERTEX
 8
ZYLIN4
 10
0
 20
0
 30
0
 70
128
 71
70
 72
119
 73
141
 74
141
 0
VERTEX
 8
ZYLIN4
 10
0
 20
0
 30
0
 70
128
 71
125
 72
58
 73
73
 74
73
 0
VERTEX
 8
ZYLIN4
 10
0
 20
0
 30
0
 70
128
 71
60
 72
9
 73
145
 74
145
 0
VERTEX
 8
ZYLIN4
 10
0
 20
0
 30
0
 70
128
 71
74
 72
137
 73
52
 74
52
 0
VERTEX
 8
ZYLIN4
 10
0
 20
0
 30
0
 70
128
 71
19
 72
132
 73
8
 74
8
 0
VERTEX
 8
ZYLIN4
 10
0
 20
0
 30
0
 70
128
 71
80
 72
34
 73
116
 74
116
 0
VERTEX
 8
ZYLIN4
 10
0
 20
0
 30
0
 70
128
 71
13
 72
104
 73
65
 74
65
 0
VERTEX
 8
ZYLIN4
 10
0
 20
0
 30
0
 70
128
 71
64
 72
29
 73
51
 74
51
 0
VERTEX
 8
ZYLIN4
 10
0
 20
0
 30
0
 70
128
 71
75
 72
126
 73
79
 74
79
 0
VERTEX
 8
ZYLIN4
 10
0
 20
0
 30
0
 70
128
 71
12
 72
103
 73
71
 74
71
 0
VERTEX
 8
ZYLIN4
 10
0
 20
0
 30
0
 70
128
 71
106
 72
42
 73
2
 74
2
 0
VERTEX
 8
ZYLIN4
 10
0
 20
0
 30
0
 70
128
 71
8
 72
132
 73
59
 74
59
 0
VERTEX
 8
ZYLIN4
 10
0
 20
0
 30
0
 70
128
 71
118
 72
14
 73
45
 74
45
 0
VERTEX
 8
ZYLIN4
 10
0
 20
0
 30
0
 70
128
 71
132
 72
19
 73
32
 74
32
 0
VERTEX
 8
ZYLIN4
 10
0
 20
0
 30
0
 70
128
 71
105
 72
51
 73
29
 74
29
 0
VERTEX
 8
ZYLIN4
 10
0
 20
0
 30
0
 70
128
 71
50
 72
52
 73
30
 74
30
 0
VERTEX
 8
ZYLIN4
 10
0
 20
0
 30
0
 70
128
 71
80
 72
116
 73
12
 74
12
 0
VERTEX
 8
ZYLIN4
 10
0
 20
0
 30
0
 70
128
 71
44
 72
142
 73
56
 74
56
 0
VERTEX
 8
ZYLIN4
 10
0
 20
0
 30
0
 70
128
 71
66
 72
35
 73
47
 74
47
 0
VERTEX
 8
ZYLIN4
 10
0
 20
0
 30
0
 70
128
 71
1
 72
17
 73
124
 74
124
 0
VERTEX
 8
ZYLIN4
 10
0
 20
0
 30
0
 70
128
 71
47
 72
1
 73
124
 74
124
 0
VERTEX
 8
ZYLIN4
 10
0
 20
0
 30
0
 70
128
 71
26
 72
9
 73
112
 74
112
 0
VERTEX
 8
ZYLIN4
 10
0
 20
0
 30
0
 70
128
 71
132
 72
89
 73
84
 74
84
 0
VERTEX
 8
ZYLIN4
 10
0
 20
0
 30
0
 70
128
 71
107
 72
32
 73
23
 74
23
 0
VERTEX
 8
ZYLIN4
 10
0
 20
0
 30
0
 70
128
 71
50
 72
30
 73
133
 74
133
 0
VERTEX
 8
ZYLIN4
 10
0
 20
0
 30
0
 70
128
 71
118
 72
86
 73
85
 74
85
 0
VERTEX
 8
ZYLIN4
 10
0
 20
0
 30
0
 70
128
 71
66
 72
23
 73
115
 74
115
 0
VERTEX
 8
ZYLIN4
 10
0
 20
0
 30
0
 70
128
 71
25
 72
60
 73
108
 74
108
 0
VERTEX
 8
ZYLIN4
 10
0
 20
0
 30
0
 70
128
 71
53
 72
69
 73
21
 74
21
 0
VERTEX
 8
ZYLIN4
 10
0
 20
0
 30
0
 70
128
 71
88
 72
137
 73
74
 74
74
 0
VERTEX
 8
ZYLIN4
 10
0
 20
0
 30
0
 70
128
 71
84
 72
87
 73
59
 74
59
 0
VERTEX
 8
ZYLIN4
 10
0
 20
0
 30
0
 70
128
 71
108
 72
81
 73
91
 74
91
 0
VERTEX
 8
ZYLIN4
 10
0
 20
0
 30
0
 70
128
 71
38
 72
16
 73
117
 74
117
 0
VERTEX
 8
ZYLIN4
 10
0
 20
0
 30
0
 70
128
 71
35
 72
66
 73
115
 74
115
 0
VERTEX
 8
ZYLIN4
 10
0
 20
0
 30
0
 70
128
 71
69
 72
93
 73
101
 74
101
 0
VERTEX
 8
ZYLIN4
 10
0
 20
0
 30
0
 70
128
 71
24
 72
58
 73
10
 74
10
 0
VERTEX
 8
ZYLIN4
 10
0
 20
0
 30
0
 70
128
 71
92
 72
133
 73
27
 74
27
 0
VERTEX
 8
ZYLIN4
 10
0
 20
0
 30
0
 70
128
 71
138
 72
3
 73
105
 74
105
 0
VERTEX
 8
ZYLIN4
 10
0
 20
0
 30
0
 70
128
 71
36
 72
25
 73
108
 74
108
 0
VERTEX
 8
ZYLIN4
 10
0
 20
0
 30
0
 70
128
 71
104
 72
73
 73
58
 74
58
 0
VERTEX
 8
ZYLIN4
 10
0
 20
0
 30
0
 70
128
 71
121
 72
8
 73
102
 74
102
 0
VERTEX
 8
ZYLIN4
 10
0
 20
0
 30
0
 70
128
 71
29
 72
74
 73
105
 74
105
 0
VERTEX
 8
ZYLIN4
 10
0
 20
0
 30
0
 70
128
 71
138
 72
27
 73
3
 74
3
 0
VERTEX
 8
ZYLIN4
 10
0
 20
0
 30
0
 70
128
 71
88
 72
70
 73
76
 74
76
 0
VERTEX
 8
ZYLIN4
 10
0
 20
0
 30
0
 70
128
 71
55
 72
116
 73
109
 74
109
 0
VERTEX
 8
ZYLIN4
 10
0
 20
0
 30
0
 70
128
 71
83
 72
7
 73
90
 74
90
 0
VERTEX
 8
ZYLIN4
 10
0
 20
0
 30
0
 70
128
 71
104
 72
58
 73
31
 74
31
 0
VERTEX
 8
ZYLIN4
 10
0
 20
0
 30
0
 70
128
 71
121
 72
144
 73
106
 74
106
 0
VERTEX
 8
ZYLIN4
 10
0
 20
0
 30
0
 70
128
 71
127
 72
28
 73
60
 74
60
 0
VERTEX
 8
ZYLIN4
 10
0
 20
0
 30
0
 70
128
 71
97
 72
43
 73
68
 74
68
 0
VERTEX
 8
ZYLIN4
 10
0
 20
0
 30
0
 70
128
 71
84
 72
4
 73
134
 74
134
 0
VERTEX
 8
ZYLIN4
 10
0
 20
0
 30
0
 70
128
 71
105
 72
3
 73
96
 74
96
 0
VERTEX
 8
ZYLIN4
 10
0
 20
0
 30
0
 70
128
 71
29
 72
40
 73
106
 74
106
 0
VERTEX
 8
ZYLIN4
 10
0
 20
0
 30
0
 70
128
 71
139
 72
37
 73
100
 74
100
 0
VERTEX
 8
ZYLIN4
 10
0
 20
0
 30
0
 70
128
 71
105
 72
49
 73
11
 74
11
 0
VERTEX
 8
ZYLIN4
 10
0
 20
0
 30
0
 70
128
 71
122
 72
3
 73
94
 74
94
 0
VERTEX
 8
ZYLIN4
 10
0
 20
0
 30
0
 70
128
 71
103
 72
12
 73
116
 74
116
 0
VERTEX
 8
ZYLIN4
 10
0
 20
0
 30
0
 70
128
 71
105
 72
96
 73
49
 74
49
 0
VERTEX
 8
ZYLIN4
 10
0
 20
0
 30
0
 70
128
 71
85
 72
86
 73
47
 74
47
 0
VERTEX
 8
ZYLIN4
 10
0
 20
0
 30
0
 70
128
 71
143
 72
61
 73
136
 74
136
 0
VERTEX
 8
ZYLIN4
 10
0
 20
0
 30
0
 70
128
 71
83
 72
118
 73
45
 74
45
 0
VERTEX
 8
ZYLIN4
 10
0
 20
0
 30
0
 70
128
 71
63
 72
31
 73
58
 74
58
 0
VERTEX
 8
ZYLIN4
 10
0
 20
0
 30
0
 70
128
 71
68
 72
122
 73
97
 74
97
 0
VERTEX
 8
ZYLIN4
 10
0
 20
0
 30
0
 70
128
 71
143
 72
22
 73
61
 74
61
 0
VERTEX
 8
ZYLIN4
 10
0
 20
0
 30
0
 70
128
 71
131
 72
99
 73
20
 74
20
 0
VERTEX
 8
ZYLIN4
 10
0
 20
0
 30
0
 70
128
 71
95
 72
67
 73
57
 74
57
 0
VERTEX
 8
ZYLIN4
 10
0
 20
0
 30
0
 70
128
 71
11
 72
49
 73
68
 74
68
 0
VERTEX
 8
ZYLIN4
 10
0
 20
0
 30
0
 70
128
 71
27
 72
133
 73
45
 74
45
 0
VERTEX
 8
ZYLIN4
 10
0
 20
0
 30
0
 70
128
 71
101
 72
12
 73
119
 74
119
 0
VERTEX
 8
ZYLIN4
 10
0
 20
0
 30
0
 70
128
 71
11
 72
43
 73
51
 74
51
 0
VERTEX
 8
ZYLIN4
 10
0
 20
0
 30
0
 70
128
 71
42
 72
134
 73
63
 74
63
 0
VERTEX
 8
ZYLIN4
 10
0
 20
0
 30
0
 70
128
 71
36
 72
127
 73
25
 74
25
 0
VERTEX
 8
ZYLIN4
 10
0
 20
0
 30
0
 70
128
 71
11
 72
68
 73
43
 74
43
 0
VERTEX
 8
ZYLIN4
 10
0
 20
0
 30
0
 70
128
 71
122
 72
39
 73
97
 74
97
 0
VERTEX
 8
ZYLIN4
 10
0
 20
0
 30
0
 70
128
 71
108
 72
60
 73
81
 74
81
 0
VERTEX
 8
ZYLIN4
 10
0
 20
0
 30
0
 70
128
 71
75
 72
129
 73
7
 74
7
 0
VERTEX
 8
ZYLIN4
 10
0
 20
0
 30
0
 70
128
 71
143
 72
111
 73
48
 74
48
 0
VERTEX
 8
ZYLIN4
 10
0
 20
0
 30
0
 70
128
 71
142
 72
95
 73
57
 74
57
 0
VERTEX
 8
ZYLIN4
 10
0
 20
0
 30
0
 70
128
 71
105
 72
11
 73
51
 74
51
 0
VERTEX
 8
ZYLIN4
 10
0
 20
0
 30
0
 70
128
 71
122
 72
94
 73
39
 74
39
 0
VERTEX
 8
ZYLIN4
 10
0
 20
0
 30
0
 70
128
 71
30
 72
45
 73
133
 74
133
 0
VERTEX
 8
ZYLIN4
 10
0
 20
0
 30
0
 70
128
 71
51
 72
43
 73
130
 74
130
 0
VERTEX
 8
ZYLIN4
 10
0
 20
0
 30
0
 70
128
 71
98
 72
71
 73
79
 74
79
 0
VERTEX
 8
ZYLIN4
 10
0
 20
0
 30
0
 70
128
 71
29
 72
10
 73
36
 74
36
 0
VERTEX
 8
ZYLIN4
 10
0
 20
0
 30
0
 70
128
 71
92
 72
105
 73
50
 74
50
 0
VERTEX
 8
ZYLIN4
 10
0
 20
0
 30
0
 70
128
 71
70
 72
126
 73
76
 74
76
 0
VERTEX
 8
ZYLIN4
 10
0
 20
0
 30
0
 70
128
 71
108
 72
91
 73
21
 74
21
 0
VERTEX
 8
ZYLIN4
 10
0
 20
0
 30
0
 70
128
 71
135
 72
66
 73
18
 74
18
 0
VERTEX
 8
ZYLIN4
 10
0
 20
0
 30
0
 70
128
 71
89
 72
18
 73
84
 74
84
 0
VERTEX
 8
ZYLIN4
 10
0
 20
0
 30
0
 70
128
 71
116
 72
55
 73
103
 74
103
 0
VERTEX
 8
ZYLIN4
 10
0
 20
0
 30
0
 70
128
 71
51
 72
130
 73
64
 74
64
 0
VERTEX
 8
ZYLIN4
 10
0
 20
0
 30
0
 70
128
 71
79
 72
71
 73
113
 74
113
 0
VERTEX
 8
ZYLIN4
 10
0
 20
0
 30
0
 70
128
 71
53
 72
72
 73
69
 74
69
 0
VERTEX
 8
ZYLIN4
 10
0
 20
0
 30
0
 70
128
 71
97
 72
39
 73
17
 74
17
 0
VERTEX
 8
ZYLIN4
 10
0
 20
0
 30
0
 70
128
 71
118
 72
85
 73
14
 74
14
 0
VERTEX
 8
ZYLIN4
 10
0
 20
0
 30
0
 70
128
 71
128
 72
140
 73
141
 74
141
 0
VERTEX
 8
ZYLIN4
 10
0
 20
0
 30
0
 70
128
 71
43
 72
97
 73
130
 74
130
 0
VERTEX
 8
ZYLIN4
 10
0
 20
0
 30
0
 70
128
 71
56
 72
142
 73
72
 74
72
 0
VERTEX
 8
ZYLIN4
 10
0
 20
0
 30
0
 70
128
 71
99
 72
35
 73
115
 74
115
 0
VERTEX
 8
ZYLIN4
 10
0
 20
0
 30
0
 70
128
 71
135
 72
107
 73
23
 74
23
 0
VERTEX
 8
ZYLIN4
 10
0
 20
0
 30
0
 70
128
 71
110
 72
48
 73
28
 74
28
 0
VERTEX
 8
ZYLIN4
 10
0
 20
0
 30
0
 70
128
 71
24
 72
106
 73
2
 74
2
 0
VERTEX
 8
ZYLIN4
 10
0
 20
0
 30
0
 70
128
 71
106
 72
144
 73
42
 74
42
 0
VERTEX
 8
ZYLIN4
 10
0
 20
0
 30
0
 70
128
 71
15
 72
82
 73
32
 74
32
 0
VERTEX
 8
ZYLIN4
 10
0
 20
0
 30
0
 70
128
 71
137
 72
83
 73
52
 74
52
 0
VERTEX
 8
ZYLIN4
 10
0
 20
0
 30
0
 70
128
 71
73
 72
13
 73
136
 74
136
 0
VERTEX
 8
ZYLIN4
 10
0
 20
0
 30
0
 70
128
 71
90
 72
55
 73
118
 74
118
 0
VERTEX
 8
ZYLIN4
 10
0
 20
0
 30
0
 70
128
 71
22
 72
48
 73
110
 74
110
 0
VERTEX
 8
ZYLIN4
 10
0
 20
0
 30
0
 70
128
 71
20
 72
23
 73
32
 74
32
 0
VERTEX
 8
ZYLIN4
 10
0
 20
0
 30
0
 70
128
 71
9
 72
60
 73
28
 74
28
 0
VERTEX
 8
ZYLIN4
 10
0
 20
0
 30
0
 70
128
 71
99
 72
115
 73
20
 74
20
 0
VERTEX
 8
ZYLIN4
 10
0
 20
0
 30
0
 70
128
 71
29
 72
78
 73
114
 74
114
 0
VERTEX
 8
ZYLIN4
 10
0
 20
0
 30
0
 70
128
 71
70
 72
88
 73
74
 74
74
 0
VERTEX
 8
ZYLIN4
 10
0
 20
0
 30
0
 70
128
 71
145
 72
26
 73
117
 74
117
 0
VERTEX
 8
ZYLIN4
 10
0
 20
0
 30
0
 70
128
 71
97
 72
17
 73
64
 74
64
 0
VERTEX
 8
ZYLIN4
 10
0
 20
0
 30
0
 70
128
 71
47
 72
86
 73
66
 74
66
 0
VERTEX
 8
ZYLIN4
 10
0
 20
0
 30
0
 70
128
 71
29
 72
106
 73
10
 74
10
 0
VERTEX
 8
ZYLIN4
 10
0
 20
0
 30
0
 70
128
 71
107
 72
135
 73
89
 74
89
 0
VERTEX
 8
ZYLIN4
 10
0
 20
0
 30
0
 70
128
 71
46
 72
61
 73
22
 74
22
 0
VERTEX
 8
ZYLIN4
 10
0
 20
0
 30
0
 70
128
 71
74
 72
50
 73
105
 74
105
 0
VERTEX
 8
ZYLIN4
 10
0
 20
0
 30
0
 70
128
 71
77
 72
114
 73
131
 74
131
 0
VERTEX
 8
ZYLIN4
 10
0
 20
0
 30
0
 70
128
 71
67
 72
38
 73
109
 74
109
 0
VERTEX
 8
ZYLIN4
 10
0
 20
0
 30
0
 70
128
 71
109
 72
116
 73
34
 74
34
 0
VERTEX
 8
ZYLIN4
 10
0
 20
0
 30
0
 70
128
 71
35
 72
99
 73
78
 74
78
 0
VERTEX
 8
ZYLIN4
 10
0
 20
0
 30
0
 70
128
 71
144
 72
102
 73
59
 74
59
 0
VERTEX
 8
ZYLIN4
 10
0
 20
0
 30
0
 70
128
 71
136
 72
33
 73
111
 74
111
 0
VERTEX
 8
ZYLIN4
 10
0
 20
0
 30
0
 70
128
 71
45
 72
14
 73
3
 74
3
 0
VERTEX
 8
ZYLIN4
 10
0
 20
0
 30
0
 70
128
 71
110
 72
28
 73
127
 74
127
 0
VERTEX
 8
ZYLIN4
 10
0
 20
0
 30
0
 70
128
 71
60
 72
145
 73
81
 74
81
 0
VERTEX
 8
ZYLIN4
 10
0
 20
0
 30
0
 70
128
 71
5
 72
131
 73
20
 74
20
 0
VERTEX
 8
ZYLIN4
 10
0
 20
0
 30
0
 70
128
 71
39
 72
124
 73
17
 74
17
 0
VERTEX
 8
ZYLIN4
 10
0
 20
0
 30
0
 70
128
 71
64
 72
78
 73
29
 74
29
 0
VERTEX
 8
ZYLIN4
 10
0
 20
0
 30
0
 70
128
 71
55
 72
71
 73
103
 74
103
 0
VERTEX
 8
ZYLIN4
 10
0
 20
0
 30
0
 70
128
 71
117
 72
26
 73
38
 74
38
 0
VERTEX
 8
ZYLIN4
 10
0
 20
0
 30
0
 70
128
 71
37
 72
123
 73
100
 74
100
 0
VERTEX
 8
ZYLIN4
 10
0
 20
0
 30
0
 70
128
 71
100
 72
44
 73
139
 74
139
 0
VERTEX
 8
ZYLIN4
 10
0
 20
0
 30
0
 70
128
 71
4
 72
18
 73
65
 74
65
 0
VERTEX
 8
ZYLIN4
 10
0
 20
0
 30
0
 70
128
 71
45
 72
52
 73
83
 74
83
 0
VERTEX
 8
ZYLIN4
 10
0
 20
0
 30
0
 70
128
 71
7
 72
137
 73
75
 74
75
 0
VERTEX
 8
ZYLIN4
 10
0
 20
0
 30
0
 70
128
 71
108
 72
21
 73
36
 74
36
 0
VERTEX
 8
ZYLIN4
 10
0
 20
0
 30
0
 70
128
 71
129
 72
75
 73
79
 74
79
 0
VERTEX
 8
ZYLIN4
 10
0
 20
0
 30
0
 70
128
 71
87
 72
84
 73
134
 74
134
 0
VERTEX
 8
ZYLIN4
 10
0
 20
0
 30
0
 70
128
 71
12
 72
71
 73
98
 74
98
 0
VERTEX
 8
ZYLIN4
 10
0
 20
0
 30
0
 70
128
 71
71
 72
55
 73
113
 74
113
 0
VERTEX
 8
ZYLIN4
 10
0
 20
0
 30
0
 70
128
 71
5
 72
20
 73
82
 74
82
 0
VERTEX
 8
ZYLIN4
 10
0
 20
0
 30
0
 70
128
 71
9
 72
26
 73
145
 74
145
 0
VERTEX
 8
ZYLIN4
 10
0
 20
0
 30
0
 70
128
 71
4
 72
65
 73
31
 74
31
 0
VERTEX
 8
ZYLIN4
 10
0
 20
0
 30
0
 70
128
 71
90
 72
54
 73
55
 74
55
 0
VERTEX
 8
ZYLIN4
 10
0
 20
0
 30
0
 70
128
 71
18
 72
13
 73
65
 74
65
 0
VERTEX
 8
ZYLIN4
 10
0
 20
0
 30
0
 70
128
 71
138
 72
105
 73
92
 74
92
 0
SEQEND
 0
POLYLINE
 8
ZYLINDER_1
 66
1
 10
0.0
 20
0.0
 30
0.0
 70
64
 71
42
 72
30
 0
VERTEX
 8
ZYLINDER_1
 10
-15.9242
 20
-2.6558
 30
13.1852
 70
192
 0
VERTEX
 8
ZYLINDER_1
 10
-15.9242
 20
-2.6558
 30
18.1935
 70
192
 0
VERTEX
 8
ZYLINDER_1
 10
-15.41
 20
-2.0429
 30
13.1852
 70
192
 0
VERTEX
 8
ZYLINDER_1
 10
-15.41
 20
-2.0429
 30
13.1852
 70
192
 0
VERTEX
 8
ZYLINDER_1
 10
-15.41
 20
-2.0429
 30
18.1935
 70
192
 0
VERTEX
 8
ZYLINDER_1
 10
-15.41
 20
-2.0429
 30
18.1935
 70
192
 0
VERTEX
 8
ZYLINDER_1
 10
-15.8684
 20
-1.8577
 30
13.1852
 70
192
 0
VERTEX
 8
ZYLINDER_1
 10
-15.8684
 20
-1.8577
 30
13.1852
 70
192
 0
VERTEX
 8
ZYLINDER_1
 10
-15.8684
 20
-1.8577
 30
18.1935
 70
192
 0
VERTEX
 8
ZYLINDER_1
 10
-15.8684
 20
-1.8577
 30
18.1935
 70
192
 0
VERTEX
 8
ZYLINDER_1
 10
-16.3481
 20
-1.9773
 30
13.1852
 70
192
 0
VERTEX
 8
ZYLINDER_1
 10
-16.3481
 20
-1.9773
 30
13.1852
 70
192
 0
VERTEX
 8
ZYLINDER_1
 10
-16.3481
 20
-1.9773
 30
18.1935
 70
192
 0
VERTEX
 8
ZYLINDER_1
 10
-16.3481
 20
-1.9773
 30
18.1935
 70
192
 0
VERTEX
 8
ZYLINDER_1
 10
-16.666
 20
-2.3561
 30
13.1852
 70
192
 0
VERTEX
 8
ZYLINDER_1
 10
-16.666
 20
-2.3561
 30
13.1852
 70
192
 0
VERTEX
 8
ZYLINDER_1
 10
-16.666
 20
-2.3561
 30
18.1935
 70
192
 0
VERTEX
 8
ZYLINDER_1
 10
-16.666
 20
-2.3561
 30
18.1935
 70
192
 0
VERTEX
 8
ZYLINDER_1
 10
-16.7005
 20
-2.8493
 30
13.1852
 70
192
 0
VERTEX
 8
ZYLINDER_1
 10
-16.7005
 20
-2.8493
 30
13.1852
 70
192
 0
VERTEX
 8
ZYLINDER_1
 10
-16.7005
 20
-2.8493
 30
18.1935
 70
192
 0
VERTEX
 8
ZYLINDER_1
 10
-16.7005
 20
-2.8493
 30
18.1935
 70
192
 0
VERTEX
 8
ZYLINDER_1
 10
-16.4384
 20
-3.2686
 30
13.1852
 70
192
 0
VERTEX
 8
ZYLINDER_1
 10
-16.4384
 20
-3.2686
 30
13.1852
 70
192
 0
VERTEX
 8
ZYLINDER_1
 10
-16.4384
 20
-3.2686
 30
18.1935
 70
192
 0
VERTEX
 8
ZYLINDER_1
 10
-16.4384
 20
-3.2686
 30
18.1935
 70
192
 0
VERTEX
 8
ZYLINDER_1
 10
-15.98
 20
-3.4538
 30
13.1852
 70
192
 0
VERTEX
 8
ZYLINDER_1
 10
-15.98
 20
-3.4538
 30
13.1852
 70
192
 0
VERTEX
 8
ZYLINDER_1
 10
-15.98
 20
-3.4538
 30
18.1935
 70
192
 0
VERTEX
 8
ZYLINDER_1
 10
-15.98
 20
-3.4538
 30
18.1935
 70
192
 0
VERTEX
 8
ZYLINDER_1
 10
-15.5003
 20
-3.3342
 30
13.1852
 70
192
 0
VERTEX
 8
ZYLINDER_1
 10
-15.5003
 20
-3.3342
 30
13.1852
 70
192
 0
VERTEX
 8
ZYLINDER_1
 10
-15.5003
 20
-3.3342
 30
18.1935
 70
192
 0
VERTEX
 8
ZYLINDER_1
 10
-15.5003
 20
-3.3342
 30
18.1935
 70
192
 0
VERTEX
 8
ZYLINDER_1
 10
-15.1825
 20
-2.9554
 30
13.1852
 70
192
 0
VERTEX
 8
ZYLINDER_1
 10
-15.1825
 20
-2.9554
 30
13.1852
 70
192
 0
VERTEX
 8
ZYLINDER_1
 10
-15.1825
 20
-2.9554
 30
18.1935
 70
192
 0
VERTEX
 8
ZYLINDER_1
 10
-15.1825
 20
-2.9554
 30
18.1935
 70
192
 0
VERTEX
 8
ZYLINDER_1
 10
-15.148
 20
-2.4622
 30
13.1852
 70
192
 0
VERTEX
 8
ZYLINDER_1
 10
-15.148
 20
-2.4622
 30
13.1852
 70
192
 0
VERTEX
 8
ZYLINDER_1
 10
-15.148
 20
-2.4622
 30
18.1935
 70
192
 0
VERTEX
 8
ZYLINDER_1
 10
-15.148
 20
-2.4622
 30
18.1935
 70
192
 0
VERTEX
 8
ZYLINDER_1
 10
0
 20
0
 30
0
 70
128
 71
1
 72
3
 73
7
 74
7
 0
VERTEX
 8
ZYLINDER_1
 10
0
 20
0
 30
0
 70
128
 71
4
 72
5
 73
9
 74
8
 0
VERTEX
 8
ZYLINDER_1
 10
0
 20
0
 30
0
 70
128
 71
6
 72
2
 73
10
 74
10
 0
VERTEX
 8
ZYLINDER_1
 10
0
 20
0
 30
0
 70
128
 71
1
 72
7
 73
11
 74
11
 0
VERTEX
 8
ZYLINDER_1
 10
0
 20
0
 30
0
 70
128
 71
8
 72
9
 73
13
 74
12
 0
VERTEX
 8
ZYLINDER_1
 10
0
 20
0
 30
0
 70
128
 71
10
 72
2
 73
14
 74
14
 0
VERTEX
 8
ZYLINDER_1
 10
0
 20
0
 30
0
 70
128
 71
1
 72
11
 73
15
 74
15
 0
VERTEX
 8
ZYLINDER_1
 10
0
 20
0
 30
0
 70
128
 71
12
 72
13
 73
17
 74
16
 0
VERTEX
 8
ZYLINDER_1
 10
0
 20
0
 30
0
 70
128
 71
14
 72
2
 73
18
 74
18
 0
VERTEX
 8
ZYLINDER_1
 10
0
 20
0
 30
0
 70
128
 71
1
 72
15
 73
19
 74
19
 0
VERTEX
 8
ZYLINDER_1
 10
0
 20
0
 30
0
 70
128
 71
16
 72
17
 73
21
 74
20
 0
VERTEX
 8
ZYLINDER_1
 10
0
 20
0
 30
0
 70
128
 71
18
 72
2
 73
22
 74
22
 0
VERTEX
 8
ZYLINDER_1
 10
0
 20
0
 30
0
 70
128
 71
1
 72
19
 73
23
 74
23
 0
VERTEX
 8
ZYLINDER_1
 10
0
 20
0
 30
0
 70
128
 71
20
 72
21
 73
25
 74
24
 0
VERTEX
 8
ZYLINDER_1
 10
0
 20
0
 30
0
 70
128
 71
22
 72
2
 73
26
 74
26
 0
VERTEX
 8
ZYLINDER_1
 10
0
 20
0
 30
0
 70
128
 71
1
 72
23
 73
27
 74
27
 0
VERTEX
 8
ZYLINDER_1
 10
0
 20
0
 30
0
 70
128
 71
24
 72
25
 73
29
 74
28
 0
VERTEX
 8
ZYLINDER_1
 10
0
 20
0
 30
0
 70
128
 71
26
 72
2
 73
30
 74
30
 0
VERTEX
 8
ZYLINDER_1
 10
0
 20
0
 30
0
 70
128
 71
1
 72
27
 73
31
 74
31
 0
VERTEX
 8
ZYLINDER_1
 10
0
 20
0
 30
0
 70
128
 71
28
 72
29
 73
33
 74
32
 0
VERTEX
 8
ZYLINDER_1
 10
0
 20
0
 30
0
 70
128
 71
30
 72
2
 73
34
 74
34
 0
VERTEX
 8
ZYLINDER_1
 10
0
 20
0
 30
0
 70
128
 71
1
 72
31
 73
35
 74
35
 0
VERTEX
 8
ZYLINDER_1
 10
0
 20
0
 30
0
 70
128
 71
32
 72
33
 73
37
 74
36
 0
VERTEX
 8
ZYLINDER_1
 10
0
 20
0
 30
0
 70
128
 71
34
 72
2
 73
38
 74
38
 0
VERTEX
 8
ZYLINDER_1
 10
0
 20
0
 30
0
 70
128
 71
1
 72
35
 73
39
 74
39
 0
VERTEX
 8
ZYLINDER_1
 10
0
 20
0
 30
0
 70
128
 71
36
 72
37
 73
41
 74
40
 0
VERTEX
 8
ZYLINDER_1
 10
0
 20
0
 30
0
 70
128
 71
38
 72
2
 73
42
 74
42
 0
VERTEX
 8
ZYLINDER_1
 10
0
 20
0
 30
0
 70
128
 71
1
 72
39
 73
3
 74
3
 0
VERTEX
 8
ZYLINDER_1
 10
0
 20
0
 30
0
 70
128
 71
40
 72
41
 73
5
 74
4
 0
VERTEX
 8
ZYLINDER_1
 10
0
 20
0
 30
0
 70
128
 71
42
 72
2
 73
6
 74
6
 0
SEQEND
 0
ENDSEC
 0
EOF
